  0
SECTION
  2
HEADER
  9
$ACADVER
  1
AC1021
  9
$DWGCODEPAGE
  3
ANSI_1252
  9
$EXTMAX
 10
297.0
 20
210.0
 30
0.0
  9
$EXTMIN
 10
0.0
 20
0.0
 30
0.0
  9
$LIMMIN
 10
0.0
 20
0.0
  9
$LIMMAX
 10
297.0
 20
210.0
  9
$VIEWCTR
 10
148.5
 20
105.0
  9
$VIEWSIZE
 40
210.0
  9
$CLAYER
  8
0
  9
$LTSCALE
 40
16.335
  9
$CELTYPE
  6
BYLAYER
  9
$DIMSCALE
 40
1.0
  9
$DIMASZ
 40
3.0
  9
$DIMEXO
 40
0.5
  9
$DIMDLI
 40
11.286
  9
$DIMEXE
 40
1.5
  9
$DIMCEN
 40
2.673
  9
$DIMLFAC
 40
1.0
  9
$DIMBLK
  1
_FILLED
  9
$DIMALT
 70
0
  9
$DIMALTF
 40
0.0393700787
  9
$DIMTXT
 40
3.0
  9
$DIMTOL
 70
1
  9
$DIMLIM
 70
0
  9
$DIMTFAC
 40
1.0
  9
$DIMTP
 40
0.01
  9
$DIMTM
 40
0.01
  9
$DIMGAP
 40
0.625
  9
$DIMDSEP
 70
44
  9
$AUNITS
 70
0
  9
$PDMODE
 70
3
  9
$PDSIZE
 40
3.0
  9
$HANDSEED
  5
A34
  9
$TILEMODE
 70
1
  9
$MEASUREMENT
 70
1
  9
$INSUNITS
 70
4
  0
ENDSEC
  0
SECTION
  2
CLASSES
  0
CLASS
  1
ACDBDICTIONARYWDFLT
  2
AcDbDictionaryWithDefault
  3
AutoCAD 2000
 90
0
 91
1
280
0
281
0
  0
CLASS
  1
ACDBPLACEHOLDER
  2
AcDbPlaceHolder
  3
AutoCAD 2000
 90
0
 91
1
280
0
281
0
  0
CLASS
  1
LAYOUT
  2
AcDbLayout
  3
AutoCAD 2000
 90
0
 91
0
280
0
281
0
  0
ENDSEC
  0
SECTION
  2
TABLES
  0
TABLE
  2
VPORT
  5
8
100
AcDbSymbolTable
 70
2
  0
VPORT
  5
1F4
100
AcDbSymbolTableRecord
100
AcDbViewportTableRecord
  2
*ACTIVE
 70
0
 10
0.0
 20
0.0
 11
1.0
 21
1.0
 12
148.5
 22
105.0
 13
0.0
 23
0.0
 14
1.0
 24
1.0
 15
0.0
 25
0.0
 16
0.0
 26
0.0
 36
1.0
 17
0.0
 27
0.0
 37
0.0
 40
210.0
 41
1.4142857143
 42
50.0
 43
0.0
 44
0.0
 50
0.0
 51
0.0
 71
0
 72
100
 73
1
 74
1
 75
0
 76
0
 77
0
 78
0
  0
ENDTAB
  0
TABLE
  2
LTYPE
  5
5
100
AcDbSymbolTable
 70
6
  0
LTYPE
  5
14
100
AcDbSymbolTableRecord
100
AcDbLinetypeTableRecord
  2
BYBLOCK
 70
0
  3

 72
65
 73
0
 40
0.0
  0
LTYPE
  5
15
100
AcDbSymbolTableRecord
100
AcDbLinetypeTableRecord
  2
BYLAYER
 70
0
  3

 72
65
 73
0
 40
0.0
  0
LTYPE
  5
16
100
AcDbSymbolTableRecord
100
AcDbLinetypeTableRecord
  2
CONTINUOUS
 70
64
  3
Solid line
 72
65
 73
0
 40
0.0
  0
LTYPE
  5
1F5
100
AcDbSymbolTableRecord
100
AcDbLinetypeTableRecord
  2
CENTER
 70
64
  3
____ _ ____ _ ____ _ ____ _ ____ _ ____ _ ____
 72
65
 73
4
 40
0.6
 49
0.375
 74
0
 49
-0.075
 74
0
 49
0.075
 74
0
 49
-0.075
 74
0
  0
LTYPE
  5
1F6
100
AcDbSymbolTableRecord
100
AcDbLinetypeTableRecord
  2
HIDDEN
 70
64
  3
- - - - - - - - - - - - - - - - - - - -
 72
65
 73
2
 40
0.2
 49
0.1
 74
0
 49
-0.1
 74
0
  0
LTYPE
  5
1F7
100
AcDbSymbolTableRecord
100
AcDbLinetypeTableRecord
  2
PHANTOM
 70
64
  3
_____ _ _ _____ _ _ _____ _ _ _____
 72
65
 73
6
 40
0.8
 49
0.45
 74
0
 49
-0.05
 74
0
 49
0.1
 74
0
 49
-0.05
 74
0
 49
0.1
 74
0
 49
-0.05
 74
0
  0
LTYPE
  5
1F8
100
AcDbSymbolTableRecord
100
AcDbLinetypeTableRecord
  2
DOT
 70
64
  3
. . . . . . . . . . . . . . . . . . . .
 72
65
 73
2
 40
0.2
 49
0.1
 74
0
 49
-0.1
 74
0
  0
LTYPE
  5
1F9
100
AcDbSymbolTableRecord
100
AcDbLinetypeTableRecord
  2
DASHED
 70
64
  3
- - - - - - - - - - - - - - - - - - - -
 72
65
 73
2
 40
0.2
 49
0.1
 74
0
 49
-0.1
 74
0
  0
ENDTAB
  0
TABLE
  2
LAYER
  5
2
100
AcDbSymbolTable
 70
36
  0
LAYER
  5
10
100
AcDbSymbolTableRecord
100
AcDbLayerTableRecord
  2
0
 70
0
 62
7
  6
CONTINUOUS
370
-3
390
F
  0
LAYER
  5
1FA
100
AcDbSymbolTableRecord
100
AcDbLayerTableRecord
  2
DEFAULT_1
 70
0
 62
7
  6
CENTER
370
-3
390
F
  0
LAYER
  5
1FB
100
AcDbSymbolTableRecord
100
AcDbLayerTableRecord
  2
DEFAULT_2
 70
0
 62
7
  6
HIDDEN
370
-3
390
F
  0
LAYER
  5
1FC
100
AcDbSymbolTableRecord
100
AcDbLayerTableRecord
  2
DEFAULT_3
 70
0
 62
7
  6
PHANTOM
370
-3
390
F
  0
LAYER
  5
1FD
100
AcDbSymbolTableRecord
100
AcDbLayerTableRecord
  2
1615-LED-1-1-VIMAR_110000
 70
0
 62
7
  6
CONTINUOUS
370
-3
390
F
  0
LAYER
  5
1FE
100
AcDbSymbolTableRecord
100
AcDbLayerTableRecord
  2
200A_170000
 70
0
 62
7
  6
CONTINUOUS
370
-3
390
F
  0
LAYER
  5
1FF
100
AcDbSymbolTableRecord
100
AcDbLayerTableRecord
  2
2125-R1-RF-VIMAR_60000
 70
0
 62
7
  6
CONTINUOUS
370
-3
390
F
  0
LAYER
  5
200
100
AcDbSymbolTableRecord
100
AcDbLayerTableRecord
  2
2125-R1-RF-VIMAR_60000_1
 70
0
 62
7
  6
CONTINUOUS
370
-3
390
F
  0
LAYER
  5
201
100
AcDbSymbolTableRecord
100
AcDbLayerTableRecord
  2
2125-R1-RF-VIMAR_60000_2
 70
0
 62
7
  6
CONTINUOUS
370
-3
390
F
  0
LAYER
  5
202
100
AcDbSymbolTableRecord
100
AcDbLayerTableRecord
  2
2125-R1-RF-VIMAR_60000_3
 70
0
 62
7
  6
CONTINUOUS
370
-3
390
F
  0
LAYER
  5
203
100
AcDbSymbolTableRecord
100
AcDbLayerTableRecord
  2
2125-R1-RF-VIMAR_60000_4
 70
0
 62
7
  6
CONTINUOUS
370
-3
390
F
  0
LAYER
  5
204
100
AcDbSymbolTableRecord
100
AcDbLayerTableRecord
  2
2125-R1-RF-VIMAR_60000_5
 70
0
 62
7
  6
CONTINUOUS
370
-3
390
F
  0
LAYER
  5
205
100
AcDbSymbolTableRecord
100
AcDbLayerTableRecord
  2
3216-CF-RF-VIMAR_100000
 70
0
 62
7
  6
CONTINUOUS
370
-3
390
F
  0
LAYER
  5
206
100
AcDbSymbolTableRecord
100
AcDbLayerTableRecord
  2
3216-CF-RF-VIMAR_100000_1
 70
0
 62
7
  6
CONTINUOUS
370
-3
390
F
  0
LAYER
  5
207
100
AcDbSymbolTableRecord
100
AcDbLayerTableRecord
  2
3216-CF-RF-VIMAR_100000_2
 70
0
 62
7
  6
CONTINUOUS
370
-3
390
F
  0
LAYER
  5
208
100
AcDbSymbolTableRecord
100
AcDbLayerTableRecord
  2
3216-CF-RF-VIMAR_100000_3
 70
0
 62
7
  6
CONTINUOUS
370
-3
390
F
  0
LAYER
  5
209
100
AcDbSymbolTableRecord
100
AcDbLayerTableRecord
  2
43000460A0
 70
0
 62
7
  6
CONTINUOUS
370
-3
390
F
  0
LAYER
  5
20A
100
AcDbSymbolTableRecord
100
AcDbLayerTableRecord
  2
43000460A0_
 70
0
 62
7
  6
CONTINUOUS
370
-3
390
F
  0
LAYER
  5
20B
100
AcDbSymbolTableRecord
100
AcDbLayerTableRecord
  2
43000681A0
 70
0
 62
7
  6
CONTINUOUS
370
-3
390
F
  0
LAYER
  5
20C
100
AcDbSymbolTableRecord
100
AcDbLayerTableRecord
  2
43000682A0
 70
0
 62
7
  6
CONTINUOUS
370
-3
390
F
  0
LAYER
  5
20D
100
AcDbSymbolTableRecord
100
AcDbLayerTableRecord
  2
43000684A0
 70
0
 62
7
  6
CONTINUOUS
370
-3
390
F
  0
LAYER
  5
20E
100
AcDbSymbolTableRecord
100
AcDbLayerTableRecord
  2
43000685A0
 70
0
 62
7
  6
CONTINUOUS
370
-3
390
F
  0
LAYER
  5
20F
100
AcDbSymbolTableRecord
100
AcDbLayerTableRecord
  2
43900681A0
 70
0
 62
7
  6
CONTINUOUS
370
-3
390
F
  0
LAYER
  5
210
100
AcDbSymbolTableRecord
100
AcDbLayerTableRecord
  2
43900681A0_1
 70
0
 62
7
  6
CONTINUOUS
370
-3
390
F
  0
LAYER
  5
211
100
AcDbSymbolTableRecord
100
AcDbLayerTableRecord
  2
43900682A0
 70
0
 62
7
  6
CONTINUOUS
370
-3
390
F
  0
LAYER
  5
212
100
AcDbSymbolTableRecord
100
AcDbLayerTableRecord
  2
43900682A0_1
 70
0
 62
7
  6
CONTINUOUS
370
-3
390
F
  0
LAYER
  5
213
100
AcDbSymbolTableRecord
100
AcDbLayerTableRecord
  2
43900684A0
 70
0
 62
7
  6
CONTINUOUS
370
-3
390
F
  0
LAYER
  5
214
100
AcDbSymbolTableRecord
100
AcDbLayerTableRecord
  2
43900685A0
 70
0
 62
7
  6
CONTINUOUS
370
-3
390
F
  0
LAYER
  5
215
100
AcDbSymbolTableRecord
100
AcDbLayerTableRecord
  2
7343-CS3-RF_430000
 70
0
 62
7
  6
CONTINUOUS
370
-3
390
F
  0
LAYER
  5
216
100
AcDbSymbolTableRecord
100
AcDbLayerTableRecord
  2
7343-CS3-RF_430000_1
 70
0
 62
7
  6
CONTINUOUS
370
-3
390
F
  0
LAYER
  5
217
100
AcDbSymbolTableRecord
100
AcDbLayerTableRecord
  2
ASM0001
 70
0
 62
7
  6
CONTINUOUS
370
-3
390
F
  0
LAYER
  5
218
100
AcDbSymbolTableRecord
100
AcDbLayerTableRecord
  2
ASSI
 70
0
 62
7
  6
CONTINUOUS
370
-3
390
F
  0
LAYER
  5
219
100
AcDbSymbolTableRecord
100
AcDbLayerTableRecord
  2
CAPC1005X60N_60000
 70
0
 62
7
  6
CONTINUOUS
370
-3
390
F
  0
LAYER
  5
21A
100
AcDbSymbolTableRecord
100
AcDbLayerTableRecord
  2
CAPC1005X60N_60000_1
 70
0
 62
7
  6
CONTINUOUS
370
-3
390
F
  0
LAYER
  5
21B
100
AcDbSymbolTableRecord
100
AcDbLayerTableRecord
  2
CAPC1005X60N_60000_10
 70
0
 62
7
  6
CONTINUOUS
370
-3
390
F
  0
LAYER
  5
21C
100
AcDbSymbolTableRecord
100
AcDbLayerTableRecord
  2
CAPC1005X60N_60000_11
 70
0
 62
7
  6
CONTINUOUS
370
-3
390
F
  0
LAYER
  5
21D
100
AcDbSymbolTableRecord
100
AcDbLayerTableRecord
  2
CAPC1005X60N_60000_12
 70
0
 62
7
  6
CONTINUOUS
370
-3
390
F
  0
LAYER
  5
21E
100
AcDbSymbolTableRecord
100
AcDbLayerTableRecord
  2
CAPC1005X60N_60000_13
 70
0
 62
7
  6
CONTINUOUS
370
-3
390
F
  0
LAYER
  5
21F
100
AcDbSymbolTableRecord
100
AcDbLayerTableRecord
  2
CAPC1005X60N_60000_14
 70
0
 62
7
  6
CONTINUOUS
370
-3
390
F
  0
LAYER
  5
220
100
AcDbSymbolTableRecord
100
AcDbLayerTableRecord
  2
CAPC1005X60N_60000_15
 70
0
 62
7
  6
CONTINUOUS
370
-3
390
F
  0
LAYER
  5
221
100
AcDbSymbolTableRecord
100
AcDbLayerTableRecord
  2
CAPC1005X60N_60000_16
 70
0
 62
7
  6
CONTINUOUS
370
-3
390
F
  0
LAYER
  5
222
100
AcDbSymbolTableRecord
100
AcDbLayerTableRecord
  2
CAPC1005X60N_60000_17
 70
0
 62
7
  6
CONTINUOUS
370
-3
390
F
  0
LAYER
  5
223
100
AcDbSymbolTableRecord
100
AcDbLayerTableRecord
  2
CAPC1005X60N_60000_18
 70
0
 62
7
  6
CONTINUOUS
370
-3
390
F
  0
LAYER
  5
224
100
AcDbSymbolTableRecord
100
AcDbLayerTableRecord
  2
CAPC1005X60N_60000_19
 70
0
 62
7
  6
CONTINUOUS
370
-3
390
F
  0
LAYER
  5
225
100
AcDbSymbolTableRecord
100
AcDbLayerTableRecord
  2
CAPC1005X60N_60000_2
 70
0
 62
7
  6
CONTINUOUS
370
-3
390
F
  0
LAYER
  5
226
100
AcDbSymbolTableRecord
100
AcDbLayerTableRecord
  2
CAPC1005X60N_60000_20
 70
0
 62
7
  6
CONTINUOUS
370
-3
390
F
  0
LAYER
  5
227
100
AcDbSymbolTableRecord
100
AcDbLayerTableRecord
  2
CAPC1005X60N_60000_21
 70
0
 62
7
  6
CONTINUOUS
370
-3
390
F
  0
LAYER
  5
228
100
AcDbSymbolTableRecord
100
AcDbLayerTableRecord
  2
CAPC1005X60N_60000_3
 70
0
 62
7
  6
CONTINUOUS
370
-3
390
F
  0
LAYER
  5
229
100
AcDbSymbolTableRecord
100
AcDbLayerTableRecord
  2
CAPC1005X60N_60000_4
 70
0
 62
7
  6
CONTINUOUS
370
-3
390
F
  0
LAYER
  5
22A
100
AcDbSymbolTableRecord
100
AcDbLayerTableRecord
  2
CAPC1005X60N_60000_5
 70
0
 62
7
  6
CONTINUOUS
370
-3
390
F
  0
LAYER
  5
22B
100
AcDbSymbolTableRecord
100
AcDbLayerTableRecord
  2
CAPC1005X60N_60000_6
 70
0
 62
7
  6
CONTINUOUS
370
-3
390
F
  0
LAYER
  5
22C
100
AcDbSymbolTableRecord
100
AcDbLayerTableRecord
  2
CAPC1005X60N_60000_7
 70
0
 62
7
  6
CONTINUOUS
370
-3
390
F
  0
LAYER
  5
22D
100
AcDbSymbolTableRecord
100
AcDbLayerTableRecord
  2
CAPC1005X60N_60000_8
 70
0
 62
7
  6
CONTINUOUS
370
-3
390
F
  0
LAYER
  5
22E
100
AcDbSymbolTableRecord
100
AcDbLayerTableRecord
  2
CAPC1005X60N_60000_9
 70
0
 62
7
  6
CONTINUOUS
370
-3
390
F
  0
LAYER
  5
22F
100
AcDbSymbolTableRecord
100
AcDbLayerTableRecord
  2
CAPC1608N_80000
 70
0
 62
7
  6
CONTINUOUS
370
-3
390
F
  0
LAYER
  5
230
100
AcDbSymbolTableRecord
100
AcDbLayerTableRecord
  2
CAPC1608N_80000_1
 70
0
 62
7
  6
CONTINUOUS
370
-3
390
F
  0
LAYER
  5
231
100
AcDbSymbolTableRecord
100
AcDbLayerTableRecord
  2
CAPC1608N_80000_2
 70
0
 62
7
  6
CONTINUOUS
370
-3
390
F
  0
LAYER
  5
232
100
AcDbSymbolTableRecord
100
AcDbLayerTableRecord
  2
CAPC1608N_80000_3
 70
0
 62
7
  6
CONTINUOUS
370
-3
390
F
  0
LAYER
  5
233
100
AcDbSymbolTableRecord
100
AcDbLayerTableRecord
  2
CAPC1608N_80000_4
 70
0
 62
7
  6
CONTINUOUS
370
-3
390
F
  0
LAYER
  5
234
100
AcDbSymbolTableRecord
100
AcDbLayerTableRecord
  2
CAPC1608N_80000_5
 70
0
 62
7
  6
CONTINUOUS
370
-3
390
F
  0
LAYER
  5
235
100
AcDbSymbolTableRecord
100
AcDbLayerTableRecord
  2
CAPC1608N_80000_6
 70
0
 62
7
  6
CONTINUOUS
370
-3
390
F
  0
LAYER
  5
236
100
AcDbSymbolTableRecord
100
AcDbLayerTableRecord
  2
CAPC1608N_80000_7
 70
0
 62
7
  6
CONTINUOUS
370
-3
390
F
  0
LAYER
  5
237
100
AcDbSymbolTableRecord
100
AcDbLayerTableRecord
  2
CAPC1608N_80000_8
 70
0
 62
7
  6
CONTINUOUS
370
-3
390
F
  0
LAYER
  5
238
100
AcDbSymbolTableRecord
100
AcDbLayerTableRecord
  2
CC-20MILS-VIMAR_1000
 70
0
 62
7
  6
CONTINUOUS
370
-3
390
F
  0
LAYER
  5
239
100
AcDbSymbolTableRecord
100
AcDbLayerTableRecord
  2
CN-MSB02001-VIMAR_1000000
 70
0
 62
7
  6
CONTINUOUS
370
-3
390
F
  0
LAYER
  5
23A
100
AcDbSymbolTableRecord
100
AcDbLayerTableRecord
  2
CN-MSB02001-VIMAR_1000000_1
 70
0
 62
7
  6
CONTINUOUS
370
-3
390
F
  0
LAYER
  5
23B
100
AcDbSymbolTableRecord
100
AcDbLayerTableRecord
  2
CN-MSB02001-VIMAR_1000000_2
 70
0
 62
7
  6
CONTINUOUS
370
-3
390
F
  0
LAYER
  5
23C
100
AcDbSymbolTableRecord
100
AcDbLayerTableRecord
  2
CN07-CRIMPWIRES-RIGHT-PIH-P2_1_
 70
0
 62
7
  6
CONTINUOUS
370
-3
390
F
  0
LAYER
  5
23D
100
AcDbSymbolTableRecord
100
AcDbLayerTableRecord
  2
CN1-REF_SQUAREHOLE12_SPEA-VIMAR
 70
0
 62
7
  6
CONTINUOUS
370
-3
390
F
  0
LAYER
  5
23E
100
AcDbSymbolTableRecord
100
AcDbLayerTableRecord
  2
CN1-REF_SQUAREHOLE12_SPEA-VIM_1
 70
0
 62
7
  6
CONTINUOUS
370
-3
390
F
  0
LAYER
  5
23F
100
AcDbSymbolTableRecord
100
AcDbLayerTableRecord
  2
CN1-REF_SQUAREHOLE12_SPEA-VIM_2
 70
0
 62
7
  6
CONTINUOUS
370
-3
390
F
  0
LAYER
  5
240
100
AcDbSymbolTableRecord
100
AcDbLayerTableRecord
  2
CN1-REF_SQUAREHOLE12_SPEA-VIM_3
 70
0
 62
7
  6
CONTINUOUS
370
-3
390
F
  0
LAYER
  5
241
100
AcDbSymbolTableRecord
100
AcDbLayerTableRecord
  2
CN1-REF_SQUAREHOLE12_SPEA-VIM_4
 70
0
 62
7
  6
CONTINUOUS
370
-3
390
F
  0
LAYER
  5
242
100
AcDbSymbolTableRecord
100
AcDbLayerTableRecord
  2
CN1-REF_SQUAREHOLE12_SPEA-VIM_5
 70
0
 62
7
  6
CONTINUOUS
370
-3
390
F
  0
LAYER
  5
243
100
AcDbSymbolTableRecord
100
AcDbLayerTableRecord
  2
CN1-TP10_SMD-VIMAR_01_10000
 70
0
 62
7
  6
CONTINUOUS
370
-3
390
F
  0
LAYER
  5
244
100
AcDbSymbolTableRecord
100
AcDbLayerTableRecord
  2
CN1-TP10_SMD-VIMAR_01_10000_1
 70
0
 62
7
  6
CONTINUOUS
370
-3
390
F
  0
LAYER
  5
245
100
AcDbSymbolTableRecord
100
AcDbLayerTableRecord
  2
CN1-TP10_SMD-VIMAR_01_10000_2
 70
0
 62
7
  6
CONTINUOUS
370
-3
390
F
  0
LAYER
  5
246
100
AcDbSymbolTableRecord
100
AcDbLayerTableRecord
  2
CN1-TP10_SMD-VIMAR_01_10000_3
 70
0
 62
7
  6
CONTINUOUS
370
-3
390
F
  0
LAYER
  5
247
100
AcDbSymbolTableRecord
100
AcDbLayerTableRecord
  2
CN1-TP10_SMD-VIMAR_01_10000_4
 70
0
 62
7
  6
CONTINUOUS
370
-3
390
F
  0
LAYER
  5
248
100
AcDbSymbolTableRecord
100
AcDbLayerTableRecord
  2
CN1-TP10_SMD-VIMAR_01_10000_5
 70
0
 62
7
  6
CONTINUOUS
370
-3
390
F
  0
LAYER
  5
249
100
AcDbSymbolTableRecord
100
AcDbLayerTableRecord
  2
CN1-TP10_SMD-VIMAR_10000
 70
0
 62
7
  6
CONTINUOUS
370
-3
390
F
  0
LAYER
  5
24A
100
AcDbSymbolTableRecord
100
AcDbLayerTableRecord
  2
CN1-TP10_SMD-VIMAR_10000_1
 70
0
 62
7
  6
CONTINUOUS
370
-3
390
F
  0
LAYER
  5
24B
100
AcDbSymbolTableRecord
100
AcDbLayerTableRecord
  2
CN1-TP10_SMD-VIMAR_10000_2
 70
0
 62
7
  6
CONTINUOUS
370
-3
390
F
  0
LAYER
  5
24C
100
AcDbSymbolTableRecord
100
AcDbLayerTableRecord
  2
CN1-TP10_SMD-VIMAR_10000_3
 70
0
 62
7
  6
CONTINUOUS
370
-3
390
F
  0
LAYER
  5
24D
100
AcDbSymbolTableRecord
100
AcDbLayerTableRecord
  2
CN_MKDSN1_5_2_1000000
 70
0
 62
7
  6
CONTINUOUS
370
-3
390
F
  0
LAYER
  5
24E
100
AcDbSymbolTableRecord
100
AcDbLayerTableRecord
  2
CN_MKDSN1_5_3_1000000
 70
0
 62
7
  6
CONTINUOUS
370
-3
390
F
  0
LAYER
  5
24F
100
AcDbSymbolTableRecord
100
AcDbLayerTableRecord
  2
CN_SAURO_MTB_R1_P7_850000
 70
0
 62
7
  6
CONTINUOUS
370
-3
390
F
  0
LAYER
  5
250
100
AcDbSymbolTableRecord
100
AcDbLayerTableRecord
  2
COLOR12
 70
0
 62
7
  6
CONTINUOUS
370
-3
390
F
  0
LAYER
  5
251
100
AcDbSymbolTableRecord
100
AcDbLayerTableRecord
  2
COLOR13
 70
0
 62
7
  6
CONTINUOUS
370
-3
390
F
  0
LAYER
  5
252
100
AcDbSymbolTableRecord
100
AcDbLayerTableRecord
  2
COLOR17
 70
0
 62
7
  6
CONTINUOUS
370
-3
390
F
  0
LAYER
  5
253
100
AcDbSymbolTableRecord
100
AcDbLayerTableRecord
  2
COLOR19
 70
0
 62
7
  6
CONTINUOUS
370
-3
390
F
  0
LAYER
  5
254
100
AcDbSymbolTableRecord
100
AcDbLayerTableRecord
  2
COLOR20
 70
0
 62
7
  6
CONTINUOUS
370
-3
390
F
  0
LAYER
  5
255
100
AcDbSymbolTableRecord
100
AcDbLayerTableRecord
  2
COLOR21
 70
0
 62
7
  6
CONTINUOUS
370
-3
390
F
  0
LAYER
  5
256
100
AcDbSymbolTableRecord
100
AcDbLayerTableRecord
  2
COLOR24
 70
0
 62
7
  6
CONTINUOUS
370
-3
390
F
  0
LAYER
  5
257
100
AcDbSymbolTableRecord
100
AcDbLayerTableRecord
  2
COLOR27
 70
0
 62
7
  6
CONTINUOUS
370
-3
390
F
  0
LAYER
  5
258
100
AcDbSymbolTableRecord
100
AcDbLayerTableRecord
  2
COLOR31
 70
0
 62
7
  6
CONTINUOUS
370
-3
390
F
  0
LAYER
  5
259
100
AcDbSymbolTableRecord
100
AcDbLayerTableRecord
  2
COLOR5
 70
0
 62
7
  6
CONTINUOUS
370
-3
390
F
  0
LAYER
  5
25A
100
AcDbSymbolTableRecord
100
AcDbLayerTableRecord
  2
COLOR6
 70
0
 62
7
  6
CONTINUOUS
370
-3
390
F
  0
LAYER
  5
25B
100
AcDbSymbolTableRecord
100
AcDbLayerTableRecord
  2
COLOR7
 70
0
 62
7
  6
CONTINUOUS
370
-3
390
F
  0
LAYER
  5
25C
100
AcDbSymbolTableRecord
100
AcDbLayerTableRecord
  2
COLOR8
 70
0
 62
7
  6
CONTINUOUS
370
-3
390
F
  0
LAYER
  5
25D
100
AcDbSymbolTableRecord
100
AcDbLayerTableRecord
  2
COORDINATE
 70
0
 62
7
  6
CONTINUOUS
370
-3
390
F
  0
LAYER
  5
25E
100
AcDbSymbolTableRecord
100
AcDbLayerTableRecord
  2
COPY_PUBLISH
 70
0
 62
7
  6
CONTINUOUS
370
-3
390
F
  0
LAYER
  5
25F
100
AcDbSymbolTableRecord
100
AcDbLayerTableRecord
  2
COSMETIC
 70
0
 62
7
  6
CONTINUOUS
370
-3
390
F
  0
LAYER
  5
260
100
AcDbSymbolTableRecord
100
AcDbLayerTableRecord
  2
COSMETICI
 70
0
 62
7
  6
CONTINUOUS
370
-3
390
F
  0
LAYER
  5
261
100
AcDbSymbolTableRecord
100
AcDbLayerTableRecord
  2
CP-CE6-RF_820000
 70
0
 62
7
  6
CONTINUOUS
370
-3
390
F
  0
LAYER
  5
262
100
AcDbSymbolTableRecord
100
AcDbLayerTableRecord
  2
CP-DO-214AC-VIMAR_240000
 70
0
 62
7
  6
CONTINUOUS
370
-3
390
F
  0
LAYER
  5
263
100
AcDbSymbolTableRecord
100
AcDbLayerTableRecord
  2
CURVE
 70
0
 62
7
  6
CONTINUOUS
370
-3
390
F
  0
LAYER
  5
264
100
AcDbSymbolTableRecord
100
AcDbLayerTableRecord
  2
DL_1X0_5X0_6MM_60000
 70
0
 62
7
  6
CONTINUOUS
370
-3
390
F
  0
LAYER
  5
265
100
AcDbSymbolTableRecord
100
AcDbLayerTableRecord
  2
DL_1X0_5X0_6MM_60000_1
 70
0
 62
7
  6
CONTINUOUS
370
-3
390
F
  0
LAYER
  5
266
100
AcDbSymbolTableRecord
100
AcDbLayerTableRecord
  2
DL_1X0_5X0_6MM_60000_2
 70
0
 62
7
  6
CONTINUOUS
370
-3
390
F
  0
LAYER
  5
267
100
AcDbSymbolTableRecord
100
AcDbLayerTableRecord
  2
DRAFT
 70
0
 62
7
  6
CONTINUOUS
370
-3
390
F
  0
LAYER
  5
268
100
AcDbSymbolTableRecord
100
AcDbLayerTableRecord
  2
E2_MARK_10000
 70
0
 62
7
  6
CONTINUOUS
370
-3
390
F
  0
LAYER
  5
269
100
AcDbSymbolTableRecord
100
AcDbLayerTableRecord
  2
E4_MARK_10000
 70
0
 62
7
  6
CONTINUOUS
370
-3
390
F
  0
LAYER
  5
26A
100
AcDbSymbolTableRecord
100
AcDbLayerTableRecord
  2
IMPORT_IGES
 70
0
 62
7
  6
CONTINUOUS
370
-3
390
F
  0
LAYER
  5
26B
100
AcDbSymbolTableRecord
100
AcDbLayerTableRecord
  2
INDC1005X55N_55000
 70
0
 62
7
  6
CONTINUOUS
370
-3
390
F
  0
LAYER
  5
26C
100
AcDbSymbolTableRecord
100
AcDbLayerTableRecord
  2
INTF_1
 70
0
 62
7
  6
CONTINUOUS
370
-3
390
F
  0
LAYER
  5
26D
100
AcDbSymbolTableRecord
100
AcDbLayerTableRecord
  2
INTF_BLUE
 70
0
 62
7
  6
CONTINUOUS
370
-3
390
F
  0
LAYER
  5
26E
100
AcDbSymbolTableRecord
100
AcDbLayerTableRecord
  2
LAYER_126
 70
0
 62
7
  6
CONTINUOUS
370
-3
390
F
  0
LAYER
  5
26F
100
AcDbSymbolTableRecord
100
AcDbLayerTableRecord
  2
LAYER_22
 70
0
 62
7
  6
CONTINUOUS
370
-3
390
F
  0
LAYER
  5
270
100
AcDbSymbolTableRecord
100
AcDbLayerTableRecord
  2
LAYER_34
 70
0
 62
7
  6
CONTINUOUS
370
-3
390
F
  0
LAYER
  5
271
100
AcDbSymbolTableRecord
100
AcDbLayerTableRecord
  2
LAYER_44
 70
0
 62
7
  6
CONTINUOUS
370
-3
390
F
  0
LAYER
  5
272
100
AcDbSymbolTableRecord
100
AcDbLayerTableRecord
  2
LAYER_802
 70
0
 62
7
  6
CONTINUOUS
370
-3
390
F
  0
LAYER
  5
273
100
AcDbSymbolTableRecord
100
AcDbLayerTableRecord
  2
LOGO_RESIST-RESTYLING_10000
 70
0
 62
7
  6
CONTINUOUS
370
-3
390
F
  0
LAYER
  5
274
100
AcDbSymbolTableRecord
100
AcDbLayerTableRecord
  2
LOGO_RESIST-RESTYLING_10000_1
 70
0
 62
7
  6
CONTINUOUS
370
-3
390
F
  0
LAYER
  5
275
100
AcDbSymbolTableRecord
100
AcDbLayerTableRecord
  2
L_SRR0604-RF-VIMAR_480000
 70
0
 62
7
  6
CONTINUOUS
370
-3
390
F
  0
LAYER
  5
276
100
AcDbSymbolTableRecord
100
AcDbLayerTableRecord
  2
L_SRR0604-RF-VIMAR_480000_1
 70
0
 62
7
  6
CONTINUOUS
370
-3
390
F
  0
LAYER
  5
277
100
AcDbSymbolTableRecord
100
AcDbLayerTableRecord
  2
L_SRR0604-RF-VIMAR_480000_10
 70
0
 62
7
  6
CONTINUOUS
370
-3
390
F
  0
LAYER
  5
278
100
AcDbSymbolTableRecord
100
AcDbLayerTableRecord
  2
L_SRR0604-RF-VIMAR_480000_11
 70
0
 62
7
  6
CONTINUOUS
370
-3
390
F
  0
LAYER
  5
279
100
AcDbSymbolTableRecord
100
AcDbLayerTableRecord
  2
L_SRR0604-RF-VIMAR_480000_2
 70
0
 62
7
  6
CONTINUOUS
370
-3
390
F
  0
LAYER
  5
27A
100
AcDbSymbolTableRecord
100
AcDbLayerTableRecord
  2
L_SRR0604-RF-VIMAR_480000_3
 70
0
 62
7
  6
CONTINUOUS
370
-3
390
F
  0
LAYER
  5
27B
100
AcDbSymbolTableRecord
100
AcDbLayerTableRecord
  2
L_SRR0604-RF-VIMAR_480000_4
 70
0
 62
7
  6
CONTINUOUS
370
-3
390
F
  0
LAYER
  5
27C
100
AcDbSymbolTableRecord
100
AcDbLayerTableRecord
  2
L_SRR0604-RF-VIMAR_480000_5
 70
0
 62
7
  6
CONTINUOUS
370
-3
390
F
  0
LAYER
  5
27D
100
AcDbSymbolTableRecord
100
AcDbLayerTableRecord
  2
L_SRR0604-RF-VIMAR_480000_6
 70
0
 62
7
  6
CONTINUOUS
370
-3
390
F
  0
LAYER
  5
27E
100
AcDbSymbolTableRecord
100
AcDbLayerTableRecord
  2
L_SRR0604-RF-VIMAR_480000_7
 70
0
 62
7
  6
CONTINUOUS
370
-3
390
F
  0
LAYER
  5
27F
100
AcDbSymbolTableRecord
100
AcDbLayerTableRecord
  2
L_SRR0604-RF-VIMAR_480000_8
 70
0
 62
7
  6
CONTINUOUS
370
-3
390
F
  0
LAYER
  5
280
100
AcDbSymbolTableRecord
100
AcDbLayerTableRecord
  2
L_SRR0604-RF-VIMAR_480000_9
 70
0
 62
7
  6
CONTINUOUS
370
-3
390
F
  0
LAYER
  5
281
100
AcDbSymbolTableRecord
100
AcDbLayerTableRecord
  2
MM3-MPAK-RF-VIMAR_120000
 70
0
 62
7
  6
CONTINUOUS
370
-3
390
F
  0
LAYER
  5
282
100
AcDbSymbolTableRecord
100
AcDbLayerTableRecord
  2
MM3-SOT323-RF-VIMAR_100000
 70
0
 62
7
  6
CONTINUOUS
370
-3
390
F
  0
LAYER
  5
283
100
AcDbSymbolTableRecord
100
AcDbLayerTableRecord
  2
MM3-SOT323-RF-VIMAR_100000_1
 70
0
 62
7
  6
CONTINUOUS
370
-3
390
F
  0
LAYER
  5
284
100
AcDbSymbolTableRecord
100
AcDbLayerTableRecord
  2
MM3-SOT323-RF-VIMAR_100000_2
 70
0
 62
7
  6
CONTINUOUS
370
-3
390
F
  0
LAYER
  5
285
100
AcDbSymbolTableRecord
100
AcDbLayerTableRecord
  2
MM3-SOT323-RF-VIMAR_100000_3
 70
0
 62
7
  6
CONTINUOUS
370
-3
390
F
  0
LAYER
  5
286
100
AcDbSymbolTableRecord
100
AcDbLayerTableRecord
  2
MM3-SOT323-RF-VIMAR_100000_4
 70
0
 62
7
  6
CONTINUOUS
370
-3
390
F
  0
LAYER
  5
287
100
AcDbSymbolTableRecord
100
AcDbLayerTableRecord
  2
MM3-SOT323-RF-VIMAR_100000_5
 70
0
 62
7
  6
CONTINUOUS
370
-3
390
F
  0
LAYER
  5
288
100
AcDbSymbolTableRecord
100
AcDbLayerTableRecord
  2
MM4-X-3-VIMAR_130000
 70
0
 62
7
  6
CONTINUOUS
370
-3
390
F
  0
LAYER
  5
289
100
AcDbSymbolTableRecord
100
AcDbLayerTableRecord
  2
MM5-FMT-RF_120000
 70
0
 62
7
  6
CONTINUOUS
370
-3
390
F
  0
LAYER
  5
28A
100
AcDbSymbolTableRecord
100
AcDbLayerTableRecord
  2
MM5-FMT-RF_120000_1
 70
0
 62
7
  6
CONTINUOUS
370
-3
390
F
  0
LAYER
  5
28B
100
AcDbSymbolTableRecord
100
AcDbLayerTableRecord
  2
MM5-FMT-RF_120000_2
 70
0
 62
7
  6
CONTINUOUS
370
-3
390
F
  0
LAYER
  5
28C
100
AcDbSymbolTableRecord
100
AcDbLayerTableRecord
  2
MM5-FMT-RF_120000_3
 70
0
 62
7
  6
CONTINUOUS
370
-3
390
F
  0
LAYER
  5
28D
100
AcDbSymbolTableRecord
100
AcDbLayerTableRecord
  2
MM6-SC70-1-VIMAR_110000
 70
0
 62
7
  6
CONTINUOUS
370
-3
390
F
  0
LAYER
  5
28E
100
AcDbSymbolTableRecord
100
AcDbLayerTableRecord
  2
MM6-SC70-1-VIMAR_110000_1
 70
0
 62
7
  6
CONTINUOUS
370
-3
390
F
  0
LAYER
  5
28F
100
AcDbSymbolTableRecord
100
AcDbLayerTableRecord
  2
MM6-SC70-1-VIMAR_110000_2
 70
0
 62
7
  6
CONTINUOUS
370
-3
390
F
  0
LAYER
  5
290
100
AcDbSymbolTableRecord
100
AcDbLayerTableRecord
  2
MM6-SC70-1-VIMAR_110000_3
 70
0
 62
7
  6
CONTINUOUS
370
-3
390
F
  0
LAYER
  5
291
100
AcDbSymbolTableRecord
100
AcDbLayerTableRecord
  2
MM6-SC70-1-VIMAR_110000_4
 70
0
 62
7
  6
CONTINUOUS
370
-3
390
F
  0
LAYER
  5
292
100
AcDbSymbolTableRecord
100
AcDbLayerTableRecord
  2
MM6-SC70-1-VIMAR_110000_5
 70
0
 62
7
  6
CONTINUOUS
370
-3
390
F
  0
LAYER
  5
293
100
AcDbSymbolTableRecord
100
AcDbLayerTableRecord
  2
MM6-SC70-1-VIMAR_110000_6
 70
0
 62
7
  6
CONTINUOUS
370
-3
390
F
  0
LAYER
  5
294
100
AcDbSymbolTableRecord
100
AcDbLayerTableRecord
  2
MM6-SC70-1-VIMAR_110000_7
 70
0
 62
7
  6
CONTINUOUS
370
-3
390
F
  0
LAYER
  5
295
100
AcDbSymbolTableRecord
100
AcDbLayerTableRecord
  2
MM6-SC70-1-VIMAR_110000_8
 70
0
 62
7
  6
CONTINUOUS
370
-3
390
F
  0
LAYER
  5
296
100
AcDbSymbolTableRecord
100
AcDbLayerTableRecord
  2
MM6-SC70-1-VIMAR_110000_9
 70
0
 62
7
  6
CONTINUOUS
370
-3
390
F
  0
LAYER
  5
297
100
AcDbSymbolTableRecord
100
AcDbLayerTableRecord
  2
NO-PB_MARK_10000
 70
0
 62
7
  6
CONTINUOUS
370
-3
390
F
  0
LAYER
  5
298
100
AcDbSymbolTableRecord
100
AcDbLayerTableRecord
  2
NO-PB_MARK_10000_1
 70
0
 62
7
  6
CONTINUOUS
370
-3
390
F
  0
LAYER
  5
299
100
AcDbSymbolTableRecord
100
AcDbLayerTableRecord
  2
NONE
 70
0
 62
7
  6
CONTINUOUS
370
-3
390
F
  0
LAYER
  5
29A
100
AcDbSymbolTableRecord
100
AcDbLayerTableRecord
  2
NONE_1
 70
0
 62
7
  6
CONTINUOUS
370
-3
390
F
  0
LAYER
  5
29B
100
AcDbSymbolTableRecord
100
AcDbLayerTableRecord
  2
NONE_2
 70
0
 62
7
  6
CONTINUOUS
370
-3
390
F
  0
LAYER
  5
29C
100
AcDbSymbolTableRecord
100
AcDbLayerTableRecord
  2
NOTE
 70
0
 62
7
  6
CONTINUOUS
370
-3
390
F
  0
LAYER
  5
29D
100
AcDbSymbolTableRecord
100
AcDbLayerTableRecord
  2
PIANI
 70
0
 62
7
  6
CONTINUOUS
370
-3
390
F
  0
LAYER
  5
29E
100
AcDbSymbolTableRecord
100
AcDbLayerTableRecord
  2
PIANI_RIFERIMENTO
 70
0
 62
7
  6
CONTINUOUS
370
-3
390
F
  0
LAYER
  5
29F
100
AcDbSymbolTableRecord
100
AcDbLayerTableRecord
  2
PUNTI
 70
0
 62
7
  6
CONTINUOUS
370
-3
390
F
  0
LAYER
  5
2A0
100
AcDbSymbolTableRecord
100
AcDbLayerTableRecord
  2
RACCORDO
 70
0
 62
7
  6
CONTINUOUS
370
-3
390
F
  0
LAYER
  5
2A1
100
AcDbSymbolTableRecord
100
AcDbLayerTableRecord
  2
RESC1005X40N_50000
 70
0
 62
7
  6
CONTINUOUS
370
-3
390
F
  0
LAYER
  5
2A2
100
AcDbSymbolTableRecord
100
AcDbLayerTableRecord
  2
RESC1005X40N_50000_1
 70
0
 62
7
  6
CONTINUOUS
370
-3
390
F
  0
LAYER
  5
2A3
100
AcDbSymbolTableRecord
100
AcDbLayerTableRecord
  2
RESC1005X40N_50000_10
 70
0
 62
7
  6
CONTINUOUS
370
-3
390
F
  0
LAYER
  5
2A4
100
AcDbSymbolTableRecord
100
AcDbLayerTableRecord
  2
RESC1005X40N_50000_11
 70
0
 62
7
  6
CONTINUOUS
370
-3
390
F
  0
LAYER
  5
2A5
100
AcDbSymbolTableRecord
100
AcDbLayerTableRecord
  2
RESC1005X40N_50000_12
 70
0
 62
7
  6
CONTINUOUS
370
-3
390
F
  0
LAYER
  5
2A6
100
AcDbSymbolTableRecord
100
AcDbLayerTableRecord
  2
RESC1005X40N_50000_13
 70
0
 62
7
  6
CONTINUOUS
370
-3
390
F
  0
LAYER
  5
2A7
100
AcDbSymbolTableRecord
100
AcDbLayerTableRecord
  2
RESC1005X40N_50000_14
 70
0
 62
7
  6
CONTINUOUS
370
-3
390
F
  0
LAYER
  5
2A8
100
AcDbSymbolTableRecord
100
AcDbLayerTableRecord
  2
RESC1005X40N_50000_15
 70
0
 62
7
  6
CONTINUOUS
370
-3
390
F
  0
LAYER
  5
2A9
100
AcDbSymbolTableRecord
100
AcDbLayerTableRecord
  2
RESC1005X40N_50000_16
 70
0
 62
7
  6
CONTINUOUS
370
-3
390
F
  0
LAYER
  5
2AA
100
AcDbSymbolTableRecord
100
AcDbLayerTableRecord
  2
RESC1005X40N_50000_17
 70
0
 62
7
  6
CONTINUOUS
370
-3
390
F
  0
LAYER
  5
2AB
100
AcDbSymbolTableRecord
100
AcDbLayerTableRecord
  2
RESC1005X40N_50000_18
 70
0
 62
7
  6
CONTINUOUS
370
-3
390
F
  0
LAYER
  5
2AC
100
AcDbSymbolTableRecord
100
AcDbLayerTableRecord
  2
RESC1005X40N_50000_19
 70
0
 62
7
  6
CONTINUOUS
370
-3
390
F
  0
LAYER
  5
2AD
100
AcDbSymbolTableRecord
100
AcDbLayerTableRecord
  2
RESC1005X40N_50000_2
 70
0
 62
7
  6
CONTINUOUS
370
-3
390
F
  0
LAYER
  5
2AE
100
AcDbSymbolTableRecord
100
AcDbLayerTableRecord
  2
RESC1005X40N_50000_20
 70
0
 62
7
  6
CONTINUOUS
370
-3
390
F
  0
LAYER
  5
2AF
100
AcDbSymbolTableRecord
100
AcDbLayerTableRecord
  2
RESC1005X40N_50000_21
 70
0
 62
7
  6
CONTINUOUS
370
-3
390
F
  0
LAYER
  5
2B0
100
AcDbSymbolTableRecord
100
AcDbLayerTableRecord
  2
RESC1005X40N_50000_22
 70
0
 62
7
  6
CONTINUOUS
370
-3
390
F
  0
LAYER
  5
2B1
100
AcDbSymbolTableRecord
100
AcDbLayerTableRecord
  2
RESC1005X40N_50000_23
 70
0
 62
7
  6
CONTINUOUS
370
-3
390
F
  0
LAYER
  5
2B2
100
AcDbSymbolTableRecord
100
AcDbLayerTableRecord
  2
RESC1005X40N_50000_24
 70
0
 62
7
  6
CONTINUOUS
370
-3
390
F
  0
LAYER
  5
2B3
100
AcDbSymbolTableRecord
100
AcDbLayerTableRecord
  2
RESC1005X40N_50000_25
 70
0
 62
7
  6
CONTINUOUS
370
-3
390
F
  0
LAYER
  5
2B4
100
AcDbSymbolTableRecord
100
AcDbLayerTableRecord
  2
RESC1005X40N_50000_26
 70
0
 62
7
  6
CONTINUOUS
370
-3
390
F
  0
LAYER
  5
2B5
100
AcDbSymbolTableRecord
100
AcDbLayerTableRecord
  2
RESC1005X40N_50000_27
 70
0
 62
7
  6
CONTINUOUS
370
-3
390
F
  0
LAYER
  5
2B6
100
AcDbSymbolTableRecord
100
AcDbLayerTableRecord
  2
RESC1005X40N_50000_28
 70
0
 62
7
  6
CONTINUOUS
370
-3
390
F
  0
LAYER
  5
2B7
100
AcDbSymbolTableRecord
100
AcDbLayerTableRecord
  2
RESC1005X40N_50000_29
 70
0
 62
7
  6
CONTINUOUS
370
-3
390
F
  0
LAYER
  5
2B8
100
AcDbSymbolTableRecord
100
AcDbLayerTableRecord
  2
RESC1005X40N_50000_3
 70
0
 62
7
  6
CONTINUOUS
370
-3
390
F
  0
LAYER
  5
2B9
100
AcDbSymbolTableRecord
100
AcDbLayerTableRecord
  2
RESC1005X40N_50000_30
 70
0
 62
7
  6
CONTINUOUS
370
-3
390
F
  0
LAYER
  5
2BA
100
AcDbSymbolTableRecord
100
AcDbLayerTableRecord
  2
RESC1005X40N_50000_31
 70
0
 62
7
  6
CONTINUOUS
370
-3
390
F
  0
LAYER
  5
2BB
100
AcDbSymbolTableRecord
100
AcDbLayerTableRecord
  2
RESC1005X40N_50000_32
 70
0
 62
7
  6
CONTINUOUS
370
-3
390
F
  0
LAYER
  5
2BC
100
AcDbSymbolTableRecord
100
AcDbLayerTableRecord
  2
RESC1005X40N_50000_33
 70
0
 62
7
  6
CONTINUOUS
370
-3
390
F
  0
LAYER
  5
2BD
100
AcDbSymbolTableRecord
100
AcDbLayerTableRecord
  2
RESC1005X40N_50000_34
 70
0
 62
7
  6
CONTINUOUS
370
-3
390
F
  0
LAYER
  5
2BE
100
AcDbSymbolTableRecord
100
AcDbLayerTableRecord
  2
RESC1005X40N_50000_35
 70
0
 62
7
  6
CONTINUOUS
370
-3
390
F
  0
LAYER
  5
2BF
100
AcDbSymbolTableRecord
100
AcDbLayerTableRecord
  2
RESC1005X40N_50000_36
 70
0
 62
7
  6
CONTINUOUS
370
-3
390
F
  0
LAYER
  5
2C0
100
AcDbSymbolTableRecord
100
AcDbLayerTableRecord
  2
RESC1005X40N_50000_37
 70
0
 62
7
  6
CONTINUOUS
370
-3
390
F
  0
LAYER
  5
2C1
100
AcDbSymbolTableRecord
100
AcDbLayerTableRecord
  2
RESC1005X40N_50000_38
 70
0
 62
7
  6
CONTINUOUS
370
-3
390
F
  0
LAYER
  5
2C2
100
AcDbSymbolTableRecord
100
AcDbLayerTableRecord
  2
RESC1005X40N_50000_39
 70
0
 62
7
  6
CONTINUOUS
370
-3
390
F
  0
LAYER
  5
2C3
100
AcDbSymbolTableRecord
100
AcDbLayerTableRecord
  2
RESC1005X40N_50000_4
 70
0
 62
7
  6
CONTINUOUS
370
-3
390
F
  0
LAYER
  5
2C4
100
AcDbSymbolTableRecord
100
AcDbLayerTableRecord
  2
RESC1005X40N_50000_40
 70
0
 62
7
  6
CONTINUOUS
370
-3
390
F
  0
LAYER
  5
2C5
100
AcDbSymbolTableRecord
100
AcDbLayerTableRecord
  2
RESC1005X40N_50000_41
 70
0
 62
7
  6
CONTINUOUS
370
-3
390
F
  0
LAYER
  5
2C6
100
AcDbSymbolTableRecord
100
AcDbLayerTableRecord
  2
RESC1005X40N_50000_5
 70
0
 62
7
  6
CONTINUOUS
370
-3
390
F
  0
LAYER
  5
2C7
100
AcDbSymbolTableRecord
100
AcDbLayerTableRecord
  2
RESC1005X40N_50000_6
 70
0
 62
7
  6
CONTINUOUS
370
-3
390
F
  0
LAYER
  5
2C8
100
AcDbSymbolTableRecord
100
AcDbLayerTableRecord
  2
RESC1005X40N_50000_7
 70
0
 62
7
  6
CONTINUOUS
370
-3
390
F
  0
LAYER
  5
2C9
100
AcDbSymbolTableRecord
100
AcDbLayerTableRecord
  2
RESC1005X40N_50000_8
 70
0
 62
7
  6
CONTINUOUS
370
-3
390
F
  0
LAYER
  5
2CA
100
AcDbSymbolTableRecord
100
AcDbLayerTableRecord
  2
RESC1005X40N_50000_9
 70
0
 62
7
  6
CONTINUOUS
370
-3
390
F
  0
LAYER
  5
2CB
100
AcDbSymbolTableRecord
100
AcDbLayerTableRecord
  2
RESC1608N_45000
 70
0
 62
7
  6
CONTINUOUS
370
-3
390
F
  0
LAYER
  5
2CC
100
AcDbSymbolTableRecord
100
AcDbLayerTableRecord
  2
RESC1608N_45000_1
 70
0
 62
7
  6
CONTINUOUS
370
-3
390
F
  0
LAYER
  5
2CD
100
AcDbSymbolTableRecord
100
AcDbLayerTableRecord
  2
RESC1608N_45000_2
 70
0
 62
7
  6
CONTINUOUS
370
-3
390
F
  0
LAYER
  5
2CE
100
AcDbSymbolTableRecord
100
AcDbLayerTableRecord
  2
RESC1608N_45000_3
 70
0
 62
7
  6
CONTINUOUS
370
-3
390
F
  0
LAYER
  5
2CF
100
AcDbSymbolTableRecord
100
AcDbLayerTableRecord
  2
RESC1608N_45000_4
 70
0
 62
7
  6
CONTINUOUS
370
-3
390
F
  0
LAYER
  5
2D0
100
AcDbSymbolTableRecord
100
AcDbLayerTableRecord
  2
RESC1608N_45000_5
 70
0
 62
7
  6
CONTINUOUS
370
-3
390
F
  0
LAYER
  5
2D1
100
AcDbSymbolTableRecord
100
AcDbLayerTableRecord
  2
RESC1608N_45000_6
 70
0
 62
7
  6
CONTINUOUS
370
-3
390
F
  0
LAYER
  5
2D2
100
AcDbSymbolTableRecord
100
AcDbLayerTableRecord
  2
RESC1608N_45000_7
 70
0
 62
7
  6
CONTINUOUS
370
-3
390
F
  0
LAYER
  5
2D3
100
AcDbSymbolTableRecord
100
AcDbLayerTableRecord
  2
RESC1608N_45000_8
 70
0
 62
7
  6
CONTINUOUS
370
-3
390
F
  0
LAYER
  5
2D4
100
AcDbSymbolTableRecord
100
AcDbLayerTableRecord
  2
RESC1608N_45000_9
 70
0
 62
7
  6
CONTINUOUS
370
-3
390
F
  0
LAYER
  5
2D5
100
AcDbSymbolTableRecord
100
AcDbLayerTableRecord
  2
RY-S12CO-4-VIMAR_1910000
 70
0
 62
7
  6
CONTINUOUS
370
-3
390
F
  0
LAYER
  5
2D6
100
AcDbSymbolTableRecord
100
AcDbLayerTableRecord
  2
RY-S13-3-VIMAR_1500000
 70
0
 62
7
  6
CONTINUOUS
370
-3
390
F
  0
LAYER
  5
2D7
100
AcDbSymbolTableRecord
100
AcDbLayerTableRecord
  2
RY-S13-3-VIMAR_1500000_1
 70
0
 62
7
  6
CONTINUOUS
370
-3
390
F
  0
LAYER
  5
2D8
100
AcDbSymbolTableRecord
100
AcDbLayerTableRecord
  2
S-PB_SKRP_VIMAR_250000
 70
0
 62
7
  6
CONTINUOUS
370
-3
390
F
  0
LAYER
  5
2D9
100
AcDbSymbolTableRecord
100
AcDbLayerTableRecord
  2
SIMBOLI
 70
0
 62
7
  6
CONTINUOUS
370
-3
390
F
  0
LAYER
  5
2DA
100
AcDbSymbolTableRecord
100
AcDbLayerTableRecord
  2
SMUSSO
 70
0
 62
7
  6
CONTINUOUS
370
-3
390
F
  0
LAYER
  5
2DB
100
AcDbSymbolTableRecord
100
AcDbLayerTableRecord
  2
SNAPLINE
 70
0
 62
7
  6
CONTINUOUS
370
-3
390
F
  0
LAYER
  5
2DC
100
AcDbSymbolTableRecord
100
AcDbLayerTableRecord
  2
SODFL1608X70N_70000
 70
0
 62
7
  6
CONTINUOUS
370
-3
390
F
  0
LAYER
  5
2DD
100
AcDbSymbolTableRecord
100
AcDbLayerTableRecord
  2
SODFL1608X70N_70000_1
 70
0
 62
7
  6
CONTINUOUS
370
-3
390
F
  0
LAYER
  5
2DE
100
AcDbSymbolTableRecord
100
AcDbLayerTableRecord
  2
SODFL1608X70N_70000_2
 70
0
 62
7
  6
CONTINUOUS
370
-3
390
F
  0
LAYER
  5
2DF
100
AcDbSymbolTableRecord
100
AcDbLayerTableRecord
  2
SODFL1608X70N_70000_3
 70
0
 62
7
  6
CONTINUOUS
370
-3
390
F
  0
LAYER
  5
2E0
100
AcDbSymbolTableRecord
100
AcDbLayerTableRecord
  2
SODFL1608X70N_70000_4
 70
0
 62
7
  6
CONTINUOUS
370
-3
390
F
  0
LAYER
  5
2E1
100
AcDbSymbolTableRecord
100
AcDbLayerTableRecord
  2
SODFL1608X70N_70000_5
 70
0
 62
7
  6
CONTINUOUS
370
-3
390
F
  0
LAYER
  5
2E2
100
AcDbSymbolTableRecord
100
AcDbLayerTableRecord
  2
SODFL1608X70N_70000_6
 70
0
 62
7
  6
CONTINUOUS
370
-3
390
F
  0
LAYER
  5
2E3
100
AcDbSymbolTableRecord
100
AcDbLayerTableRecord
  2
SOT1061_65000
 70
0
 62
7
  6
CONTINUOUS
370
-3
390
F
  0
LAYER
  5
2E4
100
AcDbSymbolTableRecord
100
AcDbLayerTableRecord
  2
SOT95P280X110-6N_110000
 70
0
 62
7
  6
CONTINUOUS
370
-3
390
F
  0
LAYER
  5
2E5
100
AcDbSymbolTableRecord
100
AcDbLayerTableRecord
  2
SOT95P280X110-6N_110000_1
 70
0
 62
7
  6
CONTINUOUS
370
-3
390
F
  0
LAYER
  5
2E6
100
AcDbSymbolTableRecord
100
AcDbLayerTableRecord
  2
SUPERFICI
 70
0
 62
7
  6
CONTINUOUS
370
-3
390
F
  0
LAYER
  5
2E7
100
AcDbSymbolTableRecord
100
AcDbLayerTableRecord
  2
TP10_SMD_0
 70
0
 62
7
  6
CONTINUOUS
370
-3
390
F
  0
LAYER
  5
2E8
100
AcDbSymbolTableRecord
100
AcDbLayerTableRecord
  2
TP10_SMD_0_1
 70
0
 62
7
  6
CONTINUOUS
370
-3
390
F
  0
LAYER
  5
2E9
100
AcDbSymbolTableRecord
100
AcDbLayerTableRecord
  2
TP10_SMD_0_2
 70
0
 62
7
  6
CONTINUOUS
370
-3
390
F
  0
LAYER
  5
2EA
100
AcDbSymbolTableRecord
100
AcDbLayerTableRecord
  2
TP10_SMD_0_3
 70
0
 62
7
  6
CONTINUOUS
370
-3
390
F
  0
LAYER
  5
2EB
100
AcDbSymbolTableRecord
100
AcDbLayerTableRecord
  2
TP10_SMD_0_4
 70
0
 62
7
  6
CONTINUOUS
370
-3
390
F
  0
LAYER
  5
2EC
100
AcDbSymbolTableRecord
100
AcDbLayerTableRecord
  2
TP10_SMD_0_5
 70
0
 62
7
  6
CONTINUOUS
370
-3
390
F
  0
LAYER
  5
2ED
100
AcDbSymbolTableRecord
100
AcDbLayerTableRecord
  2
TP10_SMD_0_6
 70
0
 62
7
  6
CONTINUOUS
370
-3
390
F
  0
LAYER
  5
2EE
100
AcDbSymbolTableRecord
100
AcDbLayerTableRecord
  2
TP10_SMD_0_7
 70
0
 62
7
  6
CONTINUOUS
370
-3
390
F
  0
LAYER
  5
2EF
100
AcDbSymbolTableRecord
100
AcDbLayerTableRecord
  2
TQFP48-F1-RF-VIMAR_160000
 70
0
 62
7
  6
CONTINUOUS
370
-3
390
F
  0
LAYER
  5
2F0
100
AcDbSymbolTableRecord
100
AcDbLayerTableRecord
  2
TRASH
 70
0
 62
7
  6
CONTINUOUS
370
-3
390
F
  0
LAYER
  5
2F1
100
AcDbSymbolTableRecord
100
AcDbLayerTableRecord
  2
WIRE_0_5MMQ_0
 70
0
 62
7
  6
CONTINUOUS
370
-3
390
F
  0
LAYER
  5
2F2
100
AcDbSymbolTableRecord
100
AcDbLayerTableRecord
  2
WIRE_0_5MMQ_0_1
 70
0
 62
7
  6
CONTINUOUS
370
-3
390
F
  0
LAYER
  5
2F3
100
AcDbSymbolTableRecord
100
AcDbLayerTableRecord
  2
WIRE_0_5MMQ_0_2
 70
0
 62
7
  6
CONTINUOUS
370
-3
390
F
  0
LAYER
  5
2F4
100
AcDbSymbolTableRecord
100
AcDbLayerTableRecord
  2
WIRE_0_5MMQ_0_3
 70
0
 62
7
  6
CONTINUOUS
370
-3
390
F
  0
LAYER
  5
2F5
100
AcDbSymbolTableRecord
100
AcDbLayerTableRecord
  2
WIRE_0_5MMQ_0_4
 70
0
 62
7
  6
CONTINUOUS
370
-3
390
F
  0
LAYER
  5
2F6
100
AcDbSymbolTableRecord
100
AcDbLayerTableRecord
  2
WIRE_0_5MMQ_0_5
 70
0
 62
7
  6
CONTINUOUS
370
-3
390
F
  0
LAYER
  5
2F7
100
AcDbSymbolTableRecord
100
AcDbLayerTableRecord
  2
WIRE_0_5MMQ_0_6
 70
0
 62
7
  6
CONTINUOUS
370
-3
390
F
  0
LAYER
  5
2F8
100
AcDbSymbolTableRecord
100
AcDbLayerTableRecord
  2
XSEC_DATUMS
 70
0
 62
7
  6
CONTINUOUS
370
-3
390
F
  0
LAYER
  5
2F9
100
AcDbSymbolTableRecord
100
AcDbLayerTableRecord
  2
_10000
 70
0
 62
7
  6
CONTINUOUS
370
-3
390
F
  0
LAYER
  5
2FA
100
AcDbSymbolTableRecord
100
AcDbLayerTableRecord
  2
_10004
 70
0
 62
7
  6
CONTINUOUS
370
-3
390
F
  0
LAYER
  5
2FB
100
AcDbSymbolTableRecord
100
AcDbLayerTableRecord
  2
_10005
 70
0
 62
7
  6
CONTINUOUS
370
-3
390
F
  0
LAYER
  5
2FC
100
AcDbSymbolTableRecord
100
AcDbLayerTableRecord
  2
_10047
 70
0
 62
7
  6
CONTINUOUS
370
-3
390
F
  0
LAYER
  5
2FD
100
AcDbSymbolTableRecord
100
AcDbLayerTableRecord
  2
_10059
 70
0
 62
7
  6
CONTINUOUS
370
-3
390
F
  0
LAYER
  5
2FE
100
AcDbSymbolTableRecord
100
AcDbLayerTableRecord
  2
_10060
 70
0
 62
7
  6
CONTINUOUS
370
-3
390
F
  0
LAYER
  5
2FF
100
AcDbSymbolTableRecord
100
AcDbLayerTableRecord
  2
_10066
 70
0
 62
7
  6
CONTINUOUS
370
-3
390
F
  0
LAYER
  5
300
100
AcDbSymbolTableRecord
100
AcDbLayerTableRecord
  2
_10067
 70
0
 62
7
  6
CONTINUOUS
370
-3
390
F
  0
LAYER
  5
301
100
AcDbSymbolTableRecord
100
AcDbLayerTableRecord
  2
_10076
 70
0
 62
7
  6
CONTINUOUS
370
-3
390
F
  0
LAYER
  5
302
100
AcDbSymbolTableRecord
100
AcDbLayerTableRecord
  2
_101
 70
0
 62
7
  6
CONTINUOUS
370
-3
390
F
  0
LAYER
  5
303
100
AcDbSymbolTableRecord
100
AcDbLayerTableRecord
  2
_1011
 70
0
 62
7
  6
CONTINUOUS
370
-3
390
F
  0
LAYER
  5
304
100
AcDbSymbolTableRecord
100
AcDbLayerTableRecord
  2
_10114
 70
0
 62
7
  6
CONTINUOUS
370
-3
390
F
  0
LAYER
  5
305
100
AcDbSymbolTableRecord
100
AcDbLayerTableRecord
  2
_10128
 70
0
 62
7
  6
CONTINUOUS
370
-3
390
F
  0
LAYER
  5
306
100
AcDbSymbolTableRecord
100
AcDbLayerTableRecord
  2
_1018
 70
0
 62
7
  6
CONTINUOUS
370
-3
390
F
  0
LAYER
  5
307
100
AcDbSymbolTableRecord
100
AcDbLayerTableRecord
  2
_10218
 70
0
 62
7
  6
CONTINUOUS
370
-3
390
F
  0
LAYER
  5
308
100
AcDbSymbolTableRecord
100
AcDbLayerTableRecord
  2
_1024
 70
0
 62
7
  6
CONTINUOUS
370
-3
390
F
  0
LAYER
  5
309
100
AcDbSymbolTableRecord
100
AcDbLayerTableRecord
  2
_10251
 70
0
 62
7
  6
CONTINUOUS
370
-3
390
F
  0
LAYER
  5
30A
100
AcDbSymbolTableRecord
100
AcDbLayerTableRecord
  2
_10263
 70
0
 62
7
  6
CONTINUOUS
370
-3
390
F
  0
LAYER
  5
30B
100
AcDbSymbolTableRecord
100
AcDbLayerTableRecord
  2
_1028
 70
0
 62
7
  6
CONTINUOUS
370
-3
390
F
  0
LAYER
  5
30C
100
AcDbSymbolTableRecord
100
AcDbLayerTableRecord
  2
_10281
 70
0
 62
7
  6
CONTINUOUS
370
-3
390
F
  0
LAYER
  5
30D
100
AcDbSymbolTableRecord
100
AcDbLayerTableRecord
  2
_10285
 70
0
 62
7
  6
CONTINUOUS
370
-3
390
F
  0
LAYER
  5
30E
100
AcDbSymbolTableRecord
100
AcDbLayerTableRecord
  2
_10336
 70
0
 62
7
  6
CONTINUOUS
370
-3
390
F
  0
LAYER
  5
30F
100
AcDbSymbolTableRecord
100
AcDbLayerTableRecord
  2
_10358
 70
0
 62
7
  6
CONTINUOUS
370
-3
390
F
  0
LAYER
  5
310
100
AcDbSymbolTableRecord
100
AcDbLayerTableRecord
  2
_10361
 70
0
 62
7
  6
CONTINUOUS
370
-3
390
F
  0
LAYER
  5
311
100
AcDbSymbolTableRecord
100
AcDbLayerTableRecord
  2
_10369
 70
0
 62
7
  6
CONTINUOUS
370
-3
390
F
  0
LAYER
  5
312
100
AcDbSymbolTableRecord
100
AcDbLayerTableRecord
  2
_1038
 70
0
 62
7
  6
CONTINUOUS
370
-3
390
F
  0
LAYER
  5
313
100
AcDbSymbolTableRecord
100
AcDbLayerTableRecord
  2
_10387
 70
0
 62
7
  6
CONTINUOUS
370
-3
390
F
  0
LAYER
  5
314
100
AcDbSymbolTableRecord
100
AcDbLayerTableRecord
  2
_1039
 70
0
 62
7
  6
CONTINUOUS
370
-3
390
F
  0
LAYER
  5
315
100
AcDbSymbolTableRecord
100
AcDbLayerTableRecord
  2
_10393
 70
0
 62
7
  6
CONTINUOUS
370
-3
390
F
  0
LAYER
  5
316
100
AcDbSymbolTableRecord
100
AcDbLayerTableRecord
  2
_1046
 70
0
 62
7
  6
CONTINUOUS
370
-3
390
F
  0
LAYER
  5
317
100
AcDbSymbolTableRecord
100
AcDbLayerTableRecord
  2
_10460
 70
0
 62
7
  6
CONTINUOUS
370
-3
390
F
  0
LAYER
  5
318
100
AcDbSymbolTableRecord
100
AcDbLayerTableRecord
  2
_10502
 70
0
 62
7
  6
CONTINUOUS
370
-3
390
F
  0
LAYER
  5
319
100
AcDbSymbolTableRecord
100
AcDbLayerTableRecord
  2
_10508
 70
0
 62
7
  6
CONTINUOUS
370
-3
390
F
  0
LAYER
  5
31A
100
AcDbSymbolTableRecord
100
AcDbLayerTableRecord
  2
_1051
 70
0
 62
7
  6
CONTINUOUS
370
-3
390
F
  0
LAYER
  5
31B
100
AcDbSymbolTableRecord
100
AcDbLayerTableRecord
  2
_10514
 70
0
 62
7
  6
CONTINUOUS
370
-3
390
F
  0
LAYER
  5
31C
100
AcDbSymbolTableRecord
100
AcDbLayerTableRecord
  2
_10525
 70
0
 62
7
  6
CONTINUOUS
370
-3
390
F
  0
LAYER
  5
31D
100
AcDbSymbolTableRecord
100
AcDbLayerTableRecord
  2
_10529
 70
0
 62
7
  6
CONTINUOUS
370
-3
390
F
  0
LAYER
  5
31E
100
AcDbSymbolTableRecord
100
AcDbLayerTableRecord
  2
_10541
 70
0
 62
7
  6
CONTINUOUS
370
-3
390
F
  0
LAYER
  5
31F
100
AcDbSymbolTableRecord
100
AcDbLayerTableRecord
  2
_10558
 70
0
 62
7
  6
CONTINUOUS
370
-3
390
F
  0
LAYER
  5
320
100
AcDbSymbolTableRecord
100
AcDbLayerTableRecord
  2
_10585
 70
0
 62
7
  6
CONTINUOUS
370
-3
390
F
  0
LAYER
  5
321
100
AcDbSymbolTableRecord
100
AcDbLayerTableRecord
  2
_10594
 70
0
 62
7
  6
CONTINUOUS
370
-3
390
F
  0
LAYER
  5
322
100
AcDbSymbolTableRecord
100
AcDbLayerTableRecord
  2
_10602
 70
0
 62
7
  6
CONTINUOUS
370
-3
390
F
  0
LAYER
  5
323
100
AcDbSymbolTableRecord
100
AcDbLayerTableRecord
  2
_10608
 70
0
 62
7
  6
CONTINUOUS
370
-3
390
F
  0
LAYER
  5
324
100
AcDbSymbolTableRecord
100
AcDbLayerTableRecord
  2
_1065
 70
0
 62
7
  6
CONTINUOUS
370
-3
390
F
  0
LAYER
  5
325
100
AcDbSymbolTableRecord
100
AcDbLayerTableRecord
  2
_10653
 70
0
 62
7
  6
CONTINUOUS
370
-3
390
F
  0
LAYER
  5
326
100
AcDbSymbolTableRecord
100
AcDbLayerTableRecord
  2
_10671
 70
0
 62
7
  6
CONTINUOUS
370
-3
390
F
  0
LAYER
  5
327
100
AcDbSymbolTableRecord
100
AcDbLayerTableRecord
  2
_10673
 70
0
 62
7
  6
CONTINUOUS
370
-3
390
F
  0
LAYER
  5
328
100
AcDbSymbolTableRecord
100
AcDbLayerTableRecord
  2
_10675
 70
0
 62
7
  6
CONTINUOUS
370
-3
390
F
  0
LAYER
  5
329
100
AcDbSymbolTableRecord
100
AcDbLayerTableRecord
  2
_10676
 70
0
 62
7
  6
CONTINUOUS
370
-3
390
F
  0
LAYER
  5
32A
100
AcDbSymbolTableRecord
100
AcDbLayerTableRecord
  2
_10701
 70
0
 62
7
  6
CONTINUOUS
370
-3
390
F
  0
LAYER
  5
32B
100
AcDbSymbolTableRecord
100
AcDbLayerTableRecord
  2
_10728
 70
0
 62
7
  6
CONTINUOUS
370
-3
390
F
  0
LAYER
  5
32C
100
AcDbSymbolTableRecord
100
AcDbLayerTableRecord
  2
_10730
 70
0
 62
7
  6
CONTINUOUS
370
-3
390
F
  0
LAYER
  5
32D
100
AcDbSymbolTableRecord
100
AcDbLayerTableRecord
  2
_10743
 70
0
 62
7
  6
CONTINUOUS
370
-3
390
F
  0
LAYER
  5
32E
100
AcDbSymbolTableRecord
100
AcDbLayerTableRecord
  2
_10755
 70
0
 62
7
  6
CONTINUOUS
370
-3
390
F
  0
LAYER
  5
32F
100
AcDbSymbolTableRecord
100
AcDbLayerTableRecord
  2
_10799
 70
0
 62
7
  6
CONTINUOUS
370
-3
390
F
  0
LAYER
  5
330
100
AcDbSymbolTableRecord
100
AcDbLayerTableRecord
  2
_10803
 70
0
 62
7
  6
CONTINUOUS
370
-3
390
F
  0
LAYER
  5
331
100
AcDbSymbolTableRecord
100
AcDbLayerTableRecord
  2
_10818
 70
0
 62
7
  6
CONTINUOUS
370
-3
390
F
  0
LAYER
  5
332
100
AcDbSymbolTableRecord
100
AcDbLayerTableRecord
  2
_10859
 70
0
 62
7
  6
CONTINUOUS
370
-3
390
F
  0
LAYER
  5
333
100
AcDbSymbolTableRecord
100
AcDbLayerTableRecord
  2
_10868
 70
0
 62
7
  6
CONTINUOUS
370
-3
390
F
  0
LAYER
  5
334
100
AcDbSymbolTableRecord
100
AcDbLayerTableRecord
  2
_10882
 70
0
 62
7
  6
CONTINUOUS
370
-3
390
F
  0
LAYER
  5
335
100
AcDbSymbolTableRecord
100
AcDbLayerTableRecord
  2
_10884
 70
0
 62
7
  6
CONTINUOUS
370
-3
390
F
  0
LAYER
  5
336
100
AcDbSymbolTableRecord
100
AcDbLayerTableRecord
  2
_10886
 70
0
 62
7
  6
CONTINUOUS
370
-3
390
F
  0
LAYER
  5
337
100
AcDbSymbolTableRecord
100
AcDbLayerTableRecord
  2
_10892
 70
0
 62
7
  6
CONTINUOUS
370
-3
390
F
  0
LAYER
  5
338
100
AcDbSymbolTableRecord
100
AcDbLayerTableRecord
  2
_109
 70
0
 62
7
  6
CONTINUOUS
370
-3
390
F
  0
LAYER
  5
339
100
AcDbSymbolTableRecord
100
AcDbLayerTableRecord
  2
_10914
 70
0
 62
7
  6
CONTINUOUS
370
-3
390
F
  0
LAYER
  5
33A
100
AcDbSymbolTableRecord
100
AcDbLayerTableRecord
  2
_10933
 70
0
 62
7
  6
CONTINUOUS
370
-3
390
F
  0
LAYER
  5
33B
100
AcDbSymbolTableRecord
100
AcDbLayerTableRecord
  2
_10946
 70
0
 62
7
  6
CONTINUOUS
370
-3
390
F
  0
LAYER
  5
33C
100
AcDbSymbolTableRecord
100
AcDbLayerTableRecord
  2
_10949
 70
0
 62
7
  6
CONTINUOUS
370
-3
390
F
  0
LAYER
  5
33D
100
AcDbSymbolTableRecord
100
AcDbLayerTableRecord
  2
_10981
 70
0
 62
7
  6
CONTINUOUS
370
-3
390
F
  0
LAYER
  5
33E
100
AcDbSymbolTableRecord
100
AcDbLayerTableRecord
  2
_10989
 70
0
 62
7
  6
CONTINUOUS
370
-3
390
F
  0
LAYER
  5
33F
100
AcDbSymbolTableRecord
100
AcDbLayerTableRecord
  2
_11011
 70
0
 62
7
  6
CONTINUOUS
370
-3
390
F
  0
LAYER
  5
340
100
AcDbSymbolTableRecord
100
AcDbLayerTableRecord
  2
_11015
 70
0
 62
7
  6
CONTINUOUS
370
-3
390
F
  0
LAYER
  5
341
100
AcDbSymbolTableRecord
100
AcDbLayerTableRecord
  2
_11027
 70
0
 62
7
  6
CONTINUOUS
370
-3
390
F
  0
LAYER
  5
342
100
AcDbSymbolTableRecord
100
AcDbLayerTableRecord
  2
_1103
 70
0
 62
7
  6
CONTINUOUS
370
-3
390
F
  0
LAYER
  5
343
100
AcDbSymbolTableRecord
100
AcDbLayerTableRecord
  2
_11064
 70
0
 62
7
  6
CONTINUOUS
370
-3
390
F
  0
LAYER
  5
344
100
AcDbSymbolTableRecord
100
AcDbLayerTableRecord
  2
_11065
 70
0
 62
7
  6
CONTINUOUS
370
-3
390
F
  0
LAYER
  5
345
100
AcDbSymbolTableRecord
100
AcDbLayerTableRecord
  2
_11071
 70
0
 62
7
  6
CONTINUOUS
370
-3
390
F
  0
LAYER
  5
346
100
AcDbSymbolTableRecord
100
AcDbLayerTableRecord
  2
_11073
 70
0
 62
7
  6
CONTINUOUS
370
-3
390
F
  0
LAYER
  5
347
100
AcDbSymbolTableRecord
100
AcDbLayerTableRecord
  2
_11074
 70
0
 62
7
  6
CONTINUOUS
370
-3
390
F
  0
LAYER
  5
348
100
AcDbSymbolTableRecord
100
AcDbLayerTableRecord
  2
_1108
 70
0
 62
7
  6
CONTINUOUS
370
-3
390
F
  0
LAYER
  5
349
100
AcDbSymbolTableRecord
100
AcDbLayerTableRecord
  2
_11087
 70
0
 62
7
  6
CONTINUOUS
370
-3
390
F
  0
LAYER
  5
34A
100
AcDbSymbolTableRecord
100
AcDbLayerTableRecord
  2
_11093
 70
0
 62
7
  6
CONTINUOUS
370
-3
390
F
  0
LAYER
  5
34B
100
AcDbSymbolTableRecord
100
AcDbLayerTableRecord
  2
_11111
 70
0
 62
7
  6
CONTINUOUS
370
-3
390
F
  0
LAYER
  5
34C
100
AcDbSymbolTableRecord
100
AcDbLayerTableRecord
  2
_11114
 70
0
 62
7
  6
CONTINUOUS
370
-3
390
F
  0
LAYER
  5
34D
100
AcDbSymbolTableRecord
100
AcDbLayerTableRecord
  2
_11188
 70
0
 62
7
  6
CONTINUOUS
370
-3
390
F
  0
LAYER
  5
34E
100
AcDbSymbolTableRecord
100
AcDbLayerTableRecord
  2
_11197
 70
0
 62
7
  6
CONTINUOUS
370
-3
390
F
  0
LAYER
  5
34F
100
AcDbSymbolTableRecord
100
AcDbLayerTableRecord
  2
_1120
 70
0
 62
7
  6
CONTINUOUS
370
-3
390
F
  0
LAYER
  5
350
100
AcDbSymbolTableRecord
100
AcDbLayerTableRecord
  2
_11205
 70
0
 62
7
  6
CONTINUOUS
370
-3
390
F
  0
LAYER
  5
351
100
AcDbSymbolTableRecord
100
AcDbLayerTableRecord
  2
_11212
 70
0
 62
7
  6
CONTINUOUS
370
-3
390
F
  0
LAYER
  5
352
100
AcDbSymbolTableRecord
100
AcDbLayerTableRecord
  2
_11242
 70
0
 62
7
  6
CONTINUOUS
370
-3
390
F
  0
LAYER
  5
353
100
AcDbSymbolTableRecord
100
AcDbLayerTableRecord
  2
_11252
 70
0
 62
7
  6
CONTINUOUS
370
-3
390
F
  0
LAYER
  5
354
100
AcDbSymbolTableRecord
100
AcDbLayerTableRecord
  2
_1126
 70
0
 62
7
  6
CONTINUOUS
370
-3
390
F
  0
LAYER
  5
355
100
AcDbSymbolTableRecord
100
AcDbLayerTableRecord
  2
_1128
 70
0
 62
7
  6
CONTINUOUS
370
-3
390
F
  0
LAYER
  5
356
100
AcDbSymbolTableRecord
100
AcDbLayerTableRecord
  2
_11285
 70
0
 62
7
  6
CONTINUOUS
370
-3
390
F
  0
LAYER
  5
357
100
AcDbSymbolTableRecord
100
AcDbLayerTableRecord
  2
_11296
 70
0
 62
7
  6
CONTINUOUS
370
-3
390
F
  0
LAYER
  5
358
100
AcDbSymbolTableRecord
100
AcDbLayerTableRecord
  2
_11298
 70
0
 62
7
  6
CONTINUOUS
370
-3
390
F
  0
LAYER
  5
359
100
AcDbSymbolTableRecord
100
AcDbLayerTableRecord
  2
_11299
 70
0
 62
7
  6
CONTINUOUS
370
-3
390
F
  0
LAYER
  5
35A
100
AcDbSymbolTableRecord
100
AcDbLayerTableRecord
  2
_11314
 70
0
 62
7
  6
CONTINUOUS
370
-3
390
F
  0
LAYER
  5
35B
100
AcDbSymbolTableRecord
100
AcDbLayerTableRecord
  2
_11334
 70
0
 62
7
  6
CONTINUOUS
370
-3
390
F
  0
LAYER
  5
35C
100
AcDbSymbolTableRecord
100
AcDbLayerTableRecord
  2
_11390
 70
0
 62
7
  6
CONTINUOUS
370
-3
390
F
  0
LAYER
  5
35D
100
AcDbSymbolTableRecord
100
AcDbLayerTableRecord
  2
_11392
 70
0
 62
7
  6
CONTINUOUS
370
-3
390
F
  0
LAYER
  5
35E
100
AcDbSymbolTableRecord
100
AcDbLayerTableRecord
  2
_11395
 70
0
 62
7
  6
CONTINUOUS
370
-3
390
F
  0
LAYER
  5
35F
100
AcDbSymbolTableRecord
100
AcDbLayerTableRecord
  2
_1142
 70
0
 62
7
  6
CONTINUOUS
370
-3
390
F
  0
LAYER
  5
360
100
AcDbSymbolTableRecord
100
AcDbLayerTableRecord
  2
_11427
 70
0
 62
7
  6
CONTINUOUS
370
-3
390
F
  0
LAYER
  5
361
100
AcDbSymbolTableRecord
100
AcDbLayerTableRecord
  2
_11447
 70
0
 62
7
  6
CONTINUOUS
370
-3
390
F
  0
LAYER
  5
362
100
AcDbSymbolTableRecord
100
AcDbLayerTableRecord
  2
_11465
 70
0
 62
7
  6
CONTINUOUS
370
-3
390
F
  0
LAYER
  5
363
100
AcDbSymbolTableRecord
100
AcDbLayerTableRecord
  2
_11488
 70
0
 62
7
  6
CONTINUOUS
370
-3
390
F
  0
LAYER
  5
364
100
AcDbSymbolTableRecord
100
AcDbLayerTableRecord
  2
_1150
 70
0
 62
7
  6
CONTINUOUS
370
-3
390
F
  0
LAYER
  5
365
100
AcDbSymbolTableRecord
100
AcDbLayerTableRecord
  2
_11555
 70
0
 62
7
  6
CONTINUOUS
370
-3
390
F
  0
LAYER
  5
366
100
AcDbSymbolTableRecord
100
AcDbLayerTableRecord
  2
_1156
 70
0
 62
7
  6
CONTINUOUS
370
-3
390
F
  0
LAYER
  5
367
100
AcDbSymbolTableRecord
100
AcDbLayerTableRecord
  2
_11679
 70
0
 62
7
  6
CONTINUOUS
370
-3
390
F
  0
LAYER
  5
368
100
AcDbSymbolTableRecord
100
AcDbLayerTableRecord
  2
_1170
 70
0
 62
7
  6
CONTINUOUS
370
-3
390
F
  0
LAYER
  5
369
100
AcDbSymbolTableRecord
100
AcDbLayerTableRecord
  2
_11703
 70
0
 62
7
  6
CONTINUOUS
370
-3
390
F
  0
LAYER
  5
36A
100
AcDbSymbolTableRecord
100
AcDbLayerTableRecord
  2
_1174
 70
0
 62
7
  6
CONTINUOUS
370
-3
390
F
  0
LAYER
  5
36B
100
AcDbSymbolTableRecord
100
AcDbLayerTableRecord
  2
_11753
 70
0
 62
7
  6
CONTINUOUS
370
-3
390
F
  0
LAYER
  5
36C
100
AcDbSymbolTableRecord
100
AcDbLayerTableRecord
  2
_1178
 70
0
 62
7
  6
CONTINUOUS
370
-3
390
F
  0
LAYER
  5
36D
100
AcDbSymbolTableRecord
100
AcDbLayerTableRecord
  2
_11783
 70
0
 62
7
  6
CONTINUOUS
370
-3
390
F
  0
LAYER
  5
36E
100
AcDbSymbolTableRecord
100
AcDbLayerTableRecord
  2
_1179
 70
0
 62
7
  6
CONTINUOUS
370
-3
390
F
  0
LAYER
  5
36F
100
AcDbSymbolTableRecord
100
AcDbLayerTableRecord
  2
_11854
 70
0
 62
7
  6
CONTINUOUS
370
-3
390
F
  0
LAYER
  5
370
100
AcDbSymbolTableRecord
100
AcDbLayerTableRecord
  2
_11858
 70
0
 62
7
  6
CONTINUOUS
370
-3
390
F
  0
LAYER
  5
371
100
AcDbSymbolTableRecord
100
AcDbLayerTableRecord
  2
_11882
 70
0
 62
7
  6
CONTINUOUS
370
-3
390
F
  0
LAYER
  5
372
100
AcDbSymbolTableRecord
100
AcDbLayerTableRecord
  2
_11897
 70
0
 62
7
  6
CONTINUOUS
370
-3
390
F
  0
LAYER
  5
373
100
AcDbSymbolTableRecord
100
AcDbLayerTableRecord
  2
_1198
 70
0
 62
7
  6
CONTINUOUS
370
-3
390
F
  0
LAYER
  5
374
100
AcDbSymbolTableRecord
100
AcDbLayerTableRecord
  2
_11989
 70
0
 62
7
  6
CONTINUOUS
370
-3
390
F
  0
LAYER
  5
375
100
AcDbSymbolTableRecord
100
AcDbLayerTableRecord
  2
_1200
 70
0
 62
7
  6
CONTINUOUS
370
-3
390
F
  0
LAYER
  5
376
100
AcDbSymbolTableRecord
100
AcDbLayerTableRecord
  2
_12017
 70
0
 62
7
  6
CONTINUOUS
370
-3
390
F
  0
LAYER
  5
377
100
AcDbSymbolTableRecord
100
AcDbLayerTableRecord
  2
_1205
 70
0
 62
7
  6
CONTINUOUS
370
-3
390
F
  0
LAYER
  5
378
100
AcDbSymbolTableRecord
100
AcDbLayerTableRecord
  2
_12054
 70
0
 62
7
  6
CONTINUOUS
370
-3
390
F
  0
LAYER
  5
379
100
AcDbSymbolTableRecord
100
AcDbLayerTableRecord
  2
_12066
 70
0
 62
7
  6
CONTINUOUS
370
-3
390
F
  0
LAYER
  5
37A
100
AcDbSymbolTableRecord
100
AcDbLayerTableRecord
  2
_12120
 70
0
 62
7
  6
CONTINUOUS
370
-3
390
F
  0
LAYER
  5
37B
100
AcDbSymbolTableRecord
100
AcDbLayerTableRecord
  2
_1219
 70
0
 62
7
  6
CONTINUOUS
370
-3
390
F
  0
LAYER
  5
37C
100
AcDbSymbolTableRecord
100
AcDbLayerTableRecord
  2
_12275
 70
0
 62
7
  6
CONTINUOUS
370
-3
390
F
  0
LAYER
  5
37D
100
AcDbSymbolTableRecord
100
AcDbLayerTableRecord
  2
_1229
 70
0
 62
7
  6
CONTINUOUS
370
-3
390
F
  0
LAYER
  5
37E
100
AcDbSymbolTableRecord
100
AcDbLayerTableRecord
  2
_1230
 70
0
 62
7
  6
CONTINUOUS
370
-3
390
F
  0
LAYER
  5
37F
100
AcDbSymbolTableRecord
100
AcDbLayerTableRecord
  2
_12325
 70
0
 62
7
  6
CONTINUOUS
370
-3
390
F
  0
LAYER
  5
380
100
AcDbSymbolTableRecord
100
AcDbLayerTableRecord
  2
_1234
 70
0
 62
7
  6
CONTINUOUS
370
-3
390
F
  0
LAYER
  5
381
100
AcDbSymbolTableRecord
100
AcDbLayerTableRecord
  2
_1237
 70
0
 62
7
  6
CONTINUOUS
370
-3
390
F
  0
LAYER
  5
382
100
AcDbSymbolTableRecord
100
AcDbLayerTableRecord
  2
_12388
 70
0
 62
7
  6
CONTINUOUS
370
-3
390
F
  0
LAYER
  5
383
100
AcDbSymbolTableRecord
100
AcDbLayerTableRecord
  2
_12416
 70
0
 62
7
  6
CONTINUOUS
370
-3
390
F
  0
LAYER
  5
384
100
AcDbSymbolTableRecord
100
AcDbLayerTableRecord
  2
_12426
 70
0
 62
7
  6
CONTINUOUS
370
-3
390
F
  0
LAYER
  5
385
100
AcDbSymbolTableRecord
100
AcDbLayerTableRecord
  2
_12448
 70
0
 62
7
  6
CONTINUOUS
370
-3
390
F
  0
LAYER
  5
386
100
AcDbSymbolTableRecord
100
AcDbLayerTableRecord
  2
_12462
 70
0
 62
7
  6
CONTINUOUS
370
-3
390
F
  0
LAYER
  5
387
100
AcDbSymbolTableRecord
100
AcDbLayerTableRecord
  2
_12469
 70
0
 62
7
  6
CONTINUOUS
370
-3
390
F
  0
LAYER
  5
388
100
AcDbSymbolTableRecord
100
AcDbLayerTableRecord
  2
_1248
 70
0
 62
7
  6
CONTINUOUS
370
-3
390
F
  0
LAYER
  5
389
100
AcDbSymbolTableRecord
100
AcDbLayerTableRecord
  2
_12523
 70
0
 62
7
  6
CONTINUOUS
370
-3
390
F
  0
LAYER
  5
38A
100
AcDbSymbolTableRecord
100
AcDbLayerTableRecord
  2
_12546
 70
0
 62
7
  6
CONTINUOUS
370
-3
390
F
  0
LAYER
  5
38B
100
AcDbSymbolTableRecord
100
AcDbLayerTableRecord
  2
_12595
 70
0
 62
7
  6
CONTINUOUS
370
-3
390
F
  0
LAYER
  5
38C
100
AcDbSymbolTableRecord
100
AcDbLayerTableRecord
  2
_12634
 70
0
 62
7
  6
CONTINUOUS
370
-3
390
F
  0
LAYER
  5
38D
100
AcDbSymbolTableRecord
100
AcDbLayerTableRecord
  2
_12724
 70
0
 62
7
  6
CONTINUOUS
370
-3
390
F
  0
LAYER
  5
38E
100
AcDbSymbolTableRecord
100
AcDbLayerTableRecord
  2
_12757
 70
0
 62
7
  6
CONTINUOUS
370
-3
390
F
  0
LAYER
  5
38F
100
AcDbSymbolTableRecord
100
AcDbLayerTableRecord
  2
_12759
 70
0
 62
7
  6
CONTINUOUS
370
-3
390
F
  0
LAYER
  5
390
100
AcDbSymbolTableRecord
100
AcDbLayerTableRecord
  2
_1279
 70
0
 62
7
  6
CONTINUOUS
370
-3
390
F
  0
LAYER
  5
391
100
AcDbSymbolTableRecord
100
AcDbLayerTableRecord
  2
_12852
 70
0
 62
7
  6
CONTINUOUS
370
-3
390
F
  0
LAYER
  5
392
100
AcDbSymbolTableRecord
100
AcDbLayerTableRecord
  2
_12877
 70
0
 62
7
  6
CONTINUOUS
370
-3
390
F
  0
LAYER
  5
393
100
AcDbSymbolTableRecord
100
AcDbLayerTableRecord
  2
_12956
 70
0
 62
7
  6
CONTINUOUS
370
-3
390
F
  0
LAYER
  5
394
100
AcDbSymbolTableRecord
100
AcDbLayerTableRecord
  2
_1308
 70
0
 62
7
  6
CONTINUOUS
370
-3
390
F
  0
LAYER
  5
395
100
AcDbSymbolTableRecord
100
AcDbLayerTableRecord
  2
_13088
 70
0
 62
7
  6
CONTINUOUS
370
-3
390
F
  0
LAYER
  5
396
100
AcDbSymbolTableRecord
100
AcDbLayerTableRecord
  2
_1308_1
 70
0
 62
7
  6
CONTINUOUS
370
-3
390
F
  0
LAYER
  5
397
100
AcDbSymbolTableRecord
100
AcDbLayerTableRecord
  2
_13095
 70
0
 62
7
  6
CONTINUOUS
370
-3
390
F
  0
LAYER
  5
398
100
AcDbSymbolTableRecord
100
AcDbLayerTableRecord
  2
_1314
 70
0
 62
7
  6
CONTINUOUS
370
-3
390
F
  0
LAYER
  5
399
100
AcDbSymbolTableRecord
100
AcDbLayerTableRecord
  2
_1316
 70
0
 62
7
  6
CONTINUOUS
370
-3
390
F
  0
LAYER
  5
39A
100
AcDbSymbolTableRecord
100
AcDbLayerTableRecord
  2
_13187
 70
0
 62
7
  6
CONTINUOUS
370
-3
390
F
  0
LAYER
  5
39B
100
AcDbSymbolTableRecord
100
AcDbLayerTableRecord
  2
_13202
 70
0
 62
7
  6
CONTINUOUS
370
-3
390
F
  0
LAYER
  5
39C
100
AcDbSymbolTableRecord
100
AcDbLayerTableRecord
  2
_13251
 70
0
 62
7
  6
CONTINUOUS
370
-3
390
F
  0
LAYER
  5
39D
100
AcDbSymbolTableRecord
100
AcDbLayerTableRecord
  2
_1327
 70
0
 62
7
  6
CONTINUOUS
370
-3
390
F
  0
LAYER
  5
39E
100
AcDbSymbolTableRecord
100
AcDbLayerTableRecord
  2
_13289
 70
0
 62
7
  6
CONTINUOUS
370
-3
390
F
  0
LAYER
  5
39F
100
AcDbSymbolTableRecord
100
AcDbLayerTableRecord
  2
_1329
 70
0
 62
7
  6
CONTINUOUS
370
-3
390
F
  0
LAYER
  5
3A0
100
AcDbSymbolTableRecord
100
AcDbLayerTableRecord
  2
_1330
 70
0
 62
7
  6
CONTINUOUS
370
-3
390
F
  0
LAYER
  5
3A1
100
AcDbSymbolTableRecord
100
AcDbLayerTableRecord
  2
_13335
 70
0
 62
7
  6
CONTINUOUS
370
-3
390
F
  0
LAYER
  5
3A2
100
AcDbSymbolTableRecord
100
AcDbLayerTableRecord
  2
_1339
 70
0
 62
7
  6
CONTINUOUS
370
-3
390
F
  0
LAYER
  5
3A3
100
AcDbSymbolTableRecord
100
AcDbLayerTableRecord
  2
_1348
 70
0
 62
7
  6
CONTINUOUS
370
-3
390
F
  0
LAYER
  5
3A4
100
AcDbSymbolTableRecord
100
AcDbLayerTableRecord
  2
_13508
 70
0
 62
7
  6
CONTINUOUS
370
-3
390
F
  0
LAYER
  5
3A5
100
AcDbSymbolTableRecord
100
AcDbLayerTableRecord
  2
_13511
 70
0
 62
7
  6
CONTINUOUS
370
-3
390
F
  0
LAYER
  5
3A6
100
AcDbSymbolTableRecord
100
AcDbLayerTableRecord
  2
_13517
 70
0
 62
7
  6
CONTINUOUS
370
-3
390
F
  0
LAYER
  5
3A7
100
AcDbSymbolTableRecord
100
AcDbLayerTableRecord
  2
_13551
 70
0
 62
7
  6
CONTINUOUS
370
-3
390
F
  0
LAYER
  5
3A8
100
AcDbSymbolTableRecord
100
AcDbLayerTableRecord
  2
_13622
 70
0
 62
7
  6
CONTINUOUS
370
-3
390
F
  0
LAYER
  5
3A9
100
AcDbSymbolTableRecord
100
AcDbLayerTableRecord
  2
_13628
 70
0
 62
7
  6
CONTINUOUS
370
-3
390
F
  0
LAYER
  5
3AA
100
AcDbSymbolTableRecord
100
AcDbLayerTableRecord
  2
_13641
 70
0
 62
7
  6
CONTINUOUS
370
-3
390
F
  0
LAYER
  5
3AB
100
AcDbSymbolTableRecord
100
AcDbLayerTableRecord
  2
_13662
 70
0
 62
7
  6
CONTINUOUS
370
-3
390
F
  0
LAYER
  5
3AC
100
AcDbSymbolTableRecord
100
AcDbLayerTableRecord
  2
_13716
 70
0
 62
7
  6
CONTINUOUS
370
-3
390
F
  0
LAYER
  5
3AD
100
AcDbSymbolTableRecord
100
AcDbLayerTableRecord
  2
_13736
 70
0
 62
7
  6
CONTINUOUS
370
-3
390
F
  0
LAYER
  5
3AE
100
AcDbSymbolTableRecord
100
AcDbLayerTableRecord
  2
_1387
 70
0
 62
7
  6
CONTINUOUS
370
-3
390
F
  0
LAYER
  5
3AF
100
AcDbSymbolTableRecord
100
AcDbLayerTableRecord
  2
_1391
 70
0
 62
7
  6
CONTINUOUS
370
-3
390
F
  0
LAYER
  5
3B0
100
AcDbSymbolTableRecord
100
AcDbLayerTableRecord
  2
_1392
 70
0
 62
7
  6
CONTINUOUS
370
-3
390
F
  0
LAYER
  5
3B1
100
AcDbSymbolTableRecord
100
AcDbLayerTableRecord
  2
_13926
 70
0
 62
7
  6
CONTINUOUS
370
-3
390
F
  0
LAYER
  5
3B2
100
AcDbSymbolTableRecord
100
AcDbLayerTableRecord
  2
_1393
 70
0
 62
7
  6
CONTINUOUS
370
-3
390
F
  0
LAYER
  5
3B3
100
AcDbSymbolTableRecord
100
AcDbLayerTableRecord
  2
_14033
 70
0
 62
7
  6
CONTINUOUS
370
-3
390
F
  0
LAYER
  5
3B4
100
AcDbSymbolTableRecord
100
AcDbLayerTableRecord
  2
_14066
 70
0
 62
7
  6
CONTINUOUS
370
-3
390
F
  0
LAYER
  5
3B5
100
AcDbSymbolTableRecord
100
AcDbLayerTableRecord
  2
_1408
 70
0
 62
7
  6
CONTINUOUS
370
-3
390
F
  0
LAYER
  5
3B6
100
AcDbSymbolTableRecord
100
AcDbLayerTableRecord
  2
_1408_1
 70
0
 62
7
  6
CONTINUOUS
370
-3
390
F
  0
LAYER
  5
3B7
100
AcDbSymbolTableRecord
100
AcDbLayerTableRecord
  2
_1410
 70
0
 62
7
  6
CONTINUOUS
370
-3
390
F
  0
LAYER
  5
3B8
100
AcDbSymbolTableRecord
100
AcDbLayerTableRecord
  2
_14116
 70
0
 62
7
  6
CONTINUOUS
370
-3
390
F
  0
LAYER
  5
3B9
100
AcDbSymbolTableRecord
100
AcDbLayerTableRecord
  2
_14121
 70
0
 62
7
  6
CONTINUOUS
370
-3
390
F
  0
LAYER
  5
3BA
100
AcDbSymbolTableRecord
100
AcDbLayerTableRecord
  2
_1423
 70
0
 62
7
  6
CONTINUOUS
370
-3
390
F
  0
LAYER
  5
3BB
100
AcDbSymbolTableRecord
100
AcDbLayerTableRecord
  2
_14236
 70
0
 62
7
  6
CONTINUOUS
370
-3
390
F
  0
LAYER
  5
3BC
100
AcDbSymbolTableRecord
100
AcDbLayerTableRecord
  2
_14246
 70
0
 62
7
  6
CONTINUOUS
370
-3
390
F
  0
LAYER
  5
3BD
100
AcDbSymbolTableRecord
100
AcDbLayerTableRecord
  2
_14254
 70
0
 62
7
  6
CONTINUOUS
370
-3
390
F
  0
LAYER
  5
3BE
100
AcDbSymbolTableRecord
100
AcDbLayerTableRecord
  2
_1426
 70
0
 62
7
  6
CONTINUOUS
370
-3
390
F
  0
LAYER
  5
3BF
100
AcDbSymbolTableRecord
100
AcDbLayerTableRecord
  2
_14299
 70
0
 62
7
  6
CONTINUOUS
370
-3
390
F
  0
LAYER
  5
3C0
100
AcDbSymbolTableRecord
100
AcDbLayerTableRecord
  2
_14313
 70
0
 62
7
  6
CONTINUOUS
370
-3
390
F
  0
LAYER
  5
3C1
100
AcDbSymbolTableRecord
100
AcDbLayerTableRecord
  2
_1444
 70
0
 62
7
  6
CONTINUOUS
370
-3
390
F
  0
LAYER
  5
3C2
100
AcDbSymbolTableRecord
100
AcDbLayerTableRecord
  2
_14475
 70
0
 62
7
  6
CONTINUOUS
370
-3
390
F
  0
LAYER
  5
3C3
100
AcDbSymbolTableRecord
100
AcDbLayerTableRecord
  2
_1449
 70
0
 62
7
  6
CONTINUOUS
370
-3
390
F
  0
LAYER
  5
3C4
100
AcDbSymbolTableRecord
100
AcDbLayerTableRecord
  2
_1452
 70
0
 62
7
  6
CONTINUOUS
370
-3
390
F
  0
LAYER
  5
3C5
100
AcDbSymbolTableRecord
100
AcDbLayerTableRecord
  2
_1454
 70
0
 62
7
  6
CONTINUOUS
370
-3
390
F
  0
LAYER
  5
3C6
100
AcDbSymbolTableRecord
100
AcDbLayerTableRecord
  2
_14551
 70
0
 62
7
  6
CONTINUOUS
370
-3
390
F
  0
LAYER
  5
3C7
100
AcDbSymbolTableRecord
100
AcDbLayerTableRecord
  2
_14600
 70
0
 62
7
  6
CONTINUOUS
370
-3
390
F
  0
LAYER
  5
3C8
100
AcDbSymbolTableRecord
100
AcDbLayerTableRecord
  2
_14607
 70
0
 62
7
  6
CONTINUOUS
370
-3
390
F
  0
LAYER
  5
3C9
100
AcDbSymbolTableRecord
100
AcDbLayerTableRecord
  2
_14659
 70
0
 62
7
  6
CONTINUOUS
370
-3
390
F
  0
LAYER
  5
3CA
100
AcDbSymbolTableRecord
100
AcDbLayerTableRecord
  2
_14678
 70
0
 62
7
  6
CONTINUOUS
370
-3
390
F
  0
LAYER
  5
3CB
100
AcDbSymbolTableRecord
100
AcDbLayerTableRecord
  2
_1469
 70
0
 62
7
  6
CONTINUOUS
370
-3
390
F
  0
LAYER
  5
3CC
100
AcDbSymbolTableRecord
100
AcDbLayerTableRecord
  2
_14776
 70
0
 62
7
  6
CONTINUOUS
370
-3
390
F
  0
LAYER
  5
3CD
100
AcDbSymbolTableRecord
100
AcDbLayerTableRecord
  2
_1478
 70
0
 62
7
  6
CONTINUOUS
370
-3
390
F
  0
LAYER
  5
3CE
100
AcDbSymbolTableRecord
100
AcDbLayerTableRecord
  2
_14796
 70
0
 62
7
  6
CONTINUOUS
370
-3
390
F
  0
LAYER
  5
3CF
100
AcDbSymbolTableRecord
100
AcDbLayerTableRecord
  2
_14839
 70
0
 62
7
  6
CONTINUOUS
370
-3
390
F
  0
LAYER
  5
3D0
100
AcDbSymbolTableRecord
100
AcDbLayerTableRecord
  2
_14846
 70
0
 62
7
  6
CONTINUOUS
370
-3
390
F
  0
LAYER
  5
3D1
100
AcDbSymbolTableRecord
100
AcDbLayerTableRecord
  2
_14927
 70
0
 62
7
  6
CONTINUOUS
370
-3
390
F
  0
LAYER
  5
3D2
100
AcDbSymbolTableRecord
100
AcDbLayerTableRecord
  2
_1498
 70
0
 62
7
  6
CONTINUOUS
370
-3
390
F
  0
LAYER
  5
3D3
100
AcDbSymbolTableRecord
100
AcDbLayerTableRecord
  2
_14989
 70
0
 62
7
  6
CONTINUOUS
370
-3
390
F
  0
LAYER
  5
3D4
100
AcDbSymbolTableRecord
100
AcDbLayerTableRecord
  2
_1504
 70
0
 62
7
  6
CONTINUOUS
370
-3
390
F
  0
LAYER
  5
3D5
100
AcDbSymbolTableRecord
100
AcDbLayerTableRecord
  2
_15093
 70
0
 62
7
  6
CONTINUOUS
370
-3
390
F
  0
LAYER
  5
3D6
100
AcDbSymbolTableRecord
100
AcDbLayerTableRecord
  2
_15127
 70
0
 62
7
  6
CONTINUOUS
370
-3
390
F
  0
LAYER
  5
3D7
100
AcDbSymbolTableRecord
100
AcDbLayerTableRecord
  2
_15232
 70
0
 62
7
  6
CONTINUOUS
370
-3
390
F
  0
LAYER
  5
3D8
100
AcDbSymbolTableRecord
100
AcDbLayerTableRecord
  2
_15272
 70
0
 62
7
  6
CONTINUOUS
370
-3
390
F
  0
LAYER
  5
3D9
100
AcDbSymbolTableRecord
100
AcDbLayerTableRecord
  2
_15273
 70
0
 62
7
  6
CONTINUOUS
370
-3
390
F
  0
LAYER
  5
3DA
100
AcDbSymbolTableRecord
100
AcDbLayerTableRecord
  2
_1529
 70
0
 62
7
  6
CONTINUOUS
370
-3
390
F
  0
LAYER
  5
3DB
100
AcDbSymbolTableRecord
100
AcDbLayerTableRecord
  2
_1530
 70
0
 62
7
  6
CONTINUOUS
370
-3
390
F
  0
LAYER
  5
3DC
100
AcDbSymbolTableRecord
100
AcDbLayerTableRecord
  2
_15304
 70
0
 62
7
  6
CONTINUOUS
370
-3
390
F
  0
LAYER
  5
3DD
100
AcDbSymbolTableRecord
100
AcDbLayerTableRecord
  2
_15389
 70
0
 62
7
  6
CONTINUOUS
370
-3
390
F
  0
LAYER
  5
3DE
100
AcDbSymbolTableRecord
100
AcDbLayerTableRecord
  2
_15392
 70
0
 62
7
  6
CONTINUOUS
370
-3
390
F
  0
LAYER
  5
3DF
100
AcDbSymbolTableRecord
100
AcDbLayerTableRecord
  2
_15438
 70
0
 62
7
  6
CONTINUOUS
370
-3
390
F
  0
LAYER
  5
3E0
100
AcDbSymbolTableRecord
100
AcDbLayerTableRecord
  2
_1545
 70
0
 62
7
  6
CONTINUOUS
370
-3
390
F
  0
LAYER
  5
3E1
100
AcDbSymbolTableRecord
100
AcDbLayerTableRecord
  2
_15487
 70
0
 62
7
  6
CONTINUOUS
370
-3
390
F
  0
LAYER
  5
3E2
100
AcDbSymbolTableRecord
100
AcDbLayerTableRecord
  2
_15519
 70
0
 62
7
  6
CONTINUOUS
370
-3
390
F
  0
LAYER
  5
3E3
100
AcDbSymbolTableRecord
100
AcDbLayerTableRecord
  2
_15521
 70
0
 62
7
  6
CONTINUOUS
370
-3
390
F
  0
LAYER
  5
3E4
100
AcDbSymbolTableRecord
100
AcDbLayerTableRecord
  2
_15540
 70
0
 62
7
  6
CONTINUOUS
370
-3
390
F
  0
LAYER
  5
3E5
100
AcDbSymbolTableRecord
100
AcDbLayerTableRecord
  2
_15550
 70
0
 62
7
  6
CONTINUOUS
370
-3
390
F
  0
LAYER
  5
3E6
100
AcDbSymbolTableRecord
100
AcDbLayerTableRecord
  2
_1556
 70
0
 62
7
  6
CONTINUOUS
370
-3
390
F
  0
LAYER
  5
3E7
100
AcDbSymbolTableRecord
100
AcDbLayerTableRecord
  2
_15568
 70
0
 62
7
  6
CONTINUOUS
370
-3
390
F
  0
LAYER
  5
3E8
100
AcDbSymbolTableRecord
100
AcDbLayerTableRecord
  2
_1557
 70
0
 62
7
  6
CONTINUOUS
370
-3
390
F
  0
LAYER
  5
3E9
100
AcDbSymbolTableRecord
100
AcDbLayerTableRecord
  2
_15572
 70
0
 62
7
  6
CONTINUOUS
370
-3
390
F
  0
LAYER
  5
3EA
100
AcDbSymbolTableRecord
100
AcDbLayerTableRecord
  2
_15603
 70
0
 62
7
  6
CONTINUOUS
370
-3
390
F
  0
LAYER
  5
3EB
100
AcDbSymbolTableRecord
100
AcDbLayerTableRecord
  2
_1562
 70
0
 62
7
  6
CONTINUOUS
370
-3
390
F
  0
LAYER
  5
3EC
100
AcDbSymbolTableRecord
100
AcDbLayerTableRecord
  2
_15642
 70
0
 62
7
  6
CONTINUOUS
370
-3
390
F
  0
LAYER
  5
3ED
100
AcDbSymbolTableRecord
100
AcDbLayerTableRecord
  2
_15656
 70
0
 62
7
  6
CONTINUOUS
370
-3
390
F
  0
LAYER
  5
3EE
100
AcDbSymbolTableRecord
100
AcDbLayerTableRecord
  2
_1566
 70
0
 62
7
  6
CONTINUOUS
370
-3
390
F
  0
LAYER
  5
3EF
100
AcDbSymbolTableRecord
100
AcDbLayerTableRecord
  2
_1567
 70
0
 62
7
  6
CONTINUOUS
370
-3
390
F
  0
LAYER
  5
3F0
100
AcDbSymbolTableRecord
100
AcDbLayerTableRecord
  2
_15699
 70
0
 62
7
  6
CONTINUOUS
370
-3
390
F
  0
LAYER
  5
3F1
100
AcDbSymbolTableRecord
100
AcDbLayerTableRecord
  2
_15702
 70
0
 62
7
  6
CONTINUOUS
370
-3
390
F
  0
LAYER
  5
3F2
100
AcDbSymbolTableRecord
100
AcDbLayerTableRecord
  2
_1576
 70
0
 62
7
  6
CONTINUOUS
370
-3
390
F
  0
LAYER
  5
3F3
100
AcDbSymbolTableRecord
100
AcDbLayerTableRecord
  2
_1581
 70
0
 62
7
  6
CONTINUOUS
370
-3
390
F
  0
LAYER
  5
3F4
100
AcDbSymbolTableRecord
100
AcDbLayerTableRecord
  2
_15839
 70
0
 62
7
  6
CONTINUOUS
370
-3
390
F
  0
LAYER
  5
3F5
100
AcDbSymbolTableRecord
100
AcDbLayerTableRecord
  2
_15852
 70
0
 62
7
  6
CONTINUOUS
370
-3
390
F
  0
LAYER
  5
3F6
100
AcDbSymbolTableRecord
100
AcDbLayerTableRecord
  2
_15909
 70
0
 62
7
  6
CONTINUOUS
370
-3
390
F
  0
LAYER
  5
3F7
100
AcDbSymbolTableRecord
100
AcDbLayerTableRecord
  2
_15910
 70
0
 62
7
  6
CONTINUOUS
370
-3
390
F
  0
LAYER
  5
3F8
100
AcDbSymbolTableRecord
100
AcDbLayerTableRecord
  2
_1595
 70
0
 62
7
  6
CONTINUOUS
370
-3
390
F
  0
LAYER
  5
3F9
100
AcDbSymbolTableRecord
100
AcDbLayerTableRecord
  2
_1598
 70
0
 62
7
  6
CONTINUOUS
370
-3
390
F
  0
LAYER
  5
3FA
100
AcDbSymbolTableRecord
100
AcDbLayerTableRecord
  2
_16019
 70
0
 62
7
  6
CONTINUOUS
370
-3
390
F
  0
LAYER
  5
3FB
100
AcDbSymbolTableRecord
100
AcDbLayerTableRecord
  2
_1603
 70
0
 62
7
  6
CONTINUOUS
370
-3
390
F
  0
LAYER
  5
3FC
100
AcDbSymbolTableRecord
100
AcDbLayerTableRecord
  2
_16030
 70
0
 62
7
  6
CONTINUOUS
370
-3
390
F
  0
LAYER
  5
3FD
100
AcDbSymbolTableRecord
100
AcDbLayerTableRecord
  2
_16041
 70
0
 62
7
  6
CONTINUOUS
370
-3
390
F
  0
LAYER
  5
3FE
100
AcDbSymbolTableRecord
100
AcDbLayerTableRecord
  2
_16054
 70
0
 62
7
  6
CONTINUOUS
370
-3
390
F
  0
LAYER
  5
3FF
100
AcDbSymbolTableRecord
100
AcDbLayerTableRecord
  2
_16157
 70
0
 62
7
  6
CONTINUOUS
370
-3
390
F
  0
LAYER
  5
400
100
AcDbSymbolTableRecord
100
AcDbLayerTableRecord
  2
_162
 70
0
 62
7
  6
CONTINUOUS
370
-3
390
F
  0
LAYER
  5
401
100
AcDbSymbolTableRecord
100
AcDbLayerTableRecord
  2
_1622
 70
0
 62
7
  6
CONTINUOUS
370
-3
390
F
  0
LAYER
  5
402
100
AcDbSymbolTableRecord
100
AcDbLayerTableRecord
  2
_1628
 70
0
 62
7
  6
CONTINUOUS
370
-3
390
F
  0
LAYER
  5
403
100
AcDbSymbolTableRecord
100
AcDbLayerTableRecord
  2
_1632
 70
0
 62
7
  6
CONTINUOUS
370
-3
390
F
  0
LAYER
  5
404
100
AcDbSymbolTableRecord
100
AcDbLayerTableRecord
  2
_1637
 70
0
 62
7
  6
CONTINUOUS
370
-3
390
F
  0
LAYER
  5
405
100
AcDbSymbolTableRecord
100
AcDbLayerTableRecord
  2
_1638
 70
0
 62
7
  6
CONTINUOUS
370
-3
390
F
  0
LAYER
  5
406
100
AcDbSymbolTableRecord
100
AcDbLayerTableRecord
  2
_1646
 70
0
 62
7
  6
CONTINUOUS
370
-3
390
F
  0
LAYER
  5
407
100
AcDbSymbolTableRecord
100
AcDbLayerTableRecord
  2
_1657
 70
0
 62
7
  6
CONTINUOUS
370
-3
390
F
  0
LAYER
  5
408
100
AcDbSymbolTableRecord
100
AcDbLayerTableRecord
  2
_1684
 70
0
 62
7
  6
CONTINUOUS
370
-3
390
F
  0
LAYER
  5
409
100
AcDbSymbolTableRecord
100
AcDbLayerTableRecord
  2
_1685
 70
0
 62
7
  6
CONTINUOUS
370
-3
390
F
  0
LAYER
  5
40A
100
AcDbSymbolTableRecord
100
AcDbLayerTableRecord
  2
_1686
 70
0
 62
7
  6
CONTINUOUS
370
-3
390
F
  0
LAYER
  5
40B
100
AcDbSymbolTableRecord
100
AcDbLayerTableRecord
  2
_1710
 70
0
 62
7
  6
CONTINUOUS
370
-3
390
F
  0
LAYER
  5
40C
100
AcDbSymbolTableRecord
100
AcDbLayerTableRecord
  2
_1717
 70
0
 62
7
  6
CONTINUOUS
370
-3
390
F
  0
LAYER
  5
40D
100
AcDbSymbolTableRecord
100
AcDbLayerTableRecord
  2
_1723
 70
0
 62
7
  6
CONTINUOUS
370
-3
390
F
  0
LAYER
  5
40E
100
AcDbSymbolTableRecord
100
AcDbLayerTableRecord
  2
_1731
 70
0
 62
7
  6
CONTINUOUS
370
-3
390
F
  0
LAYER
  5
40F
100
AcDbSymbolTableRecord
100
AcDbLayerTableRecord
  2
_1736
 70
0
 62
7
  6
CONTINUOUS
370
-3
390
F
  0
LAYER
  5
410
100
AcDbSymbolTableRecord
100
AcDbLayerTableRecord
  2
_1737
 70
0
 62
7
  6
CONTINUOUS
370
-3
390
F
  0
LAYER
  5
411
100
AcDbSymbolTableRecord
100
AcDbLayerTableRecord
  2
_1758
 70
0
 62
7
  6
CONTINUOUS
370
-3
390
F
  0
LAYER
  5
412
100
AcDbSymbolTableRecord
100
AcDbLayerTableRecord
  2
_1762
 70
0
 62
7
  6
CONTINUOUS
370
-3
390
F
  0
LAYER
  5
413
100
AcDbSymbolTableRecord
100
AcDbLayerTableRecord
  2
_1768
 70
0
 62
7
  6
CONTINUOUS
370
-3
390
F
  0
LAYER
  5
414
100
AcDbSymbolTableRecord
100
AcDbLayerTableRecord
  2
_1779
 70
0
 62
7
  6
CONTINUOUS
370
-3
390
F
  0
LAYER
  5
415
100
AcDbSymbolTableRecord
100
AcDbLayerTableRecord
  2
_1789
 70
0
 62
7
  6
CONTINUOUS
370
-3
390
F
  0
LAYER
  5
416
100
AcDbSymbolTableRecord
100
AcDbLayerTableRecord
  2
_1794
 70
0
 62
7
  6
CONTINUOUS
370
-3
390
F
  0
LAYER
  5
417
100
AcDbSymbolTableRecord
100
AcDbLayerTableRecord
  2
_1797
 70
0
 62
7
  6
CONTINUOUS
370
-3
390
F
  0
LAYER
  5
418
100
AcDbSymbolTableRecord
100
AcDbLayerTableRecord
  2
_1807
 70
0
 62
7
  6
CONTINUOUS
370
-3
390
F
  0
LAYER
  5
419
100
AcDbSymbolTableRecord
100
AcDbLayerTableRecord
  2
_1818
 70
0
 62
7
  6
CONTINUOUS
370
-3
390
F
  0
LAYER
  5
41A
100
AcDbSymbolTableRecord
100
AcDbLayerTableRecord
  2
_1819
 70
0
 62
7
  6
CONTINUOUS
370
-3
390
F
  0
LAYER
  5
41B
100
AcDbSymbolTableRecord
100
AcDbLayerTableRecord
  2
_182
 70
0
 62
7
  6
CONTINUOUS
370
-3
390
F
  0
LAYER
  5
41C
100
AcDbSymbolTableRecord
100
AcDbLayerTableRecord
  2
_1854
 70
0
 62
7
  6
CONTINUOUS
370
-3
390
F
  0
LAYER
  5
41D
100
AcDbSymbolTableRecord
100
AcDbLayerTableRecord
  2
_1869
 70
0
 62
7
  6
CONTINUOUS
370
-3
390
F
  0
LAYER
  5
41E
100
AcDbSymbolTableRecord
100
AcDbLayerTableRecord
  2
_187
 70
0
 62
7
  6
CONTINUOUS
370
-3
390
F
  0
LAYER
  5
41F
100
AcDbSymbolTableRecord
100
AcDbLayerTableRecord
  2
_1873
 70
0
 62
7
  6
CONTINUOUS
370
-3
390
F
  0
LAYER
  5
420
100
AcDbSymbolTableRecord
100
AcDbLayerTableRecord
  2
_1879
 70
0
 62
7
  6
CONTINUOUS
370
-3
390
F
  0
LAYER
  5
421
100
AcDbSymbolTableRecord
100
AcDbLayerTableRecord
  2
_1909
 70
0
 62
7
  6
CONTINUOUS
370
-3
390
F
  0
LAYER
  5
422
100
AcDbSymbolTableRecord
100
AcDbLayerTableRecord
  2
_1950
 70
0
 62
7
  6
CONTINUOUS
370
-3
390
F
  0
LAYER
  5
423
100
AcDbSymbolTableRecord
100
AcDbLayerTableRecord
  2
_1960
 70
0
 62
7
  6
CONTINUOUS
370
-3
390
F
  0
LAYER
  5
424
100
AcDbSymbolTableRecord
100
AcDbLayerTableRecord
  2
_1968
 70
0
 62
7
  6
CONTINUOUS
370
-3
390
F
  0
LAYER
  5
425
100
AcDbSymbolTableRecord
100
AcDbLayerTableRecord
  2
_1969
 70
0
 62
7
  6
CONTINUOUS
370
-3
390
F
  0
LAYER
  5
426
100
AcDbSymbolTableRecord
100
AcDbLayerTableRecord
  2
_198
 70
0
 62
7
  6
CONTINUOUS
370
-3
390
F
  0
LAYER
  5
427
100
AcDbSymbolTableRecord
100
AcDbLayerTableRecord
  2
_198_1
 70
0
 62
7
  6
CONTINUOUS
370
-3
390
F
  0
LAYER
  5
428
100
AcDbSymbolTableRecord
100
AcDbLayerTableRecord
  2
_1997
 70
0
 62
7
  6
CONTINUOUS
370
-3
390
F
  0
LAYER
  5
429
100
AcDbSymbolTableRecord
100
AcDbLayerTableRecord
  2
_2000
 70
0
 62
7
  6
CONTINUOUS
370
-3
390
F
  0
LAYER
  5
42A
100
AcDbSymbolTableRecord
100
AcDbLayerTableRecord
  2
_2004
 70
0
 62
7
  6
CONTINUOUS
370
-3
390
F
  0
LAYER
  5
42B
100
AcDbSymbolTableRecord
100
AcDbLayerTableRecord
  2
_2017
 70
0
 62
7
  6
CONTINUOUS
370
-3
390
F
  0
LAYER
  5
42C
100
AcDbSymbolTableRecord
100
AcDbLayerTableRecord
  2
_2019
 70
0
 62
7
  6
CONTINUOUS
370
-3
390
F
  0
LAYER
  5
42D
100
AcDbSymbolTableRecord
100
AcDbLayerTableRecord
  2
_2021
 70
0
 62
7
  6
CONTINUOUS
370
-3
390
F
  0
LAYER
  5
42E
100
AcDbSymbolTableRecord
100
AcDbLayerTableRecord
  2
_2029
 70
0
 62
7
  6
CONTINUOUS
370
-3
390
F
  0
LAYER
  5
42F
100
AcDbSymbolTableRecord
100
AcDbLayerTableRecord
  2
_2038
 70
0
 62
7
  6
CONTINUOUS
370
-3
390
F
  0
LAYER
  5
430
100
AcDbSymbolTableRecord
100
AcDbLayerTableRecord
  2
_2041
 70
0
 62
7
  6
CONTINUOUS
370
-3
390
F
  0
LAYER
  5
431
100
AcDbSymbolTableRecord
100
AcDbLayerTableRecord
  2
_2046
 70
0
 62
7
  6
CONTINUOUS
370
-3
390
F
  0
LAYER
  5
432
100
AcDbSymbolTableRecord
100
AcDbLayerTableRecord
  2
_2050
 70
0
 62
7
  6
CONTINUOUS
370
-3
390
F
  0
LAYER
  5
433
100
AcDbSymbolTableRecord
100
AcDbLayerTableRecord
  2
_2059
 70
0
 62
7
  6
CONTINUOUS
370
-3
390
F
  0
LAYER
  5
434
100
AcDbSymbolTableRecord
100
AcDbLayerTableRecord
  2
_2061
 70
0
 62
7
  6
CONTINUOUS
370
-3
390
F
  0
LAYER
  5
435
100
AcDbSymbolTableRecord
100
AcDbLayerTableRecord
  2
_2062
 70
0
 62
7
  6
CONTINUOUS
370
-3
390
F
  0
LAYER
  5
436
100
AcDbSymbolTableRecord
100
AcDbLayerTableRecord
  2
_2078
 70
0
 62
7
  6
CONTINUOUS
370
-3
390
F
  0
LAYER
  5
437
100
AcDbSymbolTableRecord
100
AcDbLayerTableRecord
  2
_2079
 70
0
 62
7
  6
CONTINUOUS
370
-3
390
F
  0
LAYER
  5
438
100
AcDbSymbolTableRecord
100
AcDbLayerTableRecord
  2
_2085
 70
0
 62
7
  6
CONTINUOUS
370
-3
390
F
  0
LAYER
  5
439
100
AcDbSymbolTableRecord
100
AcDbLayerTableRecord
  2
_2100
 70
0
 62
7
  6
CONTINUOUS
370
-3
390
F
  0
LAYER
  5
43A
100
AcDbSymbolTableRecord
100
AcDbLayerTableRecord
  2
_2103
 70
0
 62
7
  6
CONTINUOUS
370
-3
390
F
  0
LAYER
  5
43B
100
AcDbSymbolTableRecord
100
AcDbLayerTableRecord
  2
_2109
 70
0
 62
7
  6
CONTINUOUS
370
-3
390
F
  0
LAYER
  5
43C
100
AcDbSymbolTableRecord
100
AcDbLayerTableRecord
  2
_2110
 70
0
 62
7
  6
CONTINUOUS
370
-3
390
F
  0
LAYER
  5
43D
100
AcDbSymbolTableRecord
100
AcDbLayerTableRecord
  2
_2111
 70
0
 62
7
  6
CONTINUOUS
370
-3
390
F
  0
LAYER
  5
43E
100
AcDbSymbolTableRecord
100
AcDbLayerTableRecord
  2
_2129
 70
0
 62
7
  6
CONTINUOUS
370
-3
390
F
  0
LAYER
  5
43F
100
AcDbSymbolTableRecord
100
AcDbLayerTableRecord
  2
_2135
 70
0
 62
7
  6
CONTINUOUS
370
-3
390
F
  0
LAYER
  5
440
100
AcDbSymbolTableRecord
100
AcDbLayerTableRecord
  2
_2137
 70
0
 62
7
  6
CONTINUOUS
370
-3
390
F
  0
LAYER
  5
441
100
AcDbSymbolTableRecord
100
AcDbLayerTableRecord
  2
_2138
 70
0
 62
7
  6
CONTINUOUS
370
-3
390
F
  0
LAYER
  5
442
100
AcDbSymbolTableRecord
100
AcDbLayerTableRecord
  2
_2155
 70
0
 62
7
  6
CONTINUOUS
370
-3
390
F
  0
LAYER
  5
443
100
AcDbSymbolTableRecord
100
AcDbLayerTableRecord
  2
_2156
 70
0
 62
7
  6
CONTINUOUS
370
-3
390
F
  0
LAYER
  5
444
100
AcDbSymbolTableRecord
100
AcDbLayerTableRecord
  2
_216
 70
0
 62
7
  6
CONTINUOUS
370
-3
390
F
  0
LAYER
  5
445
100
AcDbSymbolTableRecord
100
AcDbLayerTableRecord
  2
_2161
 70
0
 62
7
  6
CONTINUOUS
370
-3
390
F
  0
LAYER
  5
446
100
AcDbSymbolTableRecord
100
AcDbLayerTableRecord
  2
_2171
 70
0
 62
7
  6
CONTINUOUS
370
-3
390
F
  0
LAYER
  5
447
100
AcDbSymbolTableRecord
100
AcDbLayerTableRecord
  2
_219
 70
0
 62
7
  6
CONTINUOUS
370
-3
390
F
  0
LAYER
  5
448
100
AcDbSymbolTableRecord
100
AcDbLayerTableRecord
  2
_2205
 70
0
 62
7
  6
CONTINUOUS
370
-3
390
F
  0
LAYER
  5
449
100
AcDbSymbolTableRecord
100
AcDbLayerTableRecord
  2
_2207
 70
0
 62
7
  6
CONTINUOUS
370
-3
390
F
  0
LAYER
  5
44A
100
AcDbSymbolTableRecord
100
AcDbLayerTableRecord
  2
_2215
 70
0
 62
7
  6
CONTINUOUS
370
-3
390
F
  0
LAYER
  5
44B
100
AcDbSymbolTableRecord
100
AcDbLayerTableRecord
  2
_222
 70
0
 62
7
  6
CONTINUOUS
370
-3
390
F
  0
LAYER
  5
44C
100
AcDbSymbolTableRecord
100
AcDbLayerTableRecord
  2
_2223
 70
0
 62
7
  6
CONTINUOUS
370
-3
390
F
  0
LAYER
  5
44D
100
AcDbSymbolTableRecord
100
AcDbLayerTableRecord
  2
_2227
 70
0
 62
7
  6
CONTINUOUS
370
-3
390
F
  0
LAYER
  5
44E
100
AcDbSymbolTableRecord
100
AcDbLayerTableRecord
  2
_2228
 70
0
 62
7
  6
CONTINUOUS
370
-3
390
F
  0
LAYER
  5
44F
100
AcDbSymbolTableRecord
100
AcDbLayerTableRecord
  2
_2231
 70
0
 62
7
  6
CONTINUOUS
370
-3
390
F
  0
LAYER
  5
450
100
AcDbSymbolTableRecord
100
AcDbLayerTableRecord
  2
_2246
 70
0
 62
7
  6
CONTINUOUS
370
-3
390
F
  0
LAYER
  5
451
100
AcDbSymbolTableRecord
100
AcDbLayerTableRecord
  2
_2263
 70
0
 62
7
  6
CONTINUOUS
370
-3
390
F
  0
LAYER
  5
452
100
AcDbSymbolTableRecord
100
AcDbLayerTableRecord
  2
_2297
 70
0
 62
7
  6
CONTINUOUS
370
-3
390
F
  0
LAYER
  5
453
100
AcDbSymbolTableRecord
100
AcDbLayerTableRecord
  2
_2298
 70
0
 62
7
  6
CONTINUOUS
370
-3
390
F
  0
LAYER
  5
454
100
AcDbSymbolTableRecord
100
AcDbLayerTableRecord
  2
_2319
 70
0
 62
7
  6
CONTINUOUS
370
-3
390
F
  0
LAYER
  5
455
100
AcDbSymbolTableRecord
100
AcDbLayerTableRecord
  2
_2329
 70
0
 62
7
  6
CONTINUOUS
370
-3
390
F
  0
LAYER
  5
456
100
AcDbSymbolTableRecord
100
AcDbLayerTableRecord
  2
_2347
 70
0
 62
7
  6
CONTINUOUS
370
-3
390
F
  0
LAYER
  5
457
100
AcDbSymbolTableRecord
100
AcDbLayerTableRecord
  2
_2352
 70
0
 62
7
  6
CONTINUOUS
370
-3
390
F
  0
LAYER
  5
458
100
AcDbSymbolTableRecord
100
AcDbLayerTableRecord
  2
_2354
 70
0
 62
7
  6
CONTINUOUS
370
-3
390
F
  0
LAYER
  5
459
100
AcDbSymbolTableRecord
100
AcDbLayerTableRecord
  2
_236
 70
0
 62
7
  6
CONTINUOUS
370
-3
390
F
  0
LAYER
  5
45A
100
AcDbSymbolTableRecord
100
AcDbLayerTableRecord
  2
_2368
 70
0
 62
7
  6
CONTINUOUS
370
-3
390
F
  0
LAYER
  5
45B
100
AcDbSymbolTableRecord
100
AcDbLayerTableRecord
  2
_2397
 70
0
 62
7
  6
CONTINUOUS
370
-3
390
F
  0
LAYER
  5
45C
100
AcDbSymbolTableRecord
100
AcDbLayerTableRecord
  2
_2404
 70
0
 62
7
  6
CONTINUOUS
370
-3
390
F
  0
LAYER
  5
45D
100
AcDbSymbolTableRecord
100
AcDbLayerTableRecord
  2
_2414
 70
0
 62
7
  6
CONTINUOUS
370
-3
390
F
  0
LAYER
  5
45E
100
AcDbSymbolTableRecord
100
AcDbLayerTableRecord
  2
_2422
 70
0
 62
7
  6
CONTINUOUS
370
-3
390
F
  0
LAYER
  5
45F
100
AcDbSymbolTableRecord
100
AcDbLayerTableRecord
  2
_243
 70
0
 62
7
  6
CONTINUOUS
370
-3
390
F
  0
LAYER
  5
460
100
AcDbSymbolTableRecord
100
AcDbLayerTableRecord
  2
_2432
 70
0
 62
7
  6
CONTINUOUS
370
-3
390
F
  0
LAYER
  5
461
100
AcDbSymbolTableRecord
100
AcDbLayerTableRecord
  2
_2433
 70
0
 62
7
  6
CONTINUOUS
370
-3
390
F
  0
LAYER
  5
462
100
AcDbSymbolTableRecord
100
AcDbLayerTableRecord
  2
_2468
 70
0
 62
7
  6
CONTINUOUS
370
-3
390
F
  0
LAYER
  5
463
100
AcDbSymbolTableRecord
100
AcDbLayerTableRecord
  2
_2490
 70
0
 62
7
  6
CONTINUOUS
370
-3
390
F
  0
LAYER
  5
464
100
AcDbSymbolTableRecord
100
AcDbLayerTableRecord
  2
_2493
 70
0
 62
7
  6
CONTINUOUS
370
-3
390
F
  0
LAYER
  5
465
100
AcDbSymbolTableRecord
100
AcDbLayerTableRecord
  2
_2499
 70
0
 62
7
  6
CONTINUOUS
370
-3
390
F
  0
LAYER
  5
466
100
AcDbSymbolTableRecord
100
AcDbLayerTableRecord
  2
_2511
 70
0
 62
7
  6
CONTINUOUS
370
-3
390
F
  0
LAYER
  5
467
100
AcDbSymbolTableRecord
100
AcDbLayerTableRecord
  2
_2519
 70
0
 62
7
  6
CONTINUOUS
370
-3
390
F
  0
LAYER
  5
468
100
AcDbSymbolTableRecord
100
AcDbLayerTableRecord
  2
_2525
 70
0
 62
7
  6
CONTINUOUS
370
-3
390
F
  0
LAYER
  5
469
100
AcDbSymbolTableRecord
100
AcDbLayerTableRecord
  2
_2528
 70
0
 62
7
  6
CONTINUOUS
370
-3
390
F
  0
LAYER
  5
46A
100
AcDbSymbolTableRecord
100
AcDbLayerTableRecord
  2
_2547
 70
0
 62
7
  6
CONTINUOUS
370
-3
390
F
  0
LAYER
  5
46B
100
AcDbSymbolTableRecord
100
AcDbLayerTableRecord
  2
_2555
 70
0
 62
7
  6
CONTINUOUS
370
-3
390
F
  0
LAYER
  5
46C
100
AcDbSymbolTableRecord
100
AcDbLayerTableRecord
  2
_2576
 70
0
 62
7
  6
CONTINUOUS
370
-3
390
F
  0
LAYER
  5
46D
100
AcDbSymbolTableRecord
100
AcDbLayerTableRecord
  2
_2577
 70
0
 62
7
  6
CONTINUOUS
370
-3
390
F
  0
LAYER
  5
46E
100
AcDbSymbolTableRecord
100
AcDbLayerTableRecord
  2
_2599
 70
0
 62
7
  6
CONTINUOUS
370
-3
390
F
  0
LAYER
  5
46F
100
AcDbSymbolTableRecord
100
AcDbLayerTableRecord
  2
_2613
 70
0
 62
7
  6
CONTINUOUS
370
-3
390
F
  0
LAYER
  5
470
100
AcDbSymbolTableRecord
100
AcDbLayerTableRecord
  2
_2619
 70
0
 62
7
  6
CONTINUOUS
370
-3
390
F
  0
LAYER
  5
471
100
AcDbSymbolTableRecord
100
AcDbLayerTableRecord
  2
_2627
 70
0
 62
7
  6
CONTINUOUS
370
-3
390
F
  0
LAYER
  5
472
100
AcDbSymbolTableRecord
100
AcDbLayerTableRecord
  2
_2628
 70
0
 62
7
  6
CONTINUOUS
370
-3
390
F
  0
LAYER
  5
473
100
AcDbSymbolTableRecord
100
AcDbLayerTableRecord
  2
_263
 70
0
 62
7
  6
CONTINUOUS
370
-3
390
F
  0
LAYER
  5
474
100
AcDbSymbolTableRecord
100
AcDbLayerTableRecord
  2
_2633
 70
0
 62
7
  6
CONTINUOUS
370
-3
390
F
  0
LAYER
  5
475
100
AcDbSymbolTableRecord
100
AcDbLayerTableRecord
  2
_2641
 70
0
 62
7
  6
CONTINUOUS
370
-3
390
F
  0
LAYER
  5
476
100
AcDbSymbolTableRecord
100
AcDbLayerTableRecord
  2
_2654
 70
0
 62
7
  6
CONTINUOUS
370
-3
390
F
  0
LAYER
  5
477
100
AcDbSymbolTableRecord
100
AcDbLayerTableRecord
  2
_2680
 70
0
 62
7
  6
CONTINUOUS
370
-3
390
F
  0
LAYER
  5
478
100
AcDbSymbolTableRecord
100
AcDbLayerTableRecord
  2
_271
 70
0
 62
7
  6
CONTINUOUS
370
-3
390
F
  0
LAYER
  5
479
100
AcDbSymbolTableRecord
100
AcDbLayerTableRecord
  2
_2713
 70
0
 62
7
  6
CONTINUOUS
370
-3
390
F
  0
LAYER
  5
47A
100
AcDbSymbolTableRecord
100
AcDbLayerTableRecord
  2
_2717
 70
0
 62
7
  6
CONTINUOUS
370
-3
390
F
  0
LAYER
  5
47B
100
AcDbSymbolTableRecord
100
AcDbLayerTableRecord
  2
_2725
 70
0
 62
7
  6
CONTINUOUS
370
-3
390
F
  0
LAYER
  5
47C
100
AcDbSymbolTableRecord
100
AcDbLayerTableRecord
  2
_2762
 70
0
 62
7
  6
CONTINUOUS
370
-3
390
F
  0
LAYER
  5
47D
100
AcDbSymbolTableRecord
100
AcDbLayerTableRecord
  2
_2763
 70
0
 62
7
  6
CONTINUOUS
370
-3
390
F
  0
LAYER
  5
47E
100
AcDbSymbolTableRecord
100
AcDbLayerTableRecord
  2
_2792
 70
0
 62
7
  6
CONTINUOUS
370
-3
390
F
  0
LAYER
  5
47F
100
AcDbSymbolTableRecord
100
AcDbLayerTableRecord
  2
_2798
 70
0
 62
7
  6
CONTINUOUS
370
-3
390
F
  0
LAYER
  5
480
100
AcDbSymbolTableRecord
100
AcDbLayerTableRecord
  2
_2810
 70
0
 62
7
  6
CONTINUOUS
370
-3
390
F
  0
LAYER
  5
481
100
AcDbSymbolTableRecord
100
AcDbLayerTableRecord
  2
_2813
 70
0
 62
7
  6
CONTINUOUS
370
-3
390
F
  0
LAYER
  5
482
100
AcDbSymbolTableRecord
100
AcDbLayerTableRecord
  2
_2828
 70
0
 62
7
  6
CONTINUOUS
370
-3
390
F
  0
LAYER
  5
483
100
AcDbSymbolTableRecord
100
AcDbLayerTableRecord
  2
_2832
 70
0
 62
7
  6
CONTINUOUS
370
-3
390
F
  0
LAYER
  5
484
100
AcDbSymbolTableRecord
100
AcDbLayerTableRecord
  2
_2840
 70
0
 62
7
  6
CONTINUOUS
370
-3
390
F
  0
LAYER
  5
485
100
AcDbSymbolTableRecord
100
AcDbLayerTableRecord
  2
_285
 70
0
 62
7
  6
CONTINUOUS
370
-3
390
F
  0
LAYER
  5
486
100
AcDbSymbolTableRecord
100
AcDbLayerTableRecord
  2
_2866
 70
0
 62
7
  6
CONTINUOUS
370
-3
390
F
  0
LAYER
  5
487
100
AcDbSymbolTableRecord
100
AcDbLayerTableRecord
  2
_2870
 70
0
 62
7
  6
CONTINUOUS
370
-3
390
F
  0
LAYER
  5
488
100
AcDbSymbolTableRecord
100
AcDbLayerTableRecord
  2
_2871
 70
0
 62
7
  6
CONTINUOUS
370
-3
390
F
  0
LAYER
  5
489
100
AcDbSymbolTableRecord
100
AcDbLayerTableRecord
  2
_2901
 70
0
 62
7
  6
CONTINUOUS
370
-3
390
F
  0
LAYER
  5
48A
100
AcDbSymbolTableRecord
100
AcDbLayerTableRecord
  2
_2907
 70
0
 62
7
  6
CONTINUOUS
370
-3
390
F
  0
LAYER
  5
48B
100
AcDbSymbolTableRecord
100
AcDbLayerTableRecord
  2
_2932
 70
0
 62
7
  6
CONTINUOUS
370
-3
390
F
  0
LAYER
  5
48C
100
AcDbSymbolTableRecord
100
AcDbLayerTableRecord
  2
_2933
 70
0
 62
7
  6
CONTINUOUS
370
-3
390
F
  0
LAYER
  5
48D
100
AcDbSymbolTableRecord
100
AcDbLayerTableRecord
  2
_2937
 70
0
 62
7
  6
CONTINUOUS
370
-3
390
F
  0
LAYER
  5
48E
100
AcDbSymbolTableRecord
100
AcDbLayerTableRecord
  2
_2942
 70
0
 62
7
  6
CONTINUOUS
370
-3
390
F
  0
LAYER
  5
48F
100
AcDbSymbolTableRecord
100
AcDbLayerTableRecord
  2
_2945
 70
0
 62
7
  6
CONTINUOUS
370
-3
390
F
  0
LAYER
  5
490
100
AcDbSymbolTableRecord
100
AcDbLayerTableRecord
  2
_2953
 70
0
 62
7
  6
CONTINUOUS
370
-3
390
F
  0
LAYER
  5
491
100
AcDbSymbolTableRecord
100
AcDbLayerTableRecord
  2
_2956
 70
0
 62
7
  6
CONTINUOUS
370
-3
390
F
  0
LAYER
  5
492
100
AcDbSymbolTableRecord
100
AcDbLayerTableRecord
  2
_2984
 70
0
 62
7
  6
CONTINUOUS
370
-3
390
F
  0
LAYER
  5
493
100
AcDbSymbolTableRecord
100
AcDbLayerTableRecord
  2
_3014
 70
0
 62
7
  6
CONTINUOUS
370
-3
390
F
  0
LAYER
  5
494
100
AcDbSymbolTableRecord
100
AcDbLayerTableRecord
  2
_3014_1
 70
0
 62
7
  6
CONTINUOUS
370
-3
390
F
  0
LAYER
  5
495
100
AcDbSymbolTableRecord
100
AcDbLayerTableRecord
  2
_3016
 70
0
 62
7
  6
CONTINUOUS
370
-3
390
F
  0
LAYER
  5
496
100
AcDbSymbolTableRecord
100
AcDbLayerTableRecord
  2
_3023
 70
0
 62
7
  6
CONTINUOUS
370
-3
390
F
  0
LAYER
  5
497
100
AcDbSymbolTableRecord
100
AcDbLayerTableRecord
  2
_3042
 70
0
 62
7
  6
CONTINUOUS
370
-3
390
F
  0
LAYER
  5
498
100
AcDbSymbolTableRecord
100
AcDbLayerTableRecord
  2
_3044
 70
0
 62
7
  6
CONTINUOUS
370
-3
390
F
  0
LAYER
  5
499
100
AcDbSymbolTableRecord
100
AcDbLayerTableRecord
  2
_3046
 70
0
 62
7
  6
CONTINUOUS
370
-3
390
F
  0
LAYER
  5
49A
100
AcDbSymbolTableRecord
100
AcDbLayerTableRecord
  2
_3069
 70
0
 62
7
  6
CONTINUOUS
370
-3
390
F
  0
LAYER
  5
49B
100
AcDbSymbolTableRecord
100
AcDbLayerTableRecord
  2
_3071
 70
0
 62
7
  6
CONTINUOUS
370
-3
390
F
  0
LAYER
  5
49C
100
AcDbSymbolTableRecord
100
AcDbLayerTableRecord
  2
_3074
 70
0
 62
7
  6
CONTINUOUS
370
-3
390
F
  0
LAYER
  5
49D
100
AcDbSymbolTableRecord
100
AcDbLayerTableRecord
  2
_308
 70
0
 62
7
  6
CONTINUOUS
370
-3
390
F
  0
LAYER
  5
49E
100
AcDbSymbolTableRecord
100
AcDbLayerTableRecord
  2
_3087
 70
0
 62
7
  6
CONTINUOUS
370
-3
390
F
  0
LAYER
  5
49F
100
AcDbSymbolTableRecord
100
AcDbLayerTableRecord
  2
_3094
 70
0
 62
7
  6
CONTINUOUS
370
-3
390
F
  0
LAYER
  5
4A0
100
AcDbSymbolTableRecord
100
AcDbLayerTableRecord
  2
_3095
 70
0
 62
7
  6
CONTINUOUS
370
-3
390
F
  0
LAYER
  5
4A1
100
AcDbSymbolTableRecord
100
AcDbLayerTableRecord
  2
_3099
 70
0
 62
7
  6
CONTINUOUS
370
-3
390
F
  0
LAYER
  5
4A2
100
AcDbSymbolTableRecord
100
AcDbLayerTableRecord
  2
_3101
 70
0
 62
7
  6
CONTINUOUS
370
-3
390
F
  0
LAYER
  5
4A3
100
AcDbSymbolTableRecord
100
AcDbLayerTableRecord
  2
_3107
 70
0
 62
7
  6
CONTINUOUS
370
-3
390
F
  0
LAYER
  5
4A4
100
AcDbSymbolTableRecord
100
AcDbLayerTableRecord
  2
_311
 70
0
 62
7
  6
CONTINUOUS
370
-3
390
F
  0
LAYER
  5
4A5
100
AcDbSymbolTableRecord
100
AcDbLayerTableRecord
  2
_3119
 70
0
 62
7
  6
CONTINUOUS
370
-3
390
F
  0
LAYER
  5
4A6
100
AcDbSymbolTableRecord
100
AcDbLayerTableRecord
  2
_3129
 70
0
 62
7
  6
CONTINUOUS
370
-3
390
F
  0
LAYER
  5
4A7
100
AcDbSymbolTableRecord
100
AcDbLayerTableRecord
  2
_3142
 70
0
 62
7
  6
CONTINUOUS
370
-3
390
F
  0
LAYER
  5
4A8
100
AcDbSymbolTableRecord
100
AcDbLayerTableRecord
  2
_3158
 70
0
 62
7
  6
CONTINUOUS
370
-3
390
F
  0
LAYER
  5
4A9
100
AcDbSymbolTableRecord
100
AcDbLayerTableRecord
  2
_3167
 70
0
 62
7
  6
CONTINUOUS
370
-3
390
F
  0
LAYER
  5
4AA
100
AcDbSymbolTableRecord
100
AcDbLayerTableRecord
  2
_3178
 70
0
 62
7
  6
CONTINUOUS
370
-3
390
F
  0
LAYER
  5
4AB
100
AcDbSymbolTableRecord
100
AcDbLayerTableRecord
  2
_3185
 70
0
 62
7
  6
CONTINUOUS
370
-3
390
F
  0
LAYER
  5
4AC
100
AcDbSymbolTableRecord
100
AcDbLayerTableRecord
  2
_319
 70
0
 62
7
  6
CONTINUOUS
370
-3
390
F
  0
LAYER
  5
4AD
100
AcDbSymbolTableRecord
100
AcDbLayerTableRecord
  2
_3192
 70
0
 62
7
  6
CONTINUOUS
370
-3
390
F
  0
LAYER
  5
4AE
100
AcDbSymbolTableRecord
100
AcDbLayerTableRecord
  2
_3196
 70
0
 62
7
  6
CONTINUOUS
370
-3
390
F
  0
LAYER
  5
4AF
100
AcDbSymbolTableRecord
100
AcDbLayerTableRecord
  2
_3198
 70
0
 62
7
  6
CONTINUOUS
370
-3
390
F
  0
LAYER
  5
4B0
100
AcDbSymbolTableRecord
100
AcDbLayerTableRecord
  2
_3203
 70
0
 62
7
  6
CONTINUOUS
370
-3
390
F
  0
LAYER
  5
4B1
100
AcDbSymbolTableRecord
100
AcDbLayerTableRecord
  2
_3211
 70
0
 62
7
  6
CONTINUOUS
370
-3
390
F
  0
LAYER
  5
4B2
100
AcDbSymbolTableRecord
100
AcDbLayerTableRecord
  2
_3220
 70
0
 62
7
  6
CONTINUOUS
370
-3
390
F
  0
LAYER
  5
4B3
100
AcDbSymbolTableRecord
100
AcDbLayerTableRecord
  2
_3228
 70
0
 62
7
  6
CONTINUOUS
370
-3
390
F
  0
LAYER
  5
4B4
100
AcDbSymbolTableRecord
100
AcDbLayerTableRecord
  2
_3231
 70
0
 62
7
  6
CONTINUOUS
370
-3
390
F
  0
LAYER
  5
4B5
100
AcDbSymbolTableRecord
100
AcDbLayerTableRecord
  2
_3239
 70
0
 62
7
  6
CONTINUOUS
370
-3
390
F
  0
LAYER
  5
4B6
100
AcDbSymbolTableRecord
100
AcDbLayerTableRecord
  2
_3242
 70
0
 62
7
  6
CONTINUOUS
370
-3
390
F
  0
LAYER
  5
4B7
100
AcDbSymbolTableRecord
100
AcDbLayerTableRecord
  2
_3245
 70
0
 62
7
  6
CONTINUOUS
370
-3
390
F
  0
LAYER
  5
4B8
100
AcDbSymbolTableRecord
100
AcDbLayerTableRecord
  2
_3249
 70
0
 62
7
  6
CONTINUOUS
370
-3
390
F
  0
LAYER
  5
4B9
100
AcDbSymbolTableRecord
100
AcDbLayerTableRecord
  2
_3262
 70
0
 62
7
  6
CONTINUOUS
370
-3
390
F
  0
LAYER
  5
4BA
100
AcDbSymbolTableRecord
100
AcDbLayerTableRecord
  2
_3281
 70
0
 62
7
  6
CONTINUOUS
370
-3
390
F
  0
LAYER
  5
4BB
100
AcDbSymbolTableRecord
100
AcDbLayerTableRecord
  2
_3313
 70
0
 62
7
  6
CONTINUOUS
370
-3
390
F
  0
LAYER
  5
4BC
100
AcDbSymbolTableRecord
100
AcDbLayerTableRecord
  2
_3317
 70
0
 62
7
  6
CONTINUOUS
370
-3
390
F
  0
LAYER
  5
4BD
100
AcDbSymbolTableRecord
100
AcDbLayerTableRecord
  2
_3318
 70
0
 62
7
  6
CONTINUOUS
370
-3
390
F
  0
LAYER
  5
4BE
100
AcDbSymbolTableRecord
100
AcDbLayerTableRecord
  2
_3325
 70
0
 62
7
  6
CONTINUOUS
370
-3
390
F
  0
LAYER
  5
4BF
100
AcDbSymbolTableRecord
100
AcDbLayerTableRecord
  2
_333
 70
0
 62
7
  6
CONTINUOUS
370
-3
390
F
  0
LAYER
  5
4C0
100
AcDbSymbolTableRecord
100
AcDbLayerTableRecord
  2
_3331
 70
0
 62
7
  6
CONTINUOUS
370
-3
390
F
  0
LAYER
  5
4C1
100
AcDbSymbolTableRecord
100
AcDbLayerTableRecord
  2
_3342
 70
0
 62
7
  6
CONTINUOUS
370
-3
390
F
  0
LAYER
  5
4C2
100
AcDbSymbolTableRecord
100
AcDbLayerTableRecord
  2
_3351
 70
0
 62
7
  6
CONTINUOUS
370
-3
390
F
  0
LAYER
  5
4C3
100
AcDbSymbolTableRecord
100
AcDbLayerTableRecord
  2
_3355
 70
0
 62
7
  6
CONTINUOUS
370
-3
390
F
  0
LAYER
  5
4C4
100
AcDbSymbolTableRecord
100
AcDbLayerTableRecord
  2
_3359
 70
0
 62
7
  6
CONTINUOUS
370
-3
390
F
  0
LAYER
  5
4C5
100
AcDbSymbolTableRecord
100
AcDbLayerTableRecord
  2
_3373
 70
0
 62
7
  6
CONTINUOUS
370
-3
390
F
  0
LAYER
  5
4C6
100
AcDbSymbolTableRecord
100
AcDbLayerTableRecord
  2
_3373_1
 70
0
 62
7
  6
CONTINUOUS
370
-3
390
F
  0
LAYER
  5
4C7
100
AcDbSymbolTableRecord
100
AcDbLayerTableRecord
  2
_3379
 70
0
 62
7
  6
CONTINUOUS
370
-3
390
F
  0
LAYER
  5
4C8
100
AcDbSymbolTableRecord
100
AcDbLayerTableRecord
  2
_3385
 70
0
 62
7
  6
CONTINUOUS
370
-3
390
F
  0
LAYER
  5
4C9
100
AcDbSymbolTableRecord
100
AcDbLayerTableRecord
  2
_3394
 70
0
 62
7
  6
CONTINUOUS
370
-3
390
F
  0
LAYER
  5
4CA
100
AcDbSymbolTableRecord
100
AcDbLayerTableRecord
  2
_3400
 70
0
 62
7
  6
CONTINUOUS
370
-3
390
F
  0
LAYER
  5
4CB
100
AcDbSymbolTableRecord
100
AcDbLayerTableRecord
  2
_3413
 70
0
 62
7
  6
CONTINUOUS
370
-3
390
F
  0
LAYER
  5
4CC
100
AcDbSymbolTableRecord
100
AcDbLayerTableRecord
  2
_3423
 70
0
 62
7
  6
CONTINUOUS
370
-3
390
F
  0
LAYER
  5
4CD
100
AcDbSymbolTableRecord
100
AcDbLayerTableRecord
  2
_3426
 70
0
 62
7
  6
CONTINUOUS
370
-3
390
F
  0
LAYER
  5
4CE
100
AcDbSymbolTableRecord
100
AcDbLayerTableRecord
  2
_3435
 70
0
 62
7
  6
CONTINUOUS
370
-3
390
F
  0
LAYER
  5
4CF
100
AcDbSymbolTableRecord
100
AcDbLayerTableRecord
  2
_3455
 70
0
 62
7
  6
CONTINUOUS
370
-3
390
F
  0
LAYER
  5
4D0
100
AcDbSymbolTableRecord
100
AcDbLayerTableRecord
  2
_3465
 70
0
 62
7
  6
CONTINUOUS
370
-3
390
F
  0
LAYER
  5
4D1
100
AcDbSymbolTableRecord
100
AcDbLayerTableRecord
  2
_3476
 70
0
 62
7
  6
CONTINUOUS
370
-3
390
F
  0
LAYER
  5
4D2
100
AcDbSymbolTableRecord
100
AcDbLayerTableRecord
  2
_3478
 70
0
 62
7
  6
CONTINUOUS
370
-3
390
F
  0
LAYER
  5
4D3
100
AcDbSymbolTableRecord
100
AcDbLayerTableRecord
  2
_3498
 70
0
 62
7
  6
CONTINUOUS
370
-3
390
F
  0
LAYER
  5
4D4
100
AcDbSymbolTableRecord
100
AcDbLayerTableRecord
  2
_352
 70
0
 62
7
  6
CONTINUOUS
370
-3
390
F
  0
LAYER
  5
4D5
100
AcDbSymbolTableRecord
100
AcDbLayerTableRecord
  2
_3528
 70
0
 62
7
  6
CONTINUOUS
370
-3
390
F
  0
LAYER
  5
4D6
100
AcDbSymbolTableRecord
100
AcDbLayerTableRecord
  2
_3544
 70
0
 62
7
  6
CONTINUOUS
370
-3
390
F
  0
LAYER
  5
4D7
100
AcDbSymbolTableRecord
100
AcDbLayerTableRecord
  2
_3545
 70
0
 62
7
  6
CONTINUOUS
370
-3
390
F
  0
LAYER
  5
4D8
100
AcDbSymbolTableRecord
100
AcDbLayerTableRecord
  2
_3546
 70
0
 62
7
  6
CONTINUOUS
370
-3
390
F
  0
LAYER
  5
4D9
100
AcDbSymbolTableRecord
100
AcDbLayerTableRecord
  2
_3551
 70
0
 62
7
  6
CONTINUOUS
370
-3
390
F
  0
LAYER
  5
4DA
100
AcDbSymbolTableRecord
100
AcDbLayerTableRecord
  2
_3552
 70
0
 62
7
  6
CONTINUOUS
370
-3
390
F
  0
LAYER
  5
4DB
100
AcDbSymbolTableRecord
100
AcDbLayerTableRecord
  2
_3557
 70
0
 62
7
  6
CONTINUOUS
370
-3
390
F
  0
LAYER
  5
4DC
100
AcDbSymbolTableRecord
100
AcDbLayerTableRecord
  2
_3558
 70
0
 62
7
  6
CONTINUOUS
370
-3
390
F
  0
LAYER
  5
4DD
100
AcDbSymbolTableRecord
100
AcDbLayerTableRecord
  2
_3570
 70
0
 62
7
  6
CONTINUOUS
370
-3
390
F
  0
LAYER
  5
4DE
100
AcDbSymbolTableRecord
100
AcDbLayerTableRecord
  2
_3583
 70
0
 62
7
  6
CONTINUOUS
370
-3
390
F
  0
LAYER
  5
4DF
100
AcDbSymbolTableRecord
100
AcDbLayerTableRecord
  2
_3585
 70
0
 62
7
  6
CONTINUOUS
370
-3
390
F
  0
LAYER
  5
4E0
100
AcDbSymbolTableRecord
100
AcDbLayerTableRecord
  2
_3587
 70
0
 62
7
  6
CONTINUOUS
370
-3
390
F
  0
LAYER
  5
4E1
100
AcDbSymbolTableRecord
100
AcDbLayerTableRecord
  2
_3588
 70
0
 62
7
  6
CONTINUOUS
370
-3
390
F
  0
LAYER
  5
4E2
100
AcDbSymbolTableRecord
100
AcDbLayerTableRecord
  2
_3589
 70
0
 62
7
  6
CONTINUOUS
370
-3
390
F
  0
LAYER
  5
4E3
100
AcDbSymbolTableRecord
100
AcDbLayerTableRecord
  2
_3617
 70
0
 62
7
  6
CONTINUOUS
370
-3
390
F
  0
LAYER
  5
4E4
100
AcDbSymbolTableRecord
100
AcDbLayerTableRecord
  2
_3625
 70
0
 62
7
  6
CONTINUOUS
370
-3
390
F
  0
LAYER
  5
4E5
100
AcDbSymbolTableRecord
100
AcDbLayerTableRecord
  2
_3633
 70
0
 62
7
  6
CONTINUOUS
370
-3
390
F
  0
LAYER
  5
4E6
100
AcDbSymbolTableRecord
100
AcDbLayerTableRecord
  2
_3635
 70
0
 62
7
  6
CONTINUOUS
370
-3
390
F
  0
LAYER
  5
4E7
100
AcDbSymbolTableRecord
100
AcDbLayerTableRecord
  2
_3640
 70
0
 62
7
  6
CONTINUOUS
370
-3
390
F
  0
LAYER
  5
4E8
100
AcDbSymbolTableRecord
100
AcDbLayerTableRecord
  2
_3656
 70
0
 62
7
  6
CONTINUOUS
370
-3
390
F
  0
LAYER
  5
4E9
100
AcDbSymbolTableRecord
100
AcDbLayerTableRecord
  2
_3665
 70
0
 62
7
  6
CONTINUOUS
370
-3
390
F
  0
LAYER
  5
4EA
100
AcDbSymbolTableRecord
100
AcDbLayerTableRecord
  2
_3667
 70
0
 62
7
  6
CONTINUOUS
370
-3
390
F
  0
LAYER
  5
4EB
100
AcDbSymbolTableRecord
100
AcDbLayerTableRecord
  2
_3688
 70
0
 62
7
  6
CONTINUOUS
370
-3
390
F
  0
LAYER
  5
4EC
100
AcDbSymbolTableRecord
100
AcDbLayerTableRecord
  2
_3692
 70
0
 62
7
  6
CONTINUOUS
370
-3
390
F
  0
LAYER
  5
4ED
100
AcDbSymbolTableRecord
100
AcDbLayerTableRecord
  2
_370
 70
0
 62
7
  6
CONTINUOUS
370
-3
390
F
  0
LAYER
  5
4EE
100
AcDbSymbolTableRecord
100
AcDbLayerTableRecord
  2
_3700
 70
0
 62
7
  6
CONTINUOUS
370
-3
390
F
  0
LAYER
  5
4EF
100
AcDbSymbolTableRecord
100
AcDbLayerTableRecord
  2
_3723
 70
0
 62
7
  6
CONTINUOUS
370
-3
390
F
  0
LAYER
  5
4F0
100
AcDbSymbolTableRecord
100
AcDbLayerTableRecord
  2
_3725
 70
0
 62
7
  6
CONTINUOUS
370
-3
390
F
  0
LAYER
  5
4F1
100
AcDbSymbolTableRecord
100
AcDbLayerTableRecord
  2
_3752
 70
0
 62
7
  6
CONTINUOUS
370
-3
390
F
  0
LAYER
  5
4F2
100
AcDbSymbolTableRecord
100
AcDbLayerTableRecord
  2
_3762
 70
0
 62
7
  6
CONTINUOUS
370
-3
390
F
  0
LAYER
  5
4F3
100
AcDbSymbolTableRecord
100
AcDbLayerTableRecord
  2
_3764
 70
0
 62
7
  6
CONTINUOUS
370
-3
390
F
  0
LAYER
  5
4F4
100
AcDbSymbolTableRecord
100
AcDbLayerTableRecord
  2
_3775
 70
0
 62
7
  6
CONTINUOUS
370
-3
390
F
  0
LAYER
  5
4F5
100
AcDbSymbolTableRecord
100
AcDbLayerTableRecord
  2
_3795
 70
0
 62
7
  6
CONTINUOUS
370
-3
390
F
  0
LAYER
  5
4F6
100
AcDbSymbolTableRecord
100
AcDbLayerTableRecord
  2
_3800
 70
0
 62
7
  6
CONTINUOUS
370
-3
390
F
  0
LAYER
  5
4F7
100
AcDbSymbolTableRecord
100
AcDbLayerTableRecord
  2
_3807
 70
0
 62
7
  6
CONTINUOUS
370
-3
390
F
  0
LAYER
  5
4F8
100
AcDbSymbolTableRecord
100
AcDbLayerTableRecord
  2
_3831
 70
0
 62
7
  6
CONTINUOUS
370
-3
390
F
  0
LAYER
  5
4F9
100
AcDbSymbolTableRecord
100
AcDbLayerTableRecord
  2
_384
 70
0
 62
7
  6
CONTINUOUS
370
-3
390
F
  0
LAYER
  5
4FA
100
AcDbSymbolTableRecord
100
AcDbLayerTableRecord
  2
_3841
 70
0
 62
7
  6
CONTINUOUS
370
-3
390
F
  0
LAYER
  5
4FB
100
AcDbSymbolTableRecord
100
AcDbLayerTableRecord
  2
_3843
 70
0
 62
7
  6
CONTINUOUS
370
-3
390
F
  0
LAYER
  5
4FC
100
AcDbSymbolTableRecord
100
AcDbLayerTableRecord
  2
_3858
 70
0
 62
7
  6
CONTINUOUS
370
-3
390
F
  0
LAYER
  5
4FD
100
AcDbSymbolTableRecord
100
AcDbLayerTableRecord
  2
_3858_1
 70
0
 62
7
  6
CONTINUOUS
370
-3
390
F
  0
LAYER
  5
4FE
100
AcDbSymbolTableRecord
100
AcDbLayerTableRecord
  2
_3864
 70
0
 62
7
  6
CONTINUOUS
370
-3
390
F
  0
LAYER
  5
4FF
100
AcDbSymbolTableRecord
100
AcDbLayerTableRecord
  2
_3878
 70
0
 62
7
  6
CONTINUOUS
370
-3
390
F
  0
LAYER
  5
500
100
AcDbSymbolTableRecord
100
AcDbLayerTableRecord
  2
_3881
 70
0
 62
7
  6
CONTINUOUS
370
-3
390
F
  0
LAYER
  5
501
100
AcDbSymbolTableRecord
100
AcDbLayerTableRecord
  2
_3897
 70
0
 62
7
  6
CONTINUOUS
370
-3
390
F
  0
LAYER
  5
502
100
AcDbSymbolTableRecord
100
AcDbLayerTableRecord
  2
_3919
 70
0
 62
7
  6
CONTINUOUS
370
-3
390
F
  0
LAYER
  5
503
100
AcDbSymbolTableRecord
100
AcDbLayerTableRecord
  2
_3955
 70
0
 62
7
  6
CONTINUOUS
370
-3
390
F
  0
LAYER
  5
504
100
AcDbSymbolTableRecord
100
AcDbLayerTableRecord
  2
_396
 70
0
 62
7
  6
CONTINUOUS
370
-3
390
F
  0
LAYER
  5
505
100
AcDbSymbolTableRecord
100
AcDbLayerTableRecord
  2
_3964
 70
0
 62
7
  6
CONTINUOUS
370
-3
390
F
  0
LAYER
  5
506
100
AcDbSymbolTableRecord
100
AcDbLayerTableRecord
  2
_3973
 70
0
 62
7
  6
CONTINUOUS
370
-3
390
F
  0
LAYER
  5
507
100
AcDbSymbolTableRecord
100
AcDbLayerTableRecord
  2
_3978
 70
0
 62
7
  6
CONTINUOUS
370
-3
390
F
  0
LAYER
  5
508
100
AcDbSymbolTableRecord
100
AcDbLayerTableRecord
  2
_3997
 70
0
 62
7
  6
CONTINUOUS
370
-3
390
F
  0
LAYER
  5
509
100
AcDbSymbolTableRecord
100
AcDbLayerTableRecord
  2
_4003
 70
0
 62
7
  6
CONTINUOUS
370
-3
390
F
  0
LAYER
  5
50A
100
AcDbSymbolTableRecord
100
AcDbLayerTableRecord
  2
_4018
 70
0
 62
7
  6
CONTINUOUS
370
-3
390
F
  0
LAYER
  5
50B
100
AcDbSymbolTableRecord
100
AcDbLayerTableRecord
  2
_4032
 70
0
 62
7
  6
CONTINUOUS
370
-3
390
F
  0
LAYER
  5
50C
100
AcDbSymbolTableRecord
100
AcDbLayerTableRecord
  2
_4044
 70
0
 62
7
  6
CONTINUOUS
370
-3
390
F
  0
LAYER
  5
50D
100
AcDbSymbolTableRecord
100
AcDbLayerTableRecord
  2
_4061
 70
0
 62
7
  6
CONTINUOUS
370
-3
390
F
  0
LAYER
  5
50E
100
AcDbSymbolTableRecord
100
AcDbLayerTableRecord
  2
_4061_1
 70
0
 62
7
  6
CONTINUOUS
370
-3
390
F
  0
LAYER
  5
50F
100
AcDbSymbolTableRecord
100
AcDbLayerTableRecord
  2
_4072
 70
0
 62
7
  6
CONTINUOUS
370
-3
390
F
  0
LAYER
  5
510
100
AcDbSymbolTableRecord
100
AcDbLayerTableRecord
  2
_4074
 70
0
 62
7
  6
CONTINUOUS
370
-3
390
F
  0
LAYER
  5
511
100
AcDbSymbolTableRecord
100
AcDbLayerTableRecord
  2
_409
 70
0
 62
7
  6
CONTINUOUS
370
-3
390
F
  0
LAYER
  5
512
100
AcDbSymbolTableRecord
100
AcDbLayerTableRecord
  2
_4106
 70
0
 62
7
  6
CONTINUOUS
370
-3
390
F
  0
LAYER
  5
513
100
AcDbSymbolTableRecord
100
AcDbLayerTableRecord
  2
_411
 70
0
 62
7
  6
CONTINUOUS
370
-3
390
F
  0
LAYER
  5
514
100
AcDbSymbolTableRecord
100
AcDbLayerTableRecord
  2
_4118
 70
0
 62
7
  6
CONTINUOUS
370
-3
390
F
  0
LAYER
  5
515
100
AcDbSymbolTableRecord
100
AcDbLayerTableRecord
  2
_4120
 70
0
 62
7
  6
CONTINUOUS
370
-3
390
F
  0
LAYER
  5
516
100
AcDbSymbolTableRecord
100
AcDbLayerTableRecord
  2
_4123
 70
0
 62
7
  6
CONTINUOUS
370
-3
390
F
  0
LAYER
  5
517
100
AcDbSymbolTableRecord
100
AcDbLayerTableRecord
  2
_4151
 70
0
 62
7
  6
CONTINUOUS
370
-3
390
F
  0
LAYER
  5
518
100
AcDbSymbolTableRecord
100
AcDbLayerTableRecord
  2
_4168
 70
0
 62
7
  6
CONTINUOUS
370
-3
390
F
  0
LAYER
  5
519
100
AcDbSymbolTableRecord
100
AcDbLayerTableRecord
  2
_4175
 70
0
 62
7
  6
CONTINUOUS
370
-3
390
F
  0
LAYER
  5
51A
100
AcDbSymbolTableRecord
100
AcDbLayerTableRecord
  2
_4185
 70
0
 62
7
  6
CONTINUOUS
370
-3
390
F
  0
LAYER
  5
51B
100
AcDbSymbolTableRecord
100
AcDbLayerTableRecord
  2
_4196
 70
0
 62
7
  6
CONTINUOUS
370
-3
390
F
  0
LAYER
  5
51C
100
AcDbSymbolTableRecord
100
AcDbLayerTableRecord
  2
_4207
 70
0
 62
7
  6
CONTINUOUS
370
-3
390
F
  0
LAYER
  5
51D
100
AcDbSymbolTableRecord
100
AcDbLayerTableRecord
  2
_4219
 70
0
 62
7
  6
CONTINUOUS
370
-3
390
F
  0
LAYER
  5
51E
100
AcDbSymbolTableRecord
100
AcDbLayerTableRecord
  2
_422
 70
0
 62
7
  6
CONTINUOUS
370
-3
390
F
  0
LAYER
  5
51F
100
AcDbSymbolTableRecord
100
AcDbLayerTableRecord
  2
_4225
 70
0
 62
7
  6
CONTINUOUS
370
-3
390
F
  0
LAYER
  5
520
100
AcDbSymbolTableRecord
100
AcDbLayerTableRecord
  2
_4225_1
 70
0
 62
7
  6
CONTINUOUS
370
-3
390
F
  0
LAYER
  5
521
100
AcDbSymbolTableRecord
100
AcDbLayerTableRecord
  2
_4246
 70
0
 62
7
  6
CONTINUOUS
370
-3
390
F
  0
LAYER
  5
522
100
AcDbSymbolTableRecord
100
AcDbLayerTableRecord
  2
_4290
 70
0
 62
7
  6
CONTINUOUS
370
-3
390
F
  0
LAYER
  5
523
100
AcDbSymbolTableRecord
100
AcDbLayerTableRecord
  2
_4298
 70
0
 62
7
  6
CONTINUOUS
370
-3
390
F
  0
LAYER
  5
524
100
AcDbSymbolTableRecord
100
AcDbLayerTableRecord
  2
_4315
 70
0
 62
7
  6
CONTINUOUS
370
-3
390
F
  0
LAYER
  5
525
100
AcDbSymbolTableRecord
100
AcDbLayerTableRecord
  2
_4316
 70
0
 62
7
  6
CONTINUOUS
370
-3
390
F
  0
LAYER
  5
526
100
AcDbSymbolTableRecord
100
AcDbLayerTableRecord
  2
_4320
 70
0
 62
7
  6
CONTINUOUS
370
-3
390
F
  0
LAYER
  5
527
100
AcDbSymbolTableRecord
100
AcDbLayerTableRecord
  2
_4342
 70
0
 62
7
  6
CONTINUOUS
370
-3
390
F
  0
LAYER
  5
528
100
AcDbSymbolTableRecord
100
AcDbLayerTableRecord
  2
_4352
 70
0
 62
7
  6
CONTINUOUS
370
-3
390
F
  0
LAYER
  5
529
100
AcDbSymbolTableRecord
100
AcDbLayerTableRecord
  2
_4372
 70
0
 62
7
  6
CONTINUOUS
370
-3
390
F
  0
LAYER
  5
52A
100
AcDbSymbolTableRecord
100
AcDbLayerTableRecord
  2
_4385
 70
0
 62
7
  6
CONTINUOUS
370
-3
390
F
  0
LAYER
  5
52B
100
AcDbSymbolTableRecord
100
AcDbLayerTableRecord
  2
_4433
 70
0
 62
7
  6
CONTINUOUS
370
-3
390
F
  0
LAYER
  5
52C
100
AcDbSymbolTableRecord
100
AcDbLayerTableRecord
  2
_4440
 70
0
 62
7
  6
CONTINUOUS
370
-3
390
F
  0
LAYER
  5
52D
100
AcDbSymbolTableRecord
100
AcDbLayerTableRecord
  2
_4445
 70
0
 62
7
  6
CONTINUOUS
370
-3
390
F
  0
LAYER
  5
52E
100
AcDbSymbolTableRecord
100
AcDbLayerTableRecord
  2
_4460
 70
0
 62
7
  6
CONTINUOUS
370
-3
390
F
  0
LAYER
  5
52F
100
AcDbSymbolTableRecord
100
AcDbLayerTableRecord
  2
_4464
 70
0
 62
7
  6
CONTINUOUS
370
-3
390
F
  0
LAYER
  5
530
100
AcDbSymbolTableRecord
100
AcDbLayerTableRecord
  2
_447
 70
0
 62
7
  6
CONTINUOUS
370
-3
390
F
  0
LAYER
  5
531
100
AcDbSymbolTableRecord
100
AcDbLayerTableRecord
  2
_4498
 70
0
 62
7
  6
CONTINUOUS
370
-3
390
F
  0
LAYER
  5
532
100
AcDbSymbolTableRecord
100
AcDbLayerTableRecord
  2
_4507
 70
0
 62
7
  6
CONTINUOUS
370
-3
390
F
  0
LAYER
  5
533
100
AcDbSymbolTableRecord
100
AcDbLayerTableRecord
  2
_4513
 70
0
 62
7
  6
CONTINUOUS
370
-3
390
F
  0
LAYER
  5
534
100
AcDbSymbolTableRecord
100
AcDbLayerTableRecord
  2
_453
 70
0
 62
7
  6
CONTINUOUS
370
-3
390
F
  0
LAYER
  5
535
100
AcDbSymbolTableRecord
100
AcDbLayerTableRecord
  2
_4558
 70
0
 62
7
  6
CONTINUOUS
370
-3
390
F
  0
LAYER
  5
536
100
AcDbSymbolTableRecord
100
AcDbLayerTableRecord
  2
_4563
 70
0
 62
7
  6
CONTINUOUS
370
-3
390
F
  0
LAYER
  5
537
100
AcDbSymbolTableRecord
100
AcDbLayerTableRecord
  2
_4585
 70
0
 62
7
  6
CONTINUOUS
370
-3
390
F
  0
LAYER
  5
538
100
AcDbSymbolTableRecord
100
AcDbLayerTableRecord
  2
_4588
 70
0
 62
7
  6
CONTINUOUS
370
-3
390
F
  0
LAYER
  5
539
100
AcDbSymbolTableRecord
100
AcDbLayerTableRecord
  2
_460
 70
0
 62
7
  6
CONTINUOUS
370
-3
390
F
  0
LAYER
  5
53A
100
AcDbSymbolTableRecord
100
AcDbLayerTableRecord
  2
_4600
 70
0
 62
7
  6
CONTINUOUS
370
-3
390
F
  0
LAYER
  5
53B
100
AcDbSymbolTableRecord
100
AcDbLayerTableRecord
  2
_462
 70
0
 62
7
  6
CONTINUOUS
370
-3
390
F
  0
LAYER
  5
53C
100
AcDbSymbolTableRecord
100
AcDbLayerTableRecord
  2
_464
 70
0
 62
7
  6
CONTINUOUS
370
-3
390
F
  0
LAYER
  5
53D
100
AcDbSymbolTableRecord
100
AcDbLayerTableRecord
  2
_4648
 70
0
 62
7
  6
CONTINUOUS
370
-3
390
F
  0
LAYER
  5
53E
100
AcDbSymbolTableRecord
100
AcDbLayerTableRecord
  2
_4649
 70
0
 62
7
  6
CONTINUOUS
370
-3
390
F
  0
LAYER
  5
53F
100
AcDbSymbolTableRecord
100
AcDbLayerTableRecord
  2
_4650
 70
0
 62
7
  6
CONTINUOUS
370
-3
390
F
  0
LAYER
  5
540
100
AcDbSymbolTableRecord
100
AcDbLayerTableRecord
  2
_4653
 70
0
 62
7
  6
CONTINUOUS
370
-3
390
F
  0
LAYER
  5
541
100
AcDbSymbolTableRecord
100
AcDbLayerTableRecord
  2
_4656
 70
0
 62
7
  6
CONTINUOUS
370
-3
390
F
  0
LAYER
  5
542
100
AcDbSymbolTableRecord
100
AcDbLayerTableRecord
  2
_4662
 70
0
 62
7
  6
CONTINUOUS
370
-3
390
F
  0
LAYER
  5
543
100
AcDbSymbolTableRecord
100
AcDbLayerTableRecord
  2
_4684
 70
0
 62
7
  6
CONTINUOUS
370
-3
390
F
  0
LAYER
  5
544
100
AcDbSymbolTableRecord
100
AcDbLayerTableRecord
  2
_4691
 70
0
 62
7
  6
CONTINUOUS
370
-3
390
F
  0
LAYER
  5
545
100
AcDbSymbolTableRecord
100
AcDbLayerTableRecord
  2
_472
 70
0
 62
7
  6
CONTINUOUS
370
-3
390
F
  0
LAYER
  5
546
100
AcDbSymbolTableRecord
100
AcDbLayerTableRecord
  2
_4736
 70
0
 62
7
  6
CONTINUOUS
370
-3
390
F
  0
LAYER
  5
547
100
AcDbSymbolTableRecord
100
AcDbLayerTableRecord
  2
_4754
 70
0
 62
7
  6
CONTINUOUS
370
-3
390
F
  0
LAYER
  5
548
100
AcDbSymbolTableRecord
100
AcDbLayerTableRecord
  2
_476
 70
0
 62
7
  6
CONTINUOUS
370
-3
390
F
  0
LAYER
  5
549
100
AcDbSymbolTableRecord
100
AcDbLayerTableRecord
  2
_4768
 70
0
 62
7
  6
CONTINUOUS
370
-3
390
F
  0
LAYER
  5
54A
100
AcDbSymbolTableRecord
100
AcDbLayerTableRecord
  2
_4814
 70
0
 62
7
  6
CONTINUOUS
370
-3
390
F
  0
LAYER
  5
54B
100
AcDbSymbolTableRecord
100
AcDbLayerTableRecord
  2
_4828
 70
0
 62
7
  6
CONTINUOUS
370
-3
390
F
  0
LAYER
  5
54C
100
AcDbSymbolTableRecord
100
AcDbLayerTableRecord
  2
_4838
 70
0
 62
7
  6
CONTINUOUS
370
-3
390
F
  0
LAYER
  5
54D
100
AcDbSymbolTableRecord
100
AcDbLayerTableRecord
  2
_4839
 70
0
 62
7
  6
CONTINUOUS
370
-3
390
F
  0
LAYER
  5
54E
100
AcDbSymbolTableRecord
100
AcDbLayerTableRecord
  2
_4842
 70
0
 62
7
  6
CONTINUOUS
370
-3
390
F
  0
LAYER
  5
54F
100
AcDbSymbolTableRecord
100
AcDbLayerTableRecord
  2
_4853
 70
0
 62
7
  6
CONTINUOUS
370
-3
390
F
  0
LAYER
  5
550
100
AcDbSymbolTableRecord
100
AcDbLayerTableRecord
  2
_4861
 70
0
 62
7
  6
CONTINUOUS
370
-3
390
F
  0
LAYER
  5
551
100
AcDbSymbolTableRecord
100
AcDbLayerTableRecord
  2
_4867
 70
0
 62
7
  6
CONTINUOUS
370
-3
390
F
  0
LAYER
  5
552
100
AcDbSymbolTableRecord
100
AcDbLayerTableRecord
  2
_4908
 70
0
 62
7
  6
CONTINUOUS
370
-3
390
F
  0
LAYER
  5
553
100
AcDbSymbolTableRecord
100
AcDbLayerTableRecord
  2
_4913
 70
0
 62
7
  6
CONTINUOUS
370
-3
390
F
  0
LAYER
  5
554
100
AcDbSymbolTableRecord
100
AcDbLayerTableRecord
  2
_4922
 70
0
 62
7
  6
CONTINUOUS
370
-3
390
F
  0
LAYER
  5
555
100
AcDbSymbolTableRecord
100
AcDbLayerTableRecord
  2
_4930
 70
0
 62
7
  6
CONTINUOUS
370
-3
390
F
  0
LAYER
  5
556
100
AcDbSymbolTableRecord
100
AcDbLayerTableRecord
  2
_4940
 70
0
 62
7
  6
CONTINUOUS
370
-3
390
F
  0
LAYER
  5
557
100
AcDbSymbolTableRecord
100
AcDbLayerTableRecord
  2
_4957
 70
0
 62
7
  6
CONTINUOUS
370
-3
390
F
  0
LAYER
  5
558
100
AcDbSymbolTableRecord
100
AcDbLayerTableRecord
  2
_4967
 70
0
 62
7
  6
CONTINUOUS
370
-3
390
F
  0
LAYER
  5
559
100
AcDbSymbolTableRecord
100
AcDbLayerTableRecord
  2
_4985
 70
0
 62
7
  6
CONTINUOUS
370
-3
390
F
  0
LAYER
  5
55A
100
AcDbSymbolTableRecord
100
AcDbLayerTableRecord
  2
_5021
 70
0
 62
7
  6
CONTINUOUS
370
-3
390
F
  0
LAYER
  5
55B
100
AcDbSymbolTableRecord
100
AcDbLayerTableRecord
  2
_504
 70
0
 62
7
  6
CONTINUOUS
370
-3
390
F
  0
LAYER
  5
55C
100
AcDbSymbolTableRecord
100
AcDbLayerTableRecord
  2
_5041
 70
0
 62
7
  6
CONTINUOUS
370
-3
390
F
  0
LAYER
  5
55D
100
AcDbSymbolTableRecord
100
AcDbLayerTableRecord
  2
_5069
 70
0
 62
7
  6
CONTINUOUS
370
-3
390
F
  0
LAYER
  5
55E
100
AcDbSymbolTableRecord
100
AcDbLayerTableRecord
  2
_5088
 70
0
 62
7
  6
CONTINUOUS
370
-3
390
F
  0
LAYER
  5
55F
100
AcDbSymbolTableRecord
100
AcDbLayerTableRecord
  2
_5097
 70
0
 62
7
  6
CONTINUOUS
370
-3
390
F
  0
LAYER
  5
560
100
AcDbSymbolTableRecord
100
AcDbLayerTableRecord
  2
_5122
 70
0
 62
7
  6
CONTINUOUS
370
-3
390
F
  0
LAYER
  5
561
100
AcDbSymbolTableRecord
100
AcDbLayerTableRecord
  2
_5123
 70
0
 62
7
  6
CONTINUOUS
370
-3
390
F
  0
LAYER
  5
562
100
AcDbSymbolTableRecord
100
AcDbLayerTableRecord
  2
_5139
 70
0
 62
7
  6
CONTINUOUS
370
-3
390
F
  0
LAYER
  5
563
100
AcDbSymbolTableRecord
100
AcDbLayerTableRecord
  2
_5140
 70
0
 62
7
  6
CONTINUOUS
370
-3
390
F
  0
LAYER
  5
564
100
AcDbSymbolTableRecord
100
AcDbLayerTableRecord
  2
_5156
 70
0
 62
7
  6
CONTINUOUS
370
-3
390
F
  0
LAYER
  5
565
100
AcDbSymbolTableRecord
100
AcDbLayerTableRecord
  2
_5169
 70
0
 62
7
  6
CONTINUOUS
370
-3
390
F
  0
LAYER
  5
566
100
AcDbSymbolTableRecord
100
AcDbLayerTableRecord
  2
_5175
 70
0
 62
7
  6
CONTINUOUS
370
-3
390
F
  0
LAYER
  5
567
100
AcDbSymbolTableRecord
100
AcDbLayerTableRecord
  2
_5182
 70
0
 62
7
  6
CONTINUOUS
370
-3
390
F
  0
LAYER
  5
568
100
AcDbSymbolTableRecord
100
AcDbLayerTableRecord
  2
_5208
 70
0
 62
7
  6
CONTINUOUS
370
-3
390
F
  0
LAYER
  5
569
100
AcDbSymbolTableRecord
100
AcDbLayerTableRecord
  2
_5214
 70
0
 62
7
  6
CONTINUOUS
370
-3
390
F
  0
LAYER
  5
56A
100
AcDbSymbolTableRecord
100
AcDbLayerTableRecord
  2
_5258
 70
0
 62
7
  6
CONTINUOUS
370
-3
390
F
  0
LAYER
  5
56B
100
AcDbSymbolTableRecord
100
AcDbLayerTableRecord
  2
_5275
 70
0
 62
7
  6
CONTINUOUS
370
-3
390
F
  0
LAYER
  5
56C
100
AcDbSymbolTableRecord
100
AcDbLayerTableRecord
  2
_5275_1
 70
0
 62
7
  6
CONTINUOUS
370
-3
390
F
  0
LAYER
  5
56D
100
AcDbSymbolTableRecord
100
AcDbLayerTableRecord
  2
_5276
 70
0
 62
7
  6
CONTINUOUS
370
-3
390
F
  0
LAYER
  5
56E
100
AcDbSymbolTableRecord
100
AcDbLayerTableRecord
  2
_5299
 70
0
 62
7
  6
CONTINUOUS
370
-3
390
F
  0
LAYER
  5
56F
100
AcDbSymbolTableRecord
100
AcDbLayerTableRecord
  2
_5300
 70
0
 62
7
  6
CONTINUOUS
370
-3
390
F
  0
LAYER
  5
570
100
AcDbSymbolTableRecord
100
AcDbLayerTableRecord
  2
_5306
 70
0
 62
7
  6
CONTINUOUS
370
-3
390
F
  0
LAYER
  5
571
100
AcDbSymbolTableRecord
100
AcDbLayerTableRecord
  2
_5317
 70
0
 62
7
  6
CONTINUOUS
370
-3
390
F
  0
LAYER
  5
572
100
AcDbSymbolTableRecord
100
AcDbLayerTableRecord
  2
_5323
 70
0
 62
7
  6
CONTINUOUS
370
-3
390
F
  0
LAYER
  5
573
100
AcDbSymbolTableRecord
100
AcDbLayerTableRecord
  2
_5373
 70
0
 62
7
  6
CONTINUOUS
370
-3
390
F
  0
LAYER
  5
574
100
AcDbSymbolTableRecord
100
AcDbLayerTableRecord
  2
_538
 70
0
 62
7
  6
CONTINUOUS
370
-3
390
F
  0
LAYER
  5
575
100
AcDbSymbolTableRecord
100
AcDbLayerTableRecord
  2
_540
 70
0
 62
7
  6
CONTINUOUS
370
-3
390
F
  0
LAYER
  5
576
100
AcDbSymbolTableRecord
100
AcDbLayerTableRecord
  2
_5422
 70
0
 62
7
  6
CONTINUOUS
370
-3
390
F
  0
LAYER
  5
577
100
AcDbSymbolTableRecord
100
AcDbLayerTableRecord
  2
_5429
 70
0
 62
7
  6
CONTINUOUS
370
-3
390
F
  0
LAYER
  5
578
100
AcDbSymbolTableRecord
100
AcDbLayerTableRecord
  2
_544
 70
0
 62
7
  6
CONTINUOUS
370
-3
390
F
  0
LAYER
  5
579
100
AcDbSymbolTableRecord
100
AcDbLayerTableRecord
  2
_5441
 70
0
 62
7
  6
CONTINUOUS
370
-3
390
F
  0
LAYER
  5
57A
100
AcDbSymbolTableRecord
100
AcDbLayerTableRecord
  2
_5443
 70
0
 62
7
  6
CONTINUOUS
370
-3
390
F
  0
LAYER
  5
57B
100
AcDbSymbolTableRecord
100
AcDbLayerTableRecord
  2
_5453
 70
0
 62
7
  6
CONTINUOUS
370
-3
390
F
  0
LAYER
  5
57C
100
AcDbSymbolTableRecord
100
AcDbLayerTableRecord
  2
_5455
 70
0
 62
7
  6
CONTINUOUS
370
-3
390
F
  0
LAYER
  5
57D
100
AcDbSymbolTableRecord
100
AcDbLayerTableRecord
  2
_5459
 70
0
 62
7
  6
CONTINUOUS
370
-3
390
F
  0
LAYER
  5
57E
100
AcDbSymbolTableRecord
100
AcDbLayerTableRecord
  2
_5462
 70
0
 62
7
  6
CONTINUOUS
370
-3
390
F
  0
LAYER
  5
57F
100
AcDbSymbolTableRecord
100
AcDbLayerTableRecord
  2
_5468
 70
0
 62
7
  6
CONTINUOUS
370
-3
390
F
  0
LAYER
  5
580
100
AcDbSymbolTableRecord
100
AcDbLayerTableRecord
  2
_5486
 70
0
 62
7
  6
CONTINUOUS
370
-3
390
F
  0
LAYER
  5
581
100
AcDbSymbolTableRecord
100
AcDbLayerTableRecord
  2
_5489
 70
0
 62
7
  6
CONTINUOUS
370
-3
390
F
  0
LAYER
  5
582
100
AcDbSymbolTableRecord
100
AcDbLayerTableRecord
  2
_55
 70
0
 62
7
  6
CONTINUOUS
370
-3
390
F
  0
LAYER
  5
583
100
AcDbSymbolTableRecord
100
AcDbLayerTableRecord
  2
_5518
 70
0
 62
7
  6
CONTINUOUS
370
-3
390
F
  0
LAYER
  5
584
100
AcDbSymbolTableRecord
100
AcDbLayerTableRecord
  2
_5533
 70
0
 62
7
  6
CONTINUOUS
370
-3
390
F
  0
LAYER
  5
585
100
AcDbSymbolTableRecord
100
AcDbLayerTableRecord
  2
_5552
 70
0
 62
7
  6
CONTINUOUS
370
-3
390
F
  0
LAYER
  5
586
100
AcDbSymbolTableRecord
100
AcDbLayerTableRecord
  2
_5598
 70
0
 62
7
  6
CONTINUOUS
370
-3
390
F
  0
LAYER
  5
587
100
AcDbSymbolTableRecord
100
AcDbLayerTableRecord
  2
_560
 70
0
 62
7
  6
CONTINUOUS
370
-3
390
F
  0
LAYER
  5
588
100
AcDbSymbolTableRecord
100
AcDbLayerTableRecord
  2
_5626
 70
0
 62
7
  6
CONTINUOUS
370
-3
390
F
  0
LAYER
  5
589
100
AcDbSymbolTableRecord
100
AcDbLayerTableRecord
  2
_5639
 70
0
 62
7
  6
CONTINUOUS
370
-3
390
F
  0
LAYER
  5
58A
100
AcDbSymbolTableRecord
100
AcDbLayerTableRecord
  2
_5644
 70
0
 62
7
  6
CONTINUOUS
370
-3
390
F
  0
LAYER
  5
58B
100
AcDbSymbolTableRecord
100
AcDbLayerTableRecord
  2
_5658
 70
0
 62
7
  6
CONTINUOUS
370
-3
390
F
  0
LAYER
  5
58C
100
AcDbSymbolTableRecord
100
AcDbLayerTableRecord
  2
_5666
 70
0
 62
7
  6
CONTINUOUS
370
-3
390
F
  0
LAYER
  5
58D
100
AcDbSymbolTableRecord
100
AcDbLayerTableRecord
  2
_5668
 70
0
 62
7
  6
CONTINUOUS
370
-3
390
F
  0
LAYER
  5
58E
100
AcDbSymbolTableRecord
100
AcDbLayerTableRecord
  2
_5678
 70
0
 62
7
  6
CONTINUOUS
370
-3
390
F
  0
LAYER
  5
58F
100
AcDbSymbolTableRecord
100
AcDbLayerTableRecord
  2
_5688
 70
0
 62
7
  6
CONTINUOUS
370
-3
390
F
  0
LAYER
  5
590
100
AcDbSymbolTableRecord
100
AcDbLayerTableRecord
  2
_569
 70
0
 62
7
  6
CONTINUOUS
370
-3
390
F
  0
LAYER
  5
591
100
AcDbSymbolTableRecord
100
AcDbLayerTableRecord
  2
_5704
 70
0
 62
7
  6
CONTINUOUS
370
-3
390
F
  0
LAYER
  5
592
100
AcDbSymbolTableRecord
100
AcDbLayerTableRecord
  2
_5707
 70
0
 62
7
  6
CONTINUOUS
370
-3
390
F
  0
LAYER
  5
593
100
AcDbSymbolTableRecord
100
AcDbLayerTableRecord
  2
_5713
 70
0
 62
7
  6
CONTINUOUS
370
-3
390
F
  0
LAYER
  5
594
100
AcDbSymbolTableRecord
100
AcDbLayerTableRecord
  2
_5737
 70
0
 62
7
  6
CONTINUOUS
370
-3
390
F
  0
LAYER
  5
595
100
AcDbSymbolTableRecord
100
AcDbLayerTableRecord
  2
_5742
 70
0
 62
7
  6
CONTINUOUS
370
-3
390
F
  0
LAYER
  5
596
100
AcDbSymbolTableRecord
100
AcDbLayerTableRecord
  2
_5757
 70
0
 62
7
  6
CONTINUOUS
370
-3
390
F
  0
LAYER
  5
597
100
AcDbSymbolTableRecord
100
AcDbLayerTableRecord
  2
_5758
 70
0
 62
7
  6
CONTINUOUS
370
-3
390
F
  0
LAYER
  5
598
100
AcDbSymbolTableRecord
100
AcDbLayerTableRecord
  2
_5759
 70
0
 62
7
  6
CONTINUOUS
370
-3
390
F
  0
LAYER
  5
599
100
AcDbSymbolTableRecord
100
AcDbLayerTableRecord
  2
_5774
 70
0
 62
7
  6
CONTINUOUS
370
-3
390
F
  0
LAYER
  5
59A
100
AcDbSymbolTableRecord
100
AcDbLayerTableRecord
  2
_5783
 70
0
 62
7
  6
CONTINUOUS
370
-3
390
F
  0
LAYER
  5
59B
100
AcDbSymbolTableRecord
100
AcDbLayerTableRecord
  2
_5788
 70
0
 62
7
  6
CONTINUOUS
370
-3
390
F
  0
LAYER
  5
59C
100
AcDbSymbolTableRecord
100
AcDbLayerTableRecord
  2
_5789
 70
0
 62
7
  6
CONTINUOUS
370
-3
390
F
  0
LAYER
  5
59D
100
AcDbSymbolTableRecord
100
AcDbLayerTableRecord
  2
_579
 70
0
 62
7
  6
CONTINUOUS
370
-3
390
F
  0
LAYER
  5
59E
100
AcDbSymbolTableRecord
100
AcDbLayerTableRecord
  2
_5813
 70
0
 62
7
  6
CONTINUOUS
370
-3
390
F
  0
LAYER
  5
59F
100
AcDbSymbolTableRecord
100
AcDbLayerTableRecord
  2
_5816
 70
0
 62
7
  6
CONTINUOUS
370
-3
390
F
  0
LAYER
  5
5A0
100
AcDbSymbolTableRecord
100
AcDbLayerTableRecord
  2
_5817
 70
0
 62
7
  6
CONTINUOUS
370
-3
390
F
  0
LAYER
  5
5A1
100
AcDbSymbolTableRecord
100
AcDbLayerTableRecord
  2
_5832
 70
0
 62
7
  6
CONTINUOUS
370
-3
390
F
  0
LAYER
  5
5A2
100
AcDbSymbolTableRecord
100
AcDbLayerTableRecord
  2
_5836
 70
0
 62
7
  6
CONTINUOUS
370
-3
390
F
  0
LAYER
  5
5A3
100
AcDbSymbolTableRecord
100
AcDbLayerTableRecord
  2
_5863
 70
0
 62
7
  6
CONTINUOUS
370
-3
390
F
  0
LAYER
  5
5A4
100
AcDbSymbolTableRecord
100
AcDbLayerTableRecord
  2
_5874
 70
0
 62
7
  6
CONTINUOUS
370
-3
390
F
  0
LAYER
  5
5A5
100
AcDbSymbolTableRecord
100
AcDbLayerTableRecord
  2
_588
 70
0
 62
7
  6
CONTINUOUS
370
-3
390
F
  0
LAYER
  5
5A6
100
AcDbSymbolTableRecord
100
AcDbLayerTableRecord
  2
_5884
 70
0
 62
7
  6
CONTINUOUS
370
-3
390
F
  0
LAYER
  5
5A7
100
AcDbSymbolTableRecord
100
AcDbLayerTableRecord
  2
_5896
 70
0
 62
7
  6
CONTINUOUS
370
-3
390
F
  0
LAYER
  5
5A8
100
AcDbSymbolTableRecord
100
AcDbLayerTableRecord
  2
_5903
 70
0
 62
7
  6
CONTINUOUS
370
-3
390
F
  0
LAYER
  5
5A9
100
AcDbSymbolTableRecord
100
AcDbLayerTableRecord
  2
_5915
 70
0
 62
7
  6
CONTINUOUS
370
-3
390
F
  0
LAYER
  5
5AA
100
AcDbSymbolTableRecord
100
AcDbLayerTableRecord
  2
_5923
 70
0
 62
7
  6
CONTINUOUS
370
-3
390
F
  0
LAYER
  5
5AB
100
AcDbSymbolTableRecord
100
AcDbLayerTableRecord
  2
_5926
 70
0
 62
7
  6
CONTINUOUS
370
-3
390
F
  0
LAYER
  5
5AC
100
AcDbSymbolTableRecord
100
AcDbLayerTableRecord
  2
_5939
 70
0
 62
7
  6
CONTINUOUS
370
-3
390
F
  0
LAYER
  5
5AD
100
AcDbSymbolTableRecord
100
AcDbLayerTableRecord
  2
_5941
 70
0
 62
7
  6
CONTINUOUS
370
-3
390
F
  0
LAYER
  5
5AE
100
AcDbSymbolTableRecord
100
AcDbLayerTableRecord
  2
_5960
 70
0
 62
7
  6
CONTINUOUS
370
-3
390
F
  0
LAYER
  5
5AF
100
AcDbSymbolTableRecord
100
AcDbLayerTableRecord
  2
_5962
 70
0
 62
7
  6
CONTINUOUS
370
-3
390
F
  0
LAYER
  5
5B0
100
AcDbSymbolTableRecord
100
AcDbLayerTableRecord
  2
_5977
 70
0
 62
7
  6
CONTINUOUS
370
-3
390
F
  0
LAYER
  5
5B1
100
AcDbSymbolTableRecord
100
AcDbLayerTableRecord
  2
_5978
 70
0
 62
7
  6
CONTINUOUS
370
-3
390
F
  0
LAYER
  5
5B2
100
AcDbSymbolTableRecord
100
AcDbLayerTableRecord
  2
_5982
 70
0
 62
7
  6
CONTINUOUS
370
-3
390
F
  0
LAYER
  5
5B3
100
AcDbSymbolTableRecord
100
AcDbLayerTableRecord
  2
_5998
 70
0
 62
7
  6
CONTINUOUS
370
-3
390
F
  0
LAYER
  5
5B4
100
AcDbSymbolTableRecord
100
AcDbLayerTableRecord
  2
_5999
 70
0
 62
7
  6
CONTINUOUS
370
-3
390
F
  0
LAYER
  5
5B5
100
AcDbSymbolTableRecord
100
AcDbLayerTableRecord
  2
_6011
 70
0
 62
7
  6
CONTINUOUS
370
-3
390
F
  0
LAYER
  5
5B6
100
AcDbSymbolTableRecord
100
AcDbLayerTableRecord
  2
_6033
 70
0
 62
7
  6
CONTINUOUS
370
-3
390
F
  0
LAYER
  5
5B7
100
AcDbSymbolTableRecord
100
AcDbLayerTableRecord
  2
_6042
 70
0
 62
7
  6
CONTINUOUS
370
-3
390
F
  0
LAYER
  5
5B8
100
AcDbSymbolTableRecord
100
AcDbLayerTableRecord
  2
_6046
 70
0
 62
7
  6
CONTINUOUS
370
-3
390
F
  0
LAYER
  5
5B9
100
AcDbSymbolTableRecord
100
AcDbLayerTableRecord
  2
_6047
 70
0
 62
7
  6
CONTINUOUS
370
-3
390
F
  0
LAYER
  5
5BA
100
AcDbSymbolTableRecord
100
AcDbLayerTableRecord
  2
_6053
 70
0
 62
7
  6
CONTINUOUS
370
-3
390
F
  0
LAYER
  5
5BB
100
AcDbSymbolTableRecord
100
AcDbLayerTableRecord
  2
_6056
 70
0
 62
7
  6
CONTINUOUS
370
-3
390
F
  0
LAYER
  5
5BC
100
AcDbSymbolTableRecord
100
AcDbLayerTableRecord
  2
_6090
 70
0
 62
7
  6
CONTINUOUS
370
-3
390
F
  0
LAYER
  5
5BD
100
AcDbSymbolTableRecord
100
AcDbLayerTableRecord
  2
_610
 70
0
 62
7
  6
CONTINUOUS
370
-3
390
F
  0
LAYER
  5
5BE
100
AcDbSymbolTableRecord
100
AcDbLayerTableRecord
  2
_6116
 70
0
 62
7
  6
CONTINUOUS
370
-3
390
F
  0
LAYER
  5
5BF
100
AcDbSymbolTableRecord
100
AcDbLayerTableRecord
  2
_6128
 70
0
 62
7
  6
CONTINUOUS
370
-3
390
F
  0
LAYER
  5
5C0
100
AcDbSymbolTableRecord
100
AcDbLayerTableRecord
  2
_617
 70
0
 62
7
  6
CONTINUOUS
370
-3
390
F
  0
LAYER
  5
5C1
100
AcDbSymbolTableRecord
100
AcDbLayerTableRecord
  2
_618
 70
0
 62
7
  6
CONTINUOUS
370
-3
390
F
  0
LAYER
  5
5C2
100
AcDbSymbolTableRecord
100
AcDbLayerTableRecord
  2
_6187
 70
0
 62
7
  6
CONTINUOUS
370
-3
390
F
  0
LAYER
  5
5C3
100
AcDbSymbolTableRecord
100
AcDbLayerTableRecord
  2
_6191
 70
0
 62
7
  6
CONTINUOUS
370
-3
390
F
  0
LAYER
  5
5C4
100
AcDbSymbolTableRecord
100
AcDbLayerTableRecord
  2
_6196
 70
0
 62
7
  6
CONTINUOUS
370
-3
390
F
  0
LAYER
  5
5C5
100
AcDbSymbolTableRecord
100
AcDbLayerTableRecord
  2
_6217
 70
0
 62
7
  6
CONTINUOUS
370
-3
390
F
  0
LAYER
  5
5C6
100
AcDbSymbolTableRecord
100
AcDbLayerTableRecord
  2
_6219
 70
0
 62
7
  6
CONTINUOUS
370
-3
390
F
  0
LAYER
  5
5C7
100
AcDbSymbolTableRecord
100
AcDbLayerTableRecord
  2
_6221
 70
0
 62
7
  6
CONTINUOUS
370
-3
390
F
  0
LAYER
  5
5C8
100
AcDbSymbolTableRecord
100
AcDbLayerTableRecord
  2
_6225
 70
0
 62
7
  6
CONTINUOUS
370
-3
390
F
  0
LAYER
  5
5C9
100
AcDbSymbolTableRecord
100
AcDbLayerTableRecord
  2
_6238
 70
0
 62
7
  6
CONTINUOUS
370
-3
390
F
  0
LAYER
  5
5CA
100
AcDbSymbolTableRecord
100
AcDbLayerTableRecord
  2
_6241
 70
0
 62
7
  6
CONTINUOUS
370
-3
390
F
  0
LAYER
  5
5CB
100
AcDbSymbolTableRecord
100
AcDbLayerTableRecord
  2
_6257
 70
0
 62
7
  6
CONTINUOUS
370
-3
390
F
  0
LAYER
  5
5CC
100
AcDbSymbolTableRecord
100
AcDbLayerTableRecord
  2
_6278
 70
0
 62
7
  6
CONTINUOUS
370
-3
390
F
  0
LAYER
  5
5CD
100
AcDbSymbolTableRecord
100
AcDbLayerTableRecord
  2
_6305
 70
0
 62
7
  6
CONTINUOUS
370
-3
390
F
  0
LAYER
  5
5CE
100
AcDbSymbolTableRecord
100
AcDbLayerTableRecord
  2
_6313
 70
0
 62
7
  6
CONTINUOUS
370
-3
390
F
  0
LAYER
  5
5CF
100
AcDbSymbolTableRecord
100
AcDbLayerTableRecord
  2
_6328
 70
0
 62
7
  6
CONTINUOUS
370
-3
390
F
  0
LAYER
  5
5D0
100
AcDbSymbolTableRecord
100
AcDbLayerTableRecord
  2
_6332
 70
0
 62
7
  6
CONTINUOUS
370
-3
390
F
  0
LAYER
  5
5D1
100
AcDbSymbolTableRecord
100
AcDbLayerTableRecord
  2
_6337
 70
0
 62
7
  6
CONTINUOUS
370
-3
390
F
  0
LAYER
  5
5D2
100
AcDbSymbolTableRecord
100
AcDbLayerTableRecord
  2
_6339
 70
0
 62
7
  6
CONTINUOUS
370
-3
390
F
  0
LAYER
  5
5D3
100
AcDbSymbolTableRecord
100
AcDbLayerTableRecord
  2
_6345
 70
0
 62
7
  6
CONTINUOUS
370
-3
390
F
  0
LAYER
  5
5D4
100
AcDbSymbolTableRecord
100
AcDbLayerTableRecord
  2
_6371
 70
0
 62
7
  6
CONTINUOUS
370
-3
390
F
  0
LAYER
  5
5D5
100
AcDbSymbolTableRecord
100
AcDbLayerTableRecord
  2
_6380
 70
0
 62
7
  6
CONTINUOUS
370
-3
390
F
  0
LAYER
  5
5D6
100
AcDbSymbolTableRecord
100
AcDbLayerTableRecord
  2
_6400
 70
0
 62
7
  6
CONTINUOUS
370
-3
390
F
  0
LAYER
  5
5D7
100
AcDbSymbolTableRecord
100
AcDbLayerTableRecord
  2
_6416
 70
0
 62
7
  6
CONTINUOUS
370
-3
390
F
  0
LAYER
  5
5D8
100
AcDbSymbolTableRecord
100
AcDbLayerTableRecord
  2
_644
 70
0
 62
7
  6
CONTINUOUS
370
-3
390
F
  0
LAYER
  5
5D9
100
AcDbSymbolTableRecord
100
AcDbLayerTableRecord
  2
_6452
 70
0
 62
7
  6
CONTINUOUS
370
-3
390
F
  0
LAYER
  5
5DA
100
AcDbSymbolTableRecord
100
AcDbLayerTableRecord
  2
_646
 70
0
 62
7
  6
CONTINUOUS
370
-3
390
F
  0
LAYER
  5
5DB
100
AcDbSymbolTableRecord
100
AcDbLayerTableRecord
  2
_6469
 70
0
 62
7
  6
CONTINUOUS
370
-3
390
F
  0
LAYER
  5
5DC
100
AcDbSymbolTableRecord
100
AcDbLayerTableRecord
  2
_6470
 70
0
 62
7
  6
CONTINUOUS
370
-3
390
F
  0
LAYER
  5
5DD
100
AcDbSymbolTableRecord
100
AcDbLayerTableRecord
  2
_6481
 70
0
 62
7
  6
CONTINUOUS
370
-3
390
F
  0
LAYER
  5
5DE
100
AcDbSymbolTableRecord
100
AcDbLayerTableRecord
  2
_6491
 70
0
 62
7
  6
CONTINUOUS
370
-3
390
F
  0
LAYER
  5
5DF
100
AcDbSymbolTableRecord
100
AcDbLayerTableRecord
  2
_6495
 70
0
 62
7
  6
CONTINUOUS
370
-3
390
F
  0
LAYER
  5
5E0
100
AcDbSymbolTableRecord
100
AcDbLayerTableRecord
  2
_6505
 70
0
 62
7
  6
CONTINUOUS
370
-3
390
F
  0
LAYER
  5
5E1
100
AcDbSymbolTableRecord
100
AcDbLayerTableRecord
  2
_651
 70
0
 62
7
  6
CONTINUOUS
370
-3
390
F
  0
LAYER
  5
5E2
100
AcDbSymbolTableRecord
100
AcDbLayerTableRecord
  2
_6528
 70
0
 62
7
  6
CONTINUOUS
370
-3
390
F
  0
LAYER
  5
5E3
100
AcDbSymbolTableRecord
100
AcDbLayerTableRecord
  2
_6529
 70
0
 62
7
  6
CONTINUOUS
370
-3
390
F
  0
LAYER
  5
5E4
100
AcDbSymbolTableRecord
100
AcDbLayerTableRecord
  2
_6542
 70
0
 62
7
  6
CONTINUOUS
370
-3
390
F
  0
LAYER
  5
5E5
100
AcDbSymbolTableRecord
100
AcDbLayerTableRecord
  2
_6553
 70
0
 62
7
  6
CONTINUOUS
370
-3
390
F
  0
LAYER
  5
5E6
100
AcDbSymbolTableRecord
100
AcDbLayerTableRecord
  2
_6563
 70
0
 62
7
  6
CONTINUOUS
370
-3
390
F
  0
LAYER
  5
5E7
100
AcDbSymbolTableRecord
100
AcDbLayerTableRecord
  2
_6569
 70
0
 62
7
  6
CONTINUOUS
370
-3
390
F
  0
LAYER
  5
5E8
100
AcDbSymbolTableRecord
100
AcDbLayerTableRecord
  2
_6571
 70
0
 62
7
  6
CONTINUOUS
370
-3
390
F
  0
LAYER
  5
5E9
100
AcDbSymbolTableRecord
100
AcDbLayerTableRecord
  2
_660
 70
0
 62
7
  6
CONTINUOUS
370
-3
390
F
  0
LAYER
  5
5EA
100
AcDbSymbolTableRecord
100
AcDbLayerTableRecord
  2
_6607
 70
0
 62
7
  6
CONTINUOUS
370
-3
390
F
  0
LAYER
  5
5EB
100
AcDbSymbolTableRecord
100
AcDbLayerTableRecord
  2
_6640
 70
0
 62
7
  6
CONTINUOUS
370
-3
390
F
  0
LAYER
  5
5EC
100
AcDbSymbolTableRecord
100
AcDbLayerTableRecord
  2
_6659
 70
0
 62
7
  6
CONTINUOUS
370
-3
390
F
  0
LAYER
  5
5ED
100
AcDbSymbolTableRecord
100
AcDbLayerTableRecord
  2
_6664
 70
0
 62
7
  6
CONTINUOUS
370
-3
390
F
  0
LAYER
  5
5EE
100
AcDbSymbolTableRecord
100
AcDbLayerTableRecord
  2
_6676
 70
0
 62
7
  6
CONTINUOUS
370
-3
390
F
  0
LAYER
  5
5EF
100
AcDbSymbolTableRecord
100
AcDbLayerTableRecord
  2
_6686
 70
0
 62
7
  6
CONTINUOUS
370
-3
390
F
  0
LAYER
  5
5F0
100
AcDbSymbolTableRecord
100
AcDbLayerTableRecord
  2
_669
 70
0
 62
7
  6
CONTINUOUS
370
-3
390
F
  0
LAYER
  5
5F1
100
AcDbSymbolTableRecord
100
AcDbLayerTableRecord
  2
_6691
 70
0
 62
7
  6
CONTINUOUS
370
-3
390
F
  0
LAYER
  5
5F2
100
AcDbSymbolTableRecord
100
AcDbLayerTableRecord
  2
_6699
 70
0
 62
7
  6
CONTINUOUS
370
-3
390
F
  0
LAYER
  5
5F3
100
AcDbSymbolTableRecord
100
AcDbLayerTableRecord
  2
_6705
 70
0
 62
7
  6
CONTINUOUS
370
-3
390
F
  0
LAYER
  5
5F4
100
AcDbSymbolTableRecord
100
AcDbLayerTableRecord
  2
_6711
 70
0
 62
7
  6
CONTINUOUS
370
-3
390
F
  0
LAYER
  5
5F5
100
AcDbSymbolTableRecord
100
AcDbLayerTableRecord
  2
_6722
 70
0
 62
7
  6
CONTINUOUS
370
-3
390
F
  0
LAYER
  5
5F6
100
AcDbSymbolTableRecord
100
AcDbLayerTableRecord
  2
_6723
 70
0
 62
7
  6
CONTINUOUS
370
-3
390
F
  0
LAYER
  5
5F7
100
AcDbSymbolTableRecord
100
AcDbLayerTableRecord
  2
_6725
 70
0
 62
7
  6
CONTINUOUS
370
-3
390
F
  0
LAYER
  5
5F8
100
AcDbSymbolTableRecord
100
AcDbLayerTableRecord
  2
_6734
 70
0
 62
7
  6
CONTINUOUS
370
-3
390
F
  0
LAYER
  5
5F9
100
AcDbSymbolTableRecord
100
AcDbLayerTableRecord
  2
_6735
 70
0
 62
7
  6
CONTINUOUS
370
-3
390
F
  0
LAYER
  5
5FA
100
AcDbSymbolTableRecord
100
AcDbLayerTableRecord
  2
_6753
 70
0
 62
7
  6
CONTINUOUS
370
-3
390
F
  0
LAYER
  5
5FB
100
AcDbSymbolTableRecord
100
AcDbLayerTableRecord
  2
_6756
 70
0
 62
7
  6
CONTINUOUS
370
-3
390
F
  0
LAYER
  5
5FC
100
AcDbSymbolTableRecord
100
AcDbLayerTableRecord
  2
_6774
 70
0
 62
7
  6
CONTINUOUS
370
-3
390
F
  0
LAYER
  5
5FD
100
AcDbSymbolTableRecord
100
AcDbLayerTableRecord
  2
_6785
 70
0
 62
7
  6
CONTINUOUS
370
-3
390
F
  0
LAYER
  5
5FE
100
AcDbSymbolTableRecord
100
AcDbLayerTableRecord
  2
_679
 70
0
 62
7
  6
CONTINUOUS
370
-3
390
F
  0
LAYER
  5
5FF
100
AcDbSymbolTableRecord
100
AcDbLayerTableRecord
  2
_6818
 70
0
 62
7
  6
CONTINUOUS
370
-3
390
F
  0
LAYER
  5
600
100
AcDbSymbolTableRecord
100
AcDbLayerTableRecord
  2
_6819
 70
0
 62
7
  6
CONTINUOUS
370
-3
390
F
  0
LAYER
  5
601
100
AcDbSymbolTableRecord
100
AcDbLayerTableRecord
  2
_6820
 70
0
 62
7
  6
CONTINUOUS
370
-3
390
F
  0
LAYER
  5
602
100
AcDbSymbolTableRecord
100
AcDbLayerTableRecord
  2
_683
 70
0
 62
7
  6
CONTINUOUS
370
-3
390
F
  0
LAYER
  5
603
100
AcDbSymbolTableRecord
100
AcDbLayerTableRecord
  2
_6834
 70
0
 62
7
  6
CONTINUOUS
370
-3
390
F
  0
LAYER
  5
604
100
AcDbSymbolTableRecord
100
AcDbLayerTableRecord
  2
_6848
 70
0
 62
7
  6
CONTINUOUS
370
-3
390
F
  0
LAYER
  5
605
100
AcDbSymbolTableRecord
100
AcDbLayerTableRecord
  2
_6864
 70
0
 62
7
  6
CONTINUOUS
370
-3
390
F
  0
LAYER
  5
606
100
AcDbSymbolTableRecord
100
AcDbLayerTableRecord
  2
_6908
 70
0
 62
7
  6
CONTINUOUS
370
-3
390
F
  0
LAYER
  5
607
100
AcDbSymbolTableRecord
100
AcDbLayerTableRecord
  2
_691
 70
0
 62
7
  6
CONTINUOUS
370
-3
390
F
  0
LAYER
  5
608
100
AcDbSymbolTableRecord
100
AcDbLayerTableRecord
  2
_6914
 70
0
 62
7
  6
CONTINUOUS
370
-3
390
F
  0
LAYER
  5
609
100
AcDbSymbolTableRecord
100
AcDbLayerTableRecord
  2
_6924
 70
0
 62
7
  6
CONTINUOUS
370
-3
390
F
  0
LAYER
  5
60A
100
AcDbSymbolTableRecord
100
AcDbLayerTableRecord
  2
_6926
 70
0
 62
7
  6
CONTINUOUS
370
-3
390
F
  0
LAYER
  5
60B
100
AcDbSymbolTableRecord
100
AcDbLayerTableRecord
  2
_6934
 70
0
 62
7
  6
CONTINUOUS
370
-3
390
F
  0
LAYER
  5
60C
100
AcDbSymbolTableRecord
100
AcDbLayerTableRecord
  2
_6983
 70
0
 62
7
  6
CONTINUOUS
370
-3
390
F
  0
LAYER
  5
60D
100
AcDbSymbolTableRecord
100
AcDbLayerTableRecord
  2
_6994
 70
0
 62
7
  6
CONTINUOUS
370
-3
390
F
  0
LAYER
  5
60E
100
AcDbSymbolTableRecord
100
AcDbLayerTableRecord
  2
_7015
 70
0
 62
7
  6
CONTINUOUS
370
-3
390
F
  0
LAYER
  5
60F
100
AcDbSymbolTableRecord
100
AcDbLayerTableRecord
  2
_7023
 70
0
 62
7
  6
CONTINUOUS
370
-3
390
F
  0
LAYER
  5
610
100
AcDbSymbolTableRecord
100
AcDbLayerTableRecord
  2
_7024
 70
0
 62
7
  6
CONTINUOUS
370
-3
390
F
  0
LAYER
  5
611
100
AcDbSymbolTableRecord
100
AcDbLayerTableRecord
  2
_703
 70
0
 62
7
  6
CONTINUOUS
370
-3
390
F
  0
LAYER
  5
612
100
AcDbSymbolTableRecord
100
AcDbLayerTableRecord
  2
_7030
 70
0
 62
7
  6
CONTINUOUS
370
-3
390
F
  0
LAYER
  5
613
100
AcDbSymbolTableRecord
100
AcDbLayerTableRecord
  2
_7032
 70
0
 62
7
  6
CONTINUOUS
370
-3
390
F
  0
LAYER
  5
614
100
AcDbSymbolTableRecord
100
AcDbLayerTableRecord
  2
_7036
 70
0
 62
7
  6
CONTINUOUS
370
-3
390
F
  0
LAYER
  5
615
100
AcDbSymbolTableRecord
100
AcDbLayerTableRecord
  2
_7059
 70
0
 62
7
  6
CONTINUOUS
370
-3
390
F
  0
LAYER
  5
616
100
AcDbSymbolTableRecord
100
AcDbLayerTableRecord
  2
_7068
 70
0
 62
7
  6
CONTINUOUS
370
-3
390
F
  0
LAYER
  5
617
100
AcDbSymbolTableRecord
100
AcDbLayerTableRecord
  2
_7080
 70
0
 62
7
  6
CONTINUOUS
370
-3
390
F
  0
LAYER
  5
618
100
AcDbSymbolTableRecord
100
AcDbLayerTableRecord
  2
_7084
 70
0
 62
7
  6
CONTINUOUS
370
-3
390
F
  0
LAYER
  5
619
100
AcDbSymbolTableRecord
100
AcDbLayerTableRecord
  2
_7086
 70
0
 62
7
  6
CONTINUOUS
370
-3
390
F
  0
LAYER
  5
61A
100
AcDbSymbolTableRecord
100
AcDbLayerTableRecord
  2
_7131
 70
0
 62
7
  6
CONTINUOUS
370
-3
390
F
  0
LAYER
  5
61B
100
AcDbSymbolTableRecord
100
AcDbLayerTableRecord
  2
_7137
 70
0
 62
7
  6
CONTINUOUS
370
-3
390
F
  0
LAYER
  5
61C
100
AcDbSymbolTableRecord
100
AcDbLayerTableRecord
  2
_7155
 70
0
 62
7
  6
CONTINUOUS
370
-3
390
F
  0
LAYER
  5
61D
100
AcDbSymbolTableRecord
100
AcDbLayerTableRecord
  2
_7172
 70
0
 62
7
  6
CONTINUOUS
370
-3
390
F
  0
LAYER
  5
61E
100
AcDbSymbolTableRecord
100
AcDbLayerTableRecord
  2
_72
 70
0
 62
7
  6
CONTINUOUS
370
-3
390
F
  0
LAYER
  5
61F
100
AcDbSymbolTableRecord
100
AcDbLayerTableRecord
  2
_7218
 70
0
 62
7
  6
CONTINUOUS
370
-3
390
F
  0
LAYER
  5
620
100
AcDbSymbolTableRecord
100
AcDbLayerTableRecord
  2
_7232
 70
0
 62
7
  6
CONTINUOUS
370
-3
390
F
  0
LAYER
  5
621
100
AcDbSymbolTableRecord
100
AcDbLayerTableRecord
  2
_7239
 70
0
 62
7
  6
CONTINUOUS
370
-3
390
F
  0
LAYER
  5
622
100
AcDbSymbolTableRecord
100
AcDbLayerTableRecord
  2
_728
 70
0
 62
7
  6
CONTINUOUS
370
-3
390
F
  0
LAYER
  5
623
100
AcDbSymbolTableRecord
100
AcDbLayerTableRecord
  2
_7282
 70
0
 62
7
  6
CONTINUOUS
370
-3
390
F
  0
LAYER
  5
624
100
AcDbSymbolTableRecord
100
AcDbLayerTableRecord
  2
_7287
 70
0
 62
7
  6
CONTINUOUS
370
-3
390
F
  0
LAYER
  5
625
100
AcDbSymbolTableRecord
100
AcDbLayerTableRecord
  2
_7291
 70
0
 62
7
  6
CONTINUOUS
370
-3
390
F
  0
LAYER
  5
626
100
AcDbSymbolTableRecord
100
AcDbLayerTableRecord
  2
_7307
 70
0
 62
7
  6
CONTINUOUS
370
-3
390
F
  0
LAYER
  5
627
100
AcDbSymbolTableRecord
100
AcDbLayerTableRecord
  2
_7320
 70
0
 62
7
  6
CONTINUOUS
370
-3
390
F
  0
LAYER
  5
628
100
AcDbSymbolTableRecord
100
AcDbLayerTableRecord
  2
_7328
 70
0
 62
7
  6
CONTINUOUS
370
-3
390
F
  0
LAYER
  5
629
100
AcDbSymbolTableRecord
100
AcDbLayerTableRecord
  2
_7328_1
 70
0
 62
7
  6
CONTINUOUS
370
-3
390
F
  0
LAYER
  5
62A
100
AcDbSymbolTableRecord
100
AcDbLayerTableRecord
  2
_7345
 70
0
 62
7
  6
CONTINUOUS
370
-3
390
F
  0
LAYER
  5
62B
100
AcDbSymbolTableRecord
100
AcDbLayerTableRecord
  2
_7349
 70
0
 62
7
  6
CONTINUOUS
370
-3
390
F
  0
LAYER
  5
62C
100
AcDbSymbolTableRecord
100
AcDbLayerTableRecord
  2
_7371
 70
0
 62
7
  6
CONTINUOUS
370
-3
390
F
  0
LAYER
  5
62D
100
AcDbSymbolTableRecord
100
AcDbLayerTableRecord
  2
_7376
 70
0
 62
7
  6
CONTINUOUS
370
-3
390
F
  0
LAYER
  5
62E
100
AcDbSymbolTableRecord
100
AcDbLayerTableRecord
  2
_7378
 70
0
 62
7
  6
CONTINUOUS
370
-3
390
F
  0
LAYER
  5
62F
100
AcDbSymbolTableRecord
100
AcDbLayerTableRecord
  2
_7403
 70
0
 62
7
  6
CONTINUOUS
370
-3
390
F
  0
LAYER
  5
630
100
AcDbSymbolTableRecord
100
AcDbLayerTableRecord
  2
_7411
 70
0
 62
7
  6
CONTINUOUS
370
-3
390
F
  0
LAYER
  5
631
100
AcDbSymbolTableRecord
100
AcDbLayerTableRecord
  2
_7413
 70
0
 62
7
  6
CONTINUOUS
370
-3
390
F
  0
LAYER
  5
632
100
AcDbSymbolTableRecord
100
AcDbLayerTableRecord
  2
_7428
 70
0
 62
7
  6
CONTINUOUS
370
-3
390
F
  0
LAYER
  5
633
100
AcDbSymbolTableRecord
100
AcDbLayerTableRecord
  2
_7430
 70
0
 62
7
  6
CONTINUOUS
370
-3
390
F
  0
LAYER
  5
634
100
AcDbSymbolTableRecord
100
AcDbLayerTableRecord
  2
_7435
 70
0
 62
7
  6
CONTINUOUS
370
-3
390
F
  0
LAYER
  5
635
100
AcDbSymbolTableRecord
100
AcDbLayerTableRecord
  2
_7439
 70
0
 62
7
  6
CONTINUOUS
370
-3
390
F
  0
LAYER
  5
636
100
AcDbSymbolTableRecord
100
AcDbLayerTableRecord
  2
_7441
 70
0
 62
7
  6
CONTINUOUS
370
-3
390
F
  0
LAYER
  5
637
100
AcDbSymbolTableRecord
100
AcDbLayerTableRecord
  2
_7446
 70
0
 62
7
  6
CONTINUOUS
370
-3
390
F
  0
LAYER
  5
638
100
AcDbSymbolTableRecord
100
AcDbLayerTableRecord
  2
_745
 70
0
 62
7
  6
CONTINUOUS
370
-3
390
F
  0
LAYER
  5
639
100
AcDbSymbolTableRecord
100
AcDbLayerTableRecord
  2
_7456
 70
0
 62
7
  6
CONTINUOUS
370
-3
390
F
  0
LAYER
  5
63A
100
AcDbSymbolTableRecord
100
AcDbLayerTableRecord
  2
_7465
 70
0
 62
7
  6
CONTINUOUS
370
-3
390
F
  0
LAYER
  5
63B
100
AcDbSymbolTableRecord
100
AcDbLayerTableRecord
  2
_7501
 70
0
 62
7
  6
CONTINUOUS
370
-3
390
F
  0
LAYER
  5
63C
100
AcDbSymbolTableRecord
100
AcDbLayerTableRecord
  2
_7506
 70
0
 62
7
  6
CONTINUOUS
370
-3
390
F
  0
LAYER
  5
63D
100
AcDbSymbolTableRecord
100
AcDbLayerTableRecord
  2
_7507
 70
0
 62
7
  6
CONTINUOUS
370
-3
390
F
  0
LAYER
  5
63E
100
AcDbSymbolTableRecord
100
AcDbLayerTableRecord
  2
_7513
 70
0
 62
7
  6
CONTINUOUS
370
-3
390
F
  0
LAYER
  5
63F
100
AcDbSymbolTableRecord
100
AcDbLayerTableRecord
  2
_7520
 70
0
 62
7
  6
CONTINUOUS
370
-3
390
F
  0
LAYER
  5
640
100
AcDbSymbolTableRecord
100
AcDbLayerTableRecord
  2
_7530
 70
0
 62
7
  6
CONTINUOUS
370
-3
390
F
  0
LAYER
  5
641
100
AcDbSymbolTableRecord
100
AcDbLayerTableRecord
  2
_7534
 70
0
 62
7
  6
CONTINUOUS
370
-3
390
F
  0
LAYER
  5
642
100
AcDbSymbolTableRecord
100
AcDbLayerTableRecord
  2
_7543
 70
0
 62
7
  6
CONTINUOUS
370
-3
390
F
  0
LAYER
  5
643
100
AcDbSymbolTableRecord
100
AcDbLayerTableRecord
  2
_7545
 70
0
 62
7
  6
CONTINUOUS
370
-3
390
F
  0
LAYER
  5
644
100
AcDbSymbolTableRecord
100
AcDbLayerTableRecord
  2
_7563
 70
0
 62
7
  6
CONTINUOUS
370
-3
390
F
  0
LAYER
  5
645
100
AcDbSymbolTableRecord
100
AcDbLayerTableRecord
  2
_7579
 70
0
 62
7
  6
CONTINUOUS
370
-3
390
F
  0
LAYER
  5
646
100
AcDbSymbolTableRecord
100
AcDbLayerTableRecord
  2
_7588
 70
0
 62
7
  6
CONTINUOUS
370
-3
390
F
  0
LAYER
  5
647
100
AcDbSymbolTableRecord
100
AcDbLayerTableRecord
  2
_7594
 70
0
 62
7
  6
CONTINUOUS
370
-3
390
F
  0
LAYER
  5
648
100
AcDbSymbolTableRecord
100
AcDbLayerTableRecord
  2
_7598
 70
0
 62
7
  6
CONTINUOUS
370
-3
390
F
  0
LAYER
  5
649
100
AcDbSymbolTableRecord
100
AcDbLayerTableRecord
  2
_7603
 70
0
 62
7
  6
CONTINUOUS
370
-3
390
F
  0
LAYER
  5
64A
100
AcDbSymbolTableRecord
100
AcDbLayerTableRecord
  2
_7625
 70
0
 62
7
  6
CONTINUOUS
370
-3
390
F
  0
LAYER
  5
64B
100
AcDbSymbolTableRecord
100
AcDbLayerTableRecord
  2
_7631
 70
0
 62
7
  6
CONTINUOUS
370
-3
390
F
  0
LAYER
  5
64C
100
AcDbSymbolTableRecord
100
AcDbLayerTableRecord
  2
_7634
 70
0
 62
7
  6
CONTINUOUS
370
-3
390
F
  0
LAYER
  5
64D
100
AcDbSymbolTableRecord
100
AcDbLayerTableRecord
  2
_7667
 70
0
 62
7
  6
CONTINUOUS
370
-3
390
F
  0
LAYER
  5
64E
100
AcDbSymbolTableRecord
100
AcDbLayerTableRecord
  2
_7668
 70
0
 62
7
  6
CONTINUOUS
370
-3
390
F
  0
LAYER
  5
64F
100
AcDbSymbolTableRecord
100
AcDbLayerTableRecord
  2
_7679
 70
0
 62
7
  6
CONTINUOUS
370
-3
390
F
  0
LAYER
  5
650
100
AcDbSymbolTableRecord
100
AcDbLayerTableRecord
  2
_7685
 70
0
 62
7
  6
CONTINUOUS
370
-3
390
F
  0
LAYER
  5
651
100
AcDbSymbolTableRecord
100
AcDbLayerTableRecord
  2
_7708
 70
0
 62
7
  6
CONTINUOUS
370
-3
390
F
  0
LAYER
  5
652
100
AcDbSymbolTableRecord
100
AcDbLayerTableRecord
  2
_7710
 70
0
 62
7
  6
CONTINUOUS
370
-3
390
F
  0
LAYER
  5
653
100
AcDbSymbolTableRecord
100
AcDbLayerTableRecord
  2
_7711
 70
0
 62
7
  6
CONTINUOUS
370
-3
390
F
  0
LAYER
  5
654
100
AcDbSymbolTableRecord
100
AcDbLayerTableRecord
  2
_7725
 70
0
 62
7
  6
CONTINUOUS
370
-3
390
F
  0
LAYER
  5
655
100
AcDbSymbolTableRecord
100
AcDbLayerTableRecord
  2
_7750
 70
0
 62
7
  6
CONTINUOUS
370
-3
390
F
  0
LAYER
  5
656
100
AcDbSymbolTableRecord
100
AcDbLayerTableRecord
  2
_7755
 70
0
 62
7
  6
CONTINUOUS
370
-3
390
F
  0
LAYER
  5
657
100
AcDbSymbolTableRecord
100
AcDbLayerTableRecord
  2
_7764
 70
0
 62
7
  6
CONTINUOUS
370
-3
390
F
  0
LAYER
  5
658
100
AcDbSymbolTableRecord
100
AcDbLayerTableRecord
  2
_7768
 70
0
 62
7
  6
CONTINUOUS
370
-3
390
F
  0
LAYER
  5
659
100
AcDbSymbolTableRecord
100
AcDbLayerTableRecord
  2
_7790
 70
0
 62
7
  6
CONTINUOUS
370
-3
390
F
  0
LAYER
  5
65A
100
AcDbSymbolTableRecord
100
AcDbLayerTableRecord
  2
_788
 70
0
 62
7
  6
CONTINUOUS
370
-3
390
F
  0
LAYER
  5
65B
100
AcDbSymbolTableRecord
100
AcDbLayerTableRecord
  2
_7893
 70
0
 62
7
  6
CONTINUOUS
370
-3
390
F
  0
LAYER
  5
65C
100
AcDbSymbolTableRecord
100
AcDbLayerTableRecord
  2
_7947
 70
0
 62
7
  6
CONTINUOUS
370
-3
390
F
  0
LAYER
  5
65D
100
AcDbSymbolTableRecord
100
AcDbLayerTableRecord
  2
_7960
 70
0
 62
7
  6
CONTINUOUS
370
-3
390
F
  0
LAYER
  5
65E
100
AcDbSymbolTableRecord
100
AcDbLayerTableRecord
  2
_7963
 70
0
 62
7
  6
CONTINUOUS
370
-3
390
F
  0
LAYER
  5
65F
100
AcDbSymbolTableRecord
100
AcDbLayerTableRecord
  2
_797
 70
0
 62
7
  6
CONTINUOUS
370
-3
390
F
  0
LAYER
  5
660
100
AcDbSymbolTableRecord
100
AcDbLayerTableRecord
  2
_7982
 70
0
 62
7
  6
CONTINUOUS
370
-3
390
F
  0
LAYER
  5
661
100
AcDbSymbolTableRecord
100
AcDbLayerTableRecord
  2
_7992
 70
0
 62
7
  6
CONTINUOUS
370
-3
390
F
  0
LAYER
  5
662
100
AcDbSymbolTableRecord
100
AcDbLayerTableRecord
  2
_7993
 70
0
 62
7
  6
CONTINUOUS
370
-3
390
F
  0
LAYER
  5
663
100
AcDbSymbolTableRecord
100
AcDbLayerTableRecord
  2
_8003
 70
0
 62
7
  6
CONTINUOUS
370
-3
390
F
  0
LAYER
  5
664
100
AcDbSymbolTableRecord
100
AcDbLayerTableRecord
  2
_8008
 70
0
 62
7
  6
CONTINUOUS
370
-3
390
F
  0
LAYER
  5
665
100
AcDbSymbolTableRecord
100
AcDbLayerTableRecord
  2
_8029
 70
0
 62
7
  6
CONTINUOUS
370
-3
390
F
  0
LAYER
  5
666
100
AcDbSymbolTableRecord
100
AcDbLayerTableRecord
  2
_8048
 70
0
 62
7
  6
CONTINUOUS
370
-3
390
F
  0
LAYER
  5
667
100
AcDbSymbolTableRecord
100
AcDbLayerTableRecord
  2
_805
 70
0
 62
7
  6
CONTINUOUS
370
-3
390
F
  0
LAYER
  5
668
100
AcDbSymbolTableRecord
100
AcDbLayerTableRecord
  2
_8055
 70
0
 62
7
  6
CONTINUOUS
370
-3
390
F
  0
LAYER
  5
669
100
AcDbSymbolTableRecord
100
AcDbLayerTableRecord
  2
_8088
 70
0
 62
7
  6
CONTINUOUS
370
-3
390
F
  0
LAYER
  5
66A
100
AcDbSymbolTableRecord
100
AcDbLayerTableRecord
  2
_8101
 70
0
 62
7
  6
CONTINUOUS
370
-3
390
F
  0
LAYER
  5
66B
100
AcDbSymbolTableRecord
100
AcDbLayerTableRecord
  2
_8109
 70
0
 62
7
  6
CONTINUOUS
370
-3
390
F
  0
LAYER
  5
66C
100
AcDbSymbolTableRecord
100
AcDbLayerTableRecord
  2
_8132
 70
0
 62
7
  6
CONTINUOUS
370
-3
390
F
  0
LAYER
  5
66D
100
AcDbSymbolTableRecord
100
AcDbLayerTableRecord
  2
_817
 70
0
 62
7
  6
CONTINUOUS
370
-3
390
F
  0
LAYER
  5
66E
100
AcDbSymbolTableRecord
100
AcDbLayerTableRecord
  2
_8176
 70
0
 62
7
  6
CONTINUOUS
370
-3
390
F
  0
LAYER
  5
66F
100
AcDbSymbolTableRecord
100
AcDbLayerTableRecord
  2
_8178
 70
0
 62
7
  6
CONTINUOUS
370
-3
390
F
  0
LAYER
  5
670
100
AcDbSymbolTableRecord
100
AcDbLayerTableRecord
  2
_8180
 70
0
 62
7
  6
CONTINUOUS
370
-3
390
F
  0
LAYER
  5
671
100
AcDbSymbolTableRecord
100
AcDbLayerTableRecord
  2
_8181
 70
0
 62
7
  6
CONTINUOUS
370
-3
390
F
  0
LAYER
  5
672
100
AcDbSymbolTableRecord
100
AcDbLayerTableRecord
  2
_8191
 70
0
 62
7
  6
CONTINUOUS
370
-3
390
F
  0
LAYER
  5
673
100
AcDbSymbolTableRecord
100
AcDbLayerTableRecord
  2
_8193
 70
0
 62
7
  6
CONTINUOUS
370
-3
390
F
  0
LAYER
  5
674
100
AcDbSymbolTableRecord
100
AcDbLayerTableRecord
  2
_8209
 70
0
 62
7
  6
CONTINUOUS
370
-3
390
F
  0
LAYER
  5
675
100
AcDbSymbolTableRecord
100
AcDbLayerTableRecord
  2
_8228
 70
0
 62
7
  6
CONTINUOUS
370
-3
390
F
  0
LAYER
  5
676
100
AcDbSymbolTableRecord
100
AcDbLayerTableRecord
  2
_8232
 70
0
 62
7
  6
CONTINUOUS
370
-3
390
F
  0
LAYER
  5
677
100
AcDbSymbolTableRecord
100
AcDbLayerTableRecord
  2
_8250
 70
0
 62
7
  6
CONTINUOUS
370
-3
390
F
  0
LAYER
  5
678
100
AcDbSymbolTableRecord
100
AcDbLayerTableRecord
  2
_8265
 70
0
 62
7
  6
CONTINUOUS
370
-3
390
F
  0
LAYER
  5
679
100
AcDbSymbolTableRecord
100
AcDbLayerTableRecord
  2
_8269
 70
0
 62
7
  6
CONTINUOUS
370
-3
390
F
  0
LAYER
  5
67A
100
AcDbSymbolTableRecord
100
AcDbLayerTableRecord
  2
_827
 70
0
 62
7
  6
CONTINUOUS
370
-3
390
F
  0
LAYER
  5
67B
100
AcDbSymbolTableRecord
100
AcDbLayerTableRecord
  2
_8287
 70
0
 62
7
  6
CONTINUOUS
370
-3
390
F
  0
LAYER
  5
67C
100
AcDbSymbolTableRecord
100
AcDbLayerTableRecord
  2
_8289
 70
0
 62
7
  6
CONTINUOUS
370
-3
390
F
  0
LAYER
  5
67D
100
AcDbSymbolTableRecord
100
AcDbLayerTableRecord
  2
_8294
 70
0
 62
7
  6
CONTINUOUS
370
-3
390
F
  0
LAYER
  5
67E
100
AcDbSymbolTableRecord
100
AcDbLayerTableRecord
  2
_8299
 70
0
 62
7
  6
CONTINUOUS
370
-3
390
F
  0
LAYER
  5
67F
100
AcDbSymbolTableRecord
100
AcDbLayerTableRecord
  2
_831
 70
0
 62
7
  6
CONTINUOUS
370
-3
390
F
  0
LAYER
  5
680
100
AcDbSymbolTableRecord
100
AcDbLayerTableRecord
  2
_8318
 70
0
 62
7
  6
CONTINUOUS
370
-3
390
F
  0
LAYER
  5
681
100
AcDbSymbolTableRecord
100
AcDbLayerTableRecord
  2
_8324
 70
0
 62
7
  6
CONTINUOUS
370
-3
390
F
  0
LAYER
  5
682
100
AcDbSymbolTableRecord
100
AcDbLayerTableRecord
  2
_8325
 70
0
 62
7
  6
CONTINUOUS
370
-3
390
F
  0
LAYER
  5
683
100
AcDbSymbolTableRecord
100
AcDbLayerTableRecord
  2
_8326
 70
0
 62
7
  6
CONTINUOUS
370
-3
390
F
  0
LAYER
  5
684
100
AcDbSymbolTableRecord
100
AcDbLayerTableRecord
  2
_8332
 70
0
 62
7
  6
CONTINUOUS
370
-3
390
F
  0
LAYER
  5
685
100
AcDbSymbolTableRecord
100
AcDbLayerTableRecord
  2
_834
 70
0
 62
7
  6
CONTINUOUS
370
-3
390
F
  0
LAYER
  5
686
100
AcDbSymbolTableRecord
100
AcDbLayerTableRecord
  2
_8352
 70
0
 62
7
  6
CONTINUOUS
370
-3
390
F
  0
LAYER
  5
687
100
AcDbSymbolTableRecord
100
AcDbLayerTableRecord
  2
_8353
 70
0
 62
7
  6
CONTINUOUS
370
-3
390
F
  0
LAYER
  5
688
100
AcDbSymbolTableRecord
100
AcDbLayerTableRecord
  2
_8392
 70
0
 62
7
  6
CONTINUOUS
370
-3
390
F
  0
LAYER
  5
689
100
AcDbSymbolTableRecord
100
AcDbLayerTableRecord
  2
_84
 70
0
 62
7
  6
CONTINUOUS
370
-3
390
F
  0
LAYER
  5
68A
100
AcDbSymbolTableRecord
100
AcDbLayerTableRecord
  2
_8406
 70
0
 62
7
  6
CONTINUOUS
370
-3
390
F
  0
LAYER
  5
68B
100
AcDbSymbolTableRecord
100
AcDbLayerTableRecord
  2
_8414
 70
0
 62
7
  6
CONTINUOUS
370
-3
390
F
  0
LAYER
  5
68C
100
AcDbSymbolTableRecord
100
AcDbLayerTableRecord
  2
_8428
 70
0
 62
7
  6
CONTINUOUS
370
-3
390
F
  0
LAYER
  5
68D
100
AcDbSymbolTableRecord
100
AcDbLayerTableRecord
  2
_8436
 70
0
 62
7
  6
CONTINUOUS
370
-3
390
F
  0
LAYER
  5
68E
100
AcDbSymbolTableRecord
100
AcDbLayerTableRecord
  2
_844
 70
0
 62
7
  6
CONTINUOUS
370
-3
390
F
  0
LAYER
  5
68F
100
AcDbSymbolTableRecord
100
AcDbLayerTableRecord
  2
_8442
 70
0
 62
7
  6
CONTINUOUS
370
-3
390
F
  0
LAYER
  5
690
100
AcDbSymbolTableRecord
100
AcDbLayerTableRecord
  2
_8451
 70
0
 62
7
  6
CONTINUOUS
370
-3
390
F
  0
LAYER
  5
691
100
AcDbSymbolTableRecord
100
AcDbLayerTableRecord
  2
_8451_1
 70
0
 62
7
  6
CONTINUOUS
370
-3
390
F
  0
LAYER
  5
692
100
AcDbSymbolTableRecord
100
AcDbLayerTableRecord
  2
_8475
 70
0
 62
7
  6
CONTINUOUS
370
-3
390
F
  0
LAYER
  5
693
100
AcDbSymbolTableRecord
100
AcDbLayerTableRecord
  2
_848
 70
0
 62
7
  6
CONTINUOUS
370
-3
390
F
  0
LAYER
  5
694
100
AcDbSymbolTableRecord
100
AcDbLayerTableRecord
  2
_8507
 70
0
 62
7
  6
CONTINUOUS
370
-3
390
F
  0
LAYER
  5
695
100
AcDbSymbolTableRecord
100
AcDbLayerTableRecord
  2
_8510
 70
0
 62
7
  6
CONTINUOUS
370
-3
390
F
  0
LAYER
  5
696
100
AcDbSymbolTableRecord
100
AcDbLayerTableRecord
  2
_8513
 70
0
 62
7
  6
CONTINUOUS
370
-3
390
F
  0
LAYER
  5
697
100
AcDbSymbolTableRecord
100
AcDbLayerTableRecord
  2
_8528
 70
0
 62
7
  6
CONTINUOUS
370
-3
390
F
  0
LAYER
  5
698
100
AcDbSymbolTableRecord
100
AcDbLayerTableRecord
  2
_8529
 70
0
 62
7
  6
CONTINUOUS
370
-3
390
F
  0
LAYER
  5
699
100
AcDbSymbolTableRecord
100
AcDbLayerTableRecord
  2
_8539
 70
0
 62
7
  6
CONTINUOUS
370
-3
390
F
  0
LAYER
  5
69A
100
AcDbSymbolTableRecord
100
AcDbLayerTableRecord
  2
_8543
 70
0
 62
7
  6
CONTINUOUS
370
-3
390
F
  0
LAYER
  5
69B
100
AcDbSymbolTableRecord
100
AcDbLayerTableRecord
  2
_8554
 70
0
 62
7
  6
CONTINUOUS
370
-3
390
F
  0
LAYER
  5
69C
100
AcDbSymbolTableRecord
100
AcDbLayerTableRecord
  2
_8572
 70
0
 62
7
  6
CONTINUOUS
370
-3
390
F
  0
LAYER
  5
69D
100
AcDbSymbolTableRecord
100
AcDbLayerTableRecord
  2
_8576
 70
0
 62
7
  6
CONTINUOUS
370
-3
390
F
  0
LAYER
  5
69E
100
AcDbSymbolTableRecord
100
AcDbLayerTableRecord
  2
_8590
 70
0
 62
7
  6
CONTINUOUS
370
-3
390
F
  0
LAYER
  5
69F
100
AcDbSymbolTableRecord
100
AcDbLayerTableRecord
  2
_863
 70
0
 62
7
  6
CONTINUOUS
370
-3
390
F
  0
LAYER
  5
6A0
100
AcDbSymbolTableRecord
100
AcDbLayerTableRecord
  2
_8658
 70
0
 62
7
  6
CONTINUOUS
370
-3
390
F
  0
LAYER
  5
6A1
100
AcDbSymbolTableRecord
100
AcDbLayerTableRecord
  2
_8664
 70
0
 62
7
  6
CONTINUOUS
370
-3
390
F
  0
LAYER
  5
6A2
100
AcDbSymbolTableRecord
100
AcDbLayerTableRecord
  2
_8737
 70
0
 62
7
  6
CONTINUOUS
370
-3
390
F
  0
LAYER
  5
6A3
100
AcDbSymbolTableRecord
100
AcDbLayerTableRecord
  2
_8752
 70
0
 62
7
  6
CONTINUOUS
370
-3
390
F
  0
LAYER
  5
6A4
100
AcDbSymbolTableRecord
100
AcDbLayerTableRecord
  2
_8766
 70
0
 62
7
  6
CONTINUOUS
370
-3
390
F
  0
LAYER
  5
6A5
100
AcDbSymbolTableRecord
100
AcDbLayerTableRecord
  2
_8782
 70
0
 62
7
  6
CONTINUOUS
370
-3
390
F
  0
LAYER
  5
6A6
100
AcDbSymbolTableRecord
100
AcDbLayerTableRecord
  2
_883
 70
0
 62
7
  6
CONTINUOUS
370
-3
390
F
  0
LAYER
  5
6A7
100
AcDbSymbolTableRecord
100
AcDbLayerTableRecord
  2
_8837
 70
0
 62
7
  6
CONTINUOUS
370
-3
390
F
  0
LAYER
  5
6A8
100
AcDbSymbolTableRecord
100
AcDbLayerTableRecord
  2
_8885
 70
0
 62
7
  6
CONTINUOUS
370
-3
390
F
  0
LAYER
  5
6A9
100
AcDbSymbolTableRecord
100
AcDbLayerTableRecord
  2
_8906
 70
0
 62
7
  6
CONTINUOUS
370
-3
390
F
  0
LAYER
  5
6AA
100
AcDbSymbolTableRecord
100
AcDbLayerTableRecord
  2
_8912
 70
0
 62
7
  6
CONTINUOUS
370
-3
390
F
  0
LAYER
  5
6AB
100
AcDbSymbolTableRecord
100
AcDbLayerTableRecord
  2
_8921
 70
0
 62
7
  6
CONTINUOUS
370
-3
390
F
  0
LAYER
  5
6AC
100
AcDbSymbolTableRecord
100
AcDbLayerTableRecord
  2
_8924
 70
0
 62
7
  6
CONTINUOUS
370
-3
390
F
  0
LAYER
  5
6AD
100
AcDbSymbolTableRecord
100
AcDbLayerTableRecord
  2
_8969
 70
0
 62
7
  6
CONTINUOUS
370
-3
390
F
  0
LAYER
  5
6AE
100
AcDbSymbolTableRecord
100
AcDbLayerTableRecord
  2
_8972
 70
0
 62
7
  6
CONTINUOUS
370
-3
390
F
  0
LAYER
  5
6AF
100
AcDbSymbolTableRecord
100
AcDbLayerTableRecord
  2
_8973
 70
0
 62
7
  6
CONTINUOUS
370
-3
390
F
  0
LAYER
  5
6B0
100
AcDbSymbolTableRecord
100
AcDbLayerTableRecord
  2
_8977
 70
0
 62
7
  6
CONTINUOUS
370
-3
390
F
  0
LAYER
  5
6B1
100
AcDbSymbolTableRecord
100
AcDbLayerTableRecord
  2
_8981
 70
0
 62
7
  6
CONTINUOUS
370
-3
390
F
  0
LAYER
  5
6B2
100
AcDbSymbolTableRecord
100
AcDbLayerTableRecord
  2
_8985
 70
0
 62
7
  6
CONTINUOUS
370
-3
390
F
  0
LAYER
  5
6B3
100
AcDbSymbolTableRecord
100
AcDbLayerTableRecord
  2
_8987
 70
0
 62
7
  6
CONTINUOUS
370
-3
390
F
  0
LAYER
  5
6B4
100
AcDbSymbolTableRecord
100
AcDbLayerTableRecord
  2
_8994
 70
0
 62
7
  6
CONTINUOUS
370
-3
390
F
  0
LAYER
  5
6B5
100
AcDbSymbolTableRecord
100
AcDbLayerTableRecord
  2
_9018
 70
0
 62
7
  6
CONTINUOUS
370
-3
390
F
  0
LAYER
  5
6B6
100
AcDbSymbolTableRecord
100
AcDbLayerTableRecord
  2
_9028
 70
0
 62
7
  6
CONTINUOUS
370
-3
390
F
  0
LAYER
  5
6B7
100
AcDbSymbolTableRecord
100
AcDbLayerTableRecord
  2
_9047
 70
0
 62
7
  6
CONTINUOUS
370
-3
390
F
  0
LAYER
  5
6B8
100
AcDbSymbolTableRecord
100
AcDbLayerTableRecord
  2
_9056
 70
0
 62
7
  6
CONTINUOUS
370
-3
390
F
  0
LAYER
  5
6B9
100
AcDbSymbolTableRecord
100
AcDbLayerTableRecord
  2
_907
 70
0
 62
7
  6
CONTINUOUS
370
-3
390
F
  0
LAYER
  5
6BA
100
AcDbSymbolTableRecord
100
AcDbLayerTableRecord
  2
_9078
 70
0
 62
7
  6
CONTINUOUS
370
-3
390
F
  0
LAYER
  5
6BB
100
AcDbSymbolTableRecord
100
AcDbLayerTableRecord
  2
_908
 70
0
 62
7
  6
CONTINUOUS
370
-3
390
F
  0
LAYER
  5
6BC
100
AcDbSymbolTableRecord
100
AcDbLayerTableRecord
  2
_9081
 70
0
 62
7
  6
CONTINUOUS
370
-3
390
F
  0
LAYER
  5
6BD
100
AcDbSymbolTableRecord
100
AcDbLayerTableRecord
  2
_9103
 70
0
 62
7
  6
CONTINUOUS
370
-3
390
F
  0
LAYER
  5
6BE
100
AcDbSymbolTableRecord
100
AcDbLayerTableRecord
  2
_9138
 70
0
 62
7
  6
CONTINUOUS
370
-3
390
F
  0
LAYER
  5
6BF
100
AcDbSymbolTableRecord
100
AcDbLayerTableRecord
  2
_9145
 70
0
 62
7
  6
CONTINUOUS
370
-3
390
F
  0
LAYER
  5
6C0
100
AcDbSymbolTableRecord
100
AcDbLayerTableRecord
  2
_9168
 70
0
 62
7
  6
CONTINUOUS
370
-3
390
F
  0
LAYER
  5
6C1
100
AcDbSymbolTableRecord
100
AcDbLayerTableRecord
  2
_9171
 70
0
 62
7
  6
CONTINUOUS
370
-3
390
F
  0
LAYER
  5
6C2
100
AcDbSymbolTableRecord
100
AcDbLayerTableRecord
  2
_9173
 70
0
 62
7
  6
CONTINUOUS
370
-3
390
F
  0
LAYER
  5
6C3
100
AcDbSymbolTableRecord
100
AcDbLayerTableRecord
  2
_9184
 70
0
 62
7
  6
CONTINUOUS
370
-3
390
F
  0
LAYER
  5
6C4
100
AcDbSymbolTableRecord
100
AcDbLayerTableRecord
  2
_9185
 70
0
 62
7
  6
CONTINUOUS
370
-3
390
F
  0
LAYER
  5
6C5
100
AcDbSymbolTableRecord
100
AcDbLayerTableRecord
  2
_9220
 70
0
 62
7
  6
CONTINUOUS
370
-3
390
F
  0
LAYER
  5
6C6
100
AcDbSymbolTableRecord
100
AcDbLayerTableRecord
  2
_9224
 70
0
 62
7
  6
CONTINUOUS
370
-3
390
F
  0
LAYER
  5
6C7
100
AcDbSymbolTableRecord
100
AcDbLayerTableRecord
  2
_9231
 70
0
 62
7
  6
CONTINUOUS
370
-3
390
F
  0
LAYER
  5
6C8
100
AcDbSymbolTableRecord
100
AcDbLayerTableRecord
  2
_9240
 70
0
 62
7
  6
CONTINUOUS
370
-3
390
F
  0
LAYER
  5
6C9
100
AcDbSymbolTableRecord
100
AcDbLayerTableRecord
  2
_9250
 70
0
 62
7
  6
CONTINUOUS
370
-3
390
F
  0
LAYER
  5
6CA
100
AcDbSymbolTableRecord
100
AcDbLayerTableRecord
  2
_9251
 70
0
 62
7
  6
CONTINUOUS
370
-3
390
F
  0
LAYER
  5
6CB
100
AcDbSymbolTableRecord
100
AcDbLayerTableRecord
  2
_9256
 70
0
 62
7
  6
CONTINUOUS
370
-3
390
F
  0
LAYER
  5
6CC
100
AcDbSymbolTableRecord
100
AcDbLayerTableRecord
  2
_9273
 70
0
 62
7
  6
CONTINUOUS
370
-3
390
F
  0
LAYER
  5
6CD
100
AcDbSymbolTableRecord
100
AcDbLayerTableRecord
  2
_9302
 70
0
 62
7
  6
CONTINUOUS
370
-3
390
F
  0
LAYER
  5
6CE
100
AcDbSymbolTableRecord
100
AcDbLayerTableRecord
  2
_9305
 70
0
 62
7
  6
CONTINUOUS
370
-3
390
F
  0
LAYER
  5
6CF
100
AcDbSymbolTableRecord
100
AcDbLayerTableRecord
  2
_9315
 70
0
 62
7
  6
CONTINUOUS
370
-3
390
F
  0
LAYER
  5
6D0
100
AcDbSymbolTableRecord
100
AcDbLayerTableRecord
  2
_9343
 70
0
 62
7
  6
CONTINUOUS
370
-3
390
F
  0
LAYER
  5
6D1
100
AcDbSymbolTableRecord
100
AcDbLayerTableRecord
  2
_9354
 70
0
 62
7
  6
CONTINUOUS
370
-3
390
F
  0
LAYER
  5
6D2
100
AcDbSymbolTableRecord
100
AcDbLayerTableRecord
  2
_9362
 70
0
 62
7
  6
CONTINUOUS
370
-3
390
F
  0
LAYER
  5
6D3
100
AcDbSymbolTableRecord
100
AcDbLayerTableRecord
  2
_9370
 70
0
 62
7
  6
CONTINUOUS
370
-3
390
F
  0
LAYER
  5
6D4
100
AcDbSymbolTableRecord
100
AcDbLayerTableRecord
  2
_9391
 70
0
 62
7
  6
CONTINUOUS
370
-3
390
F
  0
LAYER
  5
6D5
100
AcDbSymbolTableRecord
100
AcDbLayerTableRecord
  2
_9413
 70
0
 62
7
  6
CONTINUOUS
370
-3
390
F
  0
LAYER
  5
6D6
100
AcDbSymbolTableRecord
100
AcDbLayerTableRecord
  2
_9425
 70
0
 62
7
  6
CONTINUOUS
370
-3
390
F
  0
LAYER
  5
6D7
100
AcDbSymbolTableRecord
100
AcDbLayerTableRecord
  2
_9433
 70
0
 62
7
  6
CONTINUOUS
370
-3
390
F
  0
LAYER
  5
6D8
100
AcDbSymbolTableRecord
100
AcDbLayerTableRecord
  2
_9439
 70
0
 62
7
  6
CONTINUOUS
370
-3
390
F
  0
LAYER
  5
6D9
100
AcDbSymbolTableRecord
100
AcDbLayerTableRecord
  2
_9440
 70
0
 62
7
  6
CONTINUOUS
370
-3
390
F
  0
LAYER
  5
6DA
100
AcDbSymbolTableRecord
100
AcDbLayerTableRecord
  2
_9447
 70
0
 62
7
  6
CONTINUOUS
370
-3
390
F
  0
LAYER
  5
6DB
100
AcDbSymbolTableRecord
100
AcDbLayerTableRecord
  2
_9455
 70
0
 62
7
  6
CONTINUOUS
370
-3
390
F
  0
LAYER
  5
6DC
100
AcDbSymbolTableRecord
100
AcDbLayerTableRecord
  2
_947
 70
0
 62
7
  6
CONTINUOUS
370
-3
390
F
  0
LAYER
  5
6DD
100
AcDbSymbolTableRecord
100
AcDbLayerTableRecord
  2
_9499
 70
0
 62
7
  6
CONTINUOUS
370
-3
390
F
  0
LAYER
  5
6DE
100
AcDbSymbolTableRecord
100
AcDbLayerTableRecord
  2
_9501
 70
0
 62
7
  6
CONTINUOUS
370
-3
390
F
  0
LAYER
  5
6DF
100
AcDbSymbolTableRecord
100
AcDbLayerTableRecord
  2
_9526
 70
0
 62
7
  6
CONTINUOUS
370
-3
390
F
  0
LAYER
  5
6E0
100
AcDbSymbolTableRecord
100
AcDbLayerTableRecord
  2
_9533
 70
0
 62
7
  6
CONTINUOUS
370
-3
390
F
  0
LAYER
  5
6E1
100
AcDbSymbolTableRecord
100
AcDbLayerTableRecord
  2
_9540
 70
0
 62
7
  6
CONTINUOUS
370
-3
390
F
  0
LAYER
  5
6E2
100
AcDbSymbolTableRecord
100
AcDbLayerTableRecord
  2
_961
 70
0
 62
7
  6
CONTINUOUS
370
-3
390
F
  0
LAYER
  5
6E3
100
AcDbSymbolTableRecord
100
AcDbLayerTableRecord
  2
_9633
 70
0
 62
7
  6
CONTINUOUS
370
-3
390
F
  0
LAYER
  5
6E4
100
AcDbSymbolTableRecord
100
AcDbLayerTableRecord
  2
_9637
 70
0
 62
7
  6
CONTINUOUS
370
-3
390
F
  0
LAYER
  5
6E5
100
AcDbSymbolTableRecord
100
AcDbLayerTableRecord
  2
_9639
 70
0
 62
7
  6
CONTINUOUS
370
-3
390
F
  0
LAYER
  5
6E6
100
AcDbSymbolTableRecord
100
AcDbLayerTableRecord
  2
_9640
 70
0
 62
7
  6
CONTINUOUS
370
-3
390
F
  0
LAYER
  5
6E7
100
AcDbSymbolTableRecord
100
AcDbLayerTableRecord
  2
_9647
 70
0
 62
7
  6
CONTINUOUS
370
-3
390
F
  0
LAYER
  5
6E8
100
AcDbSymbolTableRecord
100
AcDbLayerTableRecord
  2
_9651
 70
0
 62
7
  6
CONTINUOUS
370
-3
390
F
  0
LAYER
  5
6E9
100
AcDbSymbolTableRecord
100
AcDbLayerTableRecord
  2
_9674
 70
0
 62
7
  6
CONTINUOUS
370
-3
390
F
  0
LAYER
  5
6EA
100
AcDbSymbolTableRecord
100
AcDbLayerTableRecord
  2
_9686
 70
0
 62
7
  6
CONTINUOUS
370
-3
390
F
  0
LAYER
  5
6EB
100
AcDbSymbolTableRecord
100
AcDbLayerTableRecord
  2
_9689
 70
0
 62
7
  6
CONTINUOUS
370
-3
390
F
  0
LAYER
  5
6EC
100
AcDbSymbolTableRecord
100
AcDbLayerTableRecord
  2
_9729
 70
0
 62
7
  6
CONTINUOUS
370
-3
390
F
  0
LAYER
  5
6ED
100
AcDbSymbolTableRecord
100
AcDbLayerTableRecord
  2
_973
 70
0
 62
7
  6
CONTINUOUS
370
-3
390
F
  0
LAYER
  5
6EE
100
AcDbSymbolTableRecord
100
AcDbLayerTableRecord
  2
_974
 70
0
 62
7
  6
CONTINUOUS
370
-3
390
F
  0
LAYER
  5
6EF
100
AcDbSymbolTableRecord
100
AcDbLayerTableRecord
  2
_9767
 70
0
 62
7
  6
CONTINUOUS
370
-3
390
F
  0
LAYER
  5
6F0
100
AcDbSymbolTableRecord
100
AcDbLayerTableRecord
  2
_9793
 70
0
 62
7
  6
CONTINUOUS
370
-3
390
F
  0
LAYER
  5
6F1
100
AcDbSymbolTableRecord
100
AcDbLayerTableRecord
  2
_9851
 70
0
 62
7
  6
CONTINUOUS
370
-3
390
F
  0
LAYER
  5
6F2
100
AcDbSymbolTableRecord
100
AcDbLayerTableRecord
  2
_9857
 70
0
 62
7
  6
CONTINUOUS
370
-3
390
F
  0
LAYER
  5
6F3
100
AcDbSymbolTableRecord
100
AcDbLayerTableRecord
  2
_9888
 70
0
 62
7
  6
CONTINUOUS
370
-3
390
F
  0
LAYER
  5
6F4
100
AcDbSymbolTableRecord
100
AcDbLayerTableRecord
  2
_9893
 70
0
 62
7
  6
CONTINUOUS
370
-3
390
F
  0
LAYER
  5
6F5
100
AcDbSymbolTableRecord
100
AcDbLayerTableRecord
  2
_9922
 70
0
 62
7
  6
CONTINUOUS
370
-3
390
F
  0
LAYER
  5
6F6
100
AcDbSymbolTableRecord
100
AcDbLayerTableRecord
  2
_9929
 70
0
 62
7
  6
CONTINUOUS
370
-3
390
F
  0
LAYER
  5
6F7
100
AcDbSymbolTableRecord
100
AcDbLayerTableRecord
  2
_9976
 70
0
 62
7
  6
CONTINUOUS
370
-3
390
F
  0
LAYER
  5
6F8
100
AcDbSymbolTableRecord
100
AcDbLayerTableRecord
  2
_998
 70
0
 62
7
  6
CONTINUOUS
370
-3
390
F
  0
LAYER
  5
6F9
100
AcDbSymbolTableRecord
100
AcDbLayerTableRecord
  2
_9981
 70
0
 62
7
  6
CONTINUOUS
370
-3
390
F
  0
LAYER
  5
6FA
100
AcDbSymbolTableRecord
100
AcDbLayerTableRecord
  2
_9983
 70
0
 62
7
  6
CONTINUOUS
370
-3
390
F
  0
LAYER
  5
6FB
100
AcDbSymbolTableRecord
100
AcDbLayerTableRecord
  2
_9986
 70
0
 62
7
  6
CONTINUOUS
370
-3
390
F
  0
LAYER
  5
6FC
100
AcDbSymbolTableRecord
100
AcDbLayerTableRecord
  2
_9988
 70
0
 62
7
  6
CONTINUOUS
370
-3
390
F
  0
LAYER
  5
6FD
100
AcDbSymbolTableRecord
100
AcDbLayerTableRecord
  2
___SHELL
 70
0
 62
7
  6
CONTINUOUS
370
-3
390
F
  0
ENDTAB
  0
TABLE
  2
STYLE
  5
3
100
AcDbSymbolTable
 70
1
  0
STYLE
  5
11
100
AcDbSymbolTableRecord
100
AcDbTextStyleTableRecord
  2
STANDARD
 70
0
 40
0.0
 41
0.8
 50
0.0
 71
0
 42
0.2
  3
txt
  4

  0
STYLE
  5
6FE
100
AcDbSymbolTableRecord
100
AcDbTextStyleTableRecord
  2
TEXTSTYLE_1
 70
0
 40
0.0
 41
0.8
 50
0.0
 71
0
 42
0.2
  3
gdt
  4

  0
ENDTAB
  0
TABLE
  2
VIEW
  5
6
100
AcDbSymbolTable
 70
0
  0
ENDTAB
  0
TABLE
  2
UCS
  5
7
100
AcDbSymbolTable
 70
0
  0
ENDTAB
  0
TABLE
  2
APPID
  5
9
100
AcDbSymbolTable
 70
1
  0
APPID
  5
6FF
100
AcDbSymbolTableRecord
100
AcDbRegAppTableRecord
  2
ACAD
 70
0
  0
ENDTAB
  0
TABLE
  2
BLOCK_RECORD
  5
1
100
AcDbSymbolTable
 70
0
  0
BLOCK_RECORD
  5
700
100
AcDbSymbolTableRecord
100
AcDbBlockTableRecord
  2
*Model_Space
  0
BLOCK_RECORD
  5
701
100
AcDbSymbolTableRecord
100
AcDbBlockTableRecord
  2
*Paper_Space
  0
ENDTAB
  0
TABLE
  2
DIMSTYLE
  5
A
100
AcDbSymbolTable
 70
1
100
AcDbDimStyleTable
 71
0
  0
DIMSTYLE
105
702
100
AcDbSymbolTableRecord
100
AcDbDimStyleTableRecord
  2
STANDARD
 70
0
  3

  4

 40
1.0
 41
3.0
 42
0.5
 43
0.38
 44
1.5
 45
0.0
 46
0.0
 47
0.01
 48
0.01
140
3.0
141
0.09
142
0.0
143
25.4
144
1.0
145
0.0
146
1.0
147
0.625
 71
1.0
 72
0.0
 73
0
 74
0
 75
0
 76
0
 77
1
 78
8
170
0
171
2
172
0
173
0
174
0
175
0
176
0
177
0
178
0
270
2
271
2
272
2
273
2
274
2
275
0
280
0
281
0
282
0
283
1
284
8
285
0
286
0
287
3
288
0
340
11
278
44
  0
ENDTAB
  0
ENDSEC
  0
SECTION
  2
BLOCKS
  0
BLOCK
  5
20
100
AcDbEntity
  8
0
100
AcDbBlockBegin
  2
*Model_Space
 70
0
 10
0.0
 20
0.0
 30
0.0
  3
*Model_Space
  1

  0
ENDBLK
  5
21
100
AcDbEntity
  8
0
100
AcDbBlockEnd
  0
BLOCK
  5
1C
100
AcDbEntity
  8
0
100
AcDbBlockBegin
  2
*Paper_Space
 70
0
 10
0.0
 20
0.0
 30
0.0
  3
*Paper_Space
  1

  0
ENDBLK
  5
1D
100
AcDbEntity
  8
0
100
AcDbBlockEnd
  0
ENDSEC
  0
SECTION
  2
ENTITIES
  0
LINE
  5
703
100
AcDbEntity
  8
0
100
AcDbLine
 62
7
  6
CONTINUOUS
 10
142.0978947114
 20
44.439660731
 11
143.6778947114
 21
44.439660731
  0
LINE
  5
704
100
AcDbEntity
  8
0
100
AcDbLine
 62
7
  6
CONTINUOUS
 10
144.0978947114
 20
44.439660731
 11
145.6778947114
 21
44.439660731
  0
LINE
  5
705
100
AcDbEntity
  8
0
100
AcDbLine
 62
7
  6
CONTINUOUS
 10
146.0978947114
 20
44.439660731
 11
147.6778947114
 21
44.439660731
  0
LINE
  5
706
100
AcDbEntity
  8
0
100
AcDbLine
 62
7
  6
CONTINUOUS
 10
148.0978947114
 20
44.439660731
 11
149.6778947114
 21
44.439660731
  0
LINE
  5
707
100
AcDbEntity
  8
0
100
AcDbLine
 62
7
  6
CONTINUOUS
 10
150.1078947114
 20
44.439660731
 11
151.6678947114
 21
44.439660731
  0
LINE
  5
708
100
AcDbEntity
  8
0
100
AcDbLine
 62
7
  6
CONTINUOUS
 10
152.1078947114
 20
44.439660731
 11
153.6678947114
 21
44.439660731
  0
LINE
  5
709
100
AcDbEntity
  8
ASSI
100
AcDbLine
 62
7
  6
CONTINUOUS
 10
154.1078947114
 20
44.439660731
 11
155.6678947114
 21
44.439660731
  0
LINE
  5
70A
100
AcDbEntity
  8
ASSI
100
AcDbLine
 62
7
  6
CONTINUOUS
 10
155.6678947114
 20
54.439660731
 11
154.1078947114
 21
54.439660731
  0
LINE
  5
70B
100
AcDbEntity
  8
0
100
AcDbLine
 62
7
  6
CONTINUOUS
 10
142.0978947114
 20
54.439660731
 11
143.6778947114
 21
54.439660731
  0
LINE
  5
70C
100
AcDbEntity
  8
0
100
AcDbLine
 62
7
  6
CONTINUOUS
 10
144.0978947114
 20
54.439660731
 11
145.6778947114
 21
54.439660731
  0
LINE
  5
70D
100
AcDbEntity
  8
0
100
AcDbLine
 62
7
  6
CONTINUOUS
 10
146.0978947114
 20
54.439660731
 11
147.6778947114
 21
54.439660731
  0
LINE
  5
70E
100
AcDbEntity
  8
0
100
AcDbLine
 62
7
  6
CONTINUOUS
 10
148.0978947114
 20
54.439660731
 11
149.6778947114
 21
54.439660731
  0
LINE
  5
70F
100
AcDbEntity
  8
0
100
AcDbLine
 62
7
  6
CONTINUOUS
 10
150.1078947114
 20
54.439660731
 11
151.6678947114
 21
54.439660731
  0
LINE
  5
710
100
AcDbEntity
  8
0
100
AcDbLine
 62
7
  6
CONTINUOUS
 10
152.1078947114
 20
54.439660731
 11
153.6678947114
 21
54.439660731
  0
LINE
  5
711
100
AcDbEntity
  8
0
100
AcDbLine
 62
7
  6
CONTINUOUS
 10
142.0978947114
 20
55.439660731
 11
143.6778947114
 21
55.439660731
  0
LINE
  5
712
100
AcDbEntity
  8
0
100
AcDbLine
 62
7
  6
CONTINUOUS
 10
144.0978947114
 20
55.439660731
 11
145.6778947114
 21
55.439660731
  0
LINE
  5
713
100
AcDbEntity
  8
0
100
AcDbLine
 62
7
  6
CONTINUOUS
 10
146.0978947114
 20
55.439660731
 11
147.6778947114
 21
55.439660731
  0
LINE
  5
714
100
AcDbEntity
  8
0
100
AcDbLine
 62
7
  6
CONTINUOUS
 10
148.0978947114
 20
55.439660731
 11
149.6778947114
 21
55.439660731
  0
LINE
  5
715
100
AcDbEntity
  8
0
100
AcDbLine
 62
7
  6
CONTINUOUS
 10
150.1078947114
 20
55.439660731
 11
151.6678947114
 21
55.439660731
  0
LINE
  5
716
100
AcDbEntity
  8
0
100
AcDbLine
 62
7
  6
CONTINUOUS
 10
152.1078947114
 20
55.439660731
 11
153.6678947114
 21
55.439660731
  0
LINE
  5
717
100
AcDbEntity
  8
ASSI
100
AcDbLine
 62
7
  6
CONTINUOUS
 10
154.1078947114
 20
55.439660731
 11
155.6678947114
 21
55.439660731
  0
LINE
  5
718
100
AcDbEntity
  8
RACCORDO
100
AcDbLine
 62
7
  6
CONTINUOUS
 10
147.7398312692
 20
80.0880287829
 11
144.0359581537
 21
80.0880287829
  0
LINE
  5
719
100
AcDbEntity
  8
RACCORDO
100
AcDbLine
 62
253
  6
CONTINUOUS
 10
147.7220824254
 20
80.1056361642
 11
144.0537079981
 21
80.1056361642
  0
LINE
  5
71A
100
AcDbEntity
  8
RACCORDO
100
AcDbLine
 62
253
  6
CONTINUOUS
 10
147.7222238879
 20
80.6055600118
 11
144.053565535
 21
80.6055600118
  0
LINE
  5
71B
100
AcDbEntity
  8
RACCORDO
100
AcDbLine
 62
253
  6
CONTINUOUS
 10
149.7219192782
 20
82.1053315546
 11
149.2219954306
 21
82.1053315546
  0
LINE
  5
71C
100
AcDbEntity
  8
RACCORDO
100
AcDbLine
 62
253
  6
CONTINUOUS
 10
142.0538701447
 20
82.1053315546
 11
142.5537939923
 21
82.1053315546
  0
LWPOLYLINE
  5
71D
100
AcDbEntity
  8
RACCORDO
100
AcDbPolyline
 62
253
  6
CONTINUOUS
 90
25
 70
0
 10
144.0537079838
 20
80.1056361551
 10
143.9228469282
 20
80.109922076
 10
143.7925654449
 20
80.1227584731
 10
143.6634212091
 20
80.144086845
 10
143.5359717907
 20
80.1738108939
 10
143.4107567133
 20
80.2118007321
 10
143.2882961533
 20
80.25789685
 10
143.1691094474
 20
80.3119039918
 10
143.0537115132
 20
80.3735889924
 10
142.9425958561
 20
80.4426879985
 10
142.8362380542
 20
80.5189050824
 10
142.7350931393
 20
80.6019138733
 10
142.6395934723
 20
80.6913595096
 10
142.5501478377
 20
80.7868591771
 10
142.4671390491
 20
80.8880040913
 10
142.3909219676
 20
80.9943618923
 10
142.3218229635
 20
81.1054775484
 10
142.2601379648
 20
81.2208754811
 10
142.206130825
 20
81.340062185
 10
142.1600346972
 20
81.462522777
 10
142.1220448534
 20
81.5877378872
 10
142.0923208247
 20
81.7151872311
 10
142.0709924824
 20
81.8443312448
 10
142.0581560928
 20
81.974612393
 10
142.0538701356
 20
82.1054730028
  0
LWPOLYLINE
  5
71E
100
AcDbEntity
  8
RACCORDO
100
AcDbPolyline
 62
253
  6
CONTINUOUS
 90
25
 70
0
 10
144.053565535
 20
80.6055600118
 10
143.9550790498
 20
80.6088335384
 10
143.8577504602
 20
80.6183964506
 10
143.7615797663
 20
80.6342487482
 10
143.6661357276
 20
80.6565119995
 10
143.5718495847
 20
80.6850646362
 10
143.480015059
 20
80.719541954
 10
143.390693606
 20
80.760019193
 10
143.3038237704
 20
80.806421113
 10
143.2205149072
 20
80.8581572885
 10
143.1408122144
 20
80.9152969171
 10
143.0646704942
 20
80.9777708013
 10
142.9930635075
 20
81.0447809235
 10
142.9260492885
 20
81.1163862306
 10
142.8635698032
 20
81.1925277759
 10
142.8064247101
 20
81.2722307008
 10
142.7546836854
 20
81.3555398815
 10
142.7082770528
 20
81.442410442
 10
142.6677954427
 20
81.5317328958
 10
142.6333141955
 20
81.6235672977
 10
142.6047579707
 20
81.7178535931
 10
142.5824913771
 20
81.8133021315
 10
142.566635951
 20
81.9094830295
 10
142.557070156
 20
82.0068261705
 10
142.5537939923
 20
82.1053315546
  0
LINE
  5
71F
100
AcDbEntity
  8
RACCORDO
100
AcDbLine
 62
253
  6
CONTINUOUS
 10
130.0589537856
 20
88.0607508329
 11
129.8857750849
 21
88.1607356024
  0
LWPOLYLINE
  5
720
100
AcDbEntity
  8
RACCORDO
100
AcDbPolyline
 62
7
  6
CONTINUOUS
 90
13
 70
0
 10
124.3878947114
 20
101.13963027
 10
124.3896049756
 20
101.1135281432
 10
124.394707152
 20
101.0878729649
 10
124.4031141332
 20
101.0631034435
 10
124.4146823743
 20
101.0396429866
 10
124.4292141615
 20
101.0178931807
 10
124.4464607392
 20
100.9982267588
 10
124.4661271612
 20
100.980980181
 10
124.4878769671
 20
100.9664483938
 10
124.5113374239
 20
100.9548801528
 10
124.5361069454
 20
100.9464731715
 10
124.5617621236
 20
100.9413709952
 10
124.5878642505
 20
100.939660731
  0
LWPOLYLINE
  5
721
100
AcDbEntity
  8
RACCORDO
100
AcDbPolyline
 62
253
  6
CONTINUOUS
 90
25
 70
0
 10
126.0367196863
 20
91.0883100907
 10
126.0410250446
 20
90.9574811033
 10
126.0538780723
 20
90.8272271779
 10
126.0752208476
 20
90.6981059203
 10
126.1049578636
 20
90.5706743854
 10
126.1429596657
 20
90.4454727213
 10
126.1890664365
 20
90.3230227532
 10
126.2430829061
 20
90.2038442759
 10
126.3047762699
 20
90.0884519189
 10
126.3738824932
 20
89.9773396096
 10
126.4501057478
 20
89.8709829625
 10
126.5331197329
 20
89.7698371902
 10
126.6225691653
 20
89.6743351879
 10
126.7180711692
 20
89.584885757
 10
126.8192169432
 20
89.5018717732
 10
126.9255735918
 20
89.4256485194
 10
127.0366859018
 20
89.3565422961
 10
127.1520782592
 20
89.2948489316
 10
127.2712567375
 20
89.2408324614
 10
127.393711232
 20
89.1947241543
 10
127.5189176047
 20
89.1567214144
 10
127.6463399134
 20
89.1269868723
 10
127.7754327547
 20
89.1056478426
 10
127.9056435947
 20
89.0927957674
 10
128.036415103
 20
89.0884857322
  0
LINE
  5
722
100
AcDbEntity
  8
RACCORDO
100
AcDbLine
 62
253
  6
CONTINUOUS
 10
124.5046372886
 20
116.3804638472
 11
124.5087523539
 21
116.2558596381
  0
LINE
  5
723
100
AcDbEntity
  8
RACCORDO
100
AcDbLine
 62
253
  6
CONTINUOUS
 10
125.7711521343
 20
101.4988576148
 11
125.767037069
 21
101.6234618239
  0
LINE
  5
724
100
AcDbEntity
  8
RACCORDO
100
AcDbLine
 62
253
  6
CONTINUOUS
 10
124.704610124
 20
116.561473808
 11
124.7087245245
 21
116.4283195704
  0
LINE
  5
725
100
AcDbEntity
  8
RACCORDO
100
AcDbLine
 62
253
  6
CONTINUOUS
 10
125.5711792989
 20
101.317847654
 11
125.5670648984
 21
101.4510018916
  0
LINE
  5
726
100
AcDbEntity
  8
RACCORDO
100
AcDbLine
 62
253
  6
CONTINUOUS
 10
124.5087523539
 20
116.2558596381
 11
124.5128859809
 21
116.1000806373
  0
LINE
  5
727
100
AcDbEntity
  8
RACCORDO
100
AcDbLine
 62
253
  6
CONTINUOUS
 10
125.767037069
 20
101.6234618239
 11
125.762903442
 21
101.7792408247
  0
LINE
  5
728
100
AcDbEntity
  8
RACCORDO
100
AcDbLine
 62
253
  6
CONTINUOUS
 10
124.7087245245
 20
116.4283195704
 11
124.7128571764
 21
116.2612116601
  0
LINE
  5
729
100
AcDbEntity
  8
RACCORDO
100
AcDbLine
 62
253
  6
CONTINUOUS
 10
125.5670648984
 20
101.4510018916
 11
125.5629322465
 21
101.6181098018
  0
LINE
  5
72A
100
AcDbEntity
  8
RACCORDO
100
AcDbLine
 62
253
  6
CONTINUOUS
 10
124.5128859809
 20
116.1000806373
 11
124.5188460384
 21
115.8041124603
  0
LINE
  5
72B
100
AcDbEntity
  8
RACCORDO
100
AcDbLine
 62
253
  6
CONTINUOUS
 10
125.762903442
 20
101.7792408247
 11
125.7569433845
 21
102.0752090017
  0
LINE
  5
72C
100
AcDbEntity
  8
RACCORDO
100
AcDbLine
 62
253
  6
CONTINUOUS
 10
124.7128571764
 20
116.2612116601
 11
124.7188152201
 21
115.944199992
  0
LINE
  5
72D
100
AcDbEntity
  8
RACCORDO
100
AcDbLine
 62
253
  6
CONTINUOUS
 10
125.5629322465
 20
101.6181098018
 11
125.5569742028
 21
101.93512147
  0
LINE
  5
72E
100
AcDbEntity
  8
RACCORDO
100
AcDbLine
 62
253
  6
CONTINUOUS
 10
124.5188460384
 20
115.8041124603
 11
124.5238932635
 21
115.4574152345
  0
LINE
  5
72F
100
AcDbEntity
  8
RACCORDO
100
AcDbLine
 62
253
  6
CONTINUOUS
 10
125.7569433845
 20
102.0752090017
 11
125.7518961594
 21
102.4219062274
  0
LINE
  5
730
100
AcDbEntity
  8
RACCORDO
100
AcDbLine
 62
253
  6
CONTINUOUS
 10
124.7188152201
 20
115.944199992
 11
124.725251007
 21
115.4451534115
  0
LINE
  5
731
100
AcDbEntity
  8
RACCORDO
100
AcDbLine
 62
253
  6
CONTINUOUS
 10
125.5569742028
 20
101.93512147
 11
125.5505384159
 21
102.4341680505
  0
LINE
  5
732
100
AcDbEntity
  8
RACCORDO
100
AcDbLine
 62
253
  6
CONTINUOUS
 10
124.5238932635
 20
115.4574152345
 11
124.5286214555
 21
114.9807685227
  0
LINE
  5
733
100
AcDbEntity
  8
RACCORDO
100
AcDbLine
 62
253
  6
CONTINUOUS
 10
125.7518961594
 20
102.4219062274
 11
125.7471679674
 21
102.8985529393
  0
LINE
  5
734
100
AcDbEntity
  8
RACCORDO
100
AcDbLine
 62
253
  6
CONTINUOUS
 10
124.725251007
 20
115.4451534115
 11
124.7301744532
 21
114.8136463808
  0
LINE
  5
735
100
AcDbEntity
  8
RACCORDO
100
AcDbLine
 62
253
  6
CONTINUOUS
 10
125.5505384159
 20
102.4341680505
 11
125.5456149697
 21
103.0656750811
  0
LINE
  5
736
100
AcDbEntity
  8
RACCORDO
100
AcDbLine
 62
253
  6
CONTINUOUS
 10
124.5286214555
 20
114.9807685227
 11
124.5321389281
 21
114.3143355142
  0
LINE
  5
737
100
AcDbEntity
  8
RACCORDO
100
AcDbLine
 62
253
  6
CONTINUOUS
 10
125.7471679674
 20
102.8985529393
 11
125.7436504948
 21
103.5649859478
  0
LINE
  5
738
100
AcDbEntity
  8
RACCORDO
100
AcDbLine
 62
253
  6
CONTINUOUS
 10
124.7301744532
 20
114.8136463808
 11
124.7327121003
 21
114.033905048
  0
LINE
  5
739
100
AcDbEntity
  8
RACCORDO
100
AcDbLine
 62
253
  6
CONTINUOUS
 10
125.5456149697
 20
103.0656750811
 11
125.5430773226
 21
103.8454164139
  0
LINE
  5
73A
100
AcDbEntity
  8
RACCORDO
100
AcDbLine
 62
7
  6
CONTINUOUS
 10
124.3878947114
 20
101.13963027
 11
124.3878947114
 21
103.939660731
  0
LINE
  5
73B
100
AcDbEntity
  8
RACCORDO
100
AcDbLine
 62
7
  6
CONTINUOUS
 10
124.3878947114
 20
113.939660731
 11
124.3878947114
 21
116.739691192
  0
LINE
  5
73C
100
AcDbEntity
  8
RACCORDO
100
AcDbLine
 62
7
  6
CONTINUOUS
 10
124.4838975686
 20
113.3523092423
 11
124.4838975686
 21
104.5270122197
  0
LINE
  5
73D
100
AcDbEntity
  8
RACCORDO
100
AcDbLine
 62
253
  6
CONTINUOUS
 10
124.5321389281
 20
114.3143355142
 11
124.5328326769
 21
104.0361205722
  0
LINE
  5
73E
100
AcDbEntity
  8
RACCORDO
100
AcDbLine
 62
253
  6
CONTINUOUS
 10
125.7436504948
 20
103.5649859478
 11
125.742956746
 21
113.8432008898
  0
LINE
  5
73F
100
AcDbEntity
  8
RACCORDO
100
AcDbLine
 62
7
  6
CONTINUOUS
 10
125.7918918543
 20
113.3523092423
 11
125.7918918543
 21
104.5270122197
  0
LINE
  5
740
100
AcDbEntity
  8
DRAFT
100
AcDbLine
 62
7
  6
CONTINUOUS
 10
125.8878947114
 20
113.939660731
 11
125.8878947114
 21
113.6473036527
  0
LINE
  5
741
100
AcDbEntity
  8
DRAFT
100
AcDbLine
 62
7
  6
CONTINUOUS
 10
125.8878947114
 20
104.2320178092
 11
125.8878947114
 21
103.939660731
  0
LINE
  5
742
100
AcDbEntity
  8
RACCORDO
100
AcDbLine
 62
7
  6
CONTINUOUS
 10
125.8878947114
 20
90.9393561213
 11
125.8878947114
 21
104.189660731
  0
LINE
  5
743
100
AcDbEntity
  8
RACCORDO
100
AcDbLine
 62
7
  6
CONTINUOUS
 10
125.8878947114
 20
113.689660731
 11
125.8878947114
 21
126.9399653407
  0
LINE
  5
744
100
AcDbEntity
  8
RACCORDO
100
AcDbLine
 62
7
  6
CONTINUOUS
 10
125.9838975686
 20
113.2988486949
 11
125.9838975686
 21
104.580472767
  0
LINE
  5
745
100
AcDbEntity
  8
RACCORDO
100
AcDbLine
 62
253
  6
CONTINUOUS
 10
126.0367197127
 20
91.0883101212
 11
126.0367197127
 21
126.7911403395
  0
LINE
  5
746
100
AcDbEntity
  8
RACCORDO
100
AcDbLine
 62
253
  6
CONTINUOUS
 10
124.7327121003
 20
114.033905048
 11
124.732789383
 21
103.9427444942
  0
LINE
  5
747
100
AcDbEntity
  8
RACCORDO
100
AcDbLine
 62
253
  6
CONTINUOUS
 10
125.5430773226
 20
103.8454164139
 11
125.5430000399
 21
113.9365769677
  0
LINE
  5
748
100
AcDbEntity
  8
RACCORDO
100
AcDbLine
 62
253
  6
CONTINUOUS
 10
124.5328326769
 20
104.0361205722
 11
124.5313554012
 21
103.3534580836
  0
LINE
  5
749
100
AcDbEntity
  8
RACCORDO
100
AcDbLine
 62
253
  6
CONTINUOUS
 10
125.742956746
 20
113.8432008898
 11
125.7444340217
 21
114.5258633783
  0
LINE
  5
74A
100
AcDbEntity
  8
RACCORDO
100
AcDbLine
 62
253
  6
CONTINUOUS
 10
124.732789383
 20
103.9427444942
 11
124.7308036294
 21
103.1864417905
  0
LINE
  5
74B
100
AcDbEntity
  8
RACCORDO
100
AcDbLine
 62
253
  6
CONTINUOUS
 10
125.5430000399
 20
113.9365769677
 11
125.5449857934
 21
114.6928796715
  0
LINE
  5
74C
100
AcDbEntity
  8
RACCORDO
100
AcDbLine
 62
253
  6
CONTINUOUS
 10
124.5313554012
 20
103.3534580836
 11
124.5276428424
 21
102.7804867885
  0
LINE
  5
74D
100
AcDbEntity
  8
RACCORDO
100
AcDbLine
 62
253
  6
CONTINUOUS
 10
125.7444340217
 20
114.5258633783
 11
125.7481465805
 21
115.0988346734
  0
LINE
  5
74E
100
AcDbEntity
  8
RACCORDO
100
AcDbLine
 62
253
  6
CONTINUOUS
 10
124.7308036294
 20
103.1864417905
 11
124.7264967403
 21
102.5625938946
  0
LINE
  5
74F
100
AcDbEntity
  8
RACCORDO
100
AcDbLine
 62
253
  6
CONTINUOUS
 10
125.5449857934
 20
114.6928796715
 11
125.5492926826
 21
115.3167275674
  0
LINE
  5
750
100
AcDbEntity
  8
RACCORDO
100
AcDbLine
 62
253
  6
CONTINUOUS
 10
124.5276428424
 20
102.7804867885
 11
124.5223407857
 21
102.3035813846
  0
LINE
  5
751
100
AcDbEntity
  8
RACCORDO
100
AcDbLine
 62
253
  6
CONTINUOUS
 10
125.7481465805
 20
115.0988346734
 11
125.7534486372
 21
115.5757400773
  0
LINE
  5
752
100
AcDbEntity
  8
RACCORDO
100
AcDbLine
 62
253
  6
CONTINUOUS
 10
124.7264967403
 20
102.5625938946
 11
124.7206127968
 21
102.0543085724
  0
LINE
  5
753
100
AcDbEntity
  8
RACCORDO
100
AcDbLine
 62
253
  6
CONTINUOUS
 10
125.5492926826
 20
115.3167275674
 11
125.5551766261
 21
115.8250128895
  0
LINE
  5
754
100
AcDbEntity
  8
RACCORDO
100
AcDbLine
 62
253
  6
CONTINUOUS
 10
124.5223407857
 20
102.3035813846
 11
124.5169358777
 21
101.9700548225
  0
LINE
  5
755
100
AcDbEntity
  8
RACCORDO
100
AcDbLine
 62
253
  6
CONTINUOUS
 10
125.7534486372
 20
115.5757400773
 11
125.7588535452
 21
115.9092666395
  0
LINE
  5
756
100
AcDbEntity
  8
RACCORDO
100
AcDbLine
 62
253
  6
CONTINUOUS
 10
124.7206127968
 20
102.0543085724
 11
124.7148948354
 21
101.7155117968
  0
LINE
  5
757
100
AcDbEntity
  8
RACCORDO
100
AcDbLine
 62
253
  6
CONTINUOUS
 10
125.5551766261
 20
115.8250128895
 11
125.5608945875
 21
116.1638096652
  0
LINE
  5
758
100
AcDbEntity
  8
RACCORDO
100
AcDbLine
 62
253
  6
CONTINUOUS
 10
124.5169358777
 20
101.9700548225
 11
124.5128859809
 21
101.7792408248
  0
LINE
  5
759
100
AcDbEntity
  8
RACCORDO
100
AcDbLine
 62
253
  6
CONTINUOUS
 10
125.7588535452
 20
115.9092666395
 11
125.762903442
 21
116.1000806371
  0
LINE
  5
75A
100
AcDbEntity
  8
RACCORDO
100
AcDbLine
 62
253
  6
CONTINUOUS
 10
124.7148948354
 20
101.7155117968
 11
124.7108042493
 21
101.5302654727
  0
LINE
  5
75B
100
AcDbEntity
  8
RACCORDO
100
AcDbLine
 62
253
  6
CONTINUOUS
 10
125.5608945875
 20
116.1638096652
 11
125.5649851736
 21
116.3490559893
  0
LINE
  5
75C
100
AcDbEntity
  8
RACCORDO
100
AcDbLine
 62
253
  6
CONTINUOUS
 10
124.5128859809
 20
101.7792408248
 11
124.5087523539
 21
101.6234618229
  0
LINE
  5
75D
100
AcDbEntity
  8
RACCORDO
100
AcDbLine
 62
253
  6
CONTINUOUS
 10
125.762903442
 20
116.1000806371
 11
125.767037069
 21
116.2558596391
  0
LWPOLYLINE
  5
75E
100
AcDbEntity
  8
RACCORDO
100
AcDbPolyline
 62
253
  6
CONTINUOUS
 90
14
 70
0
 10
124.7108042493
 20
101.5302654727
 10
124.7066579549
 20
101.3802992868
 10
124.704610124
 20
101.317847654
 10
124.7025754481
 20
101.2630940009
 10
124.7005771288
 20
101.2155525313
 10
124.6986178762
 20
101.1747743256
 10
124.6966949802
 20
101.140294004
 10
124.6948235114
 20
101.1116166982
 10
124.6930056716
 20
101.0882948862
 10
124.691239259
 20
101.0698797452
 10
124.6895327396
 20
101.0559118139
 10
124.6878889353
 20
101.045970747
 10
124.6863050242
 20
101.0396578541
 10
124.6847810062
 20
101.0365774868
  0
LWPOLYLINE
  5
75F
100
AcDbEntity
  8
RACCORDO
100
AcDbPolyline
 62
253
  6
CONTINUOUS
 90
14
 70
0
 10
125.5649851736
 20
116.3490559893
 10
125.569131468
 20
116.4990221752
 10
125.5711792989
 20
116.561473808
 10
125.5732139748
 20
116.6162274611
 10
125.5752122941
 20
116.6637689306
 10
125.5771715467
 20
116.7045471364
 10
125.5790944427
 20
116.739027458
 10
125.5809659115
 20
116.7677047637
 10
125.5827837513
 20
116.7910265757
 10
125.5845501639
 20
116.8094417168
 10
125.5862566833
 20
116.8234096481
 10
125.5879004876
 20
116.833350715
 10
125.5894843987
 20
116.8396636079
 10
125.5910084167
 20
116.8427439752
  0
LWPOLYLINE
  5
760
100
AcDbEntity
  8
RACCORDO
100
AcDbPolyline
 62
253
  6
CONTINUOUS
 90
13
 70
0
 10
124.5087523539
 20
101.6234618229
 10
124.5046372886
 20
101.4988576154
 10
124.5026023987
 20
101.4480322896
 10
124.500603911
 20
101.4035144769
 10
124.4986445325
 20
101.365315003
 10
124.4967215562
 20
101.3334230422
 10
124.4948500332
 20
101.3065327749
 10
124.4930320193
 20
101.2846188562
 10
124.4912654587
 20
101.2677066308
 10
124.4895592348
 20
101.2545663137
 10
124.4879163088
 20
101.2447879762
 10
124.4863337196
 20
101.2387815469
 10
124.4848114672
 20
101.2365470258
  0
LWPOLYLINE
  5
761
100
AcDbEntity
  8
RACCORDO
100
AcDbPolyline
 62
253
  6
CONTINUOUS
 90
13
 70
0
 10
125.767037069
 20
116.2558596391
 10
125.7711521343
 20
116.3804638465
 10
125.7731870242
 20
116.4312891724
 10
125.7751855119
 20
116.4758069851
 10
125.7771448904
 20
116.514006459
 10
125.7790678667
 20
116.5458984197
 10
125.7809393897
 20
116.5727886871
 10
125.7827574036
 20
116.5947026058
 10
125.7845239642
 20
116.6116148311
 10
125.7862301881
 20
116.6247551483
 10
125.7878731141
 20
116.6345334858
 10
125.7894557033
 20
116.6405399151
 10
125.7909779557
 20
116.6427744362
  0
LWPOLYLINE
  5
762
100
AcDbEntity
  8
RACCORDO
100
AcDbPolyline
 62
253
  6
CONTINUOUS
 90
13
 70
0
 10
131.8688671307
 20
127.7591591131
 10
131.8955864937
 20
127.8347174733
 10
131.9219104395
 20
127.907479013
 10
131.947881346
 20
127.977391526
 10
131.9735227227
 20
128.0443686506
 10
131.9988820084
 20
128.1084338317
 10
132.0240531962
 20
128.1696980836
 10
132.0490946354
 20
128.2281494104
 10
132.0740353861
 20
128.2837564046
 10
132.0989412805
 20
128.3365839178
 10
132.1238665351
 20
128.3866182085
 10
132.1488286417
 20
128.4338104614
 10
132.1738427492
 20
128.4781537864
  0
LWPOLYLINE
  5
763
100
AcDbEntity
  8
RACCORDO
100
AcDbPolyline
 62
253
  6
CONTINUOUS
 90
19
 70
0
 10
132.890014338
 20
129.7185858596
 10
132.9004344358
 20
129.7393613639
 10
132.9083729238
 20
129.7612074987
 10
132.9137225017
 20
129.7838289813
 10
132.916410862
 20
129.8069200487
 10
132.9164016674
 20
129.8301685909
 10
132.9136950424
 20
129.8532603695
 10
132.9083275708
 20
129.8758832648
 10
132.9003718022
 20
129.897731495
 10
132.8899352704
 20
129.9185097489
 10
132.8771590406
 20
129.9379371775
 10
132.8622158026
 20
129.9557511903
 10
132.8453075362
 20
129.9717110047
 10
132.8266627819
 20
129.9856009
 10
132.806533551
 20
129.9972331339
 10
132.7851919199
 20
130.0064504793
 10
132.7629263524
 20
130.0131283502
 10
132.7400378006
 20
130.0171764853
 10
132.7168356373
 20
130.0185401681
  0
LWPOLYLINE
  5
764
100
AcDbEntity
  8
RACCORDO
100
AcDbPolyline
 62
253
  6
CONTINUOUS
 90
13
 70
0
 10
132.0006662151
 20
128.5781288031
 10
131.9716797169
 20
128.5246648345
 10
131.9444671161
 20
128.4686334436
 10
131.9190284128
 20
128.4100346303
 10
131.8954157795
 20
128.3487912046
 10
131.8735770437
 20
128.2849803565
 10
131.853355688
 20
128.2188336564
 10
131.8347883823
 20
128.1504089417
 10
131.8178384566
 20
128.079648375
 10
131.8022393843
 20
128.0066100146
 10
131.7879023231
 20
127.9313132133
 10
131.7749161152
 20
127.8537386183
 10
131.7632807606
 20
127.7738862297
  0
LINE
  5
765
100
AcDbEntity
  8
RACCORDO
100
AcDbLine
 62
253
  6
CONTINUOUS
 10
132.7168356373
 20
129.8185706291
 11
132.0006662151
 21
128.5781288031
  0
LINE
  5
766
100
AcDbEntity
  8
RACCORDO
100
AcDbLine
 62
253
  6
CONTINUOUS
 10
132.890014338
 20
129.7185858596
 11
132.1738944568
 21
128.4782298288
  0
LINE
  5
767
100
AcDbEntity
  8
RACCORDO
100
AcDbLine
 62
7
  6
CONTINUOUS
 10
132.6599081157
 20
129.1523397149
 11
133.0352385506
 21
129.8024310978
  0
LINE
  5
768
100
AcDbEntity
  8
RACCORDO
100
AcDbLine
 62
253
  6
CONTINUOUS
 10
132.1738944568
 20
128.4782298288
 11
132.3005202731
 21
128.6902022821
  0
LINE
  5
769
100
AcDbEntity
  8
RACCORDO
100
AcDbLine
 62
253
  6
CONTINUOUS
 10
132.3005202731
 20
128.6902022821
 11
132.370902844
 21
128.8066898037
  0
LWPOLYLINE
  5
76A
100
AcDbEntity
  8
RACCORDO
100
AcDbPolyline
 62
253
  6
CONTINUOUS
 90
10
 70
0
 10
132.370902844
 20
128.8066898037
 10
132.4300814107
 20
128.9034414504
 10
132.4554714734
 20
128.9444294741
 10
132.47811385
 20
128.9805716783
 10
132.4981377914
 20
129.0120792309
 10
132.5154140467
 20
129.0387409639
 10
132.5296025016
 20
129.0599987262
 10
132.5405897844
 20
129.0756664676
 10
132.5484892668
 20
129.0859302383
 10
132.5533009487
 20
129.0907900383
  0
LINE
  5
76B
100
AcDbEntity
  8
RACCORDO
100
AcDbLine
 62
253
  6
CONTINUOUS
 10
131.7114768594
 20
127.2910784928
 11
131.9896885194
 21
127.7143500627
  0
LINE
  5
76C
100
AcDbEntity
  8
RACCORDO
100
AcDbLine
 62
253
  6
CONTINUOUS
 10
131.9896885194
 20
127.7143500627
 11
132.2901516034
 21
128.1656344927
  0
LINE
  5
76D
100
AcDbEntity
  8
RACCORDO
100
AcDbLine
 62
253
  6
CONTINUOUS
 10
132.2901516034
 20
128.1656344927
 11
132.4361119648
 21
128.3820951883
  0
LINE
  5
76E
100
AcDbEntity
  8
RACCORDO
100
AcDbLine
 62
253
  6
CONTINUOUS
 10
132.4361119648
 20
128.3820951883
 11
132.5175307088
 21
128.501514443
  0
LINE
  5
76F
100
AcDbEntity
  8
RACCORDO
100
AcDbLine
 62
253
  6
CONTINUOUS
 10
132.5175307088
 20
128.501514443
 11
132.5856985346
 21
128.6002495521
  0
LWPOLYLINE
  5
770
100
AcDbEntity
  8
RACCORDO
100
AcDbPolyline
 62
253
  6
CONTINUOUS
 90
8
 70
0
 10
132.5856985346
 20
128.6002495521
 10
132.6406567299
 20
128.6786507948
 10
132.6635992533
 20
128.7108122902
 10
132.6833887133
 20
128.7378390463
 10
132.6996127218
 20
128.7595393487
 10
132.7121338159
 20
128.7757216521
 10
132.7210894585
 20
128.7862058115
 10
132.7264796495
 20
128.7908357298
  0
LINE
  5
771
100
AcDbEntity
  8
0
100
AcDbLine
 62
253
  6
CONTINUOUS
 10
138.5649077845
 20
130.7698404713
 11
138.5910847328
 21
130.7872895548
  0
LINE
  5
772
100
AcDbEntity
  8
RACCORDO
100
AcDbLine
 62
253
  6
CONTINUOUS
 10
129.8857750849
 20
129.7185858596
 11
130.0589537856
 21
129.8185706291
  0
LINE
  5
773
100
AcDbEntity
  8
RACCORDO
100
AcDbLine
 62
253
  6
CONTINUOUS
 10
132.7168356373
 20
130.0185401681
 11
132.8620598498
 21
130.1023854063
  0
LINE
  5
774
100
AcDbEntity
  8
RACCORDO
100
AcDbLine
 62
253
  6
CONTINUOUS
 10
130.775120213
 20
128.5781339902
 11
130.6019413418
 21
128.4781495081
  0
LINE
  5
775
100
AcDbEntity
  8
RACCORDO
100
AcDbLine
 62
253
  6
CONTINUOUS
 10
132.890014338
 20
129.7185858596
 11
133.0352385506
 21
129.8024310978
  0
LINE
  5
776
100
AcDbEntity
  8
RACCORDO
100
AcDbLine
 62
253
  6
CONTINUOUS
 10
132.5533009487
 20
129.0907900383
 11
132.6599081157
 21
129.1523397149
  0
LINE
  5
777
100
AcDbEntity
  8
RACCORDO
100
AcDbLine
 62
253
  6
CONTINUOUS
 10
132.7264796495
 20
128.7908357298
 11
132.8330868165
 21
128.8523854063
  0
LINE
  5
778
100
AcDbEntity
  8
RACCORDO
100
AcDbLine
 62
253
  6
CONTINUOUS
 10
132.7168356373
 20
87.8607812939
 11
132.8620598498
 21
87.7769360556
  0
LINE
  5
779
100
AcDbEntity
  8
RACCORDO
100
AcDbLine
 62
253
  6
CONTINUOUS
 10
130.6019408196
 20
89.4011710538
 11
130.7751197761
 21
89.3011867151
  0
LINE
  5
77A
100
AcDbEntity
  8
RACCORDO
100
AcDbLine
 62
253
  6
CONTINUOUS
 10
132.890014338
 20
88.1607356024
 11
133.0352385506
 21
88.0768903642
  0
LINE
  5
77B
100
AcDbEntity
  8
RACCORDO
100
AcDbLine
 62
253
  6
CONTINUOUS
 10
132.6599081157
 20
88.7269817471
 11
132.5533009487
 21
88.7885314237
  0
LINE
  5
77C
100
AcDbEntity
  8
RACCORDO
100
AcDbLine
 62
253
  6
CONTINUOUS
 10
132.8330868165
 20
89.0269360556
 11
132.7264845229
 21
89.0884829185
  0
LWPOLYLINE
  5
77D
100
AcDbEntity
  8
RACCORDO
100
AcDbPolyline
 62
253
  6
CONTINUOUS
 90
9
 70
0
 10
132.7264943755
 20
89.0884829272
 10
132.7218400106
 20
89.092549016
 10
132.7138149944
 20
89.1017513572
 10
132.7024193271
 20
89.1161246448
 10
132.6877207143
 20
89.135623664
 10
132.6696514504
 20
89.1602791408
 10
132.6480084182
 20
89.1903375413
 10
132.622744045
 20
89.2259727244
 10
132.5939059036
 20
89.2671731064
  0
LWPOLYLINE
  5
77E
100
AcDbEntity
  8
RACCORDO
100
AcDbPolyline
 62
253
  6
CONTINUOUS
 90
9
 70
0
 10
132.5533009487
 20
88.7885314237
 10
132.5490938634
 20
88.7925907082
 10
132.5419656647
 20
88.8017276052
 10
132.5319163526
 20
88.8159421148
 10
132.5189974986
 20
88.8351410571
 10
132.5031575312
 20
88.859417612
 10
132.4842417359
 20
88.8890513185
 10
132.4622255772
 20
88.9240773502
 10
132.4371335907
 20
88.9644605336
  0
LINE
  5
77F
100
AcDbEntity
  8
0
100
AcDbLine
 62
253
  6
CONTINUOUS
 10
132.9898079797
 20
87.7594809907
 11
132.9723529147
 21
87.7769360556
  0
LINE
  5
780
100
AcDbEntity
  8
0
100
AcDbLine
 62
253
  6
CONTINUOUS
 10
133.2897622882
 20
88.0594352992
 11
133.2723072233
 21
88.0768903642
  0
LINE
  5
781
100
AcDbEntity
  8
DRAFT
100
AcDbLine
 62
7
  6
CONTINUOUS
 10
133.2723072233
 20
89.0269360556
 11
133.2897622882
 21
89.0094809907
  0
LINE
  5
782
100
AcDbEntity
  8
RACCORDO
100
AcDbLine
 62
253
  6
CONTINUOUS
 10
125.6879251724
 20
100.939660731
 11
125.5910087735
 21
101.0365771299
  0
LINE
  5
783
100
AcDbEntity
  8
RACCORDO
100
AcDbLine
 62
253
  6
CONTINUOUS
 10
125.8878947114
 20
101.13963027
 11
125.7909779557
 21
101.2365470258
  0
LINE
  5
784
100
AcDbEntity
  8
RACCORDO
100
AcDbLine
 62
253
  6
CONTINUOUS
 10
132.5939059036
 20
89.2671731064
 11
132.5252421235
 21
89.3665230012
  0
LWPOLYLINE
  5
785
100
AcDbEntity
  8
RACCORDO
100
AcDbPolyline
 62
253
  6
CONTINUOUS
 90
12
 70
0
 10
125.7909779557
 20
101.2365470258
 10
125.7894557033
 20
101.2387815395
 10
125.7878731141
 20
101.244787965
 10
125.7862301881
 20
101.2545663021
 10
125.7845239642
 20
101.2677066248
 10
125.7827574036
 20
101.2846188591
 10
125.7809393897
 20
101.3065327834
 10
125.7790678667
 20
101.3334230485
 10
125.7771448904
 20
101.3653150034
 10
125.7751855119
 20
101.4035144734
 10
125.7731870242
 20
101.4480322866
 10
125.7711521343
 20
101.4988576148
  0
LINE
  5
786
100
AcDbEntity
  8
RACCORDO
100
AcDbLine
 62
253
  6
CONTINUOUS
 10
132.5252421235
 20
89.3665230012
 11
132.4421512647
 21
89.4883272316
  0
LINE
  5
787
100
AcDbEntity
  8
RACCORDO
100
AcDbLine
 62
253
  6
CONTINUOUS
 10
132.4421512647
 20
89.4883272316
 11
132.3451769295
 21
89.6316700556
  0
LINE
  5
788
100
AcDbEntity
  8
RACCORDO
100
AcDbLine
 62
253
  6
CONTINUOUS
 10
132.3451769295
 20
89.6316700556
 11
132.175897208
 21
89.8844050069
  0
LWPOLYLINE
  5
789
100
AcDbEntity
  8
RACCORDO
100
AcDbPolyline
 62
253
  6
CONTINUOUS
 90
4
 70
0
 10
132.175897208
 20
89.8844050069
 10
131.9165858709
 20
90.27592702
 10
131.8490519945
 20
90.379174487
 10
131.7114698557
 20
90.5882537168
  0
LINE
  5
78A
100
AcDbEntity
  8
RACCORDO
100
AcDbLine
 62
253
  6
CONTINUOUS
 10
132.4371335907
 20
88.9644605336
 11
132.3774164378
 21
89.0619250636
  0
LINE
  5
78B
100
AcDbEntity
  8
RACCORDO
100
AcDbLine
 62
253
  6
CONTINUOUS
 10
132.3774164378
 20
89.0619250636
 11
132.3051151706
 21
89.1814789809
  0
LINE
  5
78C
100
AcDbEntity
  8
RACCORDO
100
AcDbLine
 62
253
  6
CONTINUOUS
 10
132.3051151706
 20
89.1814789809
 11
132.1738872619
 21
89.4011040915
  0
LINE
  5
78D
100
AcDbEntity
  8
RACCORDO
100
AcDbLine
 62
253
  6
CONTINUOUS
 10
132.0006627515
 20
89.301198658
 11
132.7168356373
 21
88.0607508329
  0
LINE
  5
78E
100
AcDbEntity
  8
RACCORDO
100
AcDbLine
 62
253
  6
CONTINUOUS
 10
132.1738872619
 20
89.4011040915
 11
132.890014338
 21
88.1607356024
  0
LINE
  5
78F
100
AcDbEntity
  8
RACCORDO
100
AcDbLine
 62
7
  6
CONTINUOUS
 10
133.0352385506
 20
88.0768903642
 11
132.6599081157
 21
88.7269817471
  0
LWPOLYLINE
  5
790
100
AcDbEntity
  8
RACCORDO
100
AcDbPolyline
 62
253
  6
CONTINUOUS
 90
13
 70
0
 10
132.1738418814
 20
89.4011686262
 10
132.1489437199
 20
89.4452983703
 10
132.1240758498
 20
89.4922947953
 10
132.099224882
 20
89.5421546622
 10
132.074376272
 20
89.5948263724
 10
132.0494749012
 20
89.6503042828
 10
132.0244512251
 20
89.7086720741
 10
131.9992813474
 20
89.7698931498
 10
131.9739058891
 20
89.8339638993
 10
131.9482182697
 20
89.9010361586
 10
131.9221661393
 20
89.9711494956
 10
131.8957299265
 20
90.0442075227
 10
131.86886781
 20
90.1201603495
  0
LWPOLYLINE
  5
791
100
AcDbEntity
  8
RACCORDO
100
AcDbPolyline
 62
253
  6
CONTINUOUS
 90
12
 70
0
 10
125.5910087489
 20
101.0365771299
 10
125.5894845833
 20
101.0396573026
 10
125.5879005614
 20
101.045970379
 10
125.5862566833
 20
101.0559118139
 10
125.5845501393
 20
101.0698799718
 10
125.582783739
 20
101.0882950269
 10
125.5809659115
 20
101.1116166982
 10
125.5790944427
 20
101.140294004
 10
125.5771715467
 20
101.1747743256
 10
125.5752122941
 20
101.2155525313
 10
125.5732139748
 20
101.2630940009
 10
125.5711792989
 20
101.317847654
  0
LINE
  5
792
100
AcDbEntity
  8
RACCORDO
100
AcDbLine
 62
253
  6
CONTINUOUS
 10
131.8688697139
 20
90.1201606152
 11
131.8439214138
 21
90.192065195
  0
LINE
  5
793
100
AcDbEntity
  8
RACCORDO
100
AcDbLine
 62
253
  6
CONTINUOUS
 10
131.8439214138
 20
90.192065195
 11
131.7925631295
 21
90.3434237802
  0
LINE
  5
794
100
AcDbEntity
  8
RACCORDO
100
AcDbLine
 62
253
  6
CONTINUOUS
 10
131.7925631295
 20
90.3434237802
 11
131.7114675361
 21
90.5882572749
  0
LWPOLYLINE
  5
795
100
AcDbEntity
  8
RACCORDO
100
AcDbPolyline
 62
253
  6
CONTINUOUS
 90
7
 70
0
 10
131.7114678758
 20
90.5882537168
 10
131.7190132595
 20
90.5025727088
 10
131.7269947633
 20
90.4189760643
 10
131.7354123872
 20
90.3374637833
 10
131.7442661312
 20
90.2580358658
 10
131.7535559952
 20
90.1806923118
 10
131.7632819794
 20
90.1054331214
  0
LWPOLYLINE
  5
796
100
AcDbEntity
  8
RACCORDO
100
AcDbPolyline
 62
253
  6
CONTINUOUS
 90
25
 70
0
 10
127.5364912554
 20
91.0881811225
 10
127.5375823443
 20
91.0553504737
 10
127.5407704442
 20
91.0229052373
 10
127.5460555552
 20
90.9908454132
 10
127.5534780633
 20
90.9590271713
 10
127.5629975825
 20
90.9275943418
 10
127.5744929548
 20
90.8969784149
 10
127.5879895186
 20
90.8671996383
 10
127.6034619355
 20
90.8382377643
 10
127.6207130327
 20
90.81046354
 10
127.6397662482
 20
90.7838920138
 10
127.660598144
 20
90.7585081372
 10
127.6829412331
 20
90.734637512
 10
127.7068145509
 20
90.712300186
 10
127.7321990621
 20
90.6914761113
 10
127.7587701734
 20
90.6724307458
 10
127.7865430418
 20
90.6551870888
 10
127.8155025103
 20
90.6397221409
 10
127.8452785152
 20
90.6262323629
 10
127.8758931308
 20
90.6147427937
 10
127.9073242827
 20
90.6052283944
 10
127.9391356845
 20
90.5978105085
 10
127.9711819075
 20
90.5925295839
 10
128.0036083803
 20
90.5893451727
 10
128.036415103
 20
90.5882572749
  0
LINE
  5
797
100
AcDbEntity
  8
RACCORDO
100
AcDbLine
 62
7
  6
CONTINUOUS
 10
127.3810536413
 20
111.5302861128
 11
127.3810536413
 21
106.3490353492
  0
LINE
  5
798
100
AcDbEntity
  8
DRAFT
100
AcDbLine
 62
7
  6
CONTINUOUS
 10
127.4716790231
 20
111.439660731
 11
127.4716790231
 21
106.439660731
  0
LINE
  5
799
100
AcDbEntity
  8
RACCORDO
100
AcDbLine
 62
253
  6
CONTINUOUS
 10
127.5364912554
 20
126.7911403395
 11
127.5364912554
 21
111.5304270686
  0
LINE
  5
79A
100
AcDbEntity
  8
RACCORDO
100
AcDbLine
 62
253
  6
CONTINUOUS
 10
127.5364912554
 20
106.3488943934
 11
127.5364912554
 21
91.0881811225
  0
LINE
  5
79B
100
AcDbEntity
  8
RACCORDO
100
AcDbLine
 62
253
  6
CONTINUOUS
 10
127.9839737326
 20
106.3750769908
 11
127.9839737326
 21
106.439660731
  0
LINE
  5
79C
100
AcDbEntity
  8
RACCORDO
100
AcDbLine
 62
253
  6
CONTINUOUS
 10
127.9839737326
 20
111.439660731
 11
127.9839737326
 21
111.5042444712
  0
LINE
  5
79D
100
AcDbEntity
  8
RACCORDO
100
AcDbLine
 62
253
  6
CONTINUOUS
 10
128.036415103
 20
90.5882572749
 11
128.036415103
 21
89.0884857322
  0
LINE
  5
79E
100
AcDbEntity
  8
RACCORDO
100
AcDbLine
 62
253
  6
CONTINUOUS
 10
128.036415103
 20
127.291064187
 11
128.0364151038
 21
128.7908357298
  0
LINE
  5
79F
100
AcDbEntity
  8
RACCORDO
100
AcDbLine
 62
7
  6
CONTINUOUS
 10
128.1026293153
 20
126.2325222506
 11
128.1026293153
 21
111.5304270686
  0
LINE
  5
7A0
100
AcDbEntity
  8
RACCORDO
100
AcDbLine
 62
7
  6
CONTINUOUS
 10
128.1026293153
 20
106.3488943934
 11
128.1026293153
 21
91.6467992114
  0
LINE
  5
7A1
100
AcDbEntity
  8
RACCORDO
100
AcDbLine
 62
7
  6
CONTINUOUS
 10
128.1378947114
 20
126.1972568545
 11
128.1378947114
 21
111.5269360556
  0
LINE
  5
7A2
100
AcDbEntity
  8
RACCORDO
100
AcDbLine
 62
7
  6
CONTINUOUS
 10
128.1378947114
 20
106.3523854063
 11
128.1378947114
 21
91.6820646075
  0
LINE
  5
7A3
100
AcDbEntity
  8
DRAFT
100
AcDbLine
 62
7
  6
CONTINUOUS
 10
128.3878947114
 20
111.439660731
 11
128.3878947114
 21
106.439660731
  0
LINE
  5
7A4
100
AcDbEntity
  8
0
100
AcDbLine
 62
7
  6
CONTINUOUS
 10
128.4847617975
 20
128.8872895548
 11
128.4847617975
 21
130.2874418509
  0
LINE
  5
7A5
100
AcDbEntity
  8
0
100
AcDbLine
 62
253
  6
CONTINUOUS
 10
128.5032886096
 20
128.8749399147
 11
128.5032886096
 21
130.2750922108
  0
LINE
  5
7A6
100
AcDbEntity
  8
0
100
AcDbLine
 62
7
  6
CONTINUOUS
 10
128.7878947114
 20
128.8698404713
 11
128.7878947114
 21
130.2399653175
  0
LINE
  5
7A7
100
AcDbEntity
  8
0
100
AcDbLine
 62
253
  6
CONTINUOUS
 10
128.8127048653
 20
128.8574391739
 11
128.8127048653
 21
130.2151551637
  0
LINE
  5
7A8
100
AcDbEntity
  8
0
100
AcDbLine
 62
253
  6
CONTINUOUS
 10
129.1125221134
 20
128.8523854063
 11
129.1125221134
 21
130.2151551637
  0
LINE
  5
7A9
100
AcDbEntity
  8
0
100
AcDbLine
 62
253
  6
CONTINUOUS
 10
129.3124002788
 20
130.7148505772
 11
129.3124002788
 21
130.4150333291
  0
LINE
  5
7AA
100
AcDbEntity
  8
DRAFT
100
AcDbLine
 62
7
  6
CONTINUOUS
 10
129.4524784517
 20
106.3750769908
 11
129.4524784517
 21
111.5042444712
  0
LINE
  5
7AB
100
AcDbEntity
  8
DRAFT
100
AcDbLine
 62
7
  6
CONTINUOUS
 10
129.4751700361
 20
106.3523854063
 11
129.4751700361
 21
111.5269360556
  0
LINE
  5
7AC
100
AcDbEntity
  8
0
100
AcDbLine
 62
7
  6
CONTINUOUS
 10
129.4860271347
 20
88.0594352992
 11
129.4860271347
 21
89.0094809907
  0
LINE
  5
7AD
100
AcDbEntity
  8
0
100
AcDbLine
 62
7
  6
CONTINUOUS
 10
129.5034821996
 20
88.0768903642
 11
129.5034821996
 21
89.0269360556
  0
LINE
  5
7AE
100
AcDbEntity
  8
0
100
AcDbLine
 62
253
  6
CONTINUOUS
 10
129.7437929294
 20
130.7983810978
 11
129.7437929294
 21
130.739660731
  0
LINE
  5
7AF
100
AcDbEntity
  8
0
100
AcDbLine
 62
7
  6
CONTINUOUS
 10
129.7878947114
 20
130.739660731
 11
129.7878947114
 21
163.939660731
  0
LINE
  5
7B0
100
AcDbEntity
  8
0
100
AcDbLine
 62
7
  6
CONTINUOUS
 10
129.7878947114
 20
164.939660731
 11
129.7878947114
 21
174.939660731
  0
LINE
  5
7B1
100
AcDbEntity
  8
RACCORDO
100
AcDbLine
 62
253
  6
CONTINUOUS
 10
130.0589537856
 20
87.8607812939
 11
130.0589537856
 21
88.0607508329
  0
LINE
  5
7B2
100
AcDbEntity
  8
RACCORDO
100
AcDbLine
 62
253
  6
CONTINUOUS
 10
130.0589537856
 20
129.8185706291
 11
130.0589537856
 21
130.0185401681
  0
LINE
  5
7B3
100
AcDbEntity
  8
0
100
AcDbLine
 62
7
  6
CONTINUOUS
 10
130.4878947114
 20
163.939660731
 11
130.4878947114
 21
164.939660731
  0
LINE
  5
7B4
100
AcDbEntity
  8
0
100
AcDbLine
 62
253
  6
CONTINUOUS
 10
128.5033631512
 20
130.2835897507
 11
128.5032886096
 21
130.2750922108
  0
LWPOLYLINE
  5
7B5
100
AcDbEntity
  8
0
100
AcDbPolyline
 62
253
  6
CONTINUOUS
 90
19
 70
0
 10
128.8127048653
 20
130.2151551637
 10
128.8146361388
 20
130.2586956067
 10
128.8203522206
 20
130.3019024393
 10
128.8298093711
 20
130.3444474755
 10
128.8429353339
 20
130.386007584
 10
128.8596302019
 20
130.4262670901
 10
128.8797672373
 20
130.4649201497
 10
128.9031932791
 20
130.5016730664
 10
128.9297301593
 20
130.5362467971
 10
128.9591765064
 20
130.5683789315
 10
128.9913086166
 20
130.5978252622
 10
129.0258822986
 20
130.6243621149
 10
129.0626351809
 20
130.6477881477
 10
129.1012882466
 20
130.6679251981
 10
129.1415477813
 20
130.6846200865
 10
129.1831079181
 20
130.697746063
 10
129.2256529729
 20
130.7072032199
 10
129.268859822
 20
130.7129193042
 10
129.3124002788
 20
130.7148505772
  0
LWPOLYLINE
  5
7B6
100
AcDbEntity
  8
0
100
AcDbPolyline
 62
253
  6
CONTINUOUS
 90
19
 70
0
 10
129.1125221134
 20
130.2151551637
 10
129.1133134388
 20
130.2327267061
 10
129.1155704925
 20
130.2499287441
 10
129.1192932744
 20
130.2667612775
 10
129.124532493
 20
130.2833540835
 10
129.1312374397
 20
130.299577385
 10
129.1392559896
 20
130.315041851
 10
129.1486174837
 20
130.3297225193
 10
129.159292581
 20
130.3436443522
 10
129.1710411336
 20
130.3564929054
 10
129.1838878845
 20
130.3682434388
 10
129.1978080906
 20
130.3789206927
 10
129.2124873756
 20
130.3882844437
 10
129.2279496401
 20
130.396305344
 10
129.2441709834
 20
130.4030127415
 10
129.2607653268
 20
130.4082544567
 10
129.2776039774
 20
130.4119797631
 10
129.294815628
 20
130.4142393872
 10
129.3124002788
 20
130.4150333291
  0
LWPOLYLINE
  5
7B7
100
AcDbEntity
  8
0
100
AcDbPolyline
 62
253
  6
CONTINUOUS
 90
17
 70
0
 10
128.8080179549
 20
130.3791508032
 10
128.809983832
 20
130.4014712762
 10
128.8149173892
 20
130.4414203302
 10
128.8211774606
 20
130.480383446
 10
128.8286915883
 20
130.5181642521
 10
128.8374858334
 20
130.5544787278
 10
128.8475341347
 20
130.5890162127
 10
128.8586858502
 20
130.6215258096
 10
128.87096822
 20
130.6517328222
 10
128.8843540039
 20
130.6793280339
 10
128.8986108396
 20
130.7040194605
 10
128.9138080151
 20
130.7255824404
 10
128.9298762424
 20
130.743742972
 10
128.9463752954
 20
130.7582235673
 10
128.9631584318
 20
130.768878097
 10
128.9803723937
 20
130.7756324245
 10
128.9980171813
 20
130.7784156873
  0
LINE
  5
7B8
100
AcDbEntity
  8
RACCORDO
100
AcDbLine
 62
253
  6
CONTINUOUS
 10
131.7219955167
 20
127.4065369511
 11
131.7114688669
 21
127.2910784928
  0
LWPOLYLINE
  5
7B9
100
AcDbEntity
  8
RACCORDO
100
AcDbPolyline
 62
253
  6
CONTINUOUS
 90
7
 70
0
 10
131.7632807606
 20
127.7738862297
 10
131.7567206131
 20
127.7248229014
 10
131.7503934846
 20
127.6746255709
 10
131.7442993752
 20
127.6232942381
 10
131.7384812202
 20
127.5708442254
 10
131.7328960842
 20
127.5172602105
 10
131.7219955167
 20
127.4065369511
  0
LINE
  5
7BA
100
AcDbEntity
  8
RACCORDO
100
AcDbLine
 62
253
  6
CONTINUOUS
 10
131.7114675361
 20
127.291064187
 11
131.7845636656
 21
127.5119944266
  0
LINE
  5
7BB
100
AcDbEntity
  8
RACCORDO
100
AcDbLine
 62
253
  6
CONTINUOUS
 10
131.7845636656
 20
127.5119944266
 11
131.8191463797
 21
127.614731891
  0
LWPOLYLINE
  5
7BC
100
AcDbEntity
  8
RACCORDO
100
AcDbPolyline
 62
253
  6
CONTINUOUS
 90
3
 70
0
 10
131.8191463797
 20
127.614731891
 10
131.8525769417
 20
127.712334367
 10
131.8688690339
 20
127.7591588475
  0
LINE
  5
7BD
100
AcDbEntity
  8
RACCORDO
100
AcDbLine
 62
253
  6
CONTINUOUS
 10
125.5910084167
 20
116.8427439752
 11
125.6879251724
 21
116.939660731
  0
LINE
  5
7BE
100
AcDbEntity
  8
RACCORDO
100
AcDbLine
 62
253
  6
CONTINUOUS
 10
125.7909779557
 20
116.6427744362
 11
125.8878947114
 21
116.739691192
  0
LINE
  5
7BF
100
AcDbEntity
  8
RACCORDO
100
AcDbLine
 62
7
  6
CONTINUOUS
 10
125.8004670704
 20
113.8522330899
 11
125.8878947114
 21
113.939660731
  0
LINE
  5
7C0
100
AcDbEntity
  8
0
100
AcDbLine
 62
253
  6
CONTINUOUS
 10
143.2881992979
 20
130.739660731
 11
143.2633891441
 21
130.7148505772
  0
LINE
  5
7C1
100
AcDbEntity
  8
0
100
AcDbLine
 62
253
  6
CONTINUOUS
 10
143.7878947114
 20
130.2399653175
 11
143.7630845576
 21
130.2151551637
  0
LINE
  5
7C2
100
AcDbEntity
  8
0
100
AcDbLine
 62
7
  6
CONTINUOUS
 10
143.7630845576
 20
128.8574391739
 11
143.7878947114
 21
128.8698404713
  0
LWPOLYLINE
  5
7C3
100
AcDbEntity
  8
RACCORDO
100
AcDbPolyline
 62
253
  6
CONTINUOUS
 90
16
 70
0
 10
132.7264796495
 20
89.0884857322
 10
132.6986658763
 20
89.0865261136
 10
132.6713930896
 20
89.0807147059
 10
132.6451918187
 20
89.0711645309
 10
132.6205718051
 20
89.0580613717
 10
132.5980119269
 20
89.0416600799
 10
132.5779509297
 20
89.0222795516
 10
132.56077911
 20
89.0002966958
 10
132.5468306229
 20
88.9761391149
 10
132.5363768821
 20
88.9502766445
 10
132.5296213714
 20
88.9232123385
 10
132.5266956562
 20
88.8954727192
 10
132.5276567836
 20
88.8675974679
 10
132.5324861752
 20
88.8401289212
 10
132.5410899909
 20
88.8136015189
 10
132.5533009487
 20
88.7885314237
  0
LWPOLYLINE
  5
7C4
100
AcDbEntity
  8
RACCORDO
100
AcDbPolyline
 62
253
  6
CONTINUOUS
 90
19
 70
0
 10
132.7168356373
 20
87.8607812939
 10
132.7401591424
 20
87.8621592618
 10
132.7631706497
 20
87.8662513048
 10
132.7855552584
 20
87.8730038212
 10
132.8070149941
 20
87.8823311884
 10
132.8272454537
 20
87.8941055523
 10
132.8459456653
 20
87.9081484929
 10
132.8628477413
 20
87.9242434543
 10
132.8777476522
 20
87.9421791853
 10
132.8904712052
 20
87.9617457743
 10
132.9008554586
 20
87.982720437
 10
132.9087258606
 20
88.0047848024
 10
132.9139532358
 20
88.0275560242
 10
132.9164872157
 20
88.050717485
 10
132.9163150766
 20
88.0739534237
 10
132.9134751675
 20
88.0968707835
 10
132.90806204
 20
88.1191442
 10
132.9001925307
 20
88.1405193618
 10
132.890014338
 20
88.1607356024
  0
LINE
  5
7C5
100
AcDbEntity
  8
0
100
AcDbLine
 62
7
  6
CONTINUOUS
 10
132.9898079797
 20
87.7594809907
 11
129.7859814432
 21
87.7594809907
  0
LINE
  5
7C6
100
AcDbEntity
  8
0
100
AcDbLine
 62
7
  6
CONTINUOUS
 10
132.9723529147
 20
87.7769360556
 11
132.8620598498
 21
87.7769360556
  0
LINE
  5
7C7
100
AcDbEntity
  8
0
100
AcDbLine
 62
7
  6
CONTINUOUS
 10
129.9137295731
 20
87.7769360556
 11
129.8034365082
 21
87.7769360556
  0
LINE
  5
7C8
100
AcDbEntity
  8
RACCORDO
100
AcDbLine
 62
253
  6
CONTINUOUS
 10
130.0589537856
 20
87.8607812939
 11
132.7168356373
 21
87.8607812939
  0
LINE
  5
7C9
100
AcDbEntity
  8
RACCORDO
100
AcDbLine
 62
253
  6
CONTINUOUS
 10
130.0589537856
 20
88.0607508329
 11
132.7168356373
 21
88.0607508329
  0
LINE
  5
7CA
100
AcDbEntity
  8
RACCORDO
100
AcDbLine
 62
7
  6
CONTINUOUS
 10
163.8881993211
 20
88.939660731
 11
163.3878947114
 21
88.939660731
  0
LINE
  5
7CB
100
AcDbEntity
  8
DRAFT
100
AcDbLine
 62
7
  6
CONTINUOUS
 10
163.3878947114
 20
88.939660731
 11
155.6678947114
 21
88.939660731
  0
LINE
  5
7CC
100
AcDbEntity
  8
DRAFT
100
AcDbLine
 62
7
  6
CONTINUOUS
 10
154.1078947114
 20
88.939660731
 11
153.6678947114
 21
88.939660731
  0
LINE
  5
7CD
100
AcDbEntity
  8
DRAFT
100
AcDbLine
 62
7
  6
CONTINUOUS
 10
152.1078947114
 20
88.939660731
 11
151.6678947114
 21
88.939660731
  0
LINE
  5
7CE
100
AcDbEntity
  8
DRAFT
100
AcDbLine
 62
7
  6
CONTINUOUS
 10
150.1078947114
 20
88.939660731
 11
149.7395266596
 21
88.939660731
  0
LINE
  5
7CF
100
AcDbEntity
  8
DRAFT
100
AcDbLine
 62
7
  6
CONTINUOUS
 10
142.0362627633
 20
88.939660731
 11
133.2897622882
 21
88.939660731
  0
LINE
  5
7D0
100
AcDbEntity
  8
DRAFT
100
AcDbLine
 62
7
  6
CONTINUOUS
 10
129.4860271347
 20
88.939660731
 11
128.3878947114
 21
88.939660731
  0
LINE
  5
7D1
100
AcDbEntity
  8
RACCORDO
100
AcDbLine
 62
7
  6
CONTINUOUS
 10
128.3878947114
 20
88.939660731
 11
127.8875901018
 21
88.939660731
  0
LINE
  5
7D2
100
AcDbEntity
  8
DRAFT
100
AcDbLine
 62
7
  6
CONTINUOUS
 10
149.7395266596
 20
88.9802322878
 11
150.1078947114
 21
88.9802322878
  0
LINE
  5
7D3
100
AcDbEntity
  8
DRAFT
100
AcDbLine
 62
7
  6
CONTINUOUS
 10
151.6678947114
 20
88.9802322878
 11
152.1078947114
 21
88.9802322878
  0
LINE
  5
7D4
100
AcDbEntity
  8
DRAFT
100
AcDbLine
 62
7
  6
CONTINUOUS
 10
153.6678947114
 20
88.9802322878
 11
154.1078947114
 21
88.9802322878
  0
LINE
  5
7D5
100
AcDbEntity
  8
RACCORDO
100
AcDbLine
 62
7
  6
CONTINUOUS
 10
129.4860271347
 20
89.0094809907
 11
128.6542544238
 21
89.0094809907
  0
LINE
  5
7D6
100
AcDbEntity
  8
DRAFT
100
AcDbLine
 62
7
  6
CONTINUOUS
 10
133.2897622882
 20
89.0094809907
 11
141.9577149712
 21
89.0094809907
  0
LINE
  5
7D7
100
AcDbEntity
  8
RACCORDO
100
AcDbLine
 62
7
  6
CONTINUOUS
 10
133.2897622882
 20
89.0094809907
 11
142.0362627633
 21
89.0094809907
  0
LINE
  5
7D8
100
AcDbEntity
  8
RACCORDO
100
AcDbLine
 62
7
  6
CONTINUOUS
 10
149.8180744517
 20
89.0094809907
 11
163.1215349991
 21
89.0094809907
  0
LINE
  5
7D9
100
AcDbEntity
  8
RACCORDO
100
AcDbLine
 62
7
  6
CONTINUOUS
 10
133.2723072233
 20
89.0269360556
 11
132.8330868165
 21
89.0269360556
  0
LINE
  5
7DA
100
AcDbEntity
  8
RACCORDO
100
AcDbLine
 62
7
  6
CONTINUOUS
 10
129.9427026064
 20
89.0269360556
 11
129.5034821996
 21
89.0269360556
  0
LINE
  5
7DB
100
AcDbEntity
  8
RACCORDO
100
AcDbLine
 62
253
  6
CONTINUOUS
 10
163.7392473681
 20
89.0884857322
 11
149.7390697102
 21
89.0884857322
  0
LINE
  5
7DC
100
AcDbEntity
  8
RACCORDO
100
AcDbLine
 62
253
  6
CONTINUOUS
 10
128.036415103
 20
89.0884857322
 11
130.0493097734
 21
89.0884857322
  0
LINE
  5
7DD
100
AcDbEntity
  8
RACCORDO
100
AcDbLine
 62
253
  6
CONTINUOUS
 10
142.0367197127
 20
89.0884857322
 11
132.7264845229
 21
89.0884829185
  0
LINE
  5
7DE
100
AcDbEntity
  8
RACCORDO
100
AcDbLine
 62
253
  6
CONTINUOUS
 10
128.036415103
 20
90.5882572749
 11
131.0643205209
 21
90.5882429691
  0
LINE
  5
7DF
100
AcDbEntity
  8
RACCORDO
100
AcDbLine
 62
253
  6
CONTINUOUS
 10
149.2219954306
 20
90.5882572749
 11
163.7393743199
 21
90.5882572749
  0
LINE
  5
7E0
100
AcDbEntity
  8
RACCORDO
100
AcDbLine
 62
253
  6
CONTINUOUS
 10
131.7114678758
 20
90.5882537168
 11
142.5537939923
 21
90.5882572749
  0
LINE
  5
7E1
100
AcDbEntity
  8
RACCORDO
100
AcDbLine
 62
253
  6
CONTINUOUS
 10
165.7390697102
 20
91.0881811225
 11
164.2392981675
 21
91.0881811225
  0
LINE
  5
7E2
100
AcDbEntity
  8
RACCORDO
100
AcDbLine
 62
253
  6
CONTINUOUS
 10
127.5364912554
 20
91.0881811225
 11
126.0367197127
 21
91.0881811233
  0
LINE
  5
7E3
100
AcDbEntity
  8
RACCORDO
100
AcDbLine
 62
7
  6
CONTINUOUS
 10
128.5950331918
 20
91.1543953348
 11
163.1807562311
 21
91.1543953348
  0
LINE
  5
7E4
100
AcDbEntity
  8
RACCORDO
100
AcDbLine
 62
7
  6
CONTINUOUS
 10
128.630298588
 20
91.189660731
 11
163.1454908349
 21
91.189660731
  0
LWPOLYLINE
  5
7E5
100
AcDbEntity
  8
RACCORDO
100
AcDbPolyline
 62
253
  6
CONTINUOUS
 90
16
 70
0
 10
130.0493097734
 20
89.0884857322
 10
130.0771247236
 20
89.0865259469
 10
130.1043985598
 20
89.0807140648
 10
130.1306006947
 20
89.0711631508
 10
130.1552213901
 20
89.0580590089
 10
130.1777816729
 20
89.0416565681
 10
130.1978426535
 20
89.0222749229
 10
130.215014064
 20
89.0002911254
 10
130.2289618507
 20
88.97613285
 10
130.2394146722
 20
88.9502700736
 10
130.2461691787
 20
88.9232059326
 10
130.2490939674
 20
88.895466935
 10
130.2481321394
 20
88.867592717
 10
130.2433024062
 20
88.8401255459
 10
130.2346987256
 20
88.8135997701
 10
130.2224884744
 20
88.788531424
  0
LINE
  5
7E6
100
AcDbEntity
  8
RACCORDO
100
AcDbLine
 62
253
  6
CONTINUOUS
 10
147.7220824254
 20
80.1056361642
 11
147.7398312692
 21
80.0880287829
  0
LINE
  5
7E7
100
AcDbEntity
  8
RACCORDO
100
AcDbLine
 62
7
  6
CONTINUOUS
 10
125.8004670704
 20
104.0270883721
 11
125.8878947114
 21
103.939660731
  0
LINE
  5
7E8
100
AcDbEntity
  8
RACCORDO
100
AcDbLine
 62
253
  6
CONTINUOUS
 10
149.7219192782
 20
82.1054740176
 11
149.7395266596
 21
82.0877241732
  0
LWPOLYLINE
  5
7E9
100
AcDbEntity
  8
RACCORDO
100
AcDbPolyline
 62
253
  6
CONTINUOUS
 90
12
 70
0
 10
124.684780674
 20
116.842744332
 10
124.6863048396
 20
116.8396641594
 10
124.6878888615
 20
116.833351083
 10
124.6895327396
 20
116.8234096481
 10
124.6912392836
 20
116.8094414902
 10
124.6930056839
 20
116.7910264351
 10
124.6948235114
 20
116.7677047637
 10
124.6966949801
 20
116.739027458
 10
124.6986178762
 20
116.7045471364
 10
124.7005771288
 20
116.6637689306
 10
124.7025754481
 20
116.6162274611
 10
124.704610124
 20
116.561473808
  0
LWPOLYLINE
  5
7EA
100
AcDbEntity
  8
RACCORDO
100
AcDbPolyline
 62
253
  6
CONTINUOUS
 90
13
 70
0
 10
131.7632819794
 20
90.1054331214
 10
131.7749901945
 20
90.0251618313
 10
131.7880404904
 20
89.9472648884
 10
131.8024328672
 20
89.8717422926
 10
131.8180808409
 20
89.7985887845
 10
131.8350708955
 20
89.7278096236
 10
131.8536624827
 20
89.6594205877
 10
131.8738939509
 20
89.5933570066
 10
131.8957269518
 20
89.5296835504
 10
131.9193058916
 20
89.4686100086
 10
131.9446789059
 20
89.4102063108
 10
131.9717978592
 20
89.3544025272
 10
132.0006627515
 20
89.301198658
  0
LINE
  5
7EB
100
AcDbEntity
  8
RACCORDO
100
AcDbLine
 62
253
  6
CONTINUOUS
 10
131.0483665265
 20
127.4626122459
 11
131.0372954976
 21
127.5709733793
  0
LWPOLYLINE
  5
7EC
100
AcDbEntity
  8
RACCORDO
100
AcDbPolyline
 62
253
  6
CONTINUOUS
 90
3
 70
0
 10
131.06432157
 20
127.2910675938
 10
131.0591070578
 20
127.3494432166
 10
131.0483665265
 20
127.4626122459
  0
LINE
  5
7ED
100
AcDbEntity
  8
0
100
AcDbLine
 62
7
  6
CONTINUOUS
 10
132.0878947114
 20
163.939660731
 11
132.0878947114
 21
164.939660731
  0
LINE
  5
7EE
100
AcDbEntity
  8
RACCORDO
100
AcDbLine
 62
253
  6
CONTINUOUS
 10
132.7168356373
 20
130.0185401681
 11
132.7168356373
 21
129.8185706291
  0
LINE
  5
7EF
100
AcDbEntity
  8
RACCORDO
100
AcDbLine
 62
253
  6
CONTINUOUS
 10
132.7168356373
 20
88.0607508329
 11
132.7168356373
 21
87.8607812939
  0
LINE
  5
7F0
100
AcDbEntity
  8
0
100
AcDbLine
 62
7
  6
CONTINUOUS
 10
132.7878947114
 20
130.739660731
 11
132.7878947114
 21
163.939660731
  0
LINE
  5
7F1
100
AcDbEntity
  8
0
100
AcDbLine
 62
7
  6
CONTINUOUS
 10
132.7878947114
 20
164.939660731
 11
132.7878947114
 21
174.939660731
  0
LINE
  5
7F2
100
AcDbEntity
  8
0
100
AcDbLine
 62
253
  6
CONTINUOUS
 10
132.8319964935
 20
130.739660731
 11
132.8319964935
 21
130.7983810978
  0
LINE
  5
7F3
100
AcDbEntity
  8
DRAFT
100
AcDbLine
 62
7
  6
CONTINUOUS
 10
132.9750484549
 20
130.739660731
 11
132.9750484549
 21
130.7698404713
  0
LINE
  5
7F4
100
AcDbEntity
  8
0
100
AcDbLine
 62
7
  6
CONTINUOUS
 10
133.2723072233
 20
89.0269360556
 11
133.2723072233
 21
88.0768903642
  0
LINE
  5
7F5
100
AcDbEntity
  8
0
100
AcDbLine
 62
7
  6
CONTINUOUS
 10
133.2897622882
 20
89.0094809907
 11
133.2897622882
 21
88.0594352992
  0
LINE
  5
7F6
100
AcDbEntity
  8
DRAFT
100
AcDbLine
 62
7
  6
CONTINUOUS
 10
134.600740968
 20
130.739660731
 11
134.600740968
 21
130.7698404713
  0
LINE
  5
7F7
100
AcDbEntity
  8
0
100
AcDbLine
 62
253
  6
CONTINUOUS
 10
134.7437929294
 20
130.7983810978
 11
134.7437929294
 21
130.739660731
  0
LINE
  5
7F8
100
AcDbEntity
  8
0
100
AcDbLine
 62
7
  6
CONTINUOUS
 10
134.7878947114
 20
130.739660731
 11
134.7878947114
 21
163.939660731
  0
LINE
  5
7F9
100
AcDbEntity
  8
0
100
AcDbLine
 62
7
  6
CONTINUOUS
 10
134.7878947114
 20
164.939660731
 11
134.7878947114
 21
174.939660731
  0
LINE
  5
7FA
100
AcDbEntity
  8
0
100
AcDbLine
 62
7
  6
CONTINUOUS
 10
135.4878947114
 20
163.939660731
 11
135.4878947114
 21
164.939660731
  0
LWPOLYLINE
  5
7FB
100
AcDbEntity
  8
RACCORDO
100
AcDbPolyline
 62
253
  6
CONTINUOUS
 90
7
 70
0
 10
131.0125086623
 20
90.1054352323
 10
131.0222407736
 20
90.1807660934
 10
131.0315341642
 20
90.2581517926
 10
131.0403888343
 20
90.3375923297
 10
131.0488047838
 20
90.4190877049
 10
131.0567820127
 20
90.502637918
 10
131.0643205209
 20
90.5882429691
  0
LINE
  5
7FC
100
AcDbEntity
  8
RACCORDO
100
AcDbLine
 62
7
  6
CONTINUOUS
 10
127.5276875473
 20
111.4956692552
 11
127.4716790231
 21
111.439660731
  0
LINE
  5
7FD
100
AcDbEntity
  8
DRAFT
100
AcDbLine
 62
7
  6
CONTINUOUS
 10
129.4524784517
 20
111.5042444712
 11
129.4751700361
 21
111.5269360556
  0
LINE
  5
7FE
100
AcDbEntity
  8
RACCORDO
100
AcDbLine
 62
7
  6
CONTINUOUS
 10
124.4753223525
 20
104.0270883721
 11
124.3878947114
 21
103.939660731
  0
LINE
  5
7FF
100
AcDbEntity
  8
RACCORDO
100
AcDbLine
 62
7
  6
CONTINUOUS
 10
127.5276875473
 20
106.3836522068
 11
127.4716790231
 21
106.439660731
  0
LINE
  5
800
100
AcDbEntity
  8
DRAFT
100
AcDbLine
 62
7
  6
CONTINUOUS
 10
129.4524784517
 20
106.3750769908
 11
129.4751700361
 21
106.3523854063
  0
LINE
  5
801
100
AcDbEntity
  8
RACCORDO
100
AcDbLine
 62
7
  6
CONTINUOUS
 10
124.4753223525
 20
113.8522330899
 11
124.3878947114
 21
113.939660731
  0
LINE
  5
802
100
AcDbEntity
  8
DRAFT
100
AcDbLine
 62
7
  6
CONTINUOUS
 10
149.8180744517
 20
89.0094809907
 11
149.7395266596
 21
89.0880287829
  0
LINE
  5
803
100
AcDbEntity
  8
RACCORDO
100
AcDbLine
 62
7
  6
CONTINUOUS
 10
149.7390697102
 20
89.0884857322
 11
149.7395266596
 21
89.0880287829
  0
LINE
  5
804
100
AcDbEntity
  8
RACCORDO
100
AcDbLine
 62
7
  6
CONTINUOUS
 10
127.3810536413
 20
111.5302861128
 11
127.4716790231
 21
111.439660731
  0
LINE
  5
805
100
AcDbEntity
  8
DRAFT
100
AcDbLine
 62
7
  6
CONTINUOUS
 10
125.8878947114
 20
113.689660731
 11
125.9302517897
 21
113.6473036527
  0
LINE
  5
806
100
AcDbEntity
  8
RACCORDO
100
AcDbLine
 62
7
  6
CONTINUOUS
 10
125.9787524389
 20
113.5988030035
 11
125.9302517897
 21
113.6473036527
  0
LWPOLYLINE
  5
807
100
AcDbEntity
  8
RACCORDO
100
AcDbPolyline
 62
253
  6
CONTINUOUS
 90
12
 70
0
 10
124.4848114672
 20
116.6427744362
 10
124.4863337196
 20
116.6405399224
 10
124.4879163088
 20
116.634533497
 10
124.4895592348
 20
116.6247551599
 10
124.4912654587
 20
116.6116148372
 10
124.4930320193
 20
116.5947026028
 10
124.4948500332
 20
116.5727886786
 10
124.4967215562
 20
116.5458984135
 10
124.4986445325
 20
116.5140064585
 10
124.500603911
 20
116.4758069886
 10
124.5026023987
 20
116.4312891754
 10
124.5046372886
 20
116.3804638472
  0
LWPOLYLINE
  5
808
100
AcDbEntity
  8
RACCORDO
100
AcDbPolyline
 62
253
  6
CONTINUOUS
 90
13
 70
0
 10
131.0125074665
 20
127.7738883008
 10
131.0007987129
 20
127.8541626354
 10
130.9877479256
 20
127.9320619853
 10
130.9733551046
 20
128.0075863507
 10
130.9577067065
 20
128.0807409394
 10
130.9407162748
 20
128.1515205436
 10
130.9221244398
 20
128.219909539
 10
130.9018928459
 20
128.2859725835
 10
130.8800598488
 20
128.3496450192
 10
130.8564811458
 20
128.4107172487
 10
130.8311086361
 20
128.4691194061
 10
130.8039904206
 20
128.5249213573
 10
130.7751264992
 20
128.5781231023
  0
LWPOLYLINE
  5
809
100
AcDbEntity
  8
RACCORDO
100
AcDbPolyline
 62
253
  6
CONTINUOUS
 90
5
 70
0
 10
131.0372954976
 20
127.5709733793
 10
131.0314769618
 20
127.6234102488
 10
131.0253849001
 20
127.6747162607
 10
131.019061735
 20
127.7248756114
 10
131.0125074665
 20
127.7738883008
  0
LINE
  5
80A
100
AcDbEntity
  8
0
100
AcDbLine
 62
7
  6
CONTINUOUS
 10
137.0878947114
 20
163.939660731
 11
137.0878947114
 21
164.939660731
  0
LINE
  5
80B
100
AcDbEntity
  8
0
100
AcDbLine
 62
7
  6
CONTINUOUS
 10
137.7878947114
 20
130.739660731
 11
137.7878947114
 21
163.939660731
  0
LINE
  5
80C
100
AcDbEntity
  8
0
100
AcDbLine
 62
7
  6
CONTINUOUS
 10
137.7878947114
 20
164.939660731
 11
137.7878947114
 21
174.939660731
  0
LINE
  5
80D
100
AcDbEntity
  8
0
100
AcDbLine
 62
253
  6
CONTINUOUS
 10
137.8319964935
 20
130.739660731
 11
137.8319964935
 21
130.7983810978
  0
LINE
  5
80E
100
AcDbEntity
  8
DRAFT
100
AcDbLine
 62
7
  6
CONTINUOUS
 10
137.9750484549
 20
130.739660731
 11
137.9750484549
 21
130.7698404713
  0
LINE
  5
80F
100
AcDbEntity
  8
RACCORDO
100
AcDbLine
 62
253
  6
CONTINUOUS
 10
131.0643218868
 20
90.5882572749
 11
130.9832667615
 21
90.3435473378
  0
LWPOLYLINE
  5
810
100
AcDbEntity
  8
RACCORDO
100
AcDbPolyline
 62
253
  6
CONTINUOUS
 90
3
 70
0
 10
130.9832667615
 20
90.3435473378
 10
130.9318913831
 20
90.1921341748
 10
130.9069206512
 20
90.1201625779
  0
LWPOLYLINE
  5
811
100
AcDbEntity
  8
RACCORDO
100
AcDbPolyline
 62
253
  6
CONTINUOUS
 90
13
 70
0
 10
130.9069222922
 20
90.1201623489
 10
130.8802029292
 20
90.0446039887
 10
130.8538789834
 20
89.971842449
 10
130.8279080769
 20
89.901929936
 10
130.8022667002
 20
89.8349528113
 10
130.7769074145
 20
89.7708876303
 10
130.7517362267
 20
89.7096233784
 10
130.7266947875
 20
89.6511720516
 10
130.7017540368
 20
89.5955650574
 10
130.6768481424
 20
89.5427375441
 10
130.6519228878
 20
89.4927032535
 10
130.6269607812
 20
89.4455110006
 10
130.6019466737
 20
89.4011676756
  0
LINE
  5
812
100
AcDbEntity
  8
RACCORDO
100
AcDbLine
 62
7
  6
CONTINUOUS
 10
127.3810536413
 20
106.3490353492
 11
127.4716790231
 21
106.439660731
  0
LINE
  5
813
100
AcDbEntity
  8
RACCORDO
100
AcDbLine
 62
7
  6
CONTINUOUS
 10
125.9787524389
 20
104.2805184585
 11
125.9302517897
 21
104.2320178092
  0
LINE
  5
814
100
AcDbEntity
  8
DRAFT
100
AcDbLine
 62
7
  6
CONTINUOUS
 10
125.8878947114
 20
104.189660731
 11
125.9302517897
 21
104.2320178092
  0
LINE
  5
815
100
AcDbEntity
  8
RACCORDO
100
AcDbLine
 62
253
  6
CONTINUOUS
 10
124.4848114672
 20
101.2365470258
 11
124.3878947114
 21
101.13963027
  0
LINE
  5
816
100
AcDbEntity
  8
RACCORDO
100
AcDbLine
 62
253
  6
CONTINUOUS
 10
124.6847810062
 20
101.0365774868
 11
124.5878642505
 21
100.939660731
  0
LWPOLYLINE
  5
817
100
AcDbEntity
  8
RACCORDO
100
AcDbPolyline
 62
7
  6
CONTINUOUS
 90
13
 70
0
 10
167.1879251724
 20
100.939660731
 10
167.2140272993
 20
100.9413709952
 10
167.2396824775
 20
100.9464731715
 10
167.264451999
 20
100.9548801528
 10
167.2879124558
 20
100.9664483938
 10
167.3096622617
 20
100.980980181
 10
167.3293286837
 20
100.9982267588
 10
167.3465752614
 20
101.0178931807
 10
167.3611070486
 20
101.0396429866
 10
167.3726752897
 20
101.0631034435
 10
167.3810822709
 20
101.0878729649
 10
167.3861844473
 20
101.1135281432
 10
167.3878947114
 20
101.13963027
  0
LINE
  5
818
100
AcDbEntity
  8
RACCORDO
100
AcDbLine
 62
7
  6
CONTINUOUS
 10
167.1879251724
 20
100.939660731
 11
166.0878642505
 21
100.939660731
  0
LINE
  5
819
100
AcDbEntity
  8
RACCORDO
100
AcDbLine
 62
7
  6
CONTINUOUS
 10
125.6879251724
 20
100.939660731
 11
124.5878642505
 21
100.939660731
  0
LWPOLYLINE
  5
81A
100
AcDbEntity
  8
RACCORDO
100
AcDbPolyline
 62
253
  6
CONTINUOUS
 90
13
 70
0
 10
124.6847810062
 20
101.0365774868
 10
124.6586847748
 20
101.03829554
 10
124.6330348842
 20
101.0434044176
 10
124.6082700413
 20
101.0518167392
 10
124.5848138152
 20
101.0633886232
 10
124.5630673932
 20
101.0779221483
 10
124.5434027185
 20
101.095168738
 10
124.5261561287
 20
101.1148334128
 10
124.5116226037
 20
101.1365798348
 10
124.5000507196
 20
101.1600360608
 10
124.4916383981
 20
101.1848009038
 10
124.4865295205
 20
101.2104507943
 10
124.4848114672
 20
101.2365470258
  0
LINE
  5
81B
100
AcDbEntity
  8
RACCORDO
100
AcDbLine
 62
253
  6
CONTINUOUS
 10
124.3878947114
 20
116.739691192
 11
124.4848114672
 21
116.6427744362
  0
LINE
  5
81C
100
AcDbEntity
  8
RACCORDO
100
AcDbLine
 62
253
  6
CONTINUOUS
 10
124.5878642505
 20
116.939660731
 11
124.6847806494
 21
116.8427443321
  0
LINE
  5
81D
100
AcDbEntity
  8
RACCORDO
100
AcDbLine
 62
7
  6
CONTINUOUS
 10
149.2219954306
 20
90.5882572749
 11
149.3396916542
 21
90.3834620864
  0
LWPOLYLINE
  5
81E
100
AcDbEntity
  8
RACCORDO
100
AcDbPolyline
 62
7
  6
CONTINUOUS
 90
20
 70
0
 10
149.3396916542
 20
90.3834620864
 10
149.3957292944
 20
90.2841331007
 10
149.4229652128
 20
90.2351185264
 10
149.4495466198
 20
90.1865479231
 10
149.475530561
 20
90.1383958076
 10
149.5007973808
 20
90.0906589857
 10
149.525246059
 20
90.0433406515
 10
149.5489245434
 20
89.9964249044
 10
149.5716970726
 20
89.9498730961
 10
149.5934198015
 20
89.9037238749
 10
149.6140738563
 20
89.8580772848
 10
149.6334768319
 20
89.8129010168
 10
149.6514522493
 20
89.76822738
 10
149.6679173188
 20
89.7242533457
 10
149.6826324825
 20
89.6809484512
 10
149.6953733846
 20
89.6383431591
 10
149.7059757078
 20
89.596725829
 10
149.7141535846
 20
89.5561925805
 10
149.7195692629
 20
89.5166472939
 10
149.7219192782
 20
89.4780899691
  0
LINE
  5
81F
100
AcDbEntity
  8
RACCORDO
100
AcDbLine
 62
253
  6
CONTINUOUS
 10
130.9069195484
 20
127.7591607674
 11
130.9397566211
 21
127.6642738921
  0
LINE
  5
820
100
AcDbEntity
  8
RACCORDO
100
AcDbLine
 62
253
  6
CONTINUOUS
 10
130.9397566211
 20
127.6642738921
 11
130.9737452394
 21
127.564123578
  0
LINE
  5
821
100
AcDbEntity
  8
RACCORDO
100
AcDbLine
 62
253
  6
CONTINUOUS
 10
130.9737452394
 20
127.564123578
 11
131.0270641811
 21
127.4041462538
  0
LINE
  5
822
100
AcDbEntity
  8
RACCORDO
100
AcDbLine
 62
253
  6
CONTINUOUS
 10
131.0270641811
 20
127.4041462538
 11
131.0643218868
 21
127.291064187
  0
LINE
  5
823
100
AcDbEntity
  8
RACCORDO
100
AcDbLine
 62
7
  6
CONTINUOUS
 10
142.0362627633
 20
82.0877241732
 11
142.0362627633
 21
89.0880287829
  0
LINE
  5
824
100
AcDbEntity
  8
RACCORDO
100
AcDbLine
 62
253
  6
CONTINUOUS
 10
142.0538701447
 20
82.105473017
 11
142.0538701447
 21
89.4780899691
  0
LINE
  5
825
100
AcDbEntity
  8
0
100
AcDbLine
 62
7
  6
CONTINUOUS
 10
142.0978947114
 20
81.5981784379
 11
142.0978947114
 21
55.439660731
  0
LINE
  5
826
100
AcDbEntity
  8
0
100
AcDbLine
 62
7
  6
CONTINUOUS
 10
142.0978947114
 20
54.439660731
 11
142.0978947114
 21
44.439660731
  0
LINE
  5
827
100
AcDbEntity
  8
0
100
AcDbLine
 62
7
  6
CONTINUOUS
 10
142.4978947114
 20
54.439660731
 11
142.4978947114
 21
55.439660731
  0
LINE
  5
828
100
AcDbEntity
  8
RACCORDO
100
AcDbLine
 62
253
  6
CONTINUOUS
 10
142.5537939923
 20
82.1053315546
 11
142.5537939923
 21
90.5882572749
  0
LINE
  5
829
100
AcDbEntity
  8
0
100
AcDbLine
 62
253
  6
CONTINUOUS
 10
143.2633891441
 20
130.7148505772
 11
143.2633891441
 21
130.4150333291
  0
LINE
  5
82A
100
AcDbEntity
  8
0
100
AcDbLine
 62
7
  6
CONTINUOUS
 10
143.2778947114
 20
54.439660731
 11
143.2778947114
 21
55.439660731
  0
LINE
  5
82B
100
AcDbEntity
  8
0
100
AcDbLine
 62
253
  6
CONTINUOUS
 10
143.4632673095
 20
130.2151551637
 11
143.4632673095
 21
128.8523854063
  0
LINE
  5
82C
100
AcDbEntity
  8
0
100
AcDbLine
 62
7
  6
CONTINUOUS
 10
143.6778947114
 20
80.1211557683
 11
143.6778947114
 21
55.439660731
  0
LINE
  5
82D
100
AcDbEntity
  8
0
100
AcDbLine
 62
7
  6
CONTINUOUS
 10
143.6778947114
 20
54.439660731
 11
143.6778947114
 21
44.439660731
  0
LINE
  5
82E
100
AcDbEntity
  8
0
100
AcDbLine
 62
253
  6
CONTINUOUS
 10
143.7630845576
 20
130.2151551637
 11
143.7630845576
 21
128.8574391739
  0
LINE
  5
82F
100
AcDbEntity
  8
0
100
AcDbLine
 62
7
  6
CONTINUOUS
 10
143.7878947114
 20
130.2399653175
 11
143.7878947114
 21
128.8698404713
  0
LINE
  5
830
100
AcDbEntity
  8
RACCORDO
100
AcDbLine
 62
253
  6
CONTINUOUS
 10
144.053565535
 20
80.1056361642
 11
144.053565535
 21
80.6055600118
  0
LINE
  5
831
100
AcDbEntity
  8
0
100
AcDbLine
 62
7
  6
CONTINUOUS
 10
144.0978947114
 20
80.0880287829
 11
144.0978947114
 21
55.439660731
  0
LINE
  5
832
100
AcDbEntity
  8
0
100
AcDbLine
 62
7
  6
CONTINUOUS
 10
144.0978947114
 20
54.439660731
 11
144.0978947114
 21
44.439660731
  0
LINE
  5
833
100
AcDbEntity
  8
0
100
AcDbLine
 62
7
  6
CONTINUOUS
 10
144.4978947114
 20
54.439660731
 11
144.4978947114
 21
55.439660731
  0
LINE
  5
834
100
AcDbEntity
  8
0
100
AcDbLine
 62
7
  6
CONTINUOUS
 10
145.2778947114
 20
54.439660731
 11
145.2778947114
 21
55.439660731
  0
LWPOLYLINE
  5
835
100
AcDbEntity
  8
RACCORDO
100
AcDbPolyline
 62
7
  6
CONTINUOUS
 90
19
 70
0
 10
142.0538701447
 20
89.4780899691
 10
142.0563525193
 20
89.5180032675
 10
142.0620835146
 20
89.5588433016
 10
142.0707111284
 20
89.6006100715
 10
142.0818675343
 20
89.6435067455
 10
142.0952131013
 20
89.6873301552
 10
142.1104717199
 20
89.7314707958
 10
142.1272692198
 20
89.7756669026
 10
142.145374453
 20
89.8201802403
 10
142.1648632971
 20
89.8651865979
 10
142.1856085491
 20
89.9107039277
 10
142.2073946728
 20
89.9567142775
 10
142.2303083015
 20
90.0033395803
 10
142.2543040274
 20
90.0506982959
 10
142.2791890779
 20
90.0986719646
 10
142.3048789991
 20
90.1470271402
 10
142.3312757413
 20
90.1957925689
 10
142.3582470427
 20
90.2449395045
 10
142.3856624621
 20
90.2941482622
  0
LWPOLYLINE
  5
836
100
AcDbEntity
  8
RACCORDO
100
AcDbPolyline
 62
253
  6
CONTINUOUS
 90
19
 70
0
 10
129.8857750849
 20
88.1607356024
 10
129.8753066875
 20
88.1398478705
 10
129.8673447471
 20
88.1178732991
 10
129.8620002934
 20
88.0951114011
 10
129.8593481626
 20
88.0718630412
 10
129.859429831
 20
88.0484557673
 10
129.8622412685
 20
88.0252394387
 10
129.867728876
 20
88.0025543308
 10
129.8758117192
 20
87.9806827639
 10
129.8863951059
 20
87.9598805494
 10
129.8993675699
 20
87.9404001907
 10
129.9145406698
 20
87.92255204
 10
129.9316474387
 20
87.9066393894
 10
129.9504388622
 20
87.892864168
 10
129.9706478451
 20
87.8813952755
 10
129.9919148153
 20
87.872396029
 10
130.0139107236
 20
87.8659472267
 10
130.0363569114
 20
87.8620748408
 10
130.0589537856
 20
87.8607812939
  0
LWPOLYLINE
  5
837
100
AcDbEntity
  8
RACCORDO
100
AcDbPolyline
 62
253
  6
CONTINUOUS
 90
13
 70
0
 10
130.7751232078
 20
89.3011926588
 10
130.804109706
 20
89.3546566275
 10
130.8313223068
 20
89.4106880184
 10
130.8567610101
 20
89.4692868317
 10
130.8803736434
 20
89.5305302574
 10
130.9022123792
 20
89.5943411055
 10
130.9224337349
 20
89.6604878055
 10
130.9410010406
 20
89.7289125203
 10
130.9579509663
 20
89.799673087
 10
130.9735500386
 20
89.8727114474
 10
130.9878870998
 20
89.9480082487
 10
131.0008733077
 20
90.0255828436
 10
131.0125086623
 20
90.1054352323
  0
LINE
  5
838
100
AcDbEntity
  8
RACCORDO
100
AcDbLine
 62
7
  6
CONTINUOUS
 10
130.1158813072
 20
88.7269817471
 11
129.7405508723
 21
88.0768903642
  0
LINE
  5
839
100
AcDbEntity
  8
RACCORDO
100
AcDbLine
 62
253
  6
CONTINUOUS
 10
129.8857750849
 20
88.1607356024
 11
130.6018949661
 21
89.4010916332
  0
LINE
  5
83A
100
AcDbEntity
  8
RACCORDO
100
AcDbLine
 62
253
  6
CONTINUOUS
 10
130.0589537856
 20
88.0607508329
 11
130.7751232078
 21
89.3011926588
  0
LINE
  5
83B
100
AcDbEntity
  8
RACCORDO
100
AcDbLine
 62
253
  6
CONTINUOUS
 10
130.6018949661
 20
89.4010916332
 11
130.4752691498
 21
89.1891191799
  0
LINE
  5
83C
100
AcDbEntity
  8
RACCORDO
100
AcDbLine
 62
253
  6
CONTINUOUS
 10
130.4752691498
 20
89.1891191799
 11
130.4048865789
 21
89.0726316583
  0
LWPOLYLINE
  5
83D
100
AcDbEntity
  8
RACCORDO
100
AcDbPolyline
 62
253
  6
CONTINUOUS
 90
10
 70
0
 10
130.4048865789
 20
89.0726316583
 10
130.3457080121
 20
88.9758800116
 10
130.3203179495
 20
88.9348919878
 10
130.2976755729
 20
88.8987497836
 10
130.2776516315
 20
88.8672422311
 10
130.2603753762
 20
88.8405804981
 10
130.2461869213
 20
88.8193227357
 10
130.2351996385
 20
88.8036549944
 10
130.2273001561
 20
88.7933912237
 10
130.2224884742
 20
88.7885314237
  0
LINE
  5
83E
100
AcDbEntity
  8
RACCORDO
100
AcDbLine
 62
253
  6
CONTINUOUS
 10
131.0643125635
 20
90.5882429692
 11
130.7861009035
 21
90.1649713993
  0
LINE
  5
83F
100
AcDbEntity
  8
RACCORDO
100
AcDbLine
 62
253
  6
CONTINUOUS
 10
130.7861009035
 20
90.1649713993
 11
130.4856378195
 21
89.7136869693
  0
LINE
  5
840
100
AcDbEntity
  8
RACCORDO
100
AcDbLine
 62
253
  6
CONTINUOUS
 10
130.4856378195
 20
89.7136869693
 11
130.3396774581
 21
89.4972262737
  0
LINE
  5
841
100
AcDbEntity
  8
RACCORDO
100
AcDbLine
 62
253
  6
CONTINUOUS
 10
130.3396774581
 20
89.4972262737
 11
130.2582587141
 21
89.3778070189
  0
LINE
  5
842
100
AcDbEntity
  8
RACCORDO
100
AcDbLine
 62
253
  6
CONTINUOUS
 10
130.2582587141
 20
89.3778070189
 11
130.1900908883
 21
89.2790719099
  0
LWPOLYLINE
  5
843
100
AcDbEntity
  8
RACCORDO
100
AcDbPolyline
 62
253
  6
CONTINUOUS
 90
8
 70
0
 10
130.1900908883
 20
89.2790719099
 10
130.135132693
 20
89.2006706672
 10
130.1121901696
 20
89.1685091718
 10
130.0924007096
 20
89.1414824156
 10
130.0761767011
 20
89.1197821133
 10
130.063655607
 20
89.1035998099
 10
130.0546999644
 20
89.0931156505
 10
130.0493097734
 20
89.0884857322
  0
LINE
  5
844
100
AcDbEntity
  8
RACCORDO
100
AcDbLine
 62
7
  6
CONTINUOUS
 10
164.2392981675
 20
125.2737614501
 11
164.4440933561
 21
125.3914576738
  0
LWPOLYLINE
  5
845
100
AcDbEntity
  8
RACCORDO
100
AcDbPolyline
 62
7
  6
CONTINUOUS
 90
20
 70
0
 10
164.4440933561
 20
125.3914576738
 10
164.5434223417
 20
125.447495314
 10
164.592436916
 20
125.4747312323
 10
164.6410075193
 20
125.5013126393
 10
164.6891596348
 20
125.5272965805
 10
164.7368964568
 20
125.5525634004
 10
164.784214791
 20
125.5770120786
 10
164.8311305381
 20
125.600690563
 10
164.8776823463
 20
125.6234630921
 10
164.9238315676
 20
125.645185821
 10
164.9694781576
 20
125.6658398759
 10
165.0146544256
 20
125.6852428514
 10
165.0593280624
 20
125.7032182688
 10
165.1033020967
 20
125.7196833383
 10
165.1466069913
 20
125.7343985021
 10
165.1892122833
 20
125.7471394042
 10
165.2308296135
 20
125.7577417273
 10
165.271362862
 20
125.7659196042
 10
165.3109081486
 20
125.7713352825
 10
165.3494654733
 20
125.7736852977
  0
LWPOLYLINE
  5
846
100
AcDbEntity
  8
RACCORDO
100
AcDbPolyline
 62
253
  6
CONTINUOUS
 90
13
 70
0
 10
125.5910084167
 20
101.0365774868
 10
125.6171046974
 20
101.0382955465
 10
125.6427546284
 20
101.0434044417
 10
125.6675195013
 20
101.0518167888
 10
125.6909757474
 20
101.0633887039
 10
125.7127221777
 20
101.0779222619
 10
125.732386846
 20
101.0951688796
 10
125.7496334167
 20
101.1148335724
 10
125.7641669146
 20
101.1365799999
 10
125.7757387666
 20
101.1600362137
 10
125.7841510572
 20
101.1848010244
 10
125.7892599116
 20
101.2104508634
 10
125.7909779557
 20
101.2365470258
  0
LINE
  5
847
100
AcDbEntity
  8
0
100
AcDbLine
 62
7
  6
CONTINUOUS
 10
165.8455376332
 20
104.2320178092
 11
165.98226866
 21
104.2361516065
  0
LINE
  5
848
100
AcDbEntity
  8
RACCORDO
100
AcDbLine
 62
253
  6
CONTINUOUS
 10
124.6847810062
 20
101.0365774868
 11
125.5910087735
 21
101.0365771299
  0
LINE
  5
849
100
AcDbEntity
  8
RACCORDO
100
AcDbLine
 62
253
  6
CONTINUOUS
 10
166.1847810062
 20
101.0365774868
 11
167.0910084167
 21
101.0365774868
  0
LINE
  5
84A
100
AcDbEntity
  8
RACCORDO
100
AcDbLine
 62
253
  6
CONTINUOUS
 10
124.5328326769
 20
104.0361205722
 11
125.742956746
 21
104.0361205722
  0
LINE
  5
84B
100
AcDbEntity
  8
RACCORDO
100
AcDbLine
 62
253
  6
CONTINUOUS
 10
166.0328326769
 20
104.0361205722
 11
167.242956746
 21
104.0361205722
  0
LINE
  5
84C
100
AcDbEntity
  8
RACCORDO
100
AcDbLine
 62
253
  6
CONTINUOUS
 10
125.79302907
 20
104.2805184585
 11
125.9787524389
 21
104.2805184585
  0
LINE
  5
84D
100
AcDbEntity
  8
RACCORDO
100
AcDbLine
 62
253
  6
CONTINUOUS
 10
165.797036984
 20
104.2805184585
 11
165.9827603529
 21
104.2805184585
  0
LINE
  5
84E
100
AcDbEntity
  8
RACCORDO
100
AcDbLine
 62
253
  6
CONTINUOUS
 10
125.7918918543
 20
104.580472767
 11
125.9838975686
 21
104.580472767
  0
LINE
  5
84F
100
AcDbEntity
  8
RACCORDO
100
AcDbLine
 62
253
  6
CONTINUOUS
 10
165.7918918543
 20
104.580472767
 11
165.9838975686
 21
104.580472767
  0
LINE
  5
850
100
AcDbEntity
  8
0
100
AcDbLine
 62
7
  6
CONTINUOUS
 10
125.7935207629
 20
104.2361516065
 11
125.9302517897
 21
104.2320178092
  0
LWPOLYLINE
  5
851
100
AcDbEntity
  8
RACCORDO
100
AcDbPolyline
 62
253
  6
CONTINUOUS
 90
13
 70
0
 10
166.1847810062
 20
101.0365774868
 10
166.1586847748
 20
101.03829554
 10
166.1330348842
 20
101.0434044176
 10
166.1082700413
 20
101.0518167392
 10
166.0848138152
 20
101.0633886232
 10
166.0630673932
 20
101.0779221483
 10
166.0434027185
 20
101.095168738
 10
166.0261561287
 20
101.1148334128
 10
166.0116226037
 20
101.1365798348
 10
166.0000507196
 20
101.1600360608
 10
165.9916383981
 20
101.1848009038
 10
165.9865295205
 20
101.2104507943
 10
165.9848114672
 20
101.2365470258
  0
LINE
  5
852
100
AcDbEntity
  8
RACCORDO
100
AcDbLine
 62
253
  6
CONTINUOUS
 10
163.8881993211
 20
88.939660731
 11
163.7392473681
 21
89.0884857322
  0
LINE
  5
853
100
AcDbEntity
  8
RACCORDO
100
AcDbLine
 62
7
  6
CONTINUOUS
 10
163.3215045381
 20
89.0060509043
 11
163.3878947114
 21
88.939660731
  0
LINE
  5
854
100
AcDbEntity
  8
RACCORDO
100
AcDbLine
 62
253
  6
CONTINUOUS
 10
125.8878947114
 20
126.9399653407
 11
126.0367197127
 21
126.7911403395
  0
LINE
  5
855
100
AcDbEntity
  8
RACCORDO
100
AcDbLine
 62
253
  6
CONTINUOUS
 10
130.181688536
 20
128.6124278182
 11
130.2501886015
 21
128.5133211569
  0
LINE
  5
856
100
AcDbEntity
  8
RACCORDO
100
AcDbLine
 62
253
  6
CONTINUOUS
 10
130.2501886015
 20
128.5133211569
 11
130.3330766116
 21
128.3918213986
  0
LINE
  5
857
100
AcDbEntity
  8
RACCORDO
100
AcDbLine
 62
253
  6
CONTINUOUS
 10
130.3330766116
 20
128.3918213986
 11
130.4297968013
 21
128.2488570396
  0
LINE
  5
858
100
AcDbEntity
  8
RACCORDO
100
AcDbLine
 62
253
  6
CONTINUOUS
 10
130.4297968013
 20
128.2488570396
 11
130.5988890536
 21
127.9964213323
  0
LWPOLYLINE
  5
859
100
AcDbEntity
  8
RACCORDO
100
AcDbPolyline
 62
253
  6
CONTINUOUS
 90
4
 70
0
 10
130.5988890536
 20
127.9964213323
 10
130.8586231971
 20
127.604274835
 10
130.9263304622
 20
127.500761582
 10
131.06431967
 20
127.2910675938
  0
LINE
  5
85A
100
AcDbEntity
  8
RACCORDO
100
AcDbLine
 62
253
  6
CONTINUOUS
 10
130.3387343996
 20
128.914733858
 11
130.3984381346
 21
128.817289285
  0
LINE
  5
85B
100
AcDbEntity
  8
RACCORDO
100
AcDbLine
 62
253
  6
CONTINUOUS
 10
130.3984381346
 20
128.817289285
 11
130.4707183879
 21
128.6977691169
  0
LINE
  5
85C
100
AcDbEntity
  8
RACCORDO
100
AcDbLine
 62
253
  6
CONTINUOUS
 10
130.4707183879
 20
128.6977691169
 11
130.6018998789
 21
128.4782213241
  0
LINE
  5
85D
100
AcDbEntity
  8
RACCORDO
100
AcDbLine
 62
7
  6
CONTINUOUS
 10
129.7405508723
 20
129.8024310978
 11
130.1158813072
 21
129.1523397149
  0
LINE
  5
85E
100
AcDbEntity
  8
RACCORDO
100
AcDbLine
 62
253
  6
CONTINUOUS
 10
130.6018998789
 20
128.4782213241
 11
129.8857750849
 21
129.7185858596
  0
LINE
  5
85F
100
AcDbEntity
  8
RACCORDO
100
AcDbLine
 62
253
  6
CONTINUOUS
 10
130.7751264992
 20
128.5781231023
 11
130.0589537856
 21
129.8185706291
  0
LWPOLYLINE
  5
860
100
AcDbEntity
  8
RACCORDO
100
AcDbPolyline
 62
253
  6
CONTINUOUS
 90
13
 70
0
 10
130.6019474229
 20
128.4781530175
 10
130.626844619
 20
128.4340250834
 10
130.6517117046
 20
128.3870303047
 10
130.6765620621
 20
128.3371718765
 10
130.7014102214
 20
128.2845013974
 10
130.7263113178
 20
128.2290244304
 10
130.7513349223
 20
128.1706571544
 10
130.776504902
 20
128.1094361651
 10
130.8018806101
 20
128.0453650746
 10
130.8275686624
 20
127.9782918959
 10
130.853621432
 20
127.908176987
 10
130.8800584848
 20
127.8351167515
 10
130.9069216413
 20
127.7591610592
  0
LINE
  5
861
100
AcDbEntity
  8
0
100
AcDbLine
 62
7
  6
CONTINUOUS
 10
145.6778947114
 20
85.8980687689
 11
145.6778947114
 21
82.9812526931
  0
LINE
  5
862
100
AcDbEntity
  8
0
100
AcDbLine
 62
7
  6
CONTINUOUS
 10
145.6778947114
 20
80.0880287829
 11
145.6778947114
 21
55.439660731
  0
LINE
  5
863
100
AcDbEntity
  8
0
100
AcDbLine
 62
7
  6
CONTINUOUS
 10
145.6778947114
 20
54.439660731
 11
145.6778947114
 21
44.439660731
  0
LINE
  5
864
100
AcDbEntity
  8
0
100
AcDbLine
 62
7
  6
CONTINUOUS
 10
146.0978947114
 20
85.8980687689
 11
146.0978947114
 21
82.9812526931
  0
LINE
  5
865
100
AcDbEntity
  8
0
100
AcDbLine
 62
7
  6
CONTINUOUS
 10
146.0978947114
 20
80.0880287829
 11
146.0978947114
 21
55.439660731
  0
LINE
  5
866
100
AcDbEntity
  8
0
100
AcDbLine
 62
7
  6
CONTINUOUS
 10
146.0978947114
 20
54.439660731
 11
146.0978947114
 21
44.439660731
  0
LINE
  5
867
100
AcDbEntity
  8
0
100
AcDbLine
 62
7
  6
CONTINUOUS
 10
146.4978947114
 20
54.439660731
 11
146.4978947114
 21
55.439660731
  0
LINE
  5
868
100
AcDbEntity
  8
0
100
AcDbLine
 62
7
  6
CONTINUOUS
 10
147.2778947114
 20
54.439660731
 11
147.2778947114
 21
55.439660731
  0
LINE
  5
869
100
AcDbEntity
  8
0
100
AcDbLine
 62
7
  6
CONTINUOUS
 10
147.6778947114
 20
80.0880287829
 11
147.6778947114
 21
55.439660731
  0
LINE
  5
86A
100
AcDbEntity
  8
0
100
AcDbLine
 62
7
  6
CONTINUOUS
 10
147.6778947114
 20
54.439660731
 11
147.6778947114
 21
44.439660731
  0
LINE
  5
86B
100
AcDbEntity
  8
RACCORDO
100
AcDbLine
 62
253
  6
CONTINUOUS
 10
147.7222238879
 20
80.1056361642
 11
147.7222238879
 21
80.6055600118
  0
LINE
  5
86C
100
AcDbEntity
  8
0
100
AcDbLine
 62
7
  6
CONTINUOUS
 10
148.0978947114
 20
80.1211557676
 11
148.0978947114
 21
55.439660731
  0
LINE
  5
86D
100
AcDbEntity
  8
0
100
AcDbLine
 62
7
  6
CONTINUOUS
 10
148.0978947114
 20
54.439660731
 11
148.0978947114
 21
44.439660731
  0
LINE
  5
86E
100
AcDbEntity
  8
0
100
AcDbLine
 62
7
  6
CONTINUOUS
 10
148.4978947114
 20
54.439660731
 11
148.4978947114
 21
55.439660731
  0
LINE
  5
86F
100
AcDbEntity
  8
RACCORDO
100
AcDbLine
 62
253
  6
CONTINUOUS
 10
149.2219954306
 20
90.5882572749
 11
149.2219954306
 21
82.1053315546
  0
LINE
  5
870
100
AcDbEntity
  8
0
100
AcDbLine
 62
7
  6
CONTINUOUS
 10
149.2778947114
 20
54.439660731
 11
149.2778947114
 21
55.439660731
  0
LINE
  5
871
100
AcDbEntity
  8
0
100
AcDbLine
 62
7
  6
CONTINUOUS
 10
149.6778947114
 20
81.5981784496
 11
149.6778947114
 21
55.439660731
  0
LINE
  5
872
100
AcDbEntity
  8
0
100
AcDbLine
 62
7
  6
CONTINUOUS
 10
149.6778947114
 20
54.439660731
 11
149.6778947114
 21
44.439660731
  0
LINE
  5
873
100
AcDbEntity
  8
RACCORDO
100
AcDbLine
 62
253
  6
CONTINUOUS
 10
149.7219192782
 20
89.4780899691
 11
149.7219192782
 21
82.1054740176
  0
LINE
  5
874
100
AcDbEntity
  8
RACCORDO
100
AcDbLine
 62
7
  6
CONTINUOUS
 10
149.7395266596
 20
89.0880287829
 11
149.7395266596
 21
82.0877241732
  0
LINE
  5
875
100
AcDbEntity
  8
0
100
AcDbLine
 62
7
  6
CONTINUOUS
 10
150.1078947114
 20
89.0094809907
 11
150.1078947114
 21
55.439660731
  0
LINE
  5
876
100
AcDbEntity
  8
0
100
AcDbLine
 62
7
  6
CONTINUOUS
 10
150.1078947114
 20
54.439660731
 11
150.1078947114
 21
44.439660731
  0
LWPOLYLINE
  5
877
100
AcDbEntity
  8
RACCORDO
100
AcDbPolyline
 62
253
  6
CONTINUOUS
 90
25
 70
0
 10
149.2219954306
 20
82.1053315546
 10
149.218721904
 20
82.0068450693
 10
149.2091589919
 20
81.9095164797
 10
149.1933066943
 20
81.8133457859
 10
149.171043443
 20
81.7179017472
 10
149.1424908062
 20
81.6236156042
 10
149.1080134885
 20
81.5317810785
 10
149.0675362495
 20
81.4424596256
 10
149.0211343295
 20
81.3555897899
 10
148.9693981539
 20
81.2722809267
 10
148.9122585253
 20
81.192578234
 10
148.8497846412
 20
81.1164365137
 10
148.782774519
 20
81.044829527
 10
148.7111692118
 20
80.9778153081
 10
148.6350276666
 20
80.9153358228
 10
148.5553247416
 20
80.8581907297
 10
148.4720155609
 20
80.8064497049
 10
148.3851450005
 20
80.7600430723
 10
148.2958225466
 20
80.7195614622
 10
148.2039881447
 20
80.685080215
 10
148.1097018493
 20
80.6565239903
 10
148.0142533109
 20
80.6342573967
 10
147.918072413
 20
80.6184019705
 10
147.8207292719
 20
80.6088361756
 10
147.7222238879
 20
80.6055600118
  0
LINE
  5
878
100
AcDbEntity
  8
RACCORDO
100
AcDbLine
 62
253
  6
CONTINUOUS
 10
125.8878947114
 20
90.9393561213
 11
126.0367197127
 21
91.0883101212
  0
LINE
  5
879
100
AcDbEntity
  8
RACCORDO
100
AcDbLine
 62
253
  6
CONTINUOUS
 10
165.8878947114
 20
126.9399653407
 11
165.7390697102
 21
126.7910113408
  0
LINE
  5
87A
100
AcDbEntity
  8
RACCORDO
100
AcDbLine
 62
7
  6
CONTINUOUS
 10
163.3215045381
 20
128.8732705577
 11
163.3878947114
 21
128.939660731
  0
LINE
  5
87B
100
AcDbEntity
  8
RACCORDO
100
AcDbLine
 62
253
  6
CONTINUOUS
 10
163.8881993211
 20
128.939660731
 11
163.7393743199
 21
128.7908357298
  0
LINE
  5
87C
100
AcDbEntity
  8
RACCORDO
100
AcDbLine
 62
253
  6
CONTINUOUS
 10
163.1807562311
 20
126.7249261271
 11
163.1454908349
 21
126.689660731
  0
LINE
  5
87D
100
AcDbEntity
  8
RACCORDO
100
AcDbLine
 62
253
  6
CONTINUOUS
 10
128.1026293153
 20
91.6467992114
 11
128.1378947114
 21
91.6820646075
  0
LINE
  5
87E
100
AcDbEntity
  8
RACCORDO
100
AcDbLine
 62
253
  6
CONTINUOUS
 10
163.6731601076
 20
126.2325222506
 11
163.6378947114
 21
126.1972568545
  0
LINE
  5
87F
100
AcDbEntity
  8
RACCORDO
100
AcDbLine
 62
253
  6
CONTINUOUS
 10
128.5950331918
 20
91.1543953348
 11
128.630298588
 21
91.189660731
  0
LINE
  5
880
100
AcDbEntity
  8
RACCORDO
100
AcDbLine
 62
253
  6
CONTINUOUS
 10
127.8875901018
 20
88.939660731
 11
128.036415103
 21
89.0884857322
  0
LINE
  5
881
100
AcDbEntity
  8
RACCORDO
100
AcDbLine
 62
7
  6
CONTINUOUS
 10
128.4542848848
 20
89.0060509043
 11
128.3878947114
 21
88.939660731
  0
LINE
  5
882
100
AcDbEntity
  8
DRAFT
100
AcDbLine
 62
7
  6
CONTINUOUS
 10
165.8878947114
 20
125.939660731
 11
165.7395266596
 21
125.7912926791
  0
LINE
  5
883
100
AcDbEntity
  8
RACCORDO
100
AcDbLine
 62
7
  6
CONTINUOUS
 10
165.7390697102
 20
125.7908357298
 11
165.7395266596
 21
125.7912926791
  0
LINE
  5
884
100
AcDbEntity
  8
DRAFT
100
AcDbLine
 62
7
  6
CONTINUOUS
 10
129.5034821996
 20
89.0269360556
 11
129.4860271347
 21
89.0094809907
  0
LINE
  5
885
100
AcDbEntity
  8
DRAFT
100
AcDbLine
 62
7
  6
CONTINUOUS
 10
128.1378947114
 20
106.3523854063
 11
128.1026293153
 21
106.3488943934
  0
LINE
  5
886
100
AcDbEntity
  8
DRAFT
100
AcDbLine
 62
7
  6
CONTINUOUS
 10
163.6378947114
 20
111.5269360556
 11
163.6731601076
 21
111.5304270686
  0
LINE
  5
887
100
AcDbEntity
  8
RACCORDO
100
AcDbLine
 62
7
  6
CONTINUOUS
 10
164.2392981675
 20
106.3488943934
 11
163.6731601076
 21
106.3488943934
  0
LINE
  5
888
100
AcDbEntity
  8
RACCORDO
100
AcDbLine
 62
7
  6
CONTINUOUS
 10
128.1026293153
 20
106.3488943934
 11
127.5364912554
 21
106.3488943934
  0
LINE
  5
889
100
AcDbEntity
  8
DRAFT
100
AcDbLine
 62
7
  6
CONTINUOUS
 10
163.6378947114
 20
106.3523854063
 11
162.3006193868
 21
106.3523854063
  0
LINE
  5
88A
100
AcDbEntity
  8
DRAFT
100
AcDbLine
 62
7
  6
CONTINUOUS
 10
128.1378947114
 20
106.3523854063
 11
129.4751700361
 21
106.3523854063
  0
LINE
  5
88B
100
AcDbEntity
  8
RACCORDO
100
AcDbLine
 62
7
  6
CONTINUOUS
 10
163.748178028
 20
106.3750769908
 11
162.3233109712
 21
106.3750769908
  0
LINE
  5
88C
100
AcDbEntity
  8
RACCORDO
100
AcDbLine
 62
7
  6
CONTINUOUS
 10
128.0276113949
 20
106.3750769908
 11
129.4524784517
 21
106.3750769908
  0
LINE
  5
88D
100
AcDbEntity
  8
0
100
AcDbLine
 62
7
  6
CONTINUOUS
 10
164.3041103998
 20
106.439660731
 11
163.3878947114
 21
106.439660731
  0
LINE
  5
88E
100
AcDbEntity
  8
0
100
AcDbLine
 62
7
  6
CONTINUOUS
 10
128.3878947114
 20
106.439660731
 11
127.4716790231
 21
106.439660731
  0
LINE
  5
88F
100
AcDbEntity
  8
DRAFT
100
AcDbLine
 62
7
  6
CONTINUOUS
 10
163.6378947114
 20
106.3523854063
 11
163.6731601076
 21
106.3488943934
  0
LINE
  5
890
100
AcDbEntity
  8
DRAFT
100
AcDbLine
 62
7
  6
CONTINUOUS
 10
128.1378947114
 20
111.5269360556
 11
128.1026293153
 21
111.5304270686
  0
LWPOLYLINE
  5
891
100
AcDbEntity
  8
RACCORDO
100
AcDbPolyline
 62
253
  6
CONTINUOUS
 90
9
 70
0
 10
130.2224884742
 20
129.0907900383
 10
130.2267192223
 20
129.0866974918
 10
130.2338671289
 20
129.077531936
 10
130.2439321939
 20
129.0632933707
 10
130.2568627709
 20
129.0440744156
 10
130.2727105063
 20
129.019782451
 10
130.2916303397
 20
128.9901396187
 10
130.3136463207
 20
128.9551121722
 10
130.3387343996
 20
128.914733858
  0
LINE
  5
892
100
AcDbEntity
  8
RACCORDO
100
AcDbLine
 62
253
  6
CONTINUOUS
 10
127.8875901018
 20
128.939660731
 11
128.0365441016
 21
128.7908357298
  0
LINE
  5
893
100
AcDbEntity
  8
RACCORDO
100
AcDbLine
 62
253
  6
CONTINUOUS
 10
163.1807562311
 20
91.1543953348
 11
163.1454908349
 21
91.189660731
  0
LINE
  5
894
100
AcDbEntity
  8
RACCORDO
100
AcDbLine
 62
253
  6
CONTINUOUS
 10
128.1026293153
 20
126.2325222506
 11
128.1378947114
 21
126.1972568545
  0
LINE
  5
895
100
AcDbEntity
  8
RACCORDO
100
AcDbLine
 62
253
  6
CONTINUOUS
 10
163.6731601076
 20
91.6467992114
 11
163.6378947114
 21
91.6820646075
  0
LINE
  5
896
100
AcDbEntity
  8
RACCORDO
100
AcDbLine
 62
253
  6
CONTINUOUS
 10
128.5950331918
 20
126.7249261271
 11
128.630298588
 21
126.689660731
  0
LINE
  5
897
100
AcDbEntity
  8
0
100
AcDbLine
 62
7
  6
CONTINUOUS
 10
128.3878947114
 20
128.939660731
 11
128.4525698416
 21
128.8749856009
  0
LINE
  5
898
100
AcDbEntity
  8
RACCORDO
100
AcDbLine
 62
7
  6
CONTINUOUS
 10
128.4542848848
 20
128.8732705577
 11
128.3878947114
 21
128.939660731
  0
LINE
  5
899
100
AcDbEntity
  8
0
100
AcDbLine
 62
253
  6
CONTINUOUS
 10
128.7878947114
 20
130.2399653175
 11
128.8127048653
 21
130.2151551637
  0
LINE
  5
89A
100
AcDbEntity
  8
0
100
AcDbLine
 62
253
  6
CONTINUOUS
 10
129.287590125
 20
130.739660731
 11
129.3124002788
 21
130.7148505772
  0
LINE
  5
89B
100
AcDbEntity
  8
RACCORDO
100
AcDbLine
 62
253
  6
CONTINUOUS
 10
165.8878947114
 20
90.9393561213
 11
165.7390697102
 21
91.0883054618
  0
LINE
  5
89C
100
AcDbEntity
  8
0
100
AcDbLine
 62
7
  6
CONTINUOUS
 10
150.4978947114
 20
54.439660731
 11
150.4978947114
 21
55.439660731
  0
LINE
  5
89D
100
AcDbEntity
  8
0
100
AcDbLine
 62
7
  6
CONTINUOUS
 10
151.2778947114
 20
54.439660731
 11
151.2778947114
 21
55.439660731
  0
LINE
  5
89E
100
AcDbEntity
  8
0
100
AcDbLine
 62
7
  6
CONTINUOUS
 10
151.6678947114
 20
89.0094809907
 11
151.6678947114
 21
55.439660731
  0
LINE
  5
89F
100
AcDbEntity
  8
0
100
AcDbLine
 62
7
  6
CONTINUOUS
 10
151.6678947114
 20
54.439660731
 11
151.6678947114
 21
44.439660731
  0
LINE
  5
8A0
100
AcDbEntity
  8
0
100
AcDbLine
 62
7
  6
CONTINUOUS
 10
152.1078947114
 20
89.0094809907
 11
152.1078947114
 21
55.439660731
  0
LINE
  5
8A1
100
AcDbEntity
  8
0
100
AcDbLine
 62
7
  6
CONTINUOUS
 10
152.1078947114
 20
54.439660731
 11
152.1078947114
 21
44.439660731
  0
LINE
  5
8A2
100
AcDbEntity
  8
0
100
AcDbLine
 62
7
  6
CONTINUOUS
 10
152.4978947114
 20
54.439660731
 11
152.4978947114
 21
55.439660731
  0
LINE
  5
8A3
100
AcDbEntity
  8
0
100
AcDbLine
 62
7
  6
CONTINUOUS
 10
153.2778947114
 20
54.439660731
 11
153.2778947114
 21
55.439660731
  0
LINE
  5
8A4
100
AcDbEntity
  8
0
100
AcDbLine
 62
7
  6
CONTINUOUS
 10
153.6678947114
 20
89.0094809907
 11
153.6678947114
 21
55.439660731
  0
LINE
  5
8A5
100
AcDbEntity
  8
0
100
AcDbLine
 62
7
  6
CONTINUOUS
 10
153.6678947114
 20
54.439660731
 11
153.6678947114
 21
44.439660731
  0
LINE
  5
8A6
100
AcDbEntity
  8
ASSI
100
AcDbLine
 62
7
  6
CONTINUOUS
 10
154.1078947114
 20
89.0094809907
 11
154.1078947114
 21
55.439660731
  0
LINE
  5
8A7
100
AcDbEntity
  8
ASSI
100
AcDbLine
 62
7
  6
CONTINUOUS
 10
154.1078947114
 20
54.439660731
 11
154.1078947114
 21
44.439660731
  0
LINE
  5
8A8
100
AcDbEntity
  8
ASSI
100
AcDbLine
 62
7
  6
CONTINUOUS
 10
154.4978947114
 20
54.439660731
 11
154.4978947114
 21
55.439660731
  0
LWPOLYLINE
  5
8A9
100
AcDbEntity
  8
RACCORDO
100
AcDbPolyline
 62
253
  6
CONTINUOUS
 90
25
 70
0
 10
149.7219192874
 20
82.1054740033
 10
149.7176333664
 20
81.9746129477
 10
149.7047969693
 20
81.8443314645
 10
149.6834685975
 20
81.7151872287
 10
149.6537445485
 20
81.5877378102
 10
149.6157547103
 20
81.4625227329
 10
149.5696585924
 20
81.3400621729
 10
149.5156514506
 20
81.220875467
 10
149.45396645
 20
81.1054775328
 10
149.3848674439
 20
80.9943618756
 10
149.30865036
 20
80.8880040737
 10
149.2256415691
 20
80.7868591589
 10
149.1361959328
 20
80.6913594919
 10
149.0406962654
 20
80.6019138573
 10
148.9395513511
 20
80.5189050687
 10
148.8331935502
 20
80.4426879871
 10
148.7220778941
 20
80.373588983
 10
148.6066799613
 20
80.3119039844
 10
148.4874932574
 20
80.2578968445
 10
148.3650326655
 20
80.2118007167
 10
148.2398175553
 20
80.173810873
 10
148.1123682114
 20
80.1440868442
 10
147.9832241977
 20
80.1227585019
 10
147.8529430495
 20
80.1099221123
 10
147.7220824396
 20
80.1056361551
  0
LINE
  5
8AA
100
AcDbEntity
  8
RACCORDO
100
AcDbLine
 62
7
  6
CONTINUOUS
 10
142.3856624621
 20
90.2941482622
 11
142.4413438111
 21
90.3926716336
  0
LINE
  5
8AB
100
AcDbEntity
  8
RACCORDO
100
AcDbLine
 62
7
  6
CONTINUOUS
 10
142.4413438111
 20
90.3926716336
 11
142.5537939923
 21
90.5882572749
  0
LINE
  5
8AC
100
AcDbEntity
  8
0
100
AcDbLine
 62
253
  6
CONTINUOUS
 10
129.5034821996
 20
88.0768903642
 11
129.4860271347
 21
88.0594352992
  0
LINE
  5
8AD
100
AcDbEntity
  8
0
100
AcDbLine
 62
253
  6
CONTINUOUS
 10
129.8034365082
 20
87.7769360556
 11
129.7859814432
 21
87.7594809907
  0
LINE
  5
8AE
100
AcDbEntity
  8
RACCORDO
100
AcDbLine
 62
253
  6
CONTINUOUS
 10
172.7220814248
 20
125.7736852977
 11
172.7398312692
 21
125.7912926791
  0
LINE
  5
8AF
100
AcDbEntity
  8
0
100
AcDbLine
 62
7
  6
CONTINUOUS
 10
125.7935207629
 20
113.6431698555
 11
125.9302517897
 21
113.6473036527
  0
LINE
  5
8B0
100
AcDbEntity
  8
0
100
AcDbLine
 62
7
  6
CONTINUOUS
 10
164.3041103998
 20
111.439660731
 11
163.3878947114
 21
111.439660731
  0
LINE
  5
8B1
100
AcDbEntity
  8
0
100
AcDbLine
 62
7
  6
CONTINUOUS
 10
128.3878947114
 20
111.439660731
 11
127.4716790231
 21
111.439660731
  0
LINE
  5
8B2
100
AcDbEntity
  8
RACCORDO
100
AcDbLine
 62
7
  6
CONTINUOUS
 10
163.748178028
 20
111.5042444712
 11
162.3233109712
 21
111.5042444712
  0
LINE
  5
8B3
100
AcDbEntity
  8
RACCORDO
100
AcDbLine
 62
7
  6
CONTINUOUS
 10
128.0276113949
 20
111.5042444712
 11
129.4524784517
 21
111.5042444712
  0
LINE
  5
8B4
100
AcDbEntity
  8
DRAFT
100
AcDbLine
 62
7
  6
CONTINUOUS
 10
163.6378947114
 20
111.5269360556
 11
162.3006193868
 21
111.5269360556
  0
LINE
  5
8B5
100
AcDbEntity
  8
DRAFT
100
AcDbLine
 62
7
  6
CONTINUOUS
 10
128.1378947114
 20
111.5269360556
 11
129.4751700361
 21
111.5269360556
  0
LINE
  5
8B6
100
AcDbEntity
  8
RACCORDO
100
AcDbLine
 62
7
  6
CONTINUOUS
 10
127.5364912554
 20
111.5304270686
 11
128.1026293153
 21
111.5304270686
  0
LINE
  5
8B7
100
AcDbEntity
  8
RACCORDO
100
AcDbLine
 62
7
  6
CONTINUOUS
 10
163.6731601076
 20
111.5304270686
 11
164.2392981675
 21
111.5304270686
  0
LINE
  5
8B8
100
AcDbEntity
  8
RACCORDO
100
AcDbLine
 62
253
  6
CONTINUOUS
 10
165.9838975686
 20
113.2988486949
 11
165.7918918543
 21
113.2988486949
  0
LINE
  5
8B9
100
AcDbEntity
  8
RACCORDO
100
AcDbLine
 62
253
  6
CONTINUOUS
 10
125.9838975686
 20
113.2988486949
 11
125.7918918543
 21
113.2988486949
  0
LINE
  5
8BA
100
AcDbEntity
  8
RACCORDO
100
AcDbLine
 62
253
  6
CONTINUOUS
 10
165.9827603529
 20
113.5988030035
 11
165.797036984
 21
113.5988030035
  0
LINE
  5
8BB
100
AcDbEntity
  8
RACCORDO
100
AcDbLine
 62
253
  6
CONTINUOUS
 10
125.9787524389
 20
113.5988030035
 11
125.79302907
 21
113.5988030035
  0
LINE
  5
8BC
100
AcDbEntity
  8
RACCORDO
100
AcDbLine
 62
253
  6
CONTINUOUS
 10
167.242956746
 20
113.8432008898
 11
166.0328326769
 21
113.8432008898
  0
LINE
  5
8BD
100
AcDbEntity
  8
RACCORDO
100
AcDbLine
 62
253
  6
CONTINUOUS
 10
124.5328326769
 20
113.8432008898
 11
125.742956746
 21
113.8432008898
  0
LINE
  5
8BE
100
AcDbEntity
  8
0
100
AcDbLine
 62
7
  6
CONTINUOUS
 10
165.8455376332
 20
113.6473036527
 11
165.98226866
 21
113.6431698555
  0
LINE
  5
8BF
100
AcDbEntity
  8
0
100
AcDbLine
 62
7
  6
CONTINUOUS
 10
128.5032886096
 20
128.8749399147
 11
128.4847617975
 21
128.8872895548
  0
LWPOLYLINE
  5
8C0
100
AcDbEntity
  8
RACCORDO
100
AcDbPolyline
 62
253
  6
CONTINUOUS
 90
9
 70
0
 10
130.0493097734
 20
128.7908357298
 10
130.0539769328
 20
128.7867575429
 10
130.0620036589
 20
128.7775448713
 10
130.0733899515
 20
128.7631707849
 10
130.0880681795
 20
128.7436915682
 10
130.1061059741
 20
128.7190821026
 10
130.1277062288
 20
128.6890884957
 10
130.1529161524
 20
128.653531834
 10
130.181688536
 20
128.6124278182
  0
LINE
  5
8C1
100
AcDbEntity
  8
ASSI
100
AcDbLine
 62
7
  6
CONTINUOUS
 10
155.2778947114
 20
54.439660731
 11
155.2778947114
 21
55.439660731
  0
LINE
  5
8C2
100
AcDbEntity
  8
ASSI
100
AcDbLine
 62
7
  6
CONTINUOUS
 10
155.6678947114
 20
89.0094809907
 11
155.6678947114
 21
55.439660731
  0
LINE
  5
8C3
100
AcDbEntity
  8
ASSI
100
AcDbLine
 62
7
  6
CONTINUOUS
 10
155.6678947114
 20
54.439660731
 11
155.6678947114
 21
44.439660731
  0
LINE
  5
8C4
100
AcDbEntity
  8
RACCORDO
100
AcDbLine
 62
253
  6
CONTINUOUS
 10
174.7219192782
 20
123.7738484449
 11
174.7395266596
 21
123.7915972888
  0
LINE
  5
8C5
100
AcDbEntity
  8
RACCORDO
100
AcDbLine
 62
253
  6
CONTINUOUS
 10
167.1879251724
 20
116.939660731
 11
167.0910084167
 21
116.8427439752
  0
LINE
  5
8C6
100
AcDbEntity
  8
RACCORDO
100
AcDbLine
 62
253
  6
CONTINUOUS
 10
167.3878947114
 20
116.739691192
 11
167.2909779557
 21
116.6427744362
  0
LINE
  5
8C7
100
AcDbEntity
  8
DRAFT
100
AcDbLine
 62
7
  6
CONTINUOUS
 10
165.8878947114
 20
113.689660731
 11
165.8455376332
 21
113.6473036527
  0
LINE
  5
8C8
100
AcDbEntity
  8
RACCORDO
100
AcDbLine
 62
7
  6
CONTINUOUS
 10
165.797036984
 20
113.5988030035
 11
165.8455376332
 21
113.6473036527
  0
LINE
  5
8C9
100
AcDbEntity
  8
RACCORDO
100
AcDbLine
 62
7
  6
CONTINUOUS
 10
164.3041103998
 20
111.439660731
 11
164.3947357816
 21
111.5302861128
  0
LINE
  5
8CA
100
AcDbEntity
  8
RACCORDO
100
AcDbLine
 62
7
  6
CONTINUOUS
 10
142.0367197127
 20
89.0884857322
 11
142.0362627633
 21
89.0880287829
  0
LINE
  5
8CB
100
AcDbEntity
  8
DRAFT
100
AcDbLine
 62
7
  6
CONTINUOUS
 10
141.9577149712
 20
89.0094809907
 11
142.0362627633
 21
89.0880287829
  0
LINE
  5
8CC
100
AcDbEntity
  8
RACCORDO
100
AcDbLine
 62
7
  6
CONTINUOUS
 10
167.3004670704
 20
113.8522330899
 11
167.3878947114
 21
113.939660731
  0
LINE
  5
8CD
100
AcDbEntity
  8
RACCORDO
100
AcDbLine
 62
253
  6
CONTINUOUS
 10
130.0493097734
 20
89.0884857322
 11
129.9427026064
 21
89.0269360556
  0
LINE
  5
8CE
100
AcDbEntity
  8
RACCORDO
100
AcDbLine
 62
253
  6
CONTINUOUS
 10
130.2224884742
 20
88.7885314237
 11
130.1158813072
 21
88.7269817471
  0
LINE
  5
8CF
100
AcDbEntity
  8
RACCORDO
100
AcDbLine
 62
253
  6
CONTINUOUS
 10
129.8857750849
 20
88.1607356024
 11
129.7405508723
 21
88.0768903642
  0
LINE
  5
8D0
100
AcDbEntity
  8
RACCORDO
100
AcDbLine
 62
253
  6
CONTINUOUS
 10
132.0006690872
 20
89.3011876843
 11
132.1738479731
 21
89.4011721416
  0
LINE
  5
8D1
100
AcDbEntity
  8
RACCORDO
100
AcDbLine
 62
253
  6
CONTINUOUS
 10
130.0589537856
 20
87.8607812939
 11
129.9137295731
 21
87.7769360556
  0
LWPOLYLINE
  5
8D2
100
AcDbEntity
  8
RACCORDO
100
AcDbPolyline
 62
253
  6
CONTINUOUS
 90
13
 70
0
 10
166.1847810062
 20
116.8427439752
 10
166.1586847255
 20
116.8410259155
 10
166.1330347945
 20
116.8359170203
 10
166.1082699216
 20
116.8275046732
 10
166.0848136755
 20
116.8159327581
 10
166.0630672452
 20
116.8013992001
 10
166.0434025769
 20
116.7841525824
 10
166.0261560062
 20
116.7644878895
 10
166.0116225083
 20
116.7427414621
 10
166.0000506563
 20
116.7192852483
 10
165.9916383657
 20
116.6945204376
 10
165.9865295113
 20
116.6688705985
 10
165.9848114672
 20
116.6427744362
  0
LWPOLYLINE
  5
8D3
100
AcDbEntity
  8
RACCORDO
100
AcDbPolyline
 62
253
  6
CONTINUOUS
 90
13
 70
0
 10
124.6847810062
 20
116.8427439752
 10
124.6586847255
 20
116.8410259155
 10
124.6330347945
 20
116.8359170203
 10
124.6082699216
 20
116.8275046732
 10
124.5848136755
 20
116.8159327581
 10
124.5630672452
 20
116.8013992001
 10
124.5434025769
 20
116.7841525824
 10
124.5261560062
 20
116.7644878895
 10
124.5116225083
 20
116.7427414621
 10
124.5000506563
 20
116.7192852483
 10
124.4916383657
 20
116.6945204376
 10
124.4865295113
 20
116.6688705985
 10
124.4848114672
 20
116.6427744362
  0
LWPOLYLINE
  5
8D4
100
AcDbEntity
  8
RACCORDO
100
AcDbPolyline
 62
7
  6
CONTINUOUS
 90
13
 70
0
 10
124.5878642505
 20
116.939660731
 10
124.5617621236
 20
116.9379504668
 10
124.5361069454
 20
116.9328482904
 10
124.5113374239
 20
116.9244413092
 10
124.4878769671
 20
116.9128730681
 10
124.4661271612
 20
116.898341281
 10
124.4464607392
 20
116.8810947032
 10
124.4292141615
 20
116.8614282812
 10
124.4146823743
 20
116.8396784754
 10
124.4031141332
 20
116.8162180185
 10
124.394707152
 20
116.7914484971
 10
124.3896049756
 20
116.7657933188
 10
124.3878947114
 20
116.739691192
  0
LINE
  5
8D5
100
AcDbEntity
  8
RACCORDO
100
AcDbLine
 62
253
  6
CONTINUOUS
 10
125.5910084167
 20
116.8427439752
 11
124.6847806494
 21
116.8427443321
  0
LINE
  5
8D6
100
AcDbEntity
  8
RACCORDO
100
AcDbLine
 62
253
  6
CONTINUOUS
 10
167.0910084167
 20
116.8427439752
 11
166.1847806494
 21
116.8427443321
  0
LINE
  5
8D7
100
AcDbEntity
  8
RACCORDO
100
AcDbLine
 62
7
  6
CONTINUOUS
 10
124.5878642505
 20
116.939660731
 11
125.6879251724
 21
116.939660731
  0
LINE
  5
8D8
100
AcDbEntity
  8
RACCORDO
100
AcDbLine
 62
7
  6
CONTINUOUS
 10
166.0878642505
 20
116.939660731
 11
167.1879251724
 21
116.939660731
  0
LINE
  5
8D9
100
AcDbEntity
  8
RACCORDO
100
AcDbLine
 62
7
  6
CONTINUOUS
 10
172.7398312692
 20
118.0880287829
 11
165.7395266596
 21
118.0880287829
  0
LINE
  5
8DA
100
AcDbEntity
  8
RACCORDO
100
AcDbLine
 62
253
  6
CONTINUOUS
 10
172.7220824254
 20
118.1056361642
 11
165.3494654733
 21
118.1056361642
  0
LINE
  5
8DB
100
AcDbEntity
  8
RACCORDO
100
AcDbLine
 62
253
  6
CONTINUOUS
 10
172.7222238879
 20
118.6055600118
 11
164.2392981675
 21
118.6055600118
  0
LWPOLYLINE
  5
8DC
100
AcDbEntity
  8
RACCORDO
100
AcDbPolyline
 62
7
  6
CONTINUOUS
 90
19
 70
0
 10
165.3494654733
 20
118.1056361642
 10
165.309552175
 20
118.1081185389
 10
165.2687121408
 20
118.1138495342
 10
165.2269453709
 20
118.1224771479
 10
165.184048697
 20
118.1336335538
 10
165.1402252872
 20
118.1469791208
 10
165.0960846466
 20
118.1622377394
 10
165.0518885398
 20
118.1790352393
 10
165.0073752022
 20
118.1971404725
 10
164.9623688445
 20
118.2166293167
 10
164.9168515147
 20
118.2373745686
 10
164.8708411649
 20
118.2591606924
 10
164.8242158621
 20
118.282074321
 10
164.7768571465
 20
118.3060700469
 10
164.7288834778
 20
118.3309550974
 10
164.6805283022
 20
118.3566450186
 10
164.6317628735
 20
118.3830417608
 10
164.5826159379
 20
118.4100130622
 10
164.5334071802
 20
118.4374284817
  0
LWPOLYLINE
  5
8DD
100
AcDbEntity
  8
RACCORDO
100
AcDbPolyline
 62
253
  6
CONTINUOUS
 90
13
 70
0
 10
125.5910084167
 20
116.8427439752
 10
125.6171046481
 20
116.841025922
 10
125.6427545387
 20
116.8359170444
 10
125.6675193816
 20
116.8275047228
 10
125.6909756077
 20
116.8159328388
 10
125.7127220297
 20
116.8013993137
 10
125.7323867044
 20
116.7841527239
 10
125.7496332942
 20
116.7644880492
 10
125.7641668192
 20
116.7427416272
 10
125.7757387033
 20
116.7192854012
 10
125.7841510248
 20
116.6945205582
 10
125.7892599024
 20
116.6688706676
 10
125.7909779557
 20
116.6427744362
  0
LINE
  5
8DE
100
AcDbEntity
  8
0
100
AcDbLine
 62
7
  6
CONTINUOUS
 10
128.8127048653
 20
128.8574391739
 11
128.7878947114
 21
128.8698404713
  0
LINE
  5
8DF
100
AcDbEntity
  8
RACCORDO
100
AcDbLine
 62
253
  6
CONTINUOUS
 10
129.9427026064
 20
128.8523854063
 11
130.0493097734
 21
128.7908357298
  0
LINE
  5
8E0
100
AcDbEntity
  8
RACCORDO
100
AcDbLine
 62
253
  6
CONTINUOUS
 10
130.1158813072
 20
129.1523397149
 11
130.2224884742
 21
129.0907900383
  0
LINE
  5
8E1
100
AcDbEntity
  8
RACCORDO
100
AcDbLine
 62
253
  6
CONTINUOUS
 10
129.8857750849
 20
129.7185858596
 11
129.7405508723
 21
129.8024310978
  0
LINE
  5
8E2
100
AcDbEntity
  8
RACCORDO
100
AcDbLine
 62
253
  6
CONTINUOUS
 10
132.1738486033
 20
128.4781504081
 11
132.0006696468
 21
128.5781347469
  0
LINE
  5
8E3
100
AcDbEntity
  8
RACCORDO
100
AcDbLine
 62
253
  6
CONTINUOUS
 10
130.0589537856
 20
130.0185401681
 11
129.9137295731
 21
130.1023854063
  0
LINE
  5
8E4
100
AcDbEntity
  8
RACCORDO
100
AcDbLine
 62
253
  6
CONTINUOUS
 10
132.7168356373
 20
129.8185706291
 11
132.890014338
 21
129.7185858596
  0
LINE
  5
8E5
100
AcDbEntity
  8
0
100
AcDbLine
 62
253
  6
CONTINUOUS
 10
128.4847617975
 20
130.2874418509
 11
128.5032886096
 21
130.2750922108
  0
LINE
  5
8E6
100
AcDbEntity
  8
0
100
AcDbLine
 62
253
  6
CONTINUOUS
 10
128.9847046901
 20
130.7872895548
 11
128.9980171813
 21
130.7784156873
  0
LINE
  5
8E7
100
AcDbEntity
  8
RACCORDO
100
AcDbLine
 62
253
  6
CONTINUOUS
 10
167.0910084167
 20
101.0365774868
 11
167.1879251724
 21
100.939660731
  0
LINE
  5
8E8
100
AcDbEntity
  8
RACCORDO
100
AcDbLine
 62
253
  6
CONTINUOUS
 10
167.2909779557
 20
101.2365470258
 11
167.3878947114
 21
101.13963027
  0
LINE
  5
8E9
100
AcDbEntity
  8
DRAFT
100
AcDbLine
 62
7
  6
CONTINUOUS
 10
165.8878947114
 20
104.189660731
 11
165.8455376332
 21
104.2320178092
  0
LINE
  5
8EA
100
AcDbEntity
  8
RACCORDO
100
AcDbLine
 62
7
  6
CONTINUOUS
 10
165.797036984
 20
104.2805184585
 11
165.8455376332
 21
104.2320178092
  0
LINE
  5
8EB
100
AcDbEntity
  8
RACCORDO
100
AcDbLine
 62
7
  6
CONTINUOUS
 10
164.3041103998
 20
106.439660731
 11
164.3947357816
 21
106.3490353492
  0
LINE
  5
8EC
100
AcDbEntity
  8
RACCORDO
100
AcDbLine
 62
7
  6
CONTINUOUS
 10
167.3004670704
 20
104.0270883721
 11
167.3878947114
 21
103.939660731
  0
LINE
  5
8ED
100
AcDbEntity
  8
DRAFT
100
AcDbLine
 62
7
  6
CONTINUOUS
 10
162.3006193868
 20
111.5269360556
 11
162.3006193868
 21
106.3523854063
  0
LINE
  5
8EE
100
AcDbEntity
  8
DRAFT
100
AcDbLine
 62
7
  6
CONTINUOUS
 10
162.3233109712
 20
111.5042444712
 11
162.3233109712
 21
106.3750769908
  0
LINE
  5
8EF
100
AcDbEntity
  8
DRAFT
100
AcDbLine
 62
7
  6
CONTINUOUS
 10
163.3878947114
 20
111.439660731
 11
163.3878947114
 21
106.439660731
  0
LINE
  5
8F0
100
AcDbEntity
  8
RACCORDO
100
AcDbLine
 62
7
  6
CONTINUOUS
 10
163.6378947114
 20
91.6820646075
 11
163.6378947114
 21
106.3523854063
  0
LINE
  5
8F1
100
AcDbEntity
  8
RACCORDO
100
AcDbLine
 62
7
  6
CONTINUOUS
 10
163.6378947114
 20
111.5269360556
 11
163.6378947114
 21
126.1972568545
  0
LINE
  5
8F2
100
AcDbEntity
  8
RACCORDO
100
AcDbLine
 62
7
  6
CONTINUOUS
 10
163.6731601076
 20
91.6467992114
 11
163.6731601076
 21
106.3488943934
  0
LINE
  5
8F3
100
AcDbEntity
  8
RACCORDO
100
AcDbLine
 62
7
  6
CONTINUOUS
 10
163.6731601076
 20
111.5304270686
 11
163.6731601076
 21
126.2325222506
  0
LINE
  5
8F4
100
AcDbEntity
  8
RACCORDO
100
AcDbLine
 62
253
  6
CONTINUOUS
 10
163.7393743199
 20
89.0884857322
 11
163.7393743199
 21
90.5882572749
  0
LINE
  5
8F5
100
AcDbEntity
  8
RACCORDO
100
AcDbLine
 62
253
  6
CONTINUOUS
 10
163.7393743199
 20
127.291064187
 11
163.7393743199
 21
128.7908357298
  0
LINE
  5
8F6
100
AcDbEntity
  8
RACCORDO
100
AcDbLine
 62
253
  6
CONTINUOUS
 10
163.7918156903
 20
111.5042444712
 11
163.7918156903
 21
111.439660731
  0
LINE
  5
8F7
100
AcDbEntity
  8
RACCORDO
100
AcDbLine
 62
253
  6
CONTINUOUS
 10
163.7918156903
 20
106.439660731
 11
163.7918156903
 21
106.3750769908
  0
LWPOLYLINE
  5
8F8
100
AcDbEntity
  8
RACCORDO
100
AcDbPolyline
 62
253
  6
CONTINUOUS
 90
12
 70
0
 10
167.0910084167
 20
116.8427439752
 10
167.0894731274
 20
116.839630164
 10
167.087877798
 20
116.8332376149
 10
167.0862224284
 20
116.8231661698
 10
167.0845041894
 20
116.8090133306
 10
167.0827259102
 20
116.7903539542
 10
167.0808960786
 20
116.7667211682
 10
167.07901247
 20
116.7376608766
 10
167.0770773091
 20
116.702719661
 10
167.0751057564
 20
116.6613907967
 10
167.0730948461
 20
116.613196393
 10
167.0689879097
 20
116.4943738783
  0
LWPOLYLINE
  5
8F9
100
AcDbEntity
  8
RACCORDO
100
AcDbPolyline
 62
253
  6
CONTINUOUS
 90
14
 70
0
 10
167.2909779557
 20
116.6427744362
 10
167.2894443574
 20
116.6405152147
 10
167.2878503014
 20
116.6344326945
 10
167.2861957878
 20
116.6245268756
 10
167.2844778497
 20
116.6112129691
 10
167.2826994539
 20
116.594075764
 10
167.2808695011
 20
116.5718696266
 10
167.2789859086
 20
116.5446219823
 10
167.277050759
 20
116.5123054059
 10
167.2750792017
 20
116.4735919884
 10
167.2730682771
 20
116.4284648115
 10
167.2710209447
 20
116.3769407936
 10
167.268961233
 20
116.3177427811
 10
167.264792291
 20
116.1758176464
  0
LINE
  5
8FA
100
AcDbEntity
  8
RACCORDO
100
AcDbLine
 62
253
  6
CONTINUOUS
 10
142.0538701447
 20
82.105473017
 11
142.0362627633
 21
82.0877241732
  0
LINE
  5
8FB
100
AcDbEntity
  8
DRAFT
100
AcDbLine
 62
7
  6
CONTINUOUS
 10
162.3233109712
 20
106.3750769908
 11
162.3006193868
 21
106.3523854063
  0
LINE
  5
8FC
100
AcDbEntity
  8
RACCORDO
100
AcDbLine
 62
7
  6
CONTINUOUS
 10
164.2481018756
 20
106.3836522068
 11
164.3041103998
 21
106.439660731
  0
LINE
  5
8FD
100
AcDbEntity
  8
RACCORDO
100
AcDbLine
 62
253
  6
CONTINUOUS
 10
132.890014338
 20
88.1607356024
 11
132.7168356373
 21
88.0607508329
  0
LINE
  5
8FE
100
AcDbEntity
  8
RACCORDO
100
AcDbLine
 62
253
  6
CONTINUOUS
 10
174.7219192782
 20
120.1053315546
 11
174.2219954306
 21
120.1053315546
  0
LINE
  5
8FF
100
AcDbEntity
  8
RACCORDO
100
AcDbLine
 62
253
  6
CONTINUOUS
 10
174.7219192782
 20
123.7739899074
 11
174.2219954306
 21
123.7739899074
  0
LINE
  5
900
100
AcDbEntity
  8
DRAFT
100
AcDbLine
 62
7
  6
CONTINUOUS
 10
162.3233109712
 20
111.5042444712
 11
162.3006193868
 21
111.5269360556
  0
LINE
  5
901
100
AcDbEntity
  8
RACCORDO
100
AcDbLine
 62
7
  6
CONTINUOUS
 10
164.2481018756
 20
111.4956692552
 11
164.3041103998
 21
111.439660731
  0
LINE
  5
902
100
AcDbEntity
  8
RACCORDO
100
AcDbLine
 62
7
  6
CONTINUOUS
 10
165.9753223525
 20
113.8522330899
 11
165.8878947114
 21
113.939660731
  0
LWPOLYLINE
  5
903
100
AcDbEntity
  8
RACCORDO
100
AcDbPolyline
 62
253
  6
CONTINUOUS
 90
13
 70
0
 10
167.2909779557
 20
116.6427744362
 10
167.2892599156
 20
116.6688705676
 10
167.2841510716
 20
116.6945203836
 10
167.275738795
 20
116.7192851797
 10
167.2641669574
 20
116.742741388
 10
167.2496334718
 20
116.7644878177
 10
167.2323869098
 20
116.7841525186
 10
167.2127222446
 20
116.8013991488
 10
167.1909758106
 20
116.8159327216
 10
167.1675195555
 20
116.8275046508
 10
167.1427546691
 20
116.8359170094
 10
167.1171047197
 20
116.8410259125
 10
167.0910084167
 20
116.8427439752
  0
LWPOLYLINE
  5
904
100
AcDbEntity
  8
RACCORDO
100
AcDbPolyline
 62
7
  6
CONTINUOUS
 90
13
 70
0
 10
167.3878947114
 20
116.739691192
 10
167.3861844473
 20
116.7657933188
 10
167.3810822709
 20
116.7914484971
 10
167.3726752897
 20
116.8162180185
 10
167.3611070486
 20
116.8396784754
 10
167.3465752614
 20
116.8614282812
 10
167.3293286837
 20
116.8810947032
 10
167.3096622617
 20
116.898341281
 10
167.2879124558
 20
116.9128730681
 10
167.264451999
 20
116.9244413092
 10
167.2396824775
 20
116.9328482904
 10
167.2140272993
 20
116.9379504668
 10
167.1879251724
 20
116.939660731
  0
LWPOLYLINE
  5
905
100
AcDbEntity
  8
RACCORDO
100
AcDbPolyline
 62
253
  6
CONTINUOUS
 90
11
 70
0
 10
167.0730948461
 20
101.266125069
 10
167.0751057565
 20
101.2179306653
 10
167.0770773091
 20
101.176601801
 10
167.07901247
 20
101.1416605854
 10
167.0808960785
 20
101.1126002937
 10
167.0827259102
 20
101.0889675078
 10
167.0845041894
 20
101.0703081314
 10
167.0862224285
 20
101.0561552922
 10
167.0878777981
 20
101.0460838471
 10
167.0894731275
 20
101.039691298
 10
167.0910084167
 20
101.0365774868
  0
LWPOLYLINE
  5
906
100
AcDbEntity
  8
RACCORDO
100
AcDbPolyline
 62
253
  6
CONTINUOUS
 90
12
 70
0
 10
167.2710209447
 20
101.5023806691
 10
167.2730682771
 20
101.450856655
 10
167.2750792018
 20
101.405729479
 10
167.277050759
 20
101.3670160558
 10
167.2789859085
 20
101.3346994708
 10
167.2808695011
 20
101.3074518232
 10
167.2826994539
 20
101.2852456938
 10
167.2844778497
 20
101.2681085018
 10
167.2861957879
 20
101.2547946034
 10
167.2878503015
 20
101.244888784
 10
167.2894443574
 20
101.2388062581
 10
167.2909779557
 20
101.2365470258
  0
LWPOLYLINE
  5
907
100
AcDbEntity
  8
RACCORDO
100
AcDbPolyline
 62
253
  6
CONTINUOUS
 90
25
 70
0
 10
164.2392981675
 20
126.7911403395
 10
164.2382070786
 20
126.8239709882
 10
164.2350189787
 20
126.8564162247
 10
164.2297338677
 20
126.8884760488
 10
164.2223113596
 20
126.9202942906
 10
164.2127918404
 20
126.9517271202
 10
164.2012964681
 20
126.9823430471
 10
164.1877999043
 20
127.0121218237
 10
164.1723274874
 20
127.0410836976
 10
164.1550763902
 20
127.068857922
 10
164.1360231747
 20
127.0954294482
 10
164.1151912789
 20
127.1208133248
 10
164.0928481898
 20
127.14468395
 10
164.068974872
 20
127.167021276
 10
164.0435903608
 20
127.1878453507
 10
164.0170192495
 20
127.2068907161
 10
163.9892463811
 20
127.2241343732
 10
163.9602869126
 20
127.2395993211
 10
163.9305109077
 20
127.2530890991
 10
163.8998962921
 20
127.2645786682
 10
163.8684651402
 20
127.2740930676
 10
163.8366537384
 20
127.2815109535
 10
163.8046075154
 20
127.2867918781
 10
163.7721810426
 20
127.2899762893
 10
163.7393743199
 20
127.291064187
  0
LWPOLYLINE
  5
908
100
AcDbEntity
  8
RACCORDO
100
AcDbPolyline
 62
253
  6
CONTINUOUS
 90
25
 70
0
 10
165.7390697366
 20
126.7910113713
 10
165.7347643783
 20
126.9218403587
 10
165.7219113506
 20
127.0520942841
 10
165.7005685753
 20
127.1812155417
 10
165.6708315593
 20
127.3086470765
 10
165.6328297572
 20
127.4338487407
 10
165.5867229864
 20
127.5562987088
 10
165.5327065168
 20
127.6754771861
 10
165.471013153
 20
127.7908695431
 10
165.4019069297
 20
127.9019818524
 10
165.3256836751
 20
128.0083384995
 10
165.24266969
 20
128.1094842718
 10
165.1532202576
 20
128.2049862741
 10
165.0577182537
 20
128.294435705
 10
164.9565724797
 20
128.3774496887
 10
164.8502158311
 20
128.4536729425
 10
164.7391035211
 20
128.5227791659
 10
164.6237111637
 20
128.5844725304
 10
164.5045326854
 20
128.6384890005
 10
164.3820781909
 20
128.6845973076
 10
164.2568718182
 20
128.7226000476
 10
164.1294495095
 20
128.7523345897
 10
164.0003566682
 20
128.7736736193
 10
163.8701458282
 20
128.7865256946
 10
163.7393743199
 20
128.7908357298
  0
LINE
  5
909
100
AcDbEntity
  8
RACCORDO
100
AcDbLine
 62
253
  6
CONTINUOUS
 10
167.0689879097
 20
101.3849475837
 11
167.0730948461
 21
101.266125069
  0
LINE
  5
90A
100
AcDbEntity
  8
RACCORDO
100
AcDbLine
 62
253
  6
CONTINUOUS
 10
166.0046372886
 20
116.3804638472
 11
166.0087523539
 21
116.2558596381
  0
LINE
  5
90B
100
AcDbEntity
  8
RACCORDO
100
AcDbLine
 62
253
  6
CONTINUOUS
 10
167.2668829517
 20
101.6287042492
 11
167.2710209447
 21
101.5023806691
  0
LINE
  5
90C
100
AcDbEntity
  8
RACCORDO
100
AcDbLine
 62
253
  6
CONTINUOUS
 10
166.204610124
 20
116.561473808
 11
166.2087245245
 21
116.4283195704
  0
LINE
  5
90D
100
AcDbEntity
  8
RACCORDO
100
AcDbLine
 62
253
  6
CONTINUOUS
 10
167.0648192305
 20
101.5370085946
 11
167.0689879097
 21
101.3849475837
  0
LINE
  5
90E
100
AcDbEntity
  8
RACCORDO
100
AcDbLine
 62
253
  6
CONTINUOUS
 10
166.0087523539
 20
116.2558596381
 11
166.0128859809
 21
116.1000806373
  0
LINE
  5
90F
100
AcDbEntity
  8
RACCORDO
100
AcDbLine
 62
253
  6
CONTINUOUS
 10
167.2627318505
 20
101.78649384
 11
167.2668829517
 21
101.6287042492
  0
LINE
  5
910
100
AcDbEntity
  8
RACCORDO
100
AcDbLine
 62
253
  6
CONTINUOUS
 10
166.2087245245
 20
116.4283195704
 11
166.2128571764
 21
116.2612116601
  0
LINE
  5
911
100
AcDbEntity
  8
RACCORDO
100
AcDbLine
 62
253
  6
CONTINUOUS
 10
167.0607186177
 20
101.7244118574
 11
167.0648192305
 21
101.5370085946
  0
LINE
  5
912
100
AcDbEntity
  8
RACCORDO
100
AcDbLine
 62
253
  6
CONTINUOUS
 10
166.0128859809
 20
116.1000806373
 11
166.0188460384
 21
115.8041124603
  0
LINE
  5
913
100
AcDbEntity
  8
RACCORDO
100
AcDbLine
 62
253
  6
CONTINUOUS
 10
167.25677445
 20
102.0851231302
 11
167.2627318505
 21
101.78649384
  0
LINE
  5
914
100
AcDbEntity
  8
RACCORDO
100
AcDbLine
 62
253
  6
CONTINUOUS
 10
166.2128571764
 20
116.2612116601
 11
166.2188152201
 21
115.944199992
  0
LINE
  5
915
100
AcDbEntity
  8
RACCORDO
100
AcDbLine
 62
253
  6
CONTINUOUS
 10
167.055014545
 20
102.0656609114
 11
167.0607186177
 21
101.7244118574
  0
LINE
  5
916
100
AcDbEntity
  8
RACCORDO
100
AcDbLine
 62
253
  6
CONTINUOUS
 10
166.0188460384
 20
115.8041124603
 11
166.0238932635
 21
115.4574152345
  0
LINE
  5
917
100
AcDbEntity
  8
RACCORDO
100
AcDbLine
 62
253
  6
CONTINUOUS
 10
167.2517613704
 20
102.4329060314
 11
167.25677445
 21
102.0851231302
  0
LINE
  5
918
100
AcDbEntity
  8
RACCORDO
100
AcDbLine
 62
253
  6
CONTINUOUS
 10
166.2188152201
 20
115.944199992
 11
166.225251007
 21
115.4451534115
  0
LINE
  5
919
100
AcDbEntity
  8
RACCORDO
100
AcDbLine
 62
253
  6
CONTINUOUS
 10
167.049188662
 20
102.5739574458
 11
167.055014545
 21
102.0656609114
  0
LINE
  5
91A
100
AcDbEntity
  8
RACCORDO
100
AcDbLine
 62
253
  6
CONTINUOUS
 10
166.0238932635
 20
115.4574152345
 11
166.0286214555
 21
114.9807685227
  0
LINE
  5
91B
100
AcDbEntity
  8
RACCORDO
100
AcDbLine
 62
253
  6
CONTINUOUS
 10
167.247094207
 20
102.90809302
 11
167.2517613704
 21
102.4329060314
  0
LINE
  5
91C
100
AcDbEntity
  8
RACCORDO
100
AcDbLine
 62
253
  6
CONTINUOUS
 10
166.225251007
 20
115.4451534115
 11
166.2301744532
 21
114.8136463808
  0
LINE
  5
91D
100
AcDbEntity
  8
RACCORDO
100
AcDbLine
 62
253
  6
CONTINUOUS
 10
167.0444368586
 20
103.3114305173
 11
167.049188662
 21
102.5739574458
  0
LINE
  5
91E
100
AcDbEntity
  8
RACCORDO
100
AcDbLine
 62
253
  6
CONTINUOUS
 10
166.0286214555
 20
114.9807685227
 11
166.0321389281
 21
114.3143355142
  0
LINE
  5
91F
100
AcDbEntity
  8
RACCORDO
100
AcDbLine
 62
253
  6
CONTINUOUS
 10
167.2436364027
 20
103.5697400143
 11
167.247094207
 21
102.90809302
  0
LINE
  5
920
100
AcDbEntity
  8
RACCORDO
100
AcDbLine
 62
253
  6
CONTINUOUS
 10
166.2301744532
 20
114.8136463808
 11
166.2327121003
 21
114.033905048
  0
LINE
  5
921
100
AcDbEntity
  8
RACCORDO
100
AcDbLine
 62
253
  6
CONTINUOUS
 10
164.2392981675
 20
106.3488943934
 11
164.2392981675
 21
91.0881811225
  0
LINE
  5
922
100
AcDbEntity
  8
RACCORDO
100
AcDbLine
 62
253
  6
CONTINUOUS
 10
164.2392981675
 20
111.5304270686
 11
164.2392981675
 21
118.6055600118
  0
LINE
  5
923
100
AcDbEntity
  8
RACCORDO
100
AcDbLine
 62
253
  6
CONTINUOUS
 10
164.2392981675
 20
125.2737614501
 11
164.2392981675
 21
126.7911403395
  0
LINE
  5
924
100
AcDbEntity
  8
DRAFT
100
AcDbLine
 62
7
  6
CONTINUOUS
 10
164.3041103998
 20
111.439660731
 11
164.3041103998
 21
106.439660731
  0
LINE
  5
925
100
AcDbEntity
  8
RACCORDO
100
AcDbLine
 62
7
  6
CONTINUOUS
 10
164.3947357816
 20
106.3490353492
 11
164.3947357816
 21
111.5302861128
  0
LINE
  5
926
100
AcDbEntity
  8
RACCORDO
100
AcDbLine
 62
253
  6
CONTINUOUS
 10
165.7390697102
 20
118.0884857322
 11
165.7390697102
 21
91.0883054618
  0
LINE
  5
927
100
AcDbEntity
  8
RACCORDO
100
AcDbLine
 62
253
  6
CONTINUOUS
 10
165.7390697102
 20
125.7908357298
 11
165.7390697102
 21
126.7910113408
  0
LINE
  5
928
100
AcDbEntity
  8
RACCORDO
100
AcDbLine
 62
7
  6
CONTINUOUS
 10
165.7918918543
 20
113.2988486949
 11
165.7918918543
 21
104.580472767
  0
LINE
  5
929
100
AcDbEntity
  8
RACCORDO
100
AcDbLine
 62
7
  6
CONTINUOUS
 10
165.8878947114
 20
126.9399653407
 11
165.8878947114
 21
125.7912926791
  0
LINE
  5
92A
100
AcDbEntity
  8
RACCORDO
100
AcDbLine
 62
7
  6
CONTINUOUS
 10
165.8878947114
 20
118.0880287829
 11
165.8878947114
 21
117.13963027
  0
LINE
  5
92B
100
AcDbEntity
  8
DRAFT
100
AcDbLine
 62
7
  6
CONTINUOUS
 10
165.8878947114
 20
103.939660731
 11
165.8878947114
 21
104.2320178092
  0
LINE
  5
92C
100
AcDbEntity
  8
RACCORDO
100
AcDbLine
 62
7
  6
CONTINUOUS
 10
165.8878947114
 20
90.9393561213
 11
165.8878947114
 21
104.189660731
  0
LINE
  5
92D
100
AcDbEntity
  8
RACCORDO
100
AcDbLine
 62
7
  6
CONTINUOUS
 10
165.8878947114
 20
113.939660731
 11
165.8878947114
 21
116.739691192
  0
LINE
  5
92E
100
AcDbEntity
  8
DRAFT
100
AcDbLine
 62
7
  6
CONTINUOUS
 10
165.8878947114
 20
113.6473036527
 11
165.8878947114
 21
117.939660731
  0
LINE
  5
92F
100
AcDbEntity
  8
RACCORDO
100
AcDbLine
 62
7
  6
CONTINUOUS
 10
165.9838975686
 20
113.3523092423
 11
165.9838975686
 21
104.5270122197
  0
LINE
  5
930
100
AcDbEntity
  8
RACCORDO
100
AcDbLine
 62
253
  6
CONTINUOUS
 10
166.0321389281
 20
114.3143355142
 11
166.0328326769
 21
104.0361205722
  0
LINE
  5
931
100
AcDbEntity
  8
RACCORDO
100
AcDbLine
 62
7
  6
CONTINUOUS
 10
167.2918918543
 20
113.3523092423
 11
167.2918918543
 21
104.5270122197
  0
LINE
  5
932
100
AcDbEntity
  8
RACCORDO
100
AcDbLine
 62
7
  6
CONTINUOUS
 10
167.3878947114
 20
116.739691192
 11
167.3878947114
 21
113.939660731
  0
LINE
  5
933
100
AcDbEntity
  8
RACCORDO
100
AcDbLine
 62
7
  6
CONTINUOUS
 10
167.3878947114
 20
103.939660731
 11
167.3878947114
 21
101.13963027
  0
LINE
  5
934
100
AcDbEntity
  8
RACCORDO
100
AcDbLine
 62
253
  6
CONTINUOUS
 10
166.2327121003
 20
114.033905048
 11
166.232789383
 21
103.9427444942
  0
LINE
  5
935
100
AcDbEntity
  8
RACCORDO
100
AcDbLine
 62
253
  6
CONTINUOUS
 10
167.0429996386
 20
113.9355556263
 11
167.0444368586
 21
103.3114305173
  0
LINE
  5
936
100
AcDbEntity
  8
RACCORDO
100
AcDbLine
 62
253
  6
CONTINUOUS
 10
167.2431833534
 20
114.1125179809
 11
167.2436364027
 21
103.5697400143
  0
LINE
  5
937
100
AcDbEntity
  8
RACCORDO
100
AcDbLine
 62
253
  6
CONTINUOUS
 10
166.0328326769
 20
104.0361205722
 11
166.0313554012
 21
103.3534580836
  0
LINE
  5
938
100
AcDbEntity
  8
RACCORDO
100
AcDbLine
 62
253
  6
CONTINUOUS
 10
167.0449478925
 20
114.6849685115
 11
167.0429996386
 21
113.9355556263
  0
LINE
  5
939
100
AcDbEntity
  8
RACCORDO
100
AcDbLine
 62
253
  6
CONTINUOUS
 10
166.232789383
 20
103.9427444942
 11
166.2308036294
 21
103.1864417905
  0
LINE
  5
93A
100
AcDbEntity
  8
RACCORDO
100
AcDbLine
 62
253
  6
CONTINUOUS
 10
167.246260712
 20
114.854764087
 11
167.2431833534
 21
114.1125179809
  0
LINE
  5
93B
100
AcDbEntity
  8
RACCORDO
100
AcDbLine
 62
253
  6
CONTINUOUS
 10
166.0313554012
 20
103.3534580836
 11
166.0276428424
 21
102.7804867885
  0
LINE
  5
93C
100
AcDbEntity
  8
RACCORDO
100
AcDbLine
 62
253
  6
CONTINUOUS
 10
166.2308036294
 20
103.1864417905
 11
166.2264967403
 21
102.5625938946
  0
LINE
  5
93D
100
AcDbEntity
  8
RACCORDO
100
AcDbLine
 62
253
  6
CONTINUOUS
 10
167.049188662
 20
115.3053640162
 11
167.0449478925
 21
114.6849685115
  0
LINE
  5
93E
100
AcDbEntity
  8
RACCORDO
100
AcDbLine
 62
253
  6
CONTINUOUS
 10
167.2503864152
 20
115.3275734253
 11
167.246260712
 21
114.854764087
  0
LINE
  5
93F
100
AcDbEntity
  8
RACCORDO
100
AcDbLine
 62
253
  6
CONTINUOUS
 10
166.0276428424
 20
102.7804867885
 11
166.0223407857
 21
102.3035813846
  0
LINE
  5
940
100
AcDbEntity
  8
RACCORDO
100
AcDbLine
 62
253
  6
CONTINUOUS
 10
167.055014545
 20
115.8136605506
 11
167.049188662
 21
115.3053640162
  0
LINE
  5
941
100
AcDbEntity
  8
RACCORDO
100
AcDbLine
 62
253
  6
CONTINUOUS
 10
166.2264967403
 20
102.5625938946
 11
166.2206127968
 21
102.0543085724
  0
LINE
  5
942
100
AcDbEntity
  8
RACCORDO
100
AcDbLine
 62
253
  6
CONTINUOUS
 10
167.2549849409
 20
115.6822778091
 11
167.2503864152
 21
115.3275734253
  0
LINE
  5
943
100
AcDbEntity
  8
RACCORDO
100
AcDbLine
 62
253
  6
CONTINUOUS
 10
166.0223407857
 20
102.3035813846
 11
166.0169358777
 21
101.9700548225
  0
LINE
  5
944
100
AcDbEntity
  8
RACCORDO
100
AcDbLine
 62
253
  6
CONTINUOUS
 10
167.0607186177
 20
116.1549096046
 11
167.055014545
 21
115.8136605506
  0
LINE
  5
945
100
AcDbEntity
  8
RACCORDO
100
AcDbLine
 62
253
  6
CONTINUOUS
 10
166.2206127968
 20
102.0543085724
 11
166.2148948354
 21
101.7155117968
  0
LINE
  5
946
100
AcDbEntity
  8
RACCORDO
100
AcDbLine
 62
253
  6
CONTINUOUS
 10
167.2606909287
 20
116.0005653358
 11
167.2549849409
 21
115.6822778091
  0
LINE
  5
947
100
AcDbEntity
  8
RACCORDO
100
AcDbLine
 62
253
  6
CONTINUOUS
 10
166.0169358777
 20
101.9700548225
 11
166.0128859809
 21
101.7792408248
  0
LINE
  5
948
100
AcDbEntity
  8
RACCORDO
100
AcDbLine
 62
253
  6
CONTINUOUS
 10
167.0648192305
 20
116.3423128674
 11
167.0607186177
 21
116.1549096046
  0
LINE
  5
949
100
AcDbEntity
  8
RACCORDO
100
AcDbLine
 62
253
  6
CONTINUOUS
 10
166.2148948354
 20
101.7155117968
 11
166.2108042493
 21
101.5302654727
  0
LINE
  5
94A
100
AcDbEntity
  8
RACCORDO
100
AcDbLine
 62
253
  6
CONTINUOUS
 10
167.264792291
 20
116.1758176464
 11
167.2606909287
 21
116.0005653358
  0
LINE
  5
94B
100
AcDbEntity
  8
RACCORDO
100
AcDbLine
 62
253
  6
CONTINUOUS
 10
166.0128859809
 20
101.7792408248
 11
166.0087523539
 21
101.6234618229
  0
LINE
  5
94C
100
AcDbEntity
  8
RACCORDO
100
AcDbLine
 62
253
  6
CONTINUOUS
 10
167.0689879097
 20
116.4943738783
 11
167.0648192305
 21
116.3423128674
  0
LWPOLYLINE
  5
94D
100
AcDbEntity
  8
RACCORDO
100
AcDbPolyline
 62
253
  6
CONTINUOUS
 90
14
 70
0
 10
166.2108042493
 20
101.5302654727
 10
166.2066579549
 20
101.3802992868
 10
166.204610124
 20
101.317847654
 10
166.2025754481
 20
101.2630940009
 10
166.2005771288
 20
101.2155525313
 10
166.1986178762
 20
101.1747743256
 10
166.1966949802
 20
101.140294004
 10
166.1948235114
 20
101.1116166982
 10
166.1930056716
 20
101.0882948862
 10
166.191239259
 20
101.0698797452
 10
166.1895327396
 20
101.0559118139
 10
166.1878889353
 20
101.045970747
 10
166.1863050242
 20
101.0396578541
 10
166.1847810062
 20
101.0365774868
  0
LWPOLYLINE
  5
94E
100
AcDbEntity
  8
RACCORDO
100
AcDbPolyline
 62
253
  6
CONTINUOUS
 90
25
 70
0
 10
165.7390697357
 20
91.0883054324
 10
165.7347642084
 20
90.9574785199
 10
165.7219112148
 20
90.8272261495
 10
165.7005685743
 20
90.6981059173
 10
165.670831647
 20
90.5706747145
 10
165.6328298102
 20
90.4454728793
 10
165.5867229832
 20
90.3230227475
 10
165.5327065133
 20
90.2038442716
 10
165.4710131496
 20
90.0884519167
 10
165.4019069268
 20
89.9773396088
 10
165.3256836727
 20
89.8709829619
 10
165.2426696882
 20
89.7698371893
 10
165.1532202566
 20
89.6743351866
 10
165.0577182536
 20
89.5848857553
 10
164.9565724806
 20
89.501871771
 10
164.8502158333
 20
89.4256485171
 10
164.7391035253
 20
89.3565422943
 10
164.6237111703
 20
89.2948489305
 10
164.5045326941
 20
89.2408324605
 10
164.3820826533
 20
89.1947256646
 10
164.2568809125
 20
89.156723847
 10
164.1294495225
 20
89.1269868695
 10
164.0003287152
 20
89.105644153
 10
163.8700754732
 20
89.0927911396
 10
163.7392473981
 20
89.0884857062
  0
LWPOLYLINE
  5
94F
100
AcDbEntity
  8
RACCORDO
100
AcDbPolyline
 62
253
  6
CONTINUOUS
 90
25
 70
0
 10
164.2392981675
 20
91.0881811225
 10
164.2382063414
 20
91.0553476778
 10
164.2350180025
 20
91.0229012696
 10
164.2297331507
 20
90.9908418979
 10
164.2223113275
 20
90.9590262296
 10
164.2127929915
 20
90.9275975978
 10
164.2012995188
 20
90.8969860016
 10
164.1878057596
 20
90.8672114378
 10
164.1723368637
 20
90.8382539096
 10
164.1550896565
 20
90.8104834251
 10
164.1360408671
 20
90.7839149433
 10
164.1152137663
 20
90.7585335051
 10
164.0928749923
 20
90.734664242
 10
164.0690051693
 20
90.7123268343
 10
164.043623673
 20
90.6915016015
 10
164.0170552689
 20
90.6724546346
 10
163.9892848907
 20
90.6552090447
 10
163.9603276047
 20
90.6397417205
 10
163.9305533754
 20
90.6262494191
 10
163.8999417389
 20
90.6147572568
 10
163.8685131591
 20
90.6052401173
 10
163.8366989918
 20
90.5978194086
 10
163.8046430221
 20
90.5925355999
 10
163.7722014648
 20
90.5893482221
 10
163.7393743199
 20
90.5882572749
  0
LWPOLYLINE
  5
950
100
AcDbEntity
  8
RACCORDO
100
AcDbPolyline
 62
253
  6
CONTINUOUS
 90
13
 70
0
 10
166.0087523539
 20
101.6234618229
 10
166.0046372886
 20
101.4988576154
 10
166.0026023987
 20
101.4480322896
 10
166.000603911
 20
101.4035144769
 10
165.9986445325
 20
101.365315003
 10
165.9967215562
 20
101.3334230422
 10
165.9948500332
 20
101.3065327749
 10
165.9930320193
 20
101.2846188562
 10
165.9912654587
 20
101.2677066308
 10
165.9895592348
 20
101.2545663137
 10
165.9879163088
 20
101.2447879762
 10
165.9863337196
 20
101.2387815469
 10
165.9848114672
 20
101.2365470258
  0
LWPOLYLINE
  5
951
100
AcDbEntity
  8
RACCORDO
100
AcDbPolyline
 62
253
  6
CONTINUOUS
 90
13
 70
0
 10
167.2909779557
 20
101.2365470258
 10
167.2892599024
 20
101.2104507943
 10
167.2841510248
 20
101.1848009038
 10
167.2757387033
 20
101.1600360608
 10
167.2641668192
 20
101.1365798348
 10
167.2496332942
 20
101.1148334128
 10
167.2323867044
 20
101.095168738
 10
167.2127220297
 20
101.0779221483
 10
167.1909756077
 20
101.0633886232
 10
167.1675193816
 20
101.0518167392
 10
167.1427545387
 20
101.0434044176
 10
167.1171046481
 20
101.03829554
 10
167.0910084167
 20
101.0365774868
  0
LINE
  5
952
100
AcDbEntity
  8
RACCORDO
100
AcDbLine
 62
7
  6
CONTINUOUS
 10
165.9753223525
 20
104.0270883721
 11
165.8878947114
 21
103.939660731
  0
LINE
  5
953
100
AcDbEntity
  8
RACCORDO
100
AcDbLine
 62
253
  6
CONTINUOUS
 10
165.9848114672
 20
101.2365470258
 11
165.8878947114
 21
101.13963027
  0
LINE
  5
954
100
AcDbEntity
  8
RACCORDO
100
AcDbLine
 62
253
  6
CONTINUOUS
 10
166.1847810062
 20
101.0365774868
 11
166.0878642505
 21
100.939660731
  0
LINE
  5
955
100
AcDbEntity
  8
RACCORDO
100
AcDbLine
 62
253
  6
CONTINUOUS
 10
144.0537079981
 20
80.1056361642
 11
144.0359581537
 21
80.0880287829
  0
LWPOLYLINE
  5
956
100
AcDbEntity
  8
RACCORDO
100
AcDbPolyline
 62
253
  6
CONTINUOUS
 90
25
 70
0
 10
128.036415103
 20
127.291064187
 10
128.0035844542
 20
127.2899730982
 10
127.9711392178
 20
127.2867849982
 10
127.9390793937
 20
127.2814998872
 10
127.9072611518
 20
127.2740773791
 10
127.8758283223
 20
127.26455786
 10
127.8452123953
 20
127.2530624876
 10
127.8154336188
 20
127.2395659239
 10
127.7864717448
 20
127.224093507
 10
127.7586975205
 20
127.2068424098
 10
127.7321259943
 20
127.1877891943
 10
127.7067421177
 20
127.1669572985
 10
127.6828714924
 20
127.1446142094
 10
127.6605341664
 20
127.1207408915
 10
127.6397100917
 20
127.0953563804
 10
127.6206647263
 20
127.068785269
 10
127.6034210692
 20
127.0410124007
 10
127.5879561214
 20
127.0120529321
 10
127.5744663434
 20
126.9822769272
 10
127.5629767742
 20
126.9516623117
 10
127.5534623749
 20
126.9202311597
 10
127.546044489
 20
126.8884197579
 10
127.5407635643
 20
126.856373535
 10
127.5375791532
 20
126.8239470622
 10
127.5364912554
 20
126.7911403395
  0
LINE
  5
957
100
AcDbEntity
  8
RACCORDO
100
AcDbLine
 62
253
  6
CONTINUOUS
 10
164.2392981675
 20
125.2737614501
 11
172.7222238879
 21
125.2737614501
  0
LINE
  5
958
100
AcDbEntity
  8
RACCORDO
100
AcDbLine
 62
253
  6
CONTINUOUS
 10
165.3494654733
 20
125.7736852977
 11
172.7220814248
 21
125.7736852977
  0
LINE
  5
959
100
AcDbEntity
  8
RACCORDO
100
AcDbLine
 62
7
  6
CONTINUOUS
 10
165.7395266596
 20
125.7912926791
 11
172.7398312692
 21
125.7912926791
  0
LINE
  5
95A
100
AcDbEntity
  8
RACCORDO
100
AcDbLine
 62
7
  6
CONTINUOUS
 10
163.1454908349
 20
126.689660731
 11
128.630298588
 21
126.689660731
  0
LINE
  5
95B
100
AcDbEntity
  8
RACCORDO
100
AcDbLine
 62
7
  6
CONTINUOUS
 10
163.1807562311
 20
126.7249261271
 11
128.5950331918
 21
126.7249261271
  0
LINE
  5
95C
100
AcDbEntity
  8
RACCORDO
100
AcDbLine
 62
253
  6
CONTINUOUS
 10
127.5364912554
 20
126.7911403395
 11
126.0367197127
 21
126.7911403395
  0
LINE
  5
95D
100
AcDbEntity
  8
RACCORDO
100
AcDbLine
 62
253
  6
CONTINUOUS
 10
164.2392981675
 20
126.7911403395
 11
165.7390697102
 21
126.7911403386
  0
LINE
  5
95E
100
AcDbEntity
  8
RACCORDO
100
AcDbLine
 62
253
  6
CONTINUOUS
 10
163.7393743199
 20
127.291064187
 11
131.7114688669
 21
127.2910784928
  0
LINE
  5
95F
100
AcDbEntity
  8
RACCORDO
100
AcDbLine
 62
253
  6
CONTINUOUS
 10
131.06432157
 20
127.2910675938
 11
128.036415103
 21
127.291064187
  0
LINE
  5
960
100
AcDbEntity
  8
RACCORDO
100
AcDbLine
 62
253
  6
CONTINUOUS
 10
163.7393743199
 20
128.7908357298
 11
132.7264796495
 21
128.7908357298
  0
LINE
  5
961
100
AcDbEntity
  8
RACCORDO
100
AcDbLine
 62
253
  6
CONTINUOUS
 10
130.0493097734
 20
128.7908357298
 11
128.0365441016
 21
128.7908357298
  0
LINE
  5
962
100
AcDbEntity
  8
0
100
AcDbLine
 62
7
  6
CONTINUOUS
 10
143.4632673095
 20
128.8523854063
 11
132.8330868165
 21
128.8523854063
  0
LINE
  5
963
100
AcDbEntity
  8
0
100
AcDbLine
 62
7
  6
CONTINUOUS
 10
129.9427026064
 20
128.8523854063
 11
129.1125221134
 21
128.8523854063
  0
LINE
  5
964
100
AcDbEntity
  8
RACCORDO
100
AcDbLine
 62
7
  6
CONTINUOUS
 10
163.1215349991
 20
128.8698404713
 11
143.7878947114
 21
128.8698404713
  0
LINE
  5
965
100
AcDbEntity
  8
RACCORDO
100
AcDbLine
 62
7
  6
CONTINUOUS
 10
128.7878947114
 20
128.8698404713
 11
128.6542544238
 21
128.8698404713
  0
LINE
  5
966
100
AcDbEntity
  8
RACCORDO
100
AcDbLine
 62
7
  6
CONTINUOUS
 10
163.8881993211
 20
128.939660731
 11
163.3878947114
 21
128.939660731
  0
LINE
  5
967
100
AcDbEntity
  8
RACCORDO
100
AcDbLine
 62
7
  6
CONTINUOUS
 10
128.3878947114
 20
128.939660731
 11
127.8875901018
 21
128.939660731
  0
LINE
  5
968
100
AcDbEntity
  8
DRAFT
100
AcDbLine
 62
7
  6
CONTINUOUS
 10
128.3878947114
 20
128.939660731
 11
128.4847617975
 21
128.939660731
  0
LINE
  5
969
100
AcDbEntity
  8
DRAFT
100
AcDbLine
 62
7
  6
CONTINUOUS
 10
143.7878947114
 20
128.939660731
 11
163.3878947114
 21
128.939660731
  0
LINE
  5
96A
100
AcDbEntity
  8
0
100
AcDbLine
 62
7
  6
CONTINUOUS
 10
128.7878947114
 20
128.8698517464
 11
128.6608817099
 21
128.8700907761
  0
LINE
  5
96B
100
AcDbEntity
  8
0
100
AcDbLine
 62
7
  6
CONTINUOUS
 10
128.7285038414
 20
128.8699747515
 11
128.701052503
 21
128.8701425372
  0
LINE
  5
96C
100
AcDbEntity
  8
0
100
AcDbLine
 62
7
  6
CONTINUOUS
 10
128.6608817099
 20
128.8700907761
 11
128.6038640917
 21
128.87052792
  0
LINE
  5
96D
100
AcDbEntity
  8
0
100
AcDbLine
 62
7
  6
CONTINUOUS
 10
128.6038640917
 20
128.87052792
 11
128.5538128407
 21
128.8711550505
  0
LWPOLYLINE
  5
96E
100
AcDbEntity
  8
0
100
AcDbPolyline
 62
7
  6
CONTINUOUS
 90
8
 70
0
 10
128.5538128407
 20
128.8711550505
 10
128.5117661374
 20
128.8719527984
 10
128.4946503035
 20
128.8724029943
 10
128.4800890089
 20
128.8728866082
 10
128.4685532189
 20
128.8733882179
 10
128.4601999218
 20
128.873902683
 10
128.4548721294
 20
128.874435144
 10
128.4525698416
 20
128.8749856009
  0
LWPOLYLINE
  5
96F
100
AcDbEntity
  8
RACCORDO
100
AcDbPolyline
 62
253
  6
CONTINUOUS
 90
25
 70
0
 10
172.7220814391
 20
125.7736853069
 10
172.8529424947
 20
125.7693993859
 10
172.983223978
 20
125.7565629888
 10
173.1123682138
 20
125.735234617
 10
173.2398176322
 20
125.7055105681
 10
173.3650327096
 20
125.6675207298
 10
173.4874932696
 20
125.6214246119
 10
173.6066799755
 20
125.5674174702
 10
173.7220779097
 20
125.5057324696
 10
173.8331935668
 20
125.4366334634
 10
173.9395513687
 20
125.3604163796
 10
174.0406962836
 20
125.2774075886
 10
174.1361959506
 20
125.1879619524
 10
174.2256415852
 20
125.0924622849
 10
174.3086503738
 20
124.9913173706
 10
174.3848674553
 20
124.8849595697
 10
174.4539664594
 20
124.7738439136
 10
174.5156514581
 20
124.6584459809
 10
174.5696585979
 20
124.539259277
 10
174.6157547257
 20
124.416798685
 10
174.6537445695
 20
124.2915835748
 10
174.6834685982
 20
124.1641342309
 10
174.7047969405
 20
124.0349902172
 10
174.7176333301
 20
123.904709069
 10
174.7219192873
 20
123.7738484592
  0
LWPOLYLINE
  5
970
100
AcDbEntity
  8
RACCORDO
100
AcDbPolyline
 62
253
  6
CONTINUOUS
 90
25
 70
0
 10
172.7222238879
 20
125.2737614501
 10
172.8207103731
 20
125.2704879235
 10
172.9180389627
 20
125.2609250114
 10
173.0142096566
 20
125.2450727138
 10
173.1096536953
 20
125.2228094625
 10
173.2039398382
 20
125.1942568258
 10
173.2957743639
 20
125.159779508
 10
173.3850958169
 20
125.119302269
 10
173.4719656525
 20
125.072900349
 10
173.5552745157
 20
125.0211641734
 10
173.6349772085
 20
124.9640245449
 10
173.7111189287
 20
124.9015506607
 10
173.7827259154
 20
124.8345405385
 10
173.8497401344
 20
124.7629352313
 10
173.9122196197
 20
124.6867936861
 10
173.9693647128
 20
124.6070907611
 10
174.0211057375
 20
124.5237815804
 10
174.0675123701
 20
124.43691102
 10
174.1079939802
 20
124.3475885662
 10
174.1424752274
 20
124.2557541642
 10
174.1710314522
 20
124.1614678689
 10
174.1932980458
 20
124.0660193305
 10
174.2091534719
 20
123.9698384325
 10
174.2187192668
 20
123.8724952915
 10
174.2219954306
 20
123.7739899074
  0
LWPOLYLINE
  5
971
100
AcDbEntity
  8
RACCORDO
100
AcDbPolyline
 62
253
  6
CONTINUOUS
 90
16
 70
0
 10
132.7264796495
 20
128.7908357298
 10
132.6986646993
 20
128.7927955151
 10
132.6713908631
 20
128.7986073972
 10
132.6451887282
 20
128.8081583112
 10
132.6205680328
 20
128.8212624531
 10
132.59800775
 20
128.8376648938
 10
132.5779467694
 20
128.857046539
 10
132.5607753589
 20
128.8790303366
 10
132.5468275722
 20
128.903188612
 10
132.5363747507
 20
128.9290513884
 10
132.5296202442
 20
128.9561155293
 10
132.5266954555
 20
128.983854527
 10
132.5276572835
 20
129.0117287449
 10
132.5324870167
 20
129.039195916
 10
132.5410906973
 20
129.0657216919
 10
132.5533009485
 20
129.090790038
  0
LWPOLYLINE
  5
972
100
AcDbEntity
  8
0
100
AcDbPolyline
 62
253
  6
CONTINUOUS
 90
4
 70
0
 10
138.2304743727
 20
130.7988373051
 10
138.215508735
 20
130.8010074545
 10
138.1928853735
 20
130.803140903
 10
138.1626042883
 20
130.8052376507
  0
LINE
  5
973
100
AcDbEntity
  8
0
100
AcDbLine
 62
253
  6
CONTINUOUS
 10
138.2825895237
 20
130.7961729822
 11
138.3280132143
 21
130.7893073539
  0
LWPOLYLINE
  5
974
100
AcDbEntity
  8
0
100
AcDbPolyline
 62
7
  6
CONTINUOUS
 90
10
 70
0
 10
138.3280129562
 20
130.7893060482
 10
138.3219016149
 20
130.7904880414
 10
138.3088747968
 20
130.7927889941
 10
138.2969678416
 20
130.7946480331
 10
138.2862061738
 20
130.796145229
 10
138.2765305711
 20
130.7973576696
 10
138.2671323136
 20
130.7984272415
 10
138.2578349669
 20
130.7993927285
 10
138.2487588062
 20
130.800257463
 10
138.239548078
 20
130.8010666524
  0
LINE
  5
975
100
AcDbEntity
  8
0
100
AcDbLine
 62
7
  6
CONTINUOUS
 10
132.8319964935
 20
130.7983810978
 11
132.9750484549
 21
130.7698404713
  0
LINE
  5
976
100
AcDbEntity
  8
0
100
AcDbLine
 62
7
  6
CONTINUOUS
 10
137.8319964935
 20
130.7983810978
 11
137.9750484549
 21
130.7698404713
  0
LINE
  5
977
100
AcDbEntity
  8
0
100
AcDbLine
 62
253
  6
CONTINUOUS
 10
138.2883542627
 20
130.7872895548
 11
138.2304743727
 21
130.7988373051
  0
LINE
  5
978
100
AcDbEntity
  8
0
100
AcDbLine
 62
7
  6
CONTINUOUS
 10
138.3381273202
 20
130.7872895548
 11
138.3283024922
 21
130.7892497289
  0
LINE
  5
979
100
AcDbEntity
  8
RACCORDO
100
AcDbLine
 62
7
  6
CONTINUOUS
 10
164.5334071802
 20
118.4374284817
 11
164.4348838088
 21
118.4931098306
  0
LINE
  5
97A
100
AcDbEntity
  8
RACCORDO
100
AcDbLine
 62
7
  6
CONTINUOUS
 10
164.4348838088
 20
118.4931098306
 11
164.2392981675
 21
118.6055600118
  0
LINE
  5
97B
100
AcDbEntity
  8
RACCORDO
100
AcDbLine
 62
253
  6
CONTINUOUS
 10
165.8878947114
 20
116.739691192
 11
165.9848114672
 21
116.6427744362
  0
LINE
  5
97C
100
AcDbEntity
  8
RACCORDO
100
AcDbLine
 62
253
  6
CONTINUOUS
 10
166.0878642505
 20
116.939660731
 11
166.1847806494
 21
116.8427443321
  0
LINE
  5
97D
100
AcDbEntity
  8
DRAFT
100
AcDbLine
 62
7
  6
CONTINUOUS
 10
165.8878947114
 20
117.939660731
 11
165.7395266596
 21
118.0880287829
  0
LINE
  5
97E
100
AcDbEntity
  8
RACCORDO
100
AcDbLine
 62
7
  6
CONTINUOUS
 10
165.7390697102
 20
118.0884857322
 11
165.7395266596
 21
118.0880287829
  0
LWPOLYLINE
  5
97F
100
AcDbEntity
  8
RACCORDO
100
AcDbPolyline
 62
253
  6
CONTINUOUS
 90
12
 70
0
 10
165.9848114672
 20
116.6427744362
 10
165.9863337196
 20
116.6405399224
 10
165.9879163088
 20
116.634533497
 10
165.9895592348
 20
116.6247551599
 10
165.9912654587
 20
116.6116148372
 10
165.9930320193
 20
116.5947026028
 10
165.9948500332
 20
116.5727886786
 10
165.9967215562
 20
116.5458984135
 10
165.9986445325
 20
116.5140064585
 10
166.000603911
 20
116.4758069886
 10
166.0026023987
 20
116.4312891754
 10
166.0046372886
 20
116.3804638472
  0
LWPOLYLINE
  5
980
100
AcDbEntity
  8
RACCORDO
100
AcDbPolyline
 62
253
  6
CONTINUOUS
 90
12
 70
0
 10
166.184780674
 20
116.842744332
 10
166.1863048396
 20
116.8396641594
 10
166.1878888615
 20
116.833351083
 10
166.1895327396
 20
116.8234096481
 10
166.1912392836
 20
116.8094414902
 10
166.1930056839
 20
116.7910264351
 10
166.1948235114
 20
116.7677047637
 10
166.1966949801
 20
116.739027458
 10
166.1986178762
 20
116.7045471364
 10
166.2005771288
 20
116.6637689306
 10
166.2025754481
 20
116.6162274611
 10
166.204610124
 20
116.561473808
  0
LINE
  5
981
100
AcDbEntity
  8
RACCORDO
100
AcDbLine
 62
253
  6
CONTINUOUS
 10
172.7222238879
 20
125.7736852977
 11
172.7222238879
 21
125.2737614501
  0
LINE
  5
982
100
AcDbEntity
  8
RACCORDO
100
AcDbLine
 62
253
  6
CONTINUOUS
 10
172.7222238879
 20
118.1056361642
 11
172.7222238879
 21
118.6055600118
  0
LINE
  5
983
100
AcDbEntity
  8
DRAFT
100
AcDbLine
 62
7
  6
CONTINUOUS
 10
155.6714046969
 20
88.9902101644
 11
155.7099580959
 21
89.0094809907
  0
LINE
  5
984
100
AcDbEntity
  8
0
100
AcDbLine
 62
7
  6
CONTINUOUS
 10
134.600740968
 20
130.7698404713
 11
134.7437929294
 21
130.7983810978
  0
LINE
  5
985
100
AcDbEntity
  8
0
100
AcDbLine
 62
253
  6
CONTINUOUS
 10
129.2931994068
 20
130.7961729309
 11
129.2475284329
 21
130.7892580072
  0
LWPOLYLINE
  5
986
100
AcDbEntity
  8
RACCORDO
100
AcDbPolyline
 62
253
  6
CONTINUOUS
 90
16
 70
0
 10
130.0493097734
 20
128.7908357298
 10
130.0771236804
 20
128.7927953673
 10
130.1043965851
 20
128.7986068284
 10
130.1305979519
 20
128.8081570862
 10
130.1552180396
 20
128.8212603542
 10
130.1777779602
 20
128.8376617719
 10
130.1978389531
 20
128.8570424215
 10
130.2150107253
 20
128.8790253778
 10
130.2289591333
 20
128.9031830307
 10
130.2394127725
 20
128.9290455305
 10
130.2461681734
 20
128.9561098144
 10
130.2490937885
 20
128.9838493623
 10
130.2481325863
 20
129.0117244998
 10
130.2433031586
 20
129.0391928986
 10
130.2346993574
 20
129.0657201278
 10
130.2224884742
 20
129.0907900383
  0
LWPOLYLINE
  5
987
100
AcDbEntity
  8
0
100
AcDbPolyline
 62
253
  6
CONTINUOUS
 90
4
 70
0
 10
129.4131323862
 20
130.8052344353
 10
129.382866468
 20
130.8031383722
 10
129.3602606894
 20
130.8010059954
 10
129.3453150502
 20
130.7988373051
  0
LWPOLYLINE
  5
988
100
AcDbEntity
  8
0
100
AcDbPolyline
 62
7
  6
CONTINUOUS
 90
12
 70
0
 10
129.3811343469
 20
130.8042876641
 10
129.3691869108
 20
130.803524903
 10
129.3576227849
 20
130.8027283834
 10
129.3464795804
 20
130.8018966719
 10
129.3356694338
 20
130.8010185322
 10
129.3247794982
 20
130.8000498386
 10
129.3138338217
 20
130.7989755588
 10
129.3027627822
 20
130.797768171
 10
129.2909595841
 20
130.7963248883
 10
129.2785159221
 20
130.7946026409
 10
129.2652144914
 20
130.79250442
 10
129.2499177561
 20
130.789727129
  0
LWPOLYLINE
  5
989
100
AcDbEntity
  8
RACCORDO
100
AcDbPolyline
 62
253
  6
CONTINUOUS
 90
19
 70
0
 10
130.0589537856
 20
130.0185401681
 10
130.0356302805
 20
130.0171622002
 10
130.0126187732
 20
130.0130701572
 10
129.9902341645
 20
130.0063176408
 10
129.9687744288
 20
129.9969902736
 10
129.9485439692
 20
129.9852159097
 10
129.9298437576
 20
129.9711729691
 10
129.9129416816
 20
129.9550780076
 10
129.8980417707
 20
129.9371422767
 10
129.8853182177
 20
129.9175756876
 10
129.8749339643
 20
129.896601025
 10
129.8670635623
 20
129.8745366596
 10
129.8618361871
 20
129.8517654378
 10
129.8593022072
 20
129.828603977
 10
129.8594743463
 20
129.8053680382
 10
129.8623142554
 20
129.7824506785
 10
129.8677273829
 20
129.760177262
 10
129.8755968922
 20
129.7388021002
 10
129.8857750849
 20
129.7185858596
  0
LINE
  5
98A
100
AcDbEntity
  8
0
100
AcDbLine
 62
7
  6
CONTINUOUS
 10
129.4069133405
 20
130.8057666015
 11
129.3811343469
 21
130.8042876641
  0
LINE
  5
98B
100
AcDbEntity
  8
0
100
AcDbLine
 62
253
  6
CONTINUOUS
 10
129.4512453589
 20
130.8073030105
 11
129.4208045782
 21
130.8064873011
  0
LWPOLYLINE
  5
98C
100
AcDbEntity
  8
0
100
AcDbPolyline
 62
253
  6
CONTINUOUS
 90
19
 70
0
 10
128.9980171813
 20
130.7784156873
 10
128.9537817919
 20
130.7760845117
 10
128.9099565819
 20
130.7697826874
 10
128.8668930097
 20
130.7595752082
 10
128.8248677481
 20
130.7455290991
 10
128.7842835566
 20
130.7277862326
 10
128.7456407375
 20
130.7066232272
 10
128.7092606537
 20
130.6823105007
 10
128.6753286811
 20
130.6550680305
 10
128.6440733372
 20
130.6251858006
 10
128.6156917785
 20
130.5929681053
 10
128.5903154934
 20
130.5586878196
 10
128.5680368115
 20
130.5225990707
 10
128.5489669443
 20
130.4850118494
 10
128.5331744441
 20
130.4462081077
 10
128.520681249
 20
130.4063859893
 10
128.5115298584
 20
130.3658006368
 10
128.5057570833
 20
130.3247729839
 10
128.5033631512
 20
130.2835897507
  0
LINE
  5
98D
100
AcDbEntity
  8
0
100
AcDbLine
 62
253
  6
CONTINUOUS
 10
129.3453150502
 20
130.7988373051
 11
129.2931994068
 21
130.7961729309
  0
LINE
  5
98E
100
AcDbEntity
  8
0
100
AcDbLine
 62
7
  6
CONTINUOUS
 10
129.4354673153
 20
130.8072009754
 11
129.4069133405
 21
130.8057666015
  0
LINE
  5
98F
100
AcDbEntity
  8
0
100
AcDbLine
 62
253
  6
CONTINUOUS
 10
129.4970184711
 20
130.809335272
 11
129.4844424093
 21
130.8093108735
  0
LINE
  5
990
100
AcDbEntity
  8
0
100
AcDbLine
 62
7
  6
CONTINUOUS
 10
129.467250701
 20
130.8086118917
 11
129.4354673153
 21
130.8072009754
  0
LINE
  5
991
100
AcDbEntity
  8
0
100
AcDbLine
 62
253
  6
CONTINUOUS
 10
129.5498909774
 20
130.8113047434
 11
129.5416164137
 21
130.8113875974
  0
LINE
  5
992
100
AcDbEntity
  8
0
100
AcDbLine
 62
7
  6
CONTINUOUS
 10
129.5216054614
 20
130.8106988825
 11
129.467250701
 21
130.8086118917
  0
LWPOLYLINE
  5
993
100
AcDbEntity
  8
RACCORDO
100
AcDbPolyline
 62
253
  6
CONTINUOUS
 90
25
 70
0
 10
128.0365440711
 20
128.7908357561
 10
127.9057150838
 20
128.7865303979
 10
127.7754611583
 20
128.7736773702
 10
127.6463399008
 20
128.7523345949
 10
127.5189083659
 20
128.7225975788
 10
127.3937067018
 20
128.6845957768
 10
127.2712567336
 20
128.6384890059
 10
127.1520782564
 20
128.5844725364
 10
127.0366858994
 20
128.5227791725
 10
126.9255735901
 20
128.4536729492
 10
126.8192169429
 20
128.3774496947
 10
126.7180711707
 20
128.2944357095
 10
126.6225691683
 20
128.2049862772
 10
126.5331197375
 20
128.1094842732
 10
126.4501057537
 20
128.0083384992
 10
126.3738824999
 20
127.9019818506
 10
126.3047762766
 20
127.7908695406
 10
126.2430829121
 20
127.6754771833
 10
126.1890664419
 20
127.5562987049
 10
126.1429581348
 20
127.4338442104
 10
126.1049553948
 20
127.3086378377
 10
126.0752208528
 20
127.181215529
 10
126.0538818231
 20
127.0521226878
 10
126.0410297478
 20
126.9219118477
 10
126.0367197127
 20
126.7911403395
  0
LINE
  5
994
100
AcDbEntity
  8
0
100
AcDbLine
 62
7
  6
CONTINUOUS
 10
129.584599199
 20
130.8127538951
 11
129.5216054614
 21
130.8106988825
  0
LINE
  5
995
100
AcDbEntity
  8
0
100
AcDbLine
 62
7
  6
CONTINUOUS
 10
129.6566427087
 20
130.8147688682
 11
129.584599199
 21
130.8127538951
  0
LINE
  5
996
100
AcDbEntity
  8
0
100
AcDbLine
 62
7
  6
CONTINUOUS
 10
134.7178528244
 20
130.8162709553
 11
134.556515631
 21
130.8122296353
  0
LINE
  5
997
100
AcDbEntity
  8
0
100
AcDbLine
 62
7
  6
CONTINUOUS
 10
129.7379212311
 20
130.81672877
 11
129.6566427087
 21
130.8147688682
  0
LINE
  5
998
100
AcDbEntity
  8
0
100
AcDbLine
 62
253
  6
CONTINUOUS
 10
134.7178528244
 20
130.8162709553
 11
134.7054644377
 21
130.8157571376
  0
LINE
  5
999
100
AcDbEntity
  8
0
100
AcDbLine
 62
7
  6
CONTINUOUS
 10
134.7878947114
 20
130.8178034751
 11
134.7178528244
 21
130.8162709553
  0
LINE
  5
99A
100
AcDbEntity
  8
0
100
AcDbLine
 62
253
  6
CONTINUOUS
 10
134.556515631
 20
130.8122296353
 11
134.5875421391
 21
130.8127244074
  0
LINE
  5
99B
100
AcDbEntity
  8
0
100
AcDbLine
 62
253
  6
CONTINUOUS
 10
129.7878947114
 20
130.8175919582
 11
129.7379212311
 21
130.81672877
  0
LINE
  5
99C
100
AcDbEntity
  8
0
100
AcDbLine
 62
7
  6
CONTINUOUS
 10
134.556515631
 20
130.8122296353
 11
134.4460765205
 21
130.8102008235
  0
LINE
  5
99D
100
AcDbEntity
  8
0
100
AcDbLine
 62
253
  6
CONTINUOUS
 10
134.4460765205
 20
130.8102008235
 11
134.4768381886
 21
130.8105545224
  0
LINE
  5
99E
100
AcDbEntity
  8
0
100
AcDbLine
 62
7
  6
CONTINUOUS
 10
134.4460765205
 20
130.8102008235
 11
134.3147922018
 21
130.8084598741
  0
LINE
  5
99F
100
AcDbEntity
  8
0
100
AcDbLine
 62
253
  6
CONTINUOUS
 10
134.6353523365
 20
130.8139284247
 11
134.6214102523
 21
130.8138105722
  0
LINE
  5
9A0
100
AcDbEntity
  8
0
100
AcDbLine
 62
7
  6
CONTINUOUS
 10
134.3147922018
 20
130.8084598741
 11
134.0871300924
 21
130.8066230127
  0
LINE
  5
9A1
100
AcDbEntity
  8
0
100
AcDbLine
 62
253
  6
CONTINUOUS
 10
134.0871300924
 20
130.8066230127
 11
134.1189141825
 21
130.806736519
  0
LINE
  5
9A2
100
AcDbEntity
  8
0
100
AcDbLine
 62
7
  6
CONTINUOUS
 10
134.0871300924
 20
130.8066230127
 11
133.8370006534
 21
130.8058351561
  0
LINE
  5
9A3
100
AcDbEntity
  8
RACCORDO
100
AcDbLine
 62
253
  6
CONTINUOUS
 10
132.7168356373
 20
129.8185706291
 11
130.0589537856
 21
129.8185706291
  0
LINE
  5
9A4
100
AcDbEntity
  8
RACCORDO
100
AcDbLine
 62
253
  6
CONTINUOUS
 10
132.7168356373
 20
130.0185401681
 11
130.0589537856
 21
130.0185401681
  0
LINE
  5
9A5
100
AcDbEntity
  8
RACCORDO
100
AcDbLine
 62
7
  6
CONTINUOUS
 10
132.8620598498
 20
130.1023854063
 11
129.9137295731
 21
130.1023854063
  0
LINE
  5
9A6
100
AcDbEntity
  8
0
100
AcDbLine
 62
253
  6
CONTINUOUS
 10
143.7630845576
 20
130.2151551637
 11
143.4632673095
 21
130.2151551637
  0
LINE
  5
9A7
100
AcDbEntity
  8
0
100
AcDbLine
 62
253
  6
CONTINUOUS
 10
128.8127048653
 20
130.2151551637
 11
129.1125221134
 21
130.2151551637
  0
LINE
  5
9A8
100
AcDbEntity
  8
0
100
AcDbLine
 62
253
  6
CONTINUOUS
 10
128.5032886096
 20
130.275092208
 11
128.7878947032
 21
130.2750922072
  0
LINE
  5
9A9
100
AcDbEntity
  8
0
100
AcDbLine
 62
253
  6
CONTINUOUS
 10
129.3124002788
 20
130.4150333291
 11
143.2633891441
 21
130.4150333291
  0
LINE
  5
9AA
100
AcDbEntity
  8
0
100
AcDbLine
 62
253
  6
CONTINUOUS
 10
129.3124002788
 20
130.7148505772
 11
143.2633891441
 21
130.7148505772
  0
LINE
  5
9AB
100
AcDbEntity
  8
0
100
AcDbLine
 62
7
  6
CONTINUOUS
 10
129.287590125
 20
130.739660731
 11
143.2881992979
 21
130.739660731
  0
LINE
  5
9AC
100
AcDbEntity
  8
0
100
AcDbLine
 62
7
  6
CONTINUOUS
 10
132.9750484549
 20
130.7698404713
 11
134.600740968
 21
130.7698404713
  0
LINE
  5
9AD
100
AcDbEntity
  8
0
100
AcDbLine
 62
7
  6
CONTINUOUS
 10
137.9750484549
 20
130.7698404713
 11
138.5649077845
 21
130.7698404713
  0
LINE
  5
9AE
100
AcDbEntity
  8
0
100
AcDbLine
 62
253
  6
CONTINUOUS
 10
129.6437218559
 20
130.7784156873
 11
128.9980171813
 21
130.7784156873
  0
LINE
  5
9AF
100
AcDbEntity
  8
0
100
AcDbLine
 62
7
  6
CONTINUOUS
 10
138.5910847328
 20
130.7872895548
 11
138.2883542627
 21
130.7872895548
  0
LINE
  5
9B0
100
AcDbEntity
  8
0
100
AcDbLine
 62
7
  6
CONTINUOUS
 10
129.2874351602
 20
130.7872895548
 11
128.9847046901
 21
130.7872895548
  0
LINE
  5
9B1
100
AcDbEntity
  8
0
100
AcDbLine
 62
7
  6
CONTINUOUS
 10
133.8370006534
 20
130.8058351561
 11
133.5831292515
 21
130.806189509
  0
LINE
  5
9B2
100
AcDbEntity
  8
0
100
AcDbLine
 62
7
  6
CONTINUOUS
 10
133.5831292515
 20
130.806189509
 11
133.3445607729
 21
130.8076409137
  0
LINE
  5
9B3
100
AcDbEntity
  8
0
100
AcDbLine
 62
253
  6
CONTINUOUS
 10
132.9543808884
 20
130.8138212347
 11
132.9404271892
 21
130.8139398293
  0
LINE
  5
9B4
100
AcDbEntity
  8
0
100
AcDbLine
 62
7
  6
CONTINUOUS
 10
133.3445607729
 20
130.8076409137
 11
133.1385884822
 21
130.8100608886
  0
LINE
  5
9B5
100
AcDbEntity
  8
0
100
AcDbLine
 62
253
  6
CONTINUOUS
 10
133.1385884822
 20
130.8100608886
 11
133.1625064111
 21
130.8095889454
  0
LINE
  5
9B6
100
AcDbEntity
  8
0
100
AcDbLine
 62
253
  6
CONTINUOUS
 10
128.5033880344
 20
130.2835893309
 11
128.7885541277
 21
130.2787412238
  0
LINE
  5
9B7
100
AcDbEntity
  8
0
100
AcDbLine
 62
7
  6
CONTINUOUS
 10
133.1385884822
 20
130.8100608886
 11
133.0262221215
 21
130.8120825548
  0
LINE
  5
9B8
100
AcDbEntity
  8
0
100
AcDbLine
 62
253
  6
CONTINUOUS
 10
137.7948250037
 20
130.8176602924
 11
137.7878947114
 21
130.8175919676
  0
LINE
  5
9B9
100
AcDbEntity
  8
0
100
AcDbLine
 62
253
  6
CONTINUOUS
 10
133.0262221215
 20
130.8120825548
 11
133.040964456
 21
130.8115993704
  0
LINE
  5
9BA
100
AcDbEntity
  8
0
100
AcDbLine
 62
7
  6
CONTINUOUS
 10
132.9138422052
 20
130.8149058514
 11
132.7862716643
 21
130.817837769
  0
LINE
  5
9BB
100
AcDbEntity
  8
0
100
AcDbLine
 62
7
  6
CONTINUOUS
 10
137.9293472499
 20
130.8145012919
 11
137.7948250037
 21
130.8176602924
  0
LINE
  5
9BC
100
AcDbEntity
  8
0
100
AcDbLine
 62
253
  6
CONTINUOUS
 10
132.9138422052
 20
130.8149058514
 11
132.8700101496
 21
130.8157646659
  0
LINE
  5
9BD
100
AcDbEntity
  8
0
100
AcDbLine
 62
7
  6
CONTINUOUS
 10
133.0262221215
 20
130.8120825548
 11
132.9138422052
 21
130.8149058514
  0
LINE
  5
9BE
100
AcDbEntity
  8
0
100
AcDbLine
 62
253
  6
CONTINUOUS
 10
137.9293472499
 20
130.8145012919
 11
137.8985700202
 21
130.8150556157
  0
LINE
  5
9BF
100
AcDbEntity
  8
0
100
AcDbLine
 62
7
  6
CONTINUOUS
 10
132.9546850731
 20
130.8138126068
 11
132.9543808884
 21
130.8138212347
  0
LINE
  5
9C0
100
AcDbEntity
  8
0
100
AcDbLine
 62
7
  6
CONTINUOUS
 10
138.00573765
 20
130.8123072911
 11
137.9293472499
 21
130.8145012919
  0
LINE
  5
9C1
100
AcDbEntity
  8
0
100
AcDbLine
 62
253
  6
CONTINUOUS
 10
138.00573765
 20
130.8123072911
 11
137.9657421945
 21
130.8132130499
  0
LINE
  5
9C2
100
AcDbEntity
  8
0
100
AcDbLine
 62
7
  6
CONTINUOUS
 10
138.0563895648
 20
130.8106206938
 11
138.00573765
 21
130.8123072911
  0
LINE
  5
9C3
100
AcDbEntity
  8
0
100
AcDbLine
 62
253
  6
CONTINUOUS
 10
138.0563895648
 20
130.8106206938
 11
138.0258146903
 21
130.8113076884
  0
LINE
  5
9C4
100
AcDbEntity
  8
0
100
AcDbLine
 62
7
  6
CONTINUOUS
 10
138.1016511519
 20
130.8088967448
 11
138.0563895648
 21
130.8106206938
  0
LINE
  5
9C5
100
AcDbEntity
  8
0
100
AcDbLine
 62
7
  6
CONTINUOUS
 10
138.1290372847
 20
130.8077215319
 11
138.1016511519
 21
130.8088967448
  0
LINE
  5
9C6
100
AcDbEntity
  8
0
100
AcDbLine
 62
253
  6
CONTINUOUS
 10
138.1016511519
 20
130.8088967448
 11
138.0786969166
 21
130.8093384399
  0
LWPOLYLINE
  5
9C7
100
AcDbEntity
  8
0
100
AcDbPolyline
 62
253
  6
CONTINUOUS
 90
19
 70
0
 10
143.2633891441
 20
130.7148505772
 10
143.3069295871
 20
130.7129193036
 10
143.3501364198
 20
130.7072032219
 10
143.3926814559
 20
130.6977460713
 10
143.4342415645
 20
130.6846201086
 10
143.4745010705
 20
130.6679252405
 10
143.5131541302
 20
130.6477882051
 10
143.5499070468
 20
130.6243621633
 10
143.5844807776
 20
130.5978252832
 10
143.616612912
 20
130.568378936
 10
143.6460592426
 20
130.5362468259
 10
143.6725960953
 20
130.5016731438
 10
143.6960221281
 20
130.4649202615
 10
143.7161591786
 20
130.4262671959
 10
143.732854067
 20
130.3860076612
 10
143.7459800434
 20
130.3444475244
 10
143.7554372004
 20
130.3019024695
 10
143.7611532846
 20
130.2586956204
 10
143.7630845576
 20
130.2151551637
  0
LWPOLYLINE
  5
9C8
100
AcDbEntity
  8
0
100
AcDbPolyline
 62
253
  6
CONTINUOUS
 90
19
 70
0
 10
143.2633891441
 20
130.4150333291
 10
143.2809606866
 20
130.4142420036
 10
143.2981627245
 20
130.4119849499
 10
143.314995258
 20
130.408262168
 10
143.331588064
 20
130.4030229495
 10
143.3478113655
 20
130.3963180027
 10
143.3632758315
 20
130.3882994528
 10
143.3779564998
 20
130.3789379587
 10
143.3918783326
 20
130.3682628614
 10
143.4047268859
 20
130.3565143088
 10
143.4164774193
 20
130.343667558
 10
143.4271546731
 20
130.3297473518
 10
143.4365184241
 20
130.3150680668
 10
143.4445393245
 20
130.2996058023
 10
143.451246722
 20
130.283384459
 10
143.4564884372
 20
130.2667901157
 10
143.4602137436
 20
130.2499514651
 10
143.4624733677
 20
130.2327398144
 10
143.4632673095
 20
130.2151551637
  0
LINE
  5
9C9
100
AcDbEntity
  8
0
100
AcDbLine
 62
7
  6
CONTINUOUS
 10
138.1545349801
 20
130.8065099142
 11
138.1290372847
 21
130.8077215319
  0
LINE
  5
9CA
100
AcDbEntity
  8
0
100
AcDbLine
 62
253
  6
CONTINUOUS
 10
138.2304743727
 20
130.7988373051
 11
138.2825895237
 21
130.7961729822
  0
LINE
  5
9CB
100
AcDbEntity
  8
0
100
AcDbLine
 62
253
  6
CONTINUOUS
 10
138.1545349801
 20
130.8065099142
 11
138.1244794643
 21
130.8073063957
  0
LINE
  5
9CC
100
AcDbEntity
  8
0
100
AcDbLine
 62
7
  6
CONTINUOUS
 10
138.1782341755
 20
130.805253036
 11
138.1545349801
 21
130.8065099142
  0
LWPOLYLINE
  5
9CD
100
AcDbEntity
  8
0
100
AcDbPolyline
 62
7
  6
CONTINUOUS
 90
6
 70
0
 10
138.239548078
 20
130.8010666524
 10
138.2301090767
 20
130.8018339919
 10
138.2204785645
 20
130.8025611071
 10
138.2105086677
 20
130.8032626019
 10
138.2001497206
 20
130.8039437804
 10
138.1782341755
 20
130.805253036
  0
LINE
  5
9CE
100
AcDbEntity
  8
RACCORDO
100
AcDbLine
 62
253
  6
CONTINUOUS
 10
172.7220824254
 20
118.1056361642
 11
172.7398312692
 21
118.0880287829
  0
LINE
  5
9CF
100
AcDbEntity
  8
RACCORDO
100
AcDbLine
 62
253
  6
CONTINUOUS
 10
174.2219954306
 20
123.7739899074
 11
174.2219954306
 21
120.1053315546
  0
LINE
  5
9D0
100
AcDbEntity
  8
RACCORDO
100
AcDbLine
 62
253
  6
CONTINUOUS
 10
174.7219192782
 20
123.7738484449
 11
174.7219192782
 21
120.1054740176
  0
LINE
  5
9D1
100
AcDbEntity
  8
RACCORDO
100
AcDbLine
 62
7
  6
CONTINUOUS
 10
174.7395266596
 20
123.7915972888
 11
174.7395266596
 21
120.0877241732
  0
LWPOLYLINE
  5
9D2
100
AcDbEntity
  8
RACCORDO
100
AcDbPolyline
 62
253
  6
CONTINUOUS
 90
25
 70
0
 10
174.7219192874
 20
120.1054740033
 10
174.7176333664
 20
119.9746129477
 10
174.7047969693
 20
119.8443314645
 10
174.6834685975
 20
119.7151872287
 10
174.6537445485
 20
119.5877378102
 10
174.6157547103
 20
119.4625227329
 10
174.5696585924
 20
119.3400621729
 10
174.5156514506
 20
119.220875467
 10
174.45396645
 20
119.1054775328
 10
174.3848674439
 20
118.9943618756
 10
174.30865036
 20
118.8880040737
 10
174.2256415691
 20
118.7868591589
 10
174.1361959328
 20
118.6913594919
 10
174.0406962654
 20
118.6019138573
 10
173.9395513511
 20
118.5189050687
 10
173.8331935502
 20
118.4426879871
 10
173.7220778941
 20
118.373588983
 10
173.6066799613
 20
118.3119039844
 10
173.4874932574
 20
118.2578968445
 10
173.3650326654
 20
118.2118007167
 10
173.2398175553
 20
118.173810873
 10
173.1123682114
 20
118.1440868442
 10
172.9832241977
 20
118.1227585019
 10
172.8529430495
 20
118.1099221123
 10
172.7220824396
 20
118.1056361551
  0
LWPOLYLINE
  5
9D3
100
AcDbEntity
  8
RACCORDO
100
AcDbPolyline
 62
253
  6
CONTINUOUS
 90
25
 70
0
 10
174.2219954306
 20
120.1053315546
 10
174.218721904
 20
120.0068450693
 10
174.2091589919
 20
119.9095164797
 10
174.1933066943
 20
119.8133457859
 10
174.171043443
 20
119.7179017472
 10
174.1424908062
 20
119.6236156042
 10
174.1080134885
 20
119.5317810785
 10
174.0675362495
 20
119.4424596256
 10
174.0211343295
 20
119.3555897899
 10
173.9693981539
 20
119.2722809267
 10
173.9122585253
 20
119.192578234
 10
173.8497846412
 20
119.1164365137
 10
173.782774519
 20
119.044829527
 10
173.7111692118
 20
118.9778153081
 10
173.6350276666
 20
118.9153358228
 10
173.5553247416
 20
118.8581907297
 10
173.4720155609
 20
118.8064497049
 10
173.3851450005
 20
118.7600430723
 10
173.2958225466
 20
118.7195614622
 10
173.2039881447
 20
118.685080215
 10
173.1097018493
 20
118.6565239903
 10
173.0142533109
 20
118.6342573967
 10
172.918072413
 20
118.6184019705
 10
172.8207292719
 20
118.6088361756
 10
172.7222238879
 20
118.6055600118
  0
LINE
  5
9D4
100
AcDbEntity
  8
0
100
AcDbLine
 62
7
  6
CONTINUOUS
 10
129.6437218559
 20
130.7784156873
 11
129.7437929294
 21
130.7983810978
  0
LINE
  5
9D5
100
AcDbEntity
  8
0
100
AcDbLine
 62
253
  6
CONTINUOUS
 10
129.3453150502
 20
130.7988373051
 11
129.2874351602
 21
130.7872895548
  0
LINE
  5
9D6
100
AcDbEntity
  8
0
100
AcDbLine
 62
7
  6
CONTINUOUS
 10
129.2499177561
 20
130.789727129
 11
129.2376621027
 21
130.7872895548
  0
LINE
  5
9D7
100
AcDbEntity
  8
RACCORDO
100
AcDbLine
 62
253
  6
CONTINUOUS
 10
174.7219192782
 20
120.1054740176
 11
174.7395266596
 21
120.0877241732
  0
LINE
  5
9D8
100
AcDbEntity
  8
0
100
AcDbLine
 62
7
  6
CONTINUOUS
 10
129.7878947114
 20
163.939660731
 11
132.7878947114
 21
163.939660731
  0
LINE
  5
9D9
100
AcDbEntity
  8
0
100
AcDbLine
 62
7
  6
CONTINUOUS
 10
134.7878947114
 20
163.939660731
 11
137.7878947114
 21
163.939660731
  0
LINE
  5
9DA
100
AcDbEntity
  8
0
100
AcDbLine
 62
7
  6
CONTINUOUS
 10
129.7878947114
 20
164.939660731
 11
132.7878947114
 21
164.939660731
  0
LINE
  5
9DB
100
AcDbEntity
  8
0
100
AcDbLine
 62
7
  6
CONTINUOUS
 10
134.7878947114
 20
164.939660731
 11
137.7878947114
 21
164.939660731
  0
LINE
  5
9DC
100
AcDbEntity
  8
0
100
AcDbLine
 62
7
  6
CONTINUOUS
 10
129.7878947114
 20
174.939660731
 11
132.7878947114
 21
174.939660731
  0
LINE
  5
9DD
100
AcDbEntity
  8
0
100
AcDbLine
 62
7
  6
CONTINUOUS
 10
134.7878947114
 20
174.939660731
 11
137.7878947114
 21
174.939660731
  0
CIRCLE
  5
9DE
100
AcDbEntity
  8
DRAFT
100
AcDbCircle
 62
7
  6
CONTINUOUS
 10
145.8878947114
 20
84.439660731
 40
1.4738174026
  0
CIRCLE
  5
9DF
100
AcDbEntity
  8
DRAFT
100
AcDbCircle
 62
7
  6
CONTINUOUS
 10
170.3878947114
 20
121.939660731
 40
1.4738174026
  0
ELLIPSE
  5
9E0
100
AcDbEntity
  8
RACCORDO
100
AcDbEllipse
 62
7
  6
CONTINUOUS
 10
166.0879251771
 20
100.7396302654
 30
0.0
 11
0.1414644378
 21
-0.1414644378
 31
0.0
 40
0.9996954599
 41
2.3563467836
 42
3.9268385237
  0
ELLIPSE
  5
9E1
100
AcDbEntity
  8
RACCORDO
100
AcDbEllipse
 62
7
  6
CONTINUOUS
 10
163.8875900554
 20
126.9393560749
 30
0.0
 11
-1.4146443783
 21
-1.4146443783
 31
0.0
 40
0.9996954599
 41
8.6395320906
 42
10.2100238309
  0
ELLIPSE
  5
9E2
100
AcDbEntity
  8
RACCORDO
100
AcDbEllipse
 62
7
  6
CONTINUOUS
 10
125.6878642458
 20
117.1396911966
 30
0.0
 11
0.1414644378
 21
-0.1414644378
 31
0.0
 40
0.9996954599
 41
-0.78524587
 42
0.7852458701
  0
ELLIPSE
  5
9E3
100
AcDbEntity
  8
RACCORDO
100
AcDbEllipse
 62
7
  6
CONTINUOUS
 10
166.0879251771
 20
117.1396911966
 30
0.0
 11
0.1414644378
 21
0.1414644378
 31
0.0
 40
0.9996954599
 41
-3.9268385237
 42
-2.3563467836
  0
ELLIPSE
  5
9E4
100
AcDbEntity
  8
0
100
AcDbEllipse
 62
7
  6
CONTINUOUS
 10
138.5908562291
 20
130.2872133908
 30
0.0
 11
-0.416247366
 21
-0.2774630169
 31
0.0
 40
0.9995051766
 41
3.6864368236
 42
4.1242165221
  0
ELLIPSE
  5
9E5
100
AcDbEntity
  8
RACCORDO
100
AcDbEllipse
 62
7
  6
CONTINUOUS
 10
125.6878642458
 20
100.7396302654
 30
0.0
 11
0.1414644378
 21
0.1414644378
 31
0.0
 40
0.9996954599
 41
-0.7852458701
 42
0.78524587
  0
ELLIPSE
  5
9E6
100
AcDbEntity
  8
0
100
AcDbEllipse
 62
7
  6
CONTINUOUS
 10
128.9849331938
 20
130.2872133908
 30
0.0
 11
-0.416247366
 21
0.2774630169
 31
0.0
 40
0.9995051766
 41
-0.9826238685
 42
0.5877156075
  0
ELLIPSE
  5
9E7
100
AcDbEntity
  8
RACCORDO
100
AcDbEllipse
 62
7
  6
CONTINUOUS
 10
124.4751700361
 20
113.3523092423
 30
0.0
 11
0.0
 21
0.5
 31
0.0
 40
0.0174550649
 41
-1.5707963268
 42
-0.0174532925
  0
ELLIPSE
  5
9E8
100
AcDbEntity
  8
RACCORDO
100
AcDbEllipse
 62
7
  6
CONTINUOUS
 10
125.8006193868
 20
113.3523092423
 30
0.0
 11
0.0
 21
0.5
 31
0.0
 40
0.0174550649
 41
0.0174532925
 42
1.5707963268
  0
ELLIPSE
  5
9E9
100
AcDbEntity
  8
RACCORDO
100
AcDbEllipse
 62
7
  6
CONTINUOUS
 10
125.8006193868
 20
104.5270122197
 30
0.0
 11
0.0
 21
0.5
 31
0.0
 40
0.0174550649
 41
-4.7123889804
 42
-3.1590459461
  0
ELLIPSE
  5
9EA
100
AcDbEntity
  8
RACCORDO
100
AcDbEllipse
 62
7
  6
CONTINUOUS
 10
124.4751700361
 20
104.5270122197
 30
0.0
 11
0.0
 21
0.5
 31
0.0
 40
0.0174550649
 41
-3.1241393611
 42
-1.5707963268
  0
ELLIPSE
  5
9EB
100
AcDbEntity
  8
RACCORDO
100
AcDbEllipse
 62
7
  6
CONTINUOUS
 10
167.3006193868
 20
104.5270122197
 30
0.0
 11
0.0
 21
0.5
 31
0.0
 40
0.0174550649
 41
-4.7123889804
 42
-3.1590459461
  0
ELLIPSE
  5
9EC
100
AcDbEntity
  8
RACCORDO
100
AcDbEllipse
 62
7
  6
CONTINUOUS
 10
165.9751700361
 20
104.5270122197
 30
0.0
 11
0.0
 21
0.5
 31
0.0
 40
0.0174550649
 41
-3.1241393611
 42
-1.5707963268
  0
ELLIPSE
  5
9ED
100
AcDbEntity
  8
RACCORDO
100
AcDbEllipse
 62
7
  6
CONTINUOUS
 10
165.9751700361
 20
113.3523092423
 30
0.0
 11
-0.0
 21
0.5
 31
0.0
 40
0.0174550649
 41
-1.5707963268
 42
-0.0174532925
  0
ELLIPSE
  5
9EE
100
AcDbEntity
  8
RACCORDO
100
AcDbEllipse
 62
7
  6
CONTINUOUS
 10
167.3006193868
 20
113.3523092423
 30
0.0
 11
0.0
 21
0.5
 31
0.0
 40
0.0174550649
 41
0.0174532925
 42
1.5707963268
  0
ELLIPSE
  5
9EF
100
AcDbEntity
  8
RACCORDO
100
AcDbEllipse
 62
7
  6
CONTINUOUS
 10
166.0879251771
 20
116.7396302654
 30
0.0
 11
0.1414644378
 21
-0.1414644378
 31
0.0
 40
0.9996954599
 41
2.3563467836
 42
3.9268385237
  0
ELLIPSE
  5
9F0
100
AcDbEntity
  8
RACCORDO
100
AcDbEllipse
 62
7
  6
CONTINUOUS
 10
125.6878642458
 20
101.1396911966
 30
0.0
 11
0.1414644378
 21
-0.1414644378
 31
0.0
 40
0.9996954599
 41
-0.78524587
 42
0.7852458701
  0
ELLIPSE
  5
9F1
100
AcDbEntity
  8
0
100
AcDbEllipse
 62
7
  6
CONTINUOUS
 10
138.5646792808
 20
130.2697643073
 30
0.0
 11
-0.416247366
 21
-0.2774630169
 31
0.0
 40
0.9995051766
 41
3.7783558168
 42
4.1242165221
  0
ELLIPSE
  5
9F2
100
AcDbEntity
  8
0
100
AcDbEllipse
 62
7
  6
CONTINUOUS
 10
129.6444852997
 20
130.2784918397
 30
0.0
 11
-0.0
 21
0.5
 31
0.0
 40
0.0874886635
 41
0.0174532925
 42
0.3934474842
  0
ELLIPSE
  5
9F3
100
AcDbEntity
  8
0
100
AcDbEllipse
 62
7
  6
CONTINUOUS
 10
136.2878947114
 20
130.7960230687
 30
0.0
 11
1.55
 21
0.0
 31
0.0
 40
0.0174550649
 41
2.8885393263
 42
3.054326191
  0
ELLIPSE
  5
9F4
100
AcDbEntity
  8
0
100
AcDbEllipse
 62
7
  6
CONTINUOUS
 10
136.2878947114
 20
130.7960230687
 30
0.0
 11
1.55
 21
-0.0
 31
0.0
 40
0.0174550649
 41
0.0872664626
 42
0.2530533273
  0
ELLIPSE
  5
9F5
100
AcDbEntity
  8
0
100
AcDbEllipse
 62
7
  6
CONTINUOUS
 10
131.2878947114
 20
130.7960230687
 30
0.0
 11
1.55
 21
-0.0
 31
0.0
 40
0.0174550649
 41
2.8885393263
 42
3.054326191
  0
ELLIPSE
  5
9F6
100
AcDbEntity
  8
0
100
AcDbEllipse
 62
7
  6
CONTINUOUS
 10
131.2878947114
 20
130.7960230687
 30
0.0
 11
1.55
 21
-0.0
 31
0.0
 40
0.0174550649
 41
0.0872664626
 42
0.2530533273
  0
ELLIPSE
  5
9F7
100
AcDbEntity
  8
RACCORDO
100
AcDbEllipse
 62
7
  6
CONTINUOUS
 10
166.0879251771
 20
101.1396911966
 30
0.0
 11
0.1414644378
 21
0.1414644378
 31
0.0
 40
0.9996954599
 41
-3.9268385237
 42
-2.3563467836
  0
ELLIPSE
  5
9F8
100
AcDbEntity
  8
RACCORDO
100
AcDbEllipse
 62
7
  6
CONTINUOUS
 10
163.0232652728
 20
128.8750769908
 30
0.0
 11
0.3
 21
0.0
 31
0.0
 40
0.0174550649
 41
4.7123889804
 42
6.2657320147
  0
ELLIPSE
  5
9F9
100
AcDbEntity
  8
RACCORDO
100
AcDbEllipse
 62
7
  6
CONTINUOUS
 10
125.6878642458
 20
116.7396302654
 30
0.0
 11
0.1414644378
 21
0.1414644378
 31
0.0
 40
0.9996954599
 41
-0.7852458701
 42
0.78524587
  0
ELLIPSE
  5
9FA
100
AcDbEntity
  8
RACCORDO
100
AcDbEllipse
 62
7
  6
CONTINUOUS
 10
163.0232652728
 20
89.0042444712
 30
0.0
 11
0.3
 21
0.0
 31
0.0
 40
0.0174550649
 41
6.3006385997
 42
7.853981634
  0
ELLIPSE
  5
9FB
100
AcDbEntity
  8
RACCORDO
100
AcDbEllipse
 62
7
  6
CONTINUOUS
 10
128.7525241501
 20
89.0042444712
 30
0.0
 11
0.3
 21
0.0
 31
0.0
 40
0.0174550649
 41
7.853981634
 42
9.4073246682
  0
ELLIPSE
  5
9FC
100
AcDbEntity
  8
RACCORDO
100
AcDbEllipse
 62
7
  6
CONTINUOUS
 10
163.8875900554
 20
126.9393560749
 30
0.0
 11
1.4146443783
 21
1.4146443783
 31
0.0
 40
0.9996954599
 41
-0.7852458701
 42
0.7852458701
  0
ELLIPSE
  5
9FD
100
AcDbEntity
  8
RACCORDO
100
AcDbEllipse
 62
7
  6
CONTINUOUS
 10
163.8875900554
 20
90.9399653871
 30
0.0
 11
1.4146443783
 21
-1.4146443783
 31
0.0
 40
0.9996954599
 41
-0.7136489519
 42
0.7852458701
  0
ELLIPSE
  5
9FE
100
AcDbEntity
  8
RACCORDO
100
AcDbEllipse
 62
7
  6
CONTINUOUS
 10
163.8875900554
 20
90.9399653871
 30
0.0
 11
-1.4146443783
 21
1.4146443783
 31
0.0
 40
0.9996954599
 41
-3.9268385237
 42
-2.3563467834
  0
ELLIPSE
  5
9FF
100
AcDbEntity
  8
RACCORDO
100
AcDbEllipse
 62
7
  6
CONTINUOUS
 10
127.8881993675
 20
90.9399653871
 30
0.0
 11
1.4146443783
 21
1.4146443783
 31
0.0
 40
0.9996954599
 41
-3.9268385237
 42
-2.3563467834
  0
ELLIPSE
  5
A00
100
AcDbEntity
  8
RACCORDO
100
AcDbEllipse
 62
7
  6
CONTINUOUS
 10
127.8881993675
 20
126.9393560749
 30
0.0
 11
1.4146443783
 21
-1.4146443783
 31
0.0
 40
0.9996954599
 41
2.3563467834
 42
3.9268385237
  0
ELLIPSE
  5
A01
100
AcDbEntity
  8
RACCORDO
100
AcDbEllipse
 62
7
  6
CONTINUOUS
 10
127.8881993675
 20
126.9393560749
 30
0.0
 11
-1.4146443783
 21
1.4146443783
 31
0.0
 40
0.9996954599
 41
-0.7852458701
 42
-0.7136489519
  0
ELLIPSE
  5
A02
100
AcDbEntity
  8
0
100
AcDbEllipse
 62
7
  6
CONTINUOUS
 10
132.9897165898
 20
88.0595266891
 30
0.0
 11
0.2121966568
 21
-0.2121966568
 31
0.0
 40
0.9996954599
 41
-0.7852458701
 42
0.7852458701
  0
ELLIPSE
  5
A03
100
AcDbEntity
  8
RACCORDO
100
AcDbEllipse
 62
7
  6
CONTINUOUS
 10
163.1215349991
 20
128.8733314843
 30
0.0
 11
0.2
 21
0.0
 31
0.0
 40
0.0174550649
 41
-1.5707963268
 42
-0.0174532925
  0
ELLIPSE
  5
A04
100
AcDbEntity
  8
RACCORDO
100
AcDbEllipse
 62
7
  6
CONTINUOUS
 10
128.6542544238
 20
89.0059899777
 30
0.0
 11
0.2
 21
-0.0
 31
0.0
 40
0.0174550649
 41
1.5707963268
 42
3.1241393611
  0
ELLIPSE
  5
A05
100
AcDbEntity
  8
RACCORDO
100
AcDbEllipse
 62
7
  6
CONTINUOUS
 10
128.6542544238
 20
128.8733314843
 30
0.0
 11
0.2
 21
0.0
 31
0.0
 40
0.0174550649
 41
-3.1241393611
 42
-1.5707963268
  0
ELLIPSE
  5
A06
100
AcDbEntity
  8
0
100
AcDbEllipse
 62
7
  6
CONTINUOUS
 10
129.7860728331
 20
88.0595266891
 30
0.0
 11
0.2121966568
 21
0.2121966568
 31
0.0
 40
0.9996954599
 41
-3.9268385237
 42
-2.3563467834
  0
ELLIPSE
  5
A07
100
AcDbEntity
  8
0
100
AcDbEllipse
 62
7
  6
CONTINUOUS
 10
129.2881994836
 20
130.2393559588
 30
0.0
 11
0.3539842723
 21
-0.3539842723
 31
0.0
 40
0.998782766
 41
2.3568034778
 42
3.9263818294
  0
ELLIPSE
  5
A08
100
AcDbEntity
  8
RACCORDO
100
AcDbEllipse
 62
7
  6
CONTINUOUS
 10
163.1215349991
 20
89.0059899777
 30
0.0
 11
0.2
 21
0.0
 31
0.0
 40
0.0174550649
 41
0.0174532925
 42
1.5707963268
  0
ELLIPSE
  5
A09
100
AcDbEntity
  8
0
100
AcDbEllipse
 62
7
  6
CONTINUOUS
 10
143.2875899393
 20
130.2393559588
 30
0.0
 11
0.3539842723
 21
0.3539842723
 31
0.0
 40
0.998782766
 41
-0.7847891758
 42
0.7847891758
  0
ELLIPSE
  5
A0A
100
AcDbEntity
  8
RACCORDO
100
AcDbEllipse
 62
7
  6
CONTINUOUS
 10
128.0276113949
 20
106.3838045232
 30
0.0
 11
0.5
 21
-0.0
 31
0.0
 40
0.0174550649
 41
-3.1241393611
 42
-1.5707963268
  0
ELLIPSE
  5
A0B
100
AcDbEntity
  8
RACCORDO
100
AcDbEllipse
 62
7
  6
CONTINUOUS
 10
163.748178028
 20
106.3838045232
 30
0.0
 11
0.5
 21
-0.0
 31
0.0
 40
0.0174550649
 41
-1.5707963268
 42
-0.0174532925
  0
ELLIPSE
  5
A0C
100
AcDbEntity
  8
RACCORDO
100
AcDbEllipse
 62
7
  6
CONTINUOUS
 10
128.0276113949
 20
111.4955169388
 30
0.0
 11
0.5
 21
0.0
 31
0.0
 40
0.0174550649
 41
1.5707963268
 42
3.1241393611
  0
ELLIPSE
  5
A0D
100
AcDbEntity
  8
RACCORDO
100
AcDbEllipse
 62
7
  6
CONTINUOUS
 10
163.748178028
 20
111.4955169388
 30
0.0
 11
0.5
 21
-0.0
 31
0.0
 40
0.0174550649
 41
0.0174532925
 42
1.5707963268
  0
ELLIPSE
  5
A0E
100
AcDbEntity
  8
RACCORDO
100
AcDbEllipse
 62
7
  6
CONTINUOUS
 10
172.7392220035
 20
123.790988023
 30
0.0
 11
1.4146443783
 21
1.4146443783
 31
0.0
 40
0.9996954599
 41
-0.7852458701
 42
0.7852458701
  0
ELLIPSE
  5
A0F
100
AcDbEntity
  8
RACCORDO
100
AcDbEllipse
 62
7
  6
CONTINUOUS
 10
172.7392220035
 20
120.088333439
 30
0.0
 11
-1.4146443783
 21
1.4146443783
 31
0.0
 40
0.9996954599
 41
-3.9268385237
 42
-2.3563467834
  0
ELLIPSE
  5
A10
100
AcDbEntity
  8
RACCORDO
100
AcDbEllipse
 62
7
  6
CONTINUOUS
 10
144.0365674194
 20
82.088333439
 30
0.0
 11
1.4146443783
 21
1.4146443783
 31
0.0
 40
0.9996954599
 41
-3.9268385237
 42
-2.3563467834
  0
ELLIPSE
  5
A11
100
AcDbEntity
  8
RACCORDO
100
AcDbEllipse
 62
7
  6
CONTINUOUS
 10
147.7392220035
 20
82.088333439
 30
0.0
 11
1.4146443783
 21
-1.4146443783
 31
0.0
 40
0.9996954599
 41
-0.7852458701
 42
0.7852458701
  0
ELLIPSE
  5
A12
100
AcDbEntity
  8
RACCORDO
100
AcDbEllipse
 62
7
  6
CONTINUOUS
 10
132.8619543219
 20
129.9023549407
 30
0.0
 11
0.1733105926
 21
0.1000609173
 31
0.0
 40
0.9993911978
 41
-1.0469338117
 42
1.0469338117
  0
ELLIPSE
  5
A13
100
AcDbEntity
  8
RACCORDO
100
AcDbEllipse
 62
7
  6
CONTINUOUS
 10
129.913835101
 20
129.9023549407
 30
0.0
 11
0.1733105926
 21
-0.1000609173
 31
0.0
 40
0.9993911978
 41
2.0946588419
 42
4.1885264653
  0
ELLIPSE
  5
A14
100
AcDbEntity
  8
RACCORDO
100
AcDbEllipse
 62
7
  6
CONTINUOUS
 10
163.1654468016
 20
126.2172128212
 30
0.0
 11
0.3643800228
 21
0.3643800228
 31
0.0
 40
0.9702875252
 41
-0.7703190329
 42
0.7703190329
  0
ELLIPSE
  5
A15
100
AcDbEntity
  8
0
100
AcDbEllipse
 62
7
  6
CONTINUOUS
 10
143.4632673095
 20
128.8576219258
 30
0.0
 11
0.3
 21
-0.0
 31
0.0
 40
0.0174550649
 41
-1.5707963268
 42
-0.034906585
  0
ELLIPSE
  5
A16
100
AcDbEntity
  8
RACCORDO
100
AcDbEllipse
 62
7
  6
CONTINUOUS
 10
128.6103426213
 20
126.2172128212
 30
0.0
 11
0.3643800228
 21
-0.3643800228
 31
0.0
 40
0.9702875252
 41
2.3712736207
 42
3.9119116865
  0
ELLIPSE
  5
A17
100
AcDbEntity
  8
RACCORDO
100
AcDbEllipse
 62
7
  6
CONTINUOUS
 10
128.6103426213
 20
91.6621086408
 30
0.0
 11
0.3643800228
 21
0.3643800228
 31
0.0
 40
0.9702875252
 41
-3.9119116865
 42
-2.3712736207
  0
ELLIPSE
  5
A18
100
AcDbEntity
  8
RACCORDO
100
AcDbEllipse
 62
7
  6
CONTINUOUS
 10
163.1654468016
 20
91.6621086408
 30
0.0
 11
-0.3643800228
 21
0.3643800228
 31
0.0
 40
0.9702875252
 41
-3.9119116865
 42
-2.3712736207
  0
ELLIPSE
  5
A19
100
AcDbEntity
  8
RACCORDO
100
AcDbEllipse
 62
7
  6
CONTINUOUS
 10
165.7971283738
 20
113.2988486949
 30
0.0
 11
0.0
 21
0.3
 31
0.0
 40
0.0174550649
 41
0.0174532925
 42
1.5707963268
  0
ELLIPSE
  5
A1A
100
AcDbEntity
  8
RACCORDO
100
AcDbEllipse
 62
7
  6
CONTINUOUS
 10
165.7971283738
 20
104.580472767
 30
0.0
 11
0.0
 21
0.3
 31
0.0
 40
0.0174550649
 41
-4.7123889804
 42
-3.1590459461
  0
ELLIPSE
  5
A1B
100
AcDbEntity
  8
RACCORDO
100
AcDbEllipse
 62
7
  6
CONTINUOUS
 10
125.9786610491
 20
104.580472767
 30
0.0
 11
-0.0
 21
0.3
 31
0.0
 40
0.0174550649
 41
-3.1241393611
 42
-1.5707963268
  0
ELLIPSE
  5
A1C
100
AcDbEntity
  8
RACCORDO
100
AcDbEllipse
 62
7
  6
CONTINUOUS
 10
125.9786610491
 20
113.2988486949
 30
0.0
 11
0.0
 21
0.3
 31
0.0
 40
0.0174550649
 41
-1.5707963268
 42
-0.0174532925
  0
ELLIPSE
  5
A1D
100
AcDbEntity
  8
RACCORDO
100
AcDbEllipse
 62
7
  6
CONTINUOUS
 10
164.2392981675
 20
125.7912926791
 30
0.0
 11
1.5
 21
-0.0
 31
0.0
 40
0.0174550649
 41
-0.7375601251
 42
-0.0174532925
  0
ELLIPSE
  5
A1E
100
AcDbEntity
  8
RACCORDO
100
AcDbEllipse
 62
7
  6
CONTINUOUS
 10
142.0362627633
 20
90.5882572749
 30
0.0
 11
0.0
 21
1.5
 31
0.0
 40
0.0174550649
 41
-3.1241393611
 42
-2.4040325285
  0
ELLIPSE
  5
A1F
100
AcDbEntity
  8
RACCORDO
100
AcDbEllipse
 62
7
  6
CONTINUOUS
 10
164.2392981675
 20
118.0880287829
 30
0.0
 11
1.5
 21
-0.0
 31
0.0
 40
0.0174550649
 41
0.0174532925
 42
0.7375601251
  0
ELLIPSE
  5
A20
100
AcDbEntity
  8
RACCORDO
100
AcDbEllipse
 62
7
  6
CONTINUOUS
 10
149.7395266596
 20
90.5882572749
 30
0.0
 11
-0.0
 21
1.5
 31
0.0
 40
0.0174550649
 41
-3.8791527787
 42
-3.1590459461
  0
ELLIPSE
  5
A21
100
AcDbEntity
  8
RACCORDO
100
AcDbEllipse
 62
7
  6
CONTINUOUS
 10
127.5364912554
 20
111.5042444712
 30
0.0
 11
1.5
 21
-0.0
 31
0.0
 40
0.0174550649
 41
1.5707963268
 42
1.6746077618
  0
ELLIPSE
  5
A22
100
AcDbEntity
  8
RACCORDO
100
AcDbEllipse
 62
7
  6
CONTINUOUS
 10
164.2392981675
 20
111.5042444712
 30
0.0
 11
1.5
 21
0.0
 31
0.0
 40
0.0174550649
 41
1.4669848918
 42
1.5707963268
  0
ELLIPSE
  5
A23
100
AcDbEntity
  8
RACCORDO
100
AcDbEllipse
 62
7
  6
CONTINUOUS
 10
127.5364912554
 20
106.3750769908
 30
0.0
 11
1.5
 21
0.0
 31
0.0
 40
0.0174550649
 41
-1.6746077618
 42
-1.5707963268
  0
ELLIPSE
  5
A24
100
AcDbEntity
  8
RACCORDO
100
AcDbEllipse
 62
7
  6
CONTINUOUS
 10
164.2392981675
 20
106.3750769908
 30
0.0
 11
1.5
 21
-0.0
 31
0.0
 40
0.0174550649
 41
-1.5707963268
 42
-1.4669848918
  0
ELLIPSE
  5
A25
100
AcDbEntity
  8
RACCORDO
100
AcDbEllipse
 62
7
  6
CONTINUOUS
 10
129.9425970785
 20
129.052415872
 30
0.0
 11
-0.1733105926
 21
0.1000609173
 31
0.0
 40
0.9993911978
 41
2.0946588419
 42
4.1885264653
  0
ELLIPSE
  5
A26
100
AcDbEntity
  8
RACCORDO
100
AcDbEllipse
 62
7
  6
CONTINUOUS
 10
132.8331923444
 20
129.052415872
 30
0.0
 11
-0.1733105926
 21
-0.1000609173
 31
0.0
 40
0.9993911978
 41
-1.0469338117
 42
1.0469338117
  0
ELLIPSE
  5
A27
100
AcDbEntity
  8
RACCORDO
100
AcDbEllipse
 62
7
  6
CONTINUOUS
 10
129.9425970785
 20
88.82690559
 30
0.0
 11
0.1733105926
 21
0.1000609173
 31
0.0
 40
0.9993911978
 41
-1.0469338117
 42
1.0469338117
  0
ELLIPSE
  5
A28
100
AcDbEntity
  8
0
100
AcDbEllipse
 62
7
  6
CONTINUOUS
 10
129.803527898
 20
88.076981754
 30
0.0
 11
0.2121966568
 21
0.2121966568
 31
0.0
 40
0.9996954599
 41
2.3563467834
 42
3.9268385237
  0
ELLIPSE
  5
A29
100
AcDbEntity
  8
RACCORDO
100
AcDbEllipse
 62
7
  6
CONTINUOUS
 10
132.8331923444
 20
88.82690559
 30
0.0
 11
0.1733105926
 21
-0.1000609173
 31
0.0
 40
0.9993911978
 41
2.0946588419
 42
4.1885264653
  0
ELLIPSE
  5
A2A
100
AcDbEntity
  8
0
100
AcDbEllipse
 62
7
  6
CONTINUOUS
 10
132.9722615249
 20
88.076981754
 30
0.0
 11
0.2121966568
 21
-0.2121966568
 31
0.0
 40
0.9996954599
 41
-0.7852458701
 42
0.7852458701
  0
ELLIPSE
  5
A2B
100
AcDbEntity
  8
RACCORDO
100
AcDbEllipse
 62
7
  6
CONTINUOUS
 10
129.913835101
 20
87.9769665212
 30
0.0
 11
0.1733105926
 21
0.1000609173
 31
0.0
 40
0.9993911978
 41
2.0946588419
 42
4.1885264653
  0
ELLIPSE
  5
A2C
100
AcDbEntity
  8
RACCORDO
100
AcDbEllipse
 62
7
  6
CONTINUOUS
 10
132.8619543219
 20
87.9769665212
 30
0.0
 11
0.1733105926
 21
-0.1000609173
 31
0.0
 40
0.9993911978
 41
-1.0469338117
 42
1.0469338117
  0
ELLIPSE
  5
A2D
100
AcDbEntity
  8
0
100
AcDbEllipse
 62
7
  6
CONTINUOUS
 10
129.1125221134
 20
128.8576219258
 30
0.0
 11
0.3
 21
-0.0
 31
0.0
 40
0.0174550649
 41
-3.1066860685
 42
-1.5707963268
  0
ELLIPSE
  5
A2E
100
AcDbEntity
  8
RACCORDO
100
AcDbEllipse
 62
7
  6
CONTINUOUS
 10
163.1301814055
 20
91.6973740369
 30
0.0
 11
-0.3643800228
 21
0.3643800228
 31
0.0
 40
0.9702875252
 41
2.3712736207
 42
3.9119116865
  0
ELLIPSE
  5
A2F
100
AcDbEntity
  8
RACCORDO
100
AcDbEllipse
 62
7
  6
CONTINUOUS
 10
128.6456080174
 20
91.6973740369
 30
0.0
 11
0.3643800228
 21
0.3643800228
 31
0.0
 40
0.9702875252
 41
2.3712736207
 42
3.9119116865
  0
ELLIPSE
  5
A30
100
AcDbEntity
  8
RACCORDO
100
AcDbEllipse
 62
7
  6
CONTINUOUS
 10
128.6456080174
 20
126.181947425
 30
0.0
 11
0.3643800228
 21
-0.3643800228
 31
0.0
 40
0.9702875252
 41
2.3712736207
 42
3.9119116865
  0
ELLIPSE
  5
A31
100
AcDbEntity
  8
RACCORDO
100
AcDbEllipse
 62
7
  6
CONTINUOUS
 10
163.1301814055
 20
126.181947425
 30
0.0
 11
-0.3643800228
 21
-0.3643800228
 31
0.0
 40
0.9702875252
 41
2.3712736207
 42
3.9119116865
  0
ENDSEC
  0
SECTION
  2
OBJECTS
  0
DICTIONARY
  5
C
100
AcDbDictionary
280
0
281
1
  3
ACAD_GROUP
350
D
  3
ACAD_MLINESTYLE
350
17
  3
ACAD_LAYOUT
350
1A
  3
ACAD_PLOTSETTINGS
350
19
  3
ACAD_PLOTSTYLENAME
350
E
  0
DICTIONARY
  5
D
102
{ACAD_REACTORS
330
C
102
}
100
AcDbDictionary
280
0
281
1
  0
ACDBDICTIONARYWDFLT
  5
E
102
{ACAD_REACTORS
330
C
102
}
100
AcDbDictionary
281
1
  3
Normal
350
F
100
AcDbDictionaryWithDefault
340
F
  0
DICTIONARY
  5
17
102
{ACAD_REACTORS
330
C
102
}
100
AcDbDictionary
280
0
281
1
  3
Standard
350
18
  0
DICTIONARY
  5
19
102
{ACAD_REACTORS
330
C
102
}
100
AcDbDictionary
281
1
  0
DICTIONARY
  5
1A
102
{ACAD_REACTORS
330
C
102
}
100
AcDbDictionary
281
1
  3
Model
350
A32
  3
Layout1
350
A33
  0
ACDBPLACEHOLDER
  5
F
102
{ACAD_REACTORS
330
E
102
}
  0
MLINESTYLE
  5
18
102
{ACAD_REACTORS
330
17
102
}
100
AcDbMlineStyle
  2
STANDARD
 70
0
  3

 62
256
 51
90.0
 52
90.0
 71
2
 49
0.5
 62
256
  6
BYLAYER
 49
-0.5
 62
256
  6
BYLAYER
  0
LAYOUT
  5
A32
102
{ACAD_REACTORS
330
1A
102
}
100
AcDbPlotSettings
  1

  2
none_device
  4
ISO_A4_(297.00_x_210.00_MM)
  6

 40
0.0
 41
0.0
 42
0.0
 43
0.0
 44
297.0
 45
210.0
 46
0.0
 47
0.0
 48
0.0
 49
0.0
140
0.0
141
0.0
142
1.0
143
1.0
 70
1024
 72
1
 73
0
 74
0
  7

 75
0
147
1.0
148
0.0
149
0.0
100
AcDbLayout
  1
Model
 70
0
 71
0
 10
0.0
 20
0.0
 11
297.0
 21
210.0
 12
0.0
 22
0.0
 32
0.0
 14
0.0
 24
0.0
 34
0.0
 15
0.0
 25
0.0
 35
0.0
146
0.0
 13
0.0
 23
0.0
 33
0.0
 16
1.0
 26
0.0
 36
0.0
 17
0.0
 27
1.0
 37
0.0
 76
0
330
700
345
0
346
0
  0
LAYOUT
  5
A33
102
{ACAD_REACTORS
330
1A
102
}
100
AcDbPlotSettings
  1

  2
none_device
  4
ISO_A4_(297.00_x_210.00_MM)
  6

 40
0.0
 41
0.0
 42
0.0
 43
0.0
 44
297.0
 45
210.0
 46
0.0
 47
0.0
 48
0.0
 49
0.0
140
0.0
141
0.0
142
1.0
143
1.0
 70
0
 72
1
 73
0
 74
0
  7

 75
0
147
1.0
148
0.0
149
0.0
100
AcDbLayout
  1
Layout1
 70
0
 71
1
 10
0.0
 20
0.0
 11
297.0
 21
210.0
 12
0.0
 22
0.0
 32
0.0
 14
0.0
 24
0.0
 34
0.0
 15
0.0
 25
0.0
 35
0.0
146
0.0
 13
0.0
 23
0.0
 33
0.0
 16
1.0
 26
0.0
 36
0.0
 17
0.0
 27
1.0
 37
0.0
 76
0
330
701
345
0
346
0
  0
ENDSEC
  0
EOF
