  0
SECTION
  2
HEADER
  9
$ACADVER
  1
AC1024
  9
$DWGCODEPAGE
  3
ANSI_1252
  9
$EXTMAX
 10
297.0
 20
210.0
 30
0.0
  9
$EXTMIN
 10
0.0
 20
0.0
 30
0.0
  9
$LIMMIN
 10
0.0
 20
0.0
  9
$LIMMAX
 10
297.0
 20
210.0
  9
$VIEWCTR
 10
148.5
 20
105.0
  9
$VIEWSIZE
 40
210.0
  9
$CLAYER
  8
0
  9
$LTSCALE
 40
16.335
  9
$CELTYPE
  6
BYLAYER
  9
$DIMSCALE
 40
1.0
  9
$DIMASZ
 40
3.0
  9
$DIMEXO
 40
0.5
  9
$DIMDLI
 40
11.286
  9
$DIMEXE
 40
1.5
  9
$DIMCEN
 40
2.673
  9
$DIMLFAC
 40
1.0
  9
$DIMBLK
  1
_FILLED
  9
$DIMALT
 70
0
  9
$DIMALTF
 40
0.0393700787
  9
$DIMTXT
 40
3.0
  9
$DIMTOL
 70
1
  9
$DIMLIM
 70
0
  9
$DIMTFAC
 40
1.0
  9
$DIMTP
 40
0.01
  9
$DIMTM
 40
0.01
  9
$DIMGAP
 40
0.625
  9
$DIMDSEP
 70
44
  9
$AUNITS
 70
0
  9
$PDMODE
 70
3
  9
$PDSIZE
 40
3.0
  9
$HANDSEED
  5
6A8
  9
$TILEMODE
 70
1
  9
$MEASUREMENT
 70
1
  9
$INSUNITS
 70
4
  0
ENDSEC
  0
SECTION
  2
CLASSES
  0
CLASS
  1
ACDBDICTIONARYWDFLT
  2
AcDbDictionaryWithDefault
  3
AutoCAD 2000
 90
0
 91
1
280
0
281
0
  0
CLASS
  1
ACDBPLACEHOLDER
  2
AcDbPlaceHolder
  3
AutoCAD 2000
 90
0
 91
1
280
0
281
0
  0
CLASS
  1
LAYOUT
  2
AcDbLayout
  3
AutoCAD 2000
 90
0
 91
0
280
0
281
0
  0
ENDSEC
  0
SECTION
  2
TABLES
  0
TABLE
  2
VPORT
  5
8
100
AcDbSymbolTable
 70
2
  0
VPORT
  5
1F4
100
AcDbSymbolTableRecord
100
AcDbViewportTableRecord
  2
*ACTIVE
 70
0
 10
0.0
 20
0.0
 11
1.0
 21
1.0
 12
148.5
 22
105.0
 13
0.0
 23
0.0
 14
1.0
 24
1.0
 15
0.0
 25
0.0
 16
0.0
 26
0.0
 36
1.0
 17
0.0
 27
0.0
 37
0.0
 40
210.0
 41
1.4142857143
 42
50.0
 43
0.0
 44
0.0
 50
0.0
 51
0.0
 71
0
 72
100
 73
1
 74
1
 75
0
 76
0
 77
0
 78
0
  0
ENDTAB
  0
TABLE
  2
LTYPE
  5
5
100
AcDbSymbolTable
 70
6
  0
LTYPE
  5
14
100
AcDbSymbolTableRecord
100
AcDbLinetypeTableRecord
  2
BYBLOCK
 70
0
  3

 72
65
 73
0
 40
0.0
  0
LTYPE
  5
15
100
AcDbSymbolTableRecord
100
AcDbLinetypeTableRecord
  2
BYLAYER
 70
0
  3

 72
65
 73
0
 40
0.0
  0
LTYPE
  5
16
100
AcDbSymbolTableRecord
100
AcDbLinetypeTableRecord
  2
CONTINUOUS
 70
64
  3
Solid line
 72
65
 73
0
 40
0.0
  0
LTYPE
  5
1F5
100
AcDbSymbolTableRecord
100
AcDbLinetypeTableRecord
  2
CENTER
 70
64
  3
____ _ ____ _ ____ _ ____ _ ____ _ ____ _ ____
 72
65
 73
4
 40
0.6
 49
0.375
 74
0
 49
-0.075
 74
0
 49
0.075
 74
0
 49
-0.075
 74
0
  0
LTYPE
  5
1F6
100
AcDbSymbolTableRecord
100
AcDbLinetypeTableRecord
  2
HIDDEN
 70
64
  3
- - - - - - - - - - - - - - - - - - - -
 72
65
 73
2
 40
0.2
 49
0.1
 74
0
 49
-0.1
 74
0
  0
LTYPE
  5
1F7
100
AcDbSymbolTableRecord
100
AcDbLinetypeTableRecord
  2
PHANTOM
 70
64
  3
_____ _ _ _____ _ _ _____ _ _ _____
 72
65
 73
6
 40
0.8
 49
0.45
 74
0
 49
-0.05
 74
0
 49
0.1
 74
0
 49
-0.05
 74
0
 49
0.1
 74
0
 49
-0.05
 74
0
  0
LTYPE
  5
1F8
100
AcDbSymbolTableRecord
100
AcDbLinetypeTableRecord
  2
DOT
 70
64
  3
. . . . . . . . . . . . . . . . . . . .
 72
65
 73
2
 40
0.2
 49
0.1
 74
0
 49
-0.1
 74
0
  0
LTYPE
  5
1F9
100
AcDbSymbolTableRecord
100
AcDbLinetypeTableRecord
  2
DASHED
 70
64
  3
- - - - - - - - - - - - - - - - - - - -
 72
65
 73
2
 40
0.2
 49
0.1
 74
0
 49
-0.1
 74
0
  0
ENDTAB
  0
TABLE
  2
LAYER
  5
2
100
AcDbSymbolTable
 70
36
  0
LAYER
  5
10
100
AcDbSymbolTableRecord
100
AcDbLayerTableRecord
  2
0
 70
0
 62
7
  6
CONTINUOUS
370
-3
390
F
  0
LAYER
  5
1FA
100
AcDbSymbolTableRecord
100
AcDbLayerTableRecord
  2
DEFAULT_1
 70
0
 62
7
  6
CENTER
370
-3
390
F
  0
LAYER
  5
1FB
100
AcDbSymbolTableRecord
100
AcDbLayerTableRecord
  2
DEFAULT_2
 70
0
 62
7
  6
HIDDEN
370
-3
390
F
  0
LAYER
  5
1FC
100
AcDbSymbolTableRecord
100
AcDbLayerTableRecord
  2
DEFAULT_3
 70
0
 62
7
  6
PHANTOM
370
-3
390
F
  0
LAYER
  5
1FD
100
AcDbSymbolTableRecord
100
AcDbLayerTableRecord
  2
06___PRT_ALL_SURFS_10
 70
0
 62
7
  6
CONTINUOUS
370
-3
390
F
  0
LAYER
  5
1FE
100
AcDbSymbolTableRecord
100
AcDbLayerTableRecord
  2
06___PRT_ALL_SURFS_12
 70
0
 62
7
  6
CONTINUOUS
370
-3
390
F
  0
LAYER
  5
1FF
100
AcDbSymbolTableRecord
100
AcDbLayerTableRecord
  2
06___PRT_ALL_SURFS_13
 70
0
 62
7
  6
CONTINUOUS
370
-3
390
F
  0
LAYER
  5
200
100
AcDbSymbolTableRecord
100
AcDbLayerTableRecord
  2
06___PRT_ALL_SURFS_5
 70
0
 62
7
  6
CONTINUOUS
370
-3
390
F
  0
LAYER
  5
201
100
AcDbSymbolTableRecord
100
AcDbLayerTableRecord
  2
06___PRT_ALL_SURFS_6
 70
0
 62
7
  6
CONTINUOUS
370
-3
390
F
  0
LAYER
  5
202
100
AcDbSymbolTableRecord
100
AcDbLayerTableRecord
  2
06___PRT_ALL_SURFS_7
 70
0
 62
7
  6
CONTINUOUS
370
-3
390
F
  0
LAYER
  5
203
100
AcDbSymbolTableRecord
100
AcDbLayerTableRecord
  2
06___PRT_ALL_SURFS_8
 70
0
 62
7
  6
CONTINUOUS
370
-3
390
F
  0
LAYER
  5
204
100
AcDbSymbolTableRecord
100
AcDbLayerTableRecord
  2
1210_C_WAVE_250000
 70
0
 62
7
  6
CONTINUOUS
370
-3
390
F
  0
LAYER
  5
205
100
AcDbSymbolTableRecord
100
AcDbLayerTableRecord
  2
43001103A0
 70
0
 62
7
  6
CONTINUOUS
370
-3
390
F
  0
LAYER
  5
206
100
AcDbSymbolTableRecord
100
AcDbLayerTableRecord
  2
43001103B0
 70
0
 62
7
  6
CONTINUOUS
370
-3
390
F
  0
LAYER
  5
207
100
AcDbSymbolTableRecord
100
AcDbLayerTableRecord
  2
43001105A0
 70
0
 62
7
  6
CONTINUOUS
370
-3
390
F
  0
LAYER
  5
208
100
AcDbSymbolTableRecord
100
AcDbLayerTableRecord
  2
43001105C0
 70
0
 62
7
  6
CONTINUOUS
370
-3
390
F
  0
LAYER
  5
209
100
AcDbSymbolTableRecord
100
AcDbLayerTableRecord
  2
43901103A0
 70
0
 62
7
  6
CONTINUOUS
370
-3
390
F
  0
LAYER
  5
20A
100
AcDbSymbolTableRecord
100
AcDbLayerTableRecord
  2
43901103B0
 70
0
 62
7
  6
CONTINUOUS
370
-3
390
F
  0
LAYER
  5
20B
100
AcDbSymbolTableRecord
100
AcDbLayerTableRecord
  2
43901105A0
 70
0
 62
7
  6
CONTINUOUS
370
-3
390
F
  0
LAYER
  5
20C
100
AcDbSymbolTableRecord
100
AcDbLayerTableRecord
  2
43901105C0
 70
0
 62
7
  6
CONTINUOUS
370
-3
390
F
  0
LAYER
  5
20D
100
AcDbSymbolTableRecord
100
AcDbLayerTableRecord
  2
ASSI
 70
0
 62
7
  6
CONTINUOUS
370
-3
390
F
  0
LAYER
  5
20E
100
AcDbSymbolTableRecord
100
AcDbLayerTableRecord
  2
CN_M_THT_P5_R1_P2_SET_1750000
 70
0
 62
7
  6
CONTINUOUS
370
-3
390
F
  0
LAYER
  5
20F
100
AcDbSymbolTableRecord
100
AcDbLayerTableRecord
  2
COLOR1
 70
0
 62
7
  6
CONTINUOUS
370
-3
390
F
  0
LAYER
  5
210
100
AcDbSymbolTableRecord
100
AcDbLayerTableRecord
  2
COLOR14
 70
0
 62
7
  6
CONTINUOUS
370
-3
390
F
  0
LAYER
  5
211
100
AcDbSymbolTableRecord
100
AcDbLayerTableRecord
  2
COLOR2
 70
0
 62
7
  6
CONTINUOUS
370
-3
390
F
  0
LAYER
  5
212
100
AcDbSymbolTableRecord
100
AcDbLayerTableRecord
  2
COLOR26
 70
0
 62
7
  6
CONTINUOUS
370
-3
390
F
  0
LAYER
  5
213
100
AcDbSymbolTableRecord
100
AcDbLayerTableRecord
  2
COLOR27
 70
0
 62
7
  6
CONTINUOUS
370
-3
390
F
  0
LAYER
  5
214
100
AcDbSymbolTableRecord
100
AcDbLayerTableRecord
  2
COORDINATE
 70
0
 62
7
  6
CONTINUOUS
370
-3
390
F
  0
LAYER
  5
215
100
AcDbSymbolTableRecord
100
AcDbLayerTableRecord
  2
COPY_PUBLISH
 70
0
 62
7
  6
CONTINUOUS
370
-3
390
F
  0
LAYER
  5
216
100
AcDbSymbolTableRecord
100
AcDbLayerTableRecord
  2
COSMETIC
 70
0
 62
7
  6
CONTINUOUS
370
-3
390
F
  0
LAYER
  5
217
100
AcDbSymbolTableRecord
100
AcDbLayerTableRecord
  2
COSMETICI
 70
0
 62
7
  6
CONTINUOUS
370
-3
390
F
  0
LAYER
  5
218
100
AcDbSymbolTableRecord
100
AcDbLayerTableRecord
  2
CURVE
 70
0
 62
7
  6
CONTINUOUS
370
-3
390
F
  0
LAYER
  5
219
100
AcDbSymbolTableRecord
100
AcDbLayerTableRecord
  2
DRAFT
 70
0
 62
7
  6
CONTINUOUS
370
-3
390
F
  0
LAYER
  5
21A
100
AcDbSymbolTableRecord
100
AcDbLayerTableRecord
  2
GEOMETRIA_SOLIDA
 70
0
 62
7
  6
CONTINUOUS
370
-3
390
F
  0
LAYER
  5
21B
100
AcDbSymbolTableRecord
100
AcDbLayerTableRecord
  2
GEOMETRIA_SOLIDA_1
 70
0
 62
7
  6
CONTINUOUS
370
-3
390
F
  0
LAYER
  5
21C
100
AcDbSymbolTableRecord
100
AcDbLayerTableRecord
  2
GEOMETRIA_SOLIDA_2
 70
0
 62
7
  6
CONTINUOUS
370
-3
390
F
  0
LAYER
  5
21D
100
AcDbSymbolTableRecord
100
AcDbLayerTableRecord
  2
IGES_HOLGER
 70
0
 62
7
  6
CONTINUOUS
370
-3
390
F
  0
LAYER
  5
21E
100
AcDbSymbolTableRecord
100
AcDbLayerTableRecord
  2
IMPORT_IGES
 70
0
 62
7
  6
CONTINUOUS
370
-3
390
F
  0
LAYER
  5
21F
100
AcDbSymbolTableRecord
100
AcDbLayerTableRecord
  2
IMPORT_IGES_3
 70
0
 62
7
  6
CONTINUOUS
370
-3
390
F
  0
LAYER
  5
220
100
AcDbSymbolTableRecord
100
AcDbLayerTableRecord
  2
INTFCLR_1
 70
0
 62
7
  6
CONTINUOUS
370
-3
390
F
  0
LAYER
  5
221
100
AcDbSymbolTableRecord
100
AcDbLayerTableRecord
  2
INTF_1
 70
0
 62
7
  6
CONTINUOUS
370
-3
390
F
  0
LAYER
  5
222
100
AcDbSymbolTableRecord
100
AcDbLayerTableRecord
  2
INTF_12
 70
0
 62
7
  6
CONTINUOUS
370
-3
390
F
  0
LAYER
  5
223
100
AcDbSymbolTableRecord
100
AcDbLayerTableRecord
  2
INTF_2
 70
0
 62
7
  6
CONTINUOUS
370
-3
390
F
  0
LAYER
  5
224
100
AcDbSymbolTableRecord
100
AcDbLayerTableRecord
  2
INTF_3
 70
0
 62
7
  6
CONTINUOUS
370
-3
390
F
  0
LAYER
  5
225
100
AcDbSymbolTableRecord
100
AcDbLayerTableRecord
  2
INTF_4
 70
0
 62
7
  6
CONTINUOUS
370
-3
390
F
  0
LAYER
  5
226
100
AcDbSymbolTableRecord
100
AcDbLayerTableRecord
  2
INTF_6
 70
0
 62
7
  6
CONTINUOUS
370
-3
390
F
  0
LAYER
  5
227
100
AcDbSymbolTableRecord
100
AcDbLayerTableRecord
  2
INTF_YELLOW
 70
0
 62
7
  6
CONTINUOUS
370
-3
390
F
  0
LAYER
  5
228
100
AcDbSymbolTableRecord
100
AcDbLayerTableRecord
  2
K_THT_TE_RT424F48_1570000
 70
0
 62
7
  6
CONTINUOUS
370
-3
390
F
  0
LAYER
  5
229
100
AcDbSymbolTableRecord
100
AcDbLayerTableRecord
  2
MINIMELF_R_WAVE_140000
 70
0
 62
7
  6
CONTINUOUS
370
-3
390
F
  0
LAYER
  5
22A
100
AcDbSymbolTableRecord
100
AcDbLayerTableRecord
  2
MINIMELF_R_WAVE_140000_1
 70
0
 62
7
  6
CONTINUOUS
370
-3
390
F
  0
LAYER
  5
22B
100
AcDbSymbolTableRecord
100
AcDbLayerTableRecord
  2
NOTE
 70
0
 62
7
  6
CONTINUOUS
370
-3
390
F
  0
LAYER
  5
22C
100
AcDbSymbolTableRecord
100
AcDbLayerTableRecord
  2
PIANI
 70
0
 62
7
  6
CONTINUOUS
370
-3
390
F
  0
LAYER
  5
22D
100
AcDbSymbolTableRecord
100
AcDbLayerTableRecord
  2
PIANI_RIFERIMENTO
 70
0
 62
7
  6
CONTINUOUS
370
-3
390
F
  0
LAYER
  5
22E
100
AcDbSymbolTableRecord
100
AcDbLayerTableRecord
  2
PUNTI
 70
0
 62
7
  6
CONTINUOUS
370
-3
390
F
  0
LAYER
  5
22F
100
AcDbSymbolTableRecord
100
AcDbLayerTableRecord
  2
RACCORDO
 70
0
 62
7
  6
CONTINUOUS
370
-3
390
F
  0
LAYER
  5
230
100
AcDbSymbolTableRecord
100
AcDbLayerTableRecord
  2
RGB__255__255__255__
 70
0
 62
7
  6
CONTINUOUS
370
-3
390
F
  0
LAYER
  5
231
100
AcDbSymbolTableRecord
100
AcDbLayerTableRecord
  2
RGB____0____0____0__
 70
0
 62
7
  6
CONTINUOUS
370
-3
390
F
  0
LAYER
  5
232
100
AcDbSymbolTableRecord
100
AcDbLayerTableRecord
  2
SIMBOLI
 70
0
 62
7
  6
CONTINUOUS
370
-3
390
F
  0
LAYER
  5
233
100
AcDbSymbolTableRecord
100
AcDbLayerTableRecord
  2
SMUSSO
 70
0
 62
7
  6
CONTINUOUS
370
-3
390
F
  0
LAYER
  5
234
100
AcDbSymbolTableRecord
100
AcDbLayerTableRecord
  2
SUB_SMA_143000
 70
0
 62
7
  6
CONTINUOUS
370
-3
390
F
  0
LAYER
  5
235
100
AcDbSymbolTableRecord
100
AcDbLayerTableRecord
  2
SUB_SMA_143000_1
 70
0
 62
7
  6
CONTINUOUS
370
-3
390
F
  0
LAYER
  5
236
100
AcDbSymbolTableRecord
100
AcDbLayerTableRecord
  2
SUB_SMA_143000_2
 70
0
 62
7
  6
CONTINUOUS
370
-3
390
F
  0
LAYER
  5
237
100
AcDbSymbolTableRecord
100
AcDbLayerTableRecord
  2
SUB_SMA_143000_3
 70
0
 62
7
  6
CONTINUOUS
370
-3
390
F
  0
LAYER
  5
238
100
AcDbSymbolTableRecord
100
AcDbLayerTableRecord
  2
SUB_SMA_143000_4
 70
0
 62
7
  6
CONTINUOUS
370
-3
390
F
  0
LAYER
  5
239
100
AcDbSymbolTableRecord
100
AcDbLayerTableRecord
  2
SUB_SMA_143000_5
 70
0
 62
7
  6
CONTINUOUS
370
-3
390
F
  0
LAYER
  5
23A
100
AcDbSymbolTableRecord
100
AcDbLayerTableRecord
  2
SUB_SMA_143000_6
 70
0
 62
7
  6
CONTINUOUS
370
-3
390
F
  0
LAYER
  5
23B
100
AcDbSymbolTableRecord
100
AcDbLayerTableRecord
  2
SUB_SMA_143000_7
 70
0
 62
7
  6
CONTINUOUS
370
-3
390
F
  0
LAYER
  5
23C
100
AcDbSymbolTableRecord
100
AcDbLayerTableRecord
  2
SUB_SMA_143000_8
 70
0
 62
7
  6
CONTINUOUS
370
-3
390
F
  0
LAYER
  5
23D
100
AcDbSymbolTableRecord
100
AcDbLayerTableRecord
  2
SUB_SMA_143000_9
 70
0
 62
7
  6
CONTINUOUS
370
-3
390
F
  0
LAYER
  5
23E
100
AcDbSymbolTableRecord
100
AcDbLayerTableRecord
  2
SUPERFICI
 70
0
 62
7
  6
CONTINUOUS
370
-3
390
F
  0
LAYER
  5
23F
100
AcDbSymbolTableRecord
100
AcDbLayerTableRecord
  2
SUPERFICI_3
 70
0
 62
7
  6
CONTINUOUS
370
-3
390
F
  0
LAYER
  5
240
100
AcDbSymbolTableRecord
100
AcDbLayerTableRecord
  2
SUPERFICI_6
 70
0
 62
7
  6
CONTINUOUS
370
-3
390
F
  0
LAYER
  5
241
100
AcDbSymbolTableRecord
100
AcDbLayerTableRecord
  2
TRASH
 70
0
 62
7
  6
CONTINUOUS
370
-3
390
F
  0
LAYER
  5
242
100
AcDbSymbolTableRecord
100
AcDbLayerTableRecord
  2
VG_CAP-E-6_3-11-2_5_A90_680000
 70
0
 62
7
  6
CONTINUOUS
370
-3
390
F
  0
LAYER
  5
243
100
AcDbSymbolTableRecord
100
AcDbLayerTableRecord
  2
VG_CAP-E-6_3-11-2_5_A90_68000_1
 70
0
 62
7
  6
CONTINUOUS
370
-3
390
F
  0
LAYER
  5
244
100
AcDbSymbolTableRecord
100
AcDbLayerTableRecord
  2
VG_CN-THT-PHOENIX-MKKDSG3_2-R2-
 70
0
 62
7
  6
CONTINUOUS
370
-3
390
F
  0
LAYER
  5
245
100
AcDbSymbolTableRecord
100
AcDbLayerTableRecord
  2
VG_CN_PAD_REC_P1_4X0_9_1_54X1_0
 70
0
 62
7
  6
CONTINUOUS
370
-3
390
F
  0
LAYER
  5
246
100
AcDbSymbolTableRecord
100
AcDbLayerTableRecord
  2
VG_CN_PAD_REC_P1_4X0_9_1_54X1_1
 70
0
 62
7
  6
CONTINUOUS
370
-3
390
F
  0
LAYER
  5
247
100
AcDbSymbolTableRecord
100
AcDbLayerTableRecord
  2
VG_CN_PAD_REC_P1_4X0_9_1_54X1_2
 70
0
 62
7
  6
CONTINUOUS
370
-3
390
F
  0
LAYER
  5
248
100
AcDbSymbolTableRecord
100
AcDbLayerTableRecord
  2
VG_CN_PAD_REC_P1_4X0_9_1_54X1_3
 70
0
 62
7
  6
CONTINUOUS
370
-3
390
F
  0
LAYER
  5
249
100
AcDbSymbolTableRecord
100
AcDbLayerTableRecord
  2
VG_CN_PAD_REC_P1_4X0_9_1_54X1_4
 70
0
 62
7
  6
CONTINUOUS
370
-3
390
F
  0
LAYER
  5
24A
100
AcDbSymbolTableRecord
100
AcDbLayerTableRecord
  2
VG_CN_PAD_REC_P1_4X0_9_1_54X1_5
 70
0
 62
7
  6
CONTINUOUS
370
-3
390
F
  0
LAYER
  5
24B
100
AcDbSymbolTableRecord
100
AcDbLayerTableRecord
  2
VG_CN_PAD_REC_P1_4X0_9_1_54X1_6
 70
0
 62
7
  6
CONTINUOUS
370
-3
390
F
  0
LAYER
  5
24C
100
AcDbSymbolTableRecord
100
AcDbLayerTableRecord
  2
VG_CN_PAD_REC_P1_4X0_9_1_54X1_7
 70
0
 62
7
  6
CONTINUOUS
370
-3
390
F
  0
LAYER
  5
24D
100
AcDbSymbolTableRecord
100
AcDbLayerTableRecord
  2
VG_CN_PAD_REC_P1_4X0_9_1_54X1_8
 70
0
 62
7
  6
CONTINUOUS
370
-3
390
F
  0
LAYER
  5
24E
100
AcDbSymbolTableRecord
100
AcDbLayerTableRecord
  2
VG_CN_PAD_REC_P1_4X0_9_1_54X1_9
 70
0
 62
7
  6
CONTINUOUS
370
-3
390
F
  0
LAYER
  5
24F
100
AcDbSymbolTableRecord
100
AcDbLayerTableRecord
  2
VG_CN_PAD_REC_P1_4X0_9_1_54X_10
 70
0
 62
7
  6
CONTINUOUS
370
-3
390
F
  0
LAYER
  5
250
100
AcDbSymbolTableRecord
100
AcDbLayerTableRecord
  2
VG_CN_PAD_REC_P1_4X0_9_1_54X_11
 70
0
 62
7
  6
CONTINUOUS
370
-3
390
F
  0
LAYER
  5
251
100
AcDbSymbolTableRecord
100
AcDbLayerTableRecord
  2
VG_CN_PAD_REC_P1_4X0_9_1_54X_12
 70
0
 62
7
  6
CONTINUOUS
370
-3
390
F
  0
LAYER
  5
252
100
AcDbSymbolTableRecord
100
AcDbLayerTableRecord
  2
VG_CN_PAD_REC_P1_4X0_9_1_54X_13
 70
0
 62
7
  6
CONTINUOUS
370
-3
390
F
  0
LAYER
  5
253
100
AcDbSymbolTableRecord
100
AcDbLayerTableRecord
  2
VG_CN_PAD_REC_P1_4X0_9_1_54X_14
 70
0
 62
7
  6
CONTINUOUS
370
-3
390
F
  0
LAYER
  5
254
100
AcDbSymbolTableRecord
100
AcDbLayerTableRecord
  2
VG_CN_PAD_REC_P1_4X0_9_1_54X_15
 70
0
 62
7
  6
CONTINUOUS
370
-3
390
F
  0
LAYER
  5
255
100
AcDbSymbolTableRecord
100
AcDbLayerTableRecord
  2
VG_CN_PAD_REC_P1_4X0_9_1_54X_16
 70
0
 62
7
  6
CONTINUOUS
370
-3
390
F
  0
LAYER
  5
256
100
AcDbSymbolTableRecord
100
AcDbLayerTableRecord
  2
VG_CN_PAD_REC_P1_4X0_9_1_54X_17
 70
0
 62
7
  6
CONTINUOUS
370
-3
390
F
  0
LAYER
  5
257
100
AcDbSymbolTableRecord
100
AcDbLayerTableRecord
  2
VG_CN_PAD_REC_P1_5X1_0_1_64X1_1
 70
0
 62
7
  6
CONTINUOUS
370
-3
390
F
  0
LAYER
  5
258
100
AcDbSymbolTableRecord
100
AcDbLayerTableRecord
  2
VG_CN_PAD_REC_P1_5X1_0_1_64X1_2
 70
0
 62
7
  6
CONTINUOUS
370
-3
390
F
  0
LAYER
  5
259
100
AcDbSymbolTableRecord
100
AcDbLayerTableRecord
  2
VG_CN_PAD_REC_P1_5X1_0_1_64X1_3
 70
0
 62
7
  6
CONTINUOUS
370
-3
390
F
  0
LAYER
  5
25A
100
AcDbSymbolTableRecord
100
AcDbLayerTableRecord
  2
VG_CN_PAD_REC_P1_5X1_0_1_64X1_4
 70
0
 62
7
  6
CONTINUOUS
370
-3
390
F
  0
LAYER
  5
25B
100
AcDbSymbolTableRecord
100
AcDbLayerTableRecord
  2
VG_CN_PAD_REC_P1_5X1_0_1_64X1_5
 70
0
 62
7
  6
CONTINUOUS
370
-3
390
F
  0
LAYER
  5
25C
100
AcDbSymbolTableRecord
100
AcDbLayerTableRecord
  2
VG_CN_PAD_REC_P1_5X1_0_1_64X1_6
 70
0
 62
7
  6
CONTINUOUS
370
-3
390
F
  0
LAYER
  5
25D
100
AcDbSymbolTableRecord
100
AcDbLayerTableRecord
  2
VG_CN_PAD_REC_P1_5X1_0_1_64X1_7
 70
0
 62
7
  6
CONTINUOUS
370
-3
390
F
  0
LAYER
  5
25E
100
AcDbSymbolTableRecord
100
AcDbLayerTableRecord
  2
VG_CN_PAD_REC_P1_5X1_0_1_64X1_8
 70
0
 62
7
  6
CONTINUOUS
370
-3
390
F
  0
LAYER
  5
25F
100
AcDbSymbolTableRecord
100
AcDbLayerTableRecord
  2
VG_CN_PAD_REC_P1_5X1_0_1_64X1_9
 70
0
 62
7
  6
CONTINUOUS
370
-3
390
F
  0
LAYER
  5
260
100
AcDbSymbolTableRecord
100
AcDbLayerTableRecord
  2
VG_CN_PAD_REC_P1_5X1_0_1_64X_10
 70
0
 62
7
  6
CONTINUOUS
370
-3
390
F
  0
LAYER
  5
261
100
AcDbSymbolTableRecord
100
AcDbLayerTableRecord
  2
VG_CN_PAD_REC_P1_5X1_0_1_64X_11
 70
0
 62
7
  6
CONTINUOUS
370
-3
390
F
  0
LAYER
  5
262
100
AcDbSymbolTableRecord
100
AcDbLayerTableRecord
  2
VG_CN_PAD_REC_P1_5X1_0_1_64X_12
 70
0
 62
7
  6
CONTINUOUS
370
-3
390
F
  0
LAYER
  5
263
100
AcDbSymbolTableRecord
100
AcDbLayerTableRecord
  2
VG_CN_PAD_REC_P1_5X1_0_1_64X_13
 70
0
 62
7
  6
CONTINUOUS
370
-3
390
F
  0
LAYER
  5
264
100
AcDbSymbolTableRecord
100
AcDbLayerTableRecord
  2
VG_CN_PAD_REC_P1_5X1_0_1_64X_14
 70
0
 62
7
  6
CONTINUOUS
370
-3
390
F
  0
LAYER
  5
265
100
AcDbSymbolTableRecord
100
AcDbLayerTableRecord
  2
VG_CN_PAD_REC_P1_5X1_0_1_64X_15
 70
0
 62
7
  6
CONTINUOUS
370
-3
390
F
  0
LAYER
  5
266
100
AcDbSymbolTableRecord
100
AcDbLayerTableRecord
  2
VG_CN_PAD_REC_P1_5X1_0_1_64X_16
 70
0
 62
7
  6
CONTINUOUS
370
-3
390
F
  0
LAYER
  5
267
100
AcDbSymbolTableRecord
100
AcDbLayerTableRecord
  2
VG_CN_PAD_REC_P1_5X1_0_1_64X_17
 70
0
 62
7
  6
CONTINUOUS
370
-3
390
F
  0
LAYER
  5
268
100
AcDbSymbolTableRecord
100
AcDbLayerTableRecord
  2
VG_CN_PAD_REC_P1_5X1_0_1_64X_18
 70
0
 62
7
  6
CONTINUOUS
370
-3
390
F
  0
LAYER
  5
269
100
AcDbSymbolTableRecord
100
AcDbLayerTableRecord
  2
VG_PTC-5_0-10_0-5_0-5_0-0_0-0_1
 70
0
 62
7
  6
CONTINUOUS
370
-3
390
F
  0
LAYER
  5
26A
100
AcDbSymbolTableRecord
100
AcDbLayerTableRecord
  2
VG_PTC-5_0-10_0-5_0-5_0-0_0-0_2
 70
0
 62
7
  6
CONTINUOUS
370
-3
390
F
  0
LAYER
  5
26B
100
AcDbSymbolTableRecord
100
AcDbLayerTableRecord
  2
VG_PTC-5_0-10_0-5_0-5_0-0_0-0_6
 70
0
 62
7
  6
CONTINUOUS
370
-3
390
F
  0
LAYER
  5
26C
100
AcDbSymbolTableRecord
100
AcDbLayerTableRecord
  2
VG_PTC-5_0-10_0-5_5-5_0-0_0-0_7
 70
0
 62
7
  6
CONTINUOUS
370
-3
390
F
  0
LAYER
  5
26D
100
AcDbSymbolTableRecord
100
AcDbLayerTableRecord
  2
VG_RES-ASS-3_9-10_0-0_8-15_0_39
 70
0
 62
7
  6
CONTINUOUS
370
-3
390
F
  0
LAYER
  5
26E
100
AcDbSymbolTableRecord
100
AcDbLayerTableRecord
  2
VG_RES-ASS-3_9-10_0-0_8-15_0__1
 70
0
 62
7
  6
CONTINUOUS
370
-3
390
F
  0
LAYER
  5
26F
100
AcDbSymbolTableRecord
100
AcDbLayerTableRecord
  2
VG_RES-ASS-3_9-10_0-0_8-15_0__2
 70
0
 62
7
  6
CONTINUOUS
370
-3
390
F
  0
LAYER
  5
270
100
AcDbSymbolTableRecord
100
AcDbLayerTableRecord
  2
VG_RES-RAD-5_0-15_0-5_0-0_7_200
 70
0
 62
7
  6
CONTINUOUS
370
-3
390
F
  0
LAYER
  5
271
100
AcDbSymbolTableRecord
100
AcDbLayerTableRecord
  2
VG_VAR_S05_D7_S4_3_H8_5_850000
 70
0
 62
7
  6
CONTINUOUS
370
-3
390
F
  0
LAYER
  5
272
100
AcDbSymbolTableRecord
100
AcDbLayerTableRecord
  2
VG_VAR_S05_D7_S4_3_H8_5_85000_1
 70
0
 62
7
  6
CONTINUOUS
370
-3
390
F
  0
LAYER
  5
273
100
AcDbSymbolTableRecord
100
AcDbLayerTableRecord
  2
VG_VAR_S05_D7_S4_3_H8_5_85000_2
 70
0
 62
7
  6
CONTINUOUS
370
-3
390
F
  0
LAYER
  5
274
100
AcDbSymbolTableRecord
100
AcDbLayerTableRecord
  2
___SHELL
 70
0
 62
7
  6
CONTINUOUS
370
-3
390
F
  0
ENDTAB
  0
TABLE
  2
STYLE
  5
3
100
AcDbSymbolTable
 70
1
  0
STYLE
  5
11
100
AcDbSymbolTableRecord
100
AcDbTextStyleTableRecord
  2
STANDARD
 70
0
 40
0.0
 41
0.8
 50
0.0
 71
0
 42
0.2
  3
txt
  4

  0
STYLE
  5
275
100
AcDbSymbolTableRecord
100
AcDbTextStyleTableRecord
  2
TEXTSTYLE_1
 70
0
 40
0.0
 41
0.8
 50
0.0
 71
0
 42
0.2
  3
gdt
  4

  0
ENDTAB
  0
TABLE
  2
VIEW
  5
6
100
AcDbSymbolTable
 70
0
  0
ENDTAB
  0
TABLE
  2
UCS
  5
7
100
AcDbSymbolTable
 70
0
  0
ENDTAB
  0
TABLE
  2
APPID
  5
9
100
AcDbSymbolTable
 70
1
  0
APPID
  5
276
100
AcDbSymbolTableRecord
100
AcDbRegAppTableRecord
  2
ACAD
 70
0
  0
ENDTAB
  0
TABLE
  2
BLOCK_RECORD
  5
1
100
AcDbSymbolTable
 70
0
  0
BLOCK_RECORD
  5
277
100
AcDbSymbolTableRecord
100
AcDbBlockTableRecord
  2
*Model_Space
  0
BLOCK_RECORD
  5
278
100
AcDbSymbolTableRecord
100
AcDbBlockTableRecord
  2
*Paper_Space
  0
BLOCK_RECORD
  5
279
100
AcDbSymbolTableRecord
100
AcDbBlockTableRecord
  2
_FILLED
  0
ENDTAB
  0
TABLE
  2
DIMSTYLE
  5
A
100
AcDbSymbolTable
 70
1
100
AcDbDimStyleTable
 71
0
  0
DIMSTYLE
105
27A
100
AcDbSymbolTableRecord
100
AcDbDimStyleTableRecord
  2
STANDARD
 70
0
  3

  4

 40
1.0
 41
3.0
 42
0.5
 43
0.38
 44
1.5
 45
0.0
 46
0.0
 47
0.01
 48
0.01
140
3.0
141
0.0
142
0.0
143
25.4
144
1.0
145
0.0
146
1.0
147
0.625
 71
1
 72
0
 73
0
 74
0
 75
0
 76
0
 77
1
 78
8
 79
2
170
0
171
1
172
0
173
0
174
0
175
0
176
0
177
0
178
0
270
2
179
2
271
2
272
2
273
2
274
2
275
0
280
0
281
0
282
0
283
1
284
8
285
0
286
0
287
3
288
0
340
11
278
44
341
279
342
279
343
279
344
279
  0
ENDTAB
  0
ENDSEC
  0
SECTION
  2
BLOCKS
  0
BLOCK
  5
20
100
AcDbEntity
  8
0
100
AcDbBlockBegin
  2
*Model_Space
 70
0
 10
0.0
 20
0.0
 30
0.0
  3
*Model_Space
  1

  0
ENDBLK
  5
21
100
AcDbEntity
  8
0
100
AcDbBlockEnd
  0
BLOCK
  5
1C
100
AcDbEntity
  8
0
100
AcDbBlockBegin
  2
*Paper_Space
 70
0
 10
0.0
 20
0.0
 30
0.0
  3
*Paper_Space
  1

  0
ENDBLK
  5
1D
100
AcDbEntity
  8
0
100
AcDbBlockEnd
  0
BLOCK
  5
27B
100
AcDbEntity
  8
0
100
AcDbBlockBegin
  2
_FILLED
 70
64
 10
0.0
 20
0.0
 30
0.0
  3
_FILLED
  1

  0
SOLID
  5
27C
100
AcDbEntity
  8
0
  6
BYBLOCK
 62
0
100
AcDbTrace
 10
0.0
 20
0.0
 30
0.0
 11
-1.0
 21
0.3166666667
 31
0.0
 12
-1.0
 22
-0.3166666667
 32
0.0
 13
-1.0
 23
-0.3166666667
 33
0.0
  0
ENDBLK
  5
27D
100
AcDbEntity
  8
0
  6
BYBLOCK
 62
0
100
AcDbBlockEnd
  0
ENDSEC
  0
SECTION
  2
ENTITIES
  0
LINE
  5
27E
100
AcDbEntity
  8
RACCORDO
100
AcDbLine
 62
7
  6
CONTINUOUS
 10
3.9500761524
 20
-27.45
 30
0.0
 11
-3.9500761524
 21
-27.45
 31
0.0
  0
LINE
  5
27F
100
AcDbEntity
  8
RACCORDO
100
AcDbLine
 62
7
  6
CONTINUOUS
 10
3.8977109576
 20
-27.3976348052
 30
0.0
 11
-3.8977109576
 21
-27.3976348052
 31
0.0
  0
LINE
  5
280
100
AcDbEntity
  8
0
100
AcDbLine
 62
7
  6
CONTINUOUS
 10
2.25
 20
-27.0
 30
0.0
 11
-2.25
 21
-27.0
 31
0.0
  0
LINE
  5
281
100
AcDbEntity
  8
0
100
AcDbLine
 62
7
  6
CONTINUOUS
 10
3.6750190381
 20
-26.75
 30
0.0
 11
2.8749809619
 21
-26.75
 31
0.0
  0
LINE
  5
282
100
AcDbEntity
  8
0
100
AcDbLine
 62
7
  6
CONTINUOUS
 10
-2.8749809619
 20
-26.75
 30
0.0
 11
-3.6750190381
 21
-26.75
 31
0.0
  0
LINE
  5
283
100
AcDbEntity
  8
0
100
AcDbLine
 62
250
  6
CONTINUOUS
 10
-3.637888946
 20
-26.7128699079
 30
0.0
 11
-2.912111054
 21
-26.7128699079
 31
0.0
  0
LINE
  5
284
100
AcDbEntity
  8
0
100
AcDbLine
 62
250
  6
CONTINUOUS
 10
2.912111054
 20
-26.7128699079
 30
0.0
 11
3.637888946
 21
-26.7128699079
 31
0.0
  0
LINE
  5
285
100
AcDbEntity
  8
0
100
AcDbLine
 62
250
  6
CONTINUOUS
 10
2.7871300921
 20
-26.587888946
 30
0.0
 11
3.7628699079
 21
-26.587888946
 31
0.0
  0
LINE
  5
286
100
AcDbEntity
  8
0
100
AcDbLine
 62
250
  6
CONTINUOUS
 10
-2.7871300921
 20
-26.587888946
 30
0.0
 11
-3.7628699079
 21
-26.587888946
 31
0.0
  0
LINE
  5
287
100
AcDbEntity
  8
RACCORDO
100
AcDbLine
 62
7
  6
CONTINUOUS
 10
1.9500380762
 20
-25.05
 30
0.0
 11
-1.9500380762
 21
-25.05
 31
0.0
  0
LINE
  5
288
100
AcDbEntity
  8
RACCORDO
100
AcDbLine
 62
7
  6
CONTINUOUS
 10
1.9125096866
 20
-25.0124716104
 30
0.0
 11
-1.9125096866
 21
-25.0124716104
 31
0.0
  0
LINE
  5
289
100
AcDbEntity
  8
DRAFT
100
AcDbLine
 62
7
  6
CONTINUOUS
 10
-1.6555463636
 20
-24.3
 30
0.0
 11
1.6555463636
 21
-24.3
 31
0.0
  0
LINE
  5
28A
100
AcDbEntity
  8
0
100
AcDbLine
 62
7
  6
CONTINUOUS
 10
-2.25
 20
-23.375
 30
0.0
 11
-2.2
 21
-23.375
 31
0.0
  0
LINE
  5
28B
100
AcDbEntity
  8
ASSI
100
AcDbLine
 62
7
  6
CONTINUOUS
 10
-2.25
 20
-23.375
 30
0.0
 11
-2.2
 21
-23.375
 31
0.0
  0
LINE
  5
28C
100
AcDbEntity
  8
0
100
AcDbLine
 62
7
  6
CONTINUOUS
 10
-1.618017974
 20
-23.375
 30
0.0
 11
1.618017974
 21
-23.375
 31
0.0
  0
LINE
  5
28D
100
AcDbEntity
  8
ASSI
100
AcDbLine
 62
7
  6
CONTINUOUS
 10
-1.618017974
 20
-23.375
 30
0.0
 11
1.618017974
 21
-23.375
 31
0.0
  0
LINE
  5
28E
100
AcDbEntity
  8
0
100
AcDbLine
 62
7
  6
CONTINUOUS
 10
2.2
 20
-23.375
 30
0.0
 11
2.25
 21
-23.375
 31
0.0
  0
LINE
  5
28F
100
AcDbEntity
  8
ASSI
100
AcDbLine
 62
7
  6
CONTINUOUS
 10
2.2
 20
-23.375
 30
0.0
 11
2.25
 21
-23.375
 31
0.0
  0
LINE
  5
290
100
AcDbEntity
  8
DRAFT
100
AcDbLine
 62
7
  6
CONTINUOUS
 10
1.6311092727
 20
-23.2
 30
0.0
 11
-1.6311092727
 21
-23.2
 31
0.0
  0
LINE
  5
291
100
AcDbEntity
  8
0
100
AcDbLine
 62
250
  6
CONTINUOUS
 10
-3.7628699079
 20
-22.662111054
 30
0.0
 11
-2.7871300921
 21
-22.662111054
 31
0.0
  0
LINE
  5
292
100
AcDbEntity
  8
0
100
AcDbLine
 62
250
  6
CONTINUOUS
 10
2.7871300921
 20
-22.662111054
 30
0.0
 11
3.7628699079
 21
-22.662111054
 31
0.0
  0
LINE
  5
293
100
AcDbEntity
  8
0
100
AcDbLine
 62
250
  6
CONTINUOUS
 10
-3.637888946
 20
-22.5371300921
 30
0.0
 11
-2.912111054
 21
-22.5371300921
 31
0.0
  0
LINE
  5
294
100
AcDbEntity
  8
0
100
AcDbLine
 62
250
  6
CONTINUOUS
 10
2.912111054
 20
-22.5371300921
 30
0.0
 11
3.637888946
 21
-22.5371300921
 31
0.0
  0
LINE
  5
295
100
AcDbEntity
  8
0
100
AcDbLine
 62
7
  6
CONTINUOUS
 10
2.25
 20
-22.5248705212
 30
0.0
 11
2.2
 21
-22.5248705212
 31
0.0
  0
LINE
  5
296
100
AcDbEntity
  8
ASSI
100
AcDbLine
 62
7
  6
CONTINUOUS
 10
2.25
 20
-22.5248705212
 30
0.0
 11
2.2
 21
-22.5248705212
 31
0.0
  0
LINE
  5
297
100
AcDbEntity
  8
0
100
AcDbLine
 62
7
  6
CONTINUOUS
 10
-2.2
 20
-22.5248705212
 30
0.0
 11
-2.25
 21
-22.5248705212
 31
0.0
  0
LINE
  5
298
100
AcDbEntity
  8
ASSI
100
AcDbLine
 62
7
  6
CONTINUOUS
 10
-2.2
 20
-22.5248705212
 30
0.0
 11
-2.25
 21
-22.5248705212
 31
0.0
  0
LINE
  5
299
100
AcDbEntity
  8
0
100
AcDbLine
 62
7
  6
CONTINUOUS
 10
3.6750190381
 20
-22.5
 30
0.0
 11
2.8749809619
 21
-22.5
 31
0.0
  0
LINE
  5
29A
100
AcDbEntity
  8
0
100
AcDbLine
 62
7
  6
CONTINUOUS
 10
-2.8749809619
 20
-22.5
 30
0.0
 11
-3.6750190381
 21
-22.5
 31
0.0
  0
LINE
  5
29B
100
AcDbEntity
  8
0
100
AcDbLine
 62
7
  6
CONTINUOUS
 10
2.25
 20
-22.4550502614
 30
0.0
 11
2.2
 21
-22.4550502614
 31
0.0
  0
LINE
  5
29C
100
AcDbEntity
  8
ASSI
100
AcDbLine
 62
7
  6
CONTINUOUS
 10
2.25
 20
-22.4550502614
 30
0.0
 11
2.2
 21
-22.4550502614
 31
0.0
  0
LINE
  5
29D
100
AcDbEntity
  8
0
100
AcDbLine
 62
7
  6
CONTINUOUS
 10
-2.2
 20
-22.4550502614
 30
0.0
 11
-2.25
 21
-22.4550502614
 31
0.0
  0
LINE
  5
29E
100
AcDbEntity
  8
ASSI
100
AcDbLine
 62
7
  6
CONTINUOUS
 10
-2.2
 20
-22.4550502614
 30
0.0
 11
-2.25
 21
-22.4550502614
 31
0.0
  0
LINE
  5
29F
100
AcDbEntity
  8
0
100
AcDbLine
 62
7
  6
CONTINUOUS
 10
-2.25
 20
-22.35
 30
0.0
 11
-2.2
 21
-22.35
 31
0.0
  0
LINE
  5
2A0
100
AcDbEntity
  8
0
100
AcDbLine
 62
7
  6
CONTINUOUS
 10
2.2
 20
-22.35
 30
0.0
 11
2.25
 21
-22.35
 31
0.0
  0
LINE
  5
2A1
100
AcDbEntity
  8
0
100
AcDbLine
 62
7
  6
CONTINUOUS
 10
2.25
 20
-21.8369087013
 30
0.0
 11
2.2
 21
-21.8369087013
 31
0.0
  0
LINE
  5
2A2
100
AcDbEntity
  8
0
100
AcDbLine
 62
7
  6
CONTINUOUS
 10
-2.2
 20
-21.8369087013
 30
0.0
 11
-2.25
 21
-21.8369087013
 31
0.0
  0
LINE
  5
2A3
100
AcDbEntity
  8
0
100
AcDbLine
 62
7
  6
CONTINUOUS
 10
2.25
 20
-21.5630912987
 30
0.0
 11
1.8119087013
 21
-21.5630912987
 31
0.0
  0
LINE
  5
2A4
100
AcDbEntity
  8
0
100
AcDbLine
 62
7
  6
CONTINUOUS
 10
-1.8119087013
 20
-21.5630912987
 30
0.0
 11
-2.25
 21
-21.5630912987
 31
0.0
  0
LINE
  5
2A5
100
AcDbEntity
  8
0
100
AcDbLine
 62
7
  6
CONTINUOUS
 10
2.25
 20
-21.55
 30
0.0
 11
1.825
 21
-21.55
 31
0.0
  0
LINE
  5
2A6
100
AcDbEntity
  8
0
100
AcDbLine
 62
7
  6
CONTINUOUS
 10
-1.825
 20
-21.55
 30
0.0
 11
-2.25
 21
-21.55
 31
0.0
  0
LINE
  5
2A7
100
AcDbEntity
  8
DRAFT
100
AcDbLine
 62
7
  6
CONTINUOUS
 10
-1.6311092727
 20
-20.8
 30
0.0
 11
1.6311092727
 21
-20.8
 31
0.0
  0
LINE
  5
2A8
100
AcDbEntity
  8
0
100
AcDbLine
 62
250
  6
CONTINUOUS
 10
-2.912111054
 20
-26.7128699079
 30
0.0
 11
-2.8749809619
 21
-26.75
 31
0.0
  0
LINE
  5
2A9
100
AcDbEntity
  8
0
100
AcDbLine
 62
250
  6
CONTINUOUS
 10
-2.7871300921
 20
-26.587888946
 30
0.0
 11
-2.75
 21
-26.6250190381
 31
0.0
  0
LINE
  5
2AA
100
AcDbEntity
  8
0
100
AcDbLine
 62
250
  6
CONTINUOUS
 10
-3.7628699079
 20
23.162111054
 30
0.0
 11
-3.8
 21
23.1249809619
 31
0.0
  0
LINE
  5
2AB
100
AcDbEntity
  8
0
100
AcDbLine
 62
250
  6
CONTINUOUS
 10
-3.637888946
 20
23.0371300921
 30
0.0
 11
-3.6750190381
 21
23.0
 31
0.0
  0
LINE
  5
2AC
100
AcDbEntity
  8
0
100
AcDbLine
 62
250
  6
CONTINUOUS
 10
-3.8
 20
-22.6249809619
 30
0.0
 11
-3.7628699079
 21
-22.662111054
 31
0.0
  0
LINE
  5
2AD
100
AcDbEntity
  8
0
100
AcDbLine
 62
250
  6
CONTINUOUS
 10
-3.6750190381
 20
-22.5
 30
0.0
 11
-3.637888946
 21
-22.5371300921
 31
0.0
  0
LINE
  5
2AE
100
AcDbEntity
  8
RACCORDO
100
AcDbLine
 62
250
  6
CONTINUOUS
 10
3.9500761524
 20
27.45
 30
0.0
 11
3.8977109576
 21
27.3976348052
 31
0.0
  0
LINE
  5
2AF
100
AcDbEntity
  8
0
100
AcDbLine
 62
7
  6
CONTINUOUS
 10
-3.967692402
 20
17.9036679197
 30
0.0
 11
-3.875
 21
17.95
 31
0.0
  0
LINE
  5
2B0
100
AcDbEntity
  8
ASSI
100
AcDbLine
 62
7
  6
CONTINUOUS
 10
-3.967692402
 20
17.9036679197
 30
0.0
 11
-3.875
 21
17.95
 31
0.0
  0
LINE
  5
2B1
100
AcDbEntity
  8
DRAFT
100
AcDbLine
 62
7
  6
CONTINUOUS
 10
-4.3976348052
 20
-18.0523651948
 30
0.0
 11
-3.8692005714
 21
-18.0523651948
 31
0.0
  0
LINE
  5
2B2
100
AcDbEntity
  8
DRAFT
100
AcDbLine
 62
7
  6
CONTINUOUS
 10
4.3976348052
 20
-18.0523651948
 30
0.0
 11
3.8692005714
 21
-18.0523651948
 31
0.0
  0
LINE
  5
2B3
100
AcDbEntity
  8
DRAFT
100
AcDbLine
 62
7
  6
CONTINUOUS
 10
-4.45
 20
-18.0
 30
0.0
 11
-3.8692005714
 21
-18.0
 31
0.0
  0
LINE
  5
2B4
100
AcDbEntity
  8
DRAFT
100
AcDbLine
 62
7
  6
CONTINUOUS
 10
4.45
 20
-18.0
 30
0.0
 11
3.8692005714
 21
-18.0
 31
0.0
  0
LINE
  5
2B5
100
AcDbEntity
  8
0
100
AcDbLine
 62
7
  6
CONTINUOUS
 10
-4.45
 20
-17.95
 30
0.0
 11
-3.875
 21
-17.95
 31
0.0
  0
LINE
  5
2B6
100
AcDbEntity
  8
ASSI
100
AcDbLine
 62
7
  6
CONTINUOUS
 10
-4.45
 20
-17.95
 30
0.0
 11
-3.875
 21
-17.95
 31
0.0
  0
LINE
  5
2B7
100
AcDbEntity
  8
0
100
AcDbLine
 62
7
  6
CONTINUOUS
 10
4.45
 20
-17.95
 30
0.0
 11
3.875
 21
-17.95
 31
0.0
  0
LINE
  5
2B8
100
AcDbEntity
  8
ASSI
100
AcDbLine
 62
7
  6
CONTINUOUS
 10
4.45
 20
-17.95
 30
0.0
 11
3.875
 21
-17.95
 31
0.0
  0
LINE
  5
2B9
100
AcDbEntity
  8
0
100
AcDbLine
 62
250
  6
CONTINUOUS
 10
-4.45
 20
-17.9036679197
 30
0.0
 11
-3.967692402
 21
-17.9036679197
 31
0.0
  0
LINE
  5
2BA
100
AcDbEntity
  8
ASSI
100
AcDbLine
 62
250
  6
CONTINUOUS
 10
-4.45
 20
-17.9036679197
 30
0.0
 11
-3.967692402
 21
-17.9036679197
 31
0.0
  0
LINE
  5
2BB
100
AcDbEntity
  8
0
100
AcDbLine
 62
250
  6
CONTINUOUS
 10
3.967692402
 20
-17.9036679197
 30
0.0
 11
4.45
 21
-17.9036679197
 31
0.0
  0
LINE
  5
2BC
100
AcDbEntity
  8
ASSI
100
AcDbLine
 62
250
  6
CONTINUOUS
 10
3.967692402
 20
-17.9036679197
 30
0.0
 11
4.45
 21
-17.9036679197
 31
0.0
  0
LINE
  5
2BD
100
AcDbEntity
  8
0
100
AcDbLine
 62
250
  6
CONTINUOUS
 10
-4.45
 20
-17.6537059959
 30
0.0
 11
-3.9762702315
 21
-17.6537059959
 31
0.0
  0
LINE
  5
2BE
100
AcDbEntity
  8
ASSI
100
AcDbLine
 62
250
  6
CONTINUOUS
 10
-4.45
 20
-17.6537059959
 30
0.0
 11
-3.9762702315
 21
-17.6537059959
 31
0.0
  0
LINE
  5
2BF
100
AcDbEntity
  8
0
100
AcDbLine
 62
250
  6
CONTINUOUS
 10
3.9762702315
 20
-17.6537059959
 30
0.0
 11
4.45
 21
-17.6537059959
 31
0.0
  0
LINE
  5
2C0
100
AcDbEntity
  8
ASSI
100
AcDbLine
 62
250
  6
CONTINUOUS
 10
3.9762702315
 20
-17.6537059959
 30
0.0
 11
4.45
 21
-17.6537059959
 31
0.0
  0
LINE
  5
2C1
100
AcDbEntity
  8
0
100
AcDbLine
 62
7
  6
CONTINUOUS
 10
-3.875
 20
-17.95
 30
0.0
 11
-3.967692402
 21
-17.9036679197
 31
0.0
  0
LINE
  5
2C2
100
AcDbEntity
  8
ASSI
100
AcDbLine
 62
7
  6
CONTINUOUS
 10
-3.875
 20
-17.95
 30
0.0
 11
-3.967692402
 21
-17.9036679197
 31
0.0
  0
LINE
  5
2C3
100
AcDbEntity
  8
RACCORDO
100
AcDbLine
 62
250
  6
CONTINUOUS
 10
3.8977109576
 20
-27.3976348052
 30
0.0
 11
3.9500761524
 21
-27.45
 31
0.0
  0
LINE
  5
2C4
100
AcDbEntity
  8
0
100
AcDbLine
 62
7
  6
CONTINUOUS
 10
-1.825
 20
-21.55
 30
0.0
 11
-1.8119087013
 21
-21.5630912987
 31
0.0
  0
LINE
  5
2C5
100
AcDbEntity
  8
0
100
AcDbLine
 62
250
  6
CONTINUOUS
 10
3.637888946
 20
26.7128699079
 30
0.0
 11
3.6750190381
 21
26.75
 31
0.0
  0
LINE
  5
2C6
100
AcDbEntity
  8
0
100
AcDbLine
 62
250
  6
CONTINUOUS
 10
3.7628699079
 20
26.587888946
 30
0.0
 11
3.8
 21
26.6250190381
 31
0.0
  0
LINE
  5
2C7
100
AcDbEntity
  8
RACCORDO
100
AcDbLine
 62
250
  6
CONTINUOUS
 10
4.45
 20
26.9500761524
 30
0.0
 11
4.3976348052
 21
26.8977109576
 31
0.0
  0
LINE
  5
2C8
100
AcDbEntity
  8
DRAFT
100
AcDbLine
 62
7
  6
CONTINUOUS
 10
-4.3976348052
 20
18.0523651948
 30
0.0
 11
-4.45
 21
18.0
 31
0.0
  0
LINE
  5
2C9
100
AcDbEntity
  8
DRAFT
100
AcDbLine
 62
7
  6
CONTINUOUS
 10
-1.6555463636
 20
-17.0056685335
 30
0.0
 11
-1.625
 21
-16.99748366
 31
0.0
  0
LINE
  5
2CA
100
AcDbEntity
  8
DRAFT
100
AcDbLine
 62
7
  6
CONTINUOUS
 10
1.6555463636
 20
-14.6943314665
 30
0.0
 11
1.625
 21
-14.70251634
 31
0.0
  0
LINE
  5
2CB
100
AcDbEntity
  8
0
100
AcDbLine
 62
7
  6
CONTINUOUS
 10
-3.9415487389
 20
-16.2805162787
 30
0.0
 11
-3.8906705111
 21
-16.2760650105
 31
0.0
  0
LINE
  5
2CC
100
AcDbEntity
  8
ASSI
100
AcDbLine
 62
7
  6
CONTINUOUS
 10
-3.9415487389
 20
-16.2805162787
 30
0.0
 11
-3.8906705111
 21
-16.2760650105
 31
0.0
  0
LINE
  5
2CD
100
AcDbEntity
  8
0
100
AcDbLine
 62
7
  6
CONTINUOUS
 10
3.9633945419
 20
-16.35
 30
0.0
 11
4.1762702315
 21
-16.35
 31
0.0
  0
LINE
  5
2CE
100
AcDbEntity
  8
ASSI
100
AcDbLine
 62
7
  6
CONTINUOUS
 10
3.9633945419
 20
-16.35
 30
0.0
 11
4.1762702315
 21
-16.35
 31
0.0
  0
LINE
  5
2CF
100
AcDbEntity
  8
0
100
AcDbLine
 62
7
  6
CONTINUOUS
 10
-3.9633945419
 20
-16.35
 30
0.0
 11
-4.1762702315
 21
-16.35
 31
0.0
  0
LINE
  5
2D0
100
AcDbEntity
  8
ASSI
100
AcDbLine
 62
7
  6
CONTINUOUS
 10
-3.9633945419
 20
-16.35
 30
0.0
 11
-4.1762702315
 21
-16.35
 31
0.0
  0
LINE
  5
2D1
100
AcDbEntity
  8
DRAFT
100
AcDbLine
 62
7
  6
CONTINUOUS
 10
3.8307994286
 20
-16.25
 30
0.0
 11
3.9432934636
 21
-16.25
 31
0.0
  0
LINE
  5
2D2
100
AcDbEntity
  8
DRAFT
100
AcDbLine
 62
7
  6
CONTINUOUS
 10
-3.8307994286
 20
-16.25
 30
0.0
 11
-3.9432934636
 21
-16.25
 31
0.0
  0
LINE
  5
2D3
100
AcDbEntity
  8
0
100
AcDbLine
 62
7
  6
CONTINUOUS
 10
3.9415487389
 20
-16.2805162787
 30
0.0
 11
3.8906705111
 21
-16.2760650105
 31
0.0
  0
LINE
  5
2D4
100
AcDbEntity
  8
ASSI
100
AcDbLine
 62
7
  6
CONTINUOUS
 10
3.9415487389
 20
-16.2805162787
 30
0.0
 11
3.8906705111
 21
-16.2760650105
 31
0.0
  0
LINE
  5
2D5
100
AcDbEntity
  8
DRAFT
100
AcDbLine
 62
7
  6
CONTINUOUS
 10
1.6555463636
 20
-17.0056685335
 30
0.0
 11
1.625
 21
-16.99748366
 31
0.0
  0
LINE
  5
2D6
100
AcDbEntity
  8
DRAFT
100
AcDbLine
 62
7
  6
CONTINUOUS
 10
-1.6555463636
 20
-14.6943314665
 30
0.0
 11
-1.625
 21
-14.70251634
 31
0.0
  0
LINE
  5
2D7
100
AcDbEntity
  8
RACCORDO
100
AcDbLine
 62
250
  6
CONTINUOUS
 10
1.9500380762
 20
-25.05
 30
0.0
 11
1.9125096866
 21
-25.0124716104
 31
0.0
  0
LINE
  5
2D8
100
AcDbEntity
  8
0
100
AcDbLine
 62
250
  6
CONTINUOUS
 10
3.6750190381
 20
-26.75
 30
0.0
 11
3.637888946
 21
-26.7128699079
 31
0.0
  0
LINE
  5
2D9
100
AcDbEntity
  8
0
100
AcDbLine
 62
250
  6
CONTINUOUS
 10
3.8
 20
-26.6250190381
 30
0.0
 11
3.7628699079
 21
-26.587888946
 31
0.0
  0
LINE
  5
2DA
100
AcDbEntity
  8
RACCORDO
100
AcDbLine
 62
250
  6
CONTINUOUS
 10
2.2
 20
-24.8000380762
 30
0.0
 11
2.1624716104
 21
-24.7625096866
 31
0.0
  0
LINE
  5
2DB
100
AcDbEntity
  8
RACCORDO
100
AcDbLine
 62
250
  6
CONTINUOUS
 10
4.3976348052
 20
-26.8977109576
 30
0.0
 11
4.45
 21
-26.9500761524
 31
0.0
  0
LINE
  5
2DC
100
AcDbEntity
  8
DRAFT
100
AcDbLine
 62
7
  6
CONTINUOUS
 10
-4.3976348052
 20
-18.0523651948
 30
0.0
 11
-4.45
 21
-18.0
 31
0.0
  0
LINE
  5
2DD
100
AcDbEntity
  8
0
100
AcDbLine
 62
7
  6
CONTINUOUS
 10
3.8906705111
 20
-13.7239349895
 30
0.0
 11
3.9415487389
 21
-13.7194837213
 31
0.0
  0
LINE
  5
2DE
100
AcDbEntity
  8
ASSI
100
AcDbLine
 62
7
  6
CONTINUOUS
 10
3.8906705111
 20
-13.7239349895
 30
0.0
 11
3.9415487389
 21
-13.7194837213
 31
0.0
  0
LINE
  5
2DF
100
AcDbEntity
  8
DRAFT
100
AcDbLine
 62
7
  6
CONTINUOUS
 10
3.9432934636
 20
-13.75
 30
0.0
 11
3.8307994286
 21
-13.75
 31
0.0
  0
LINE
  5
2E0
100
AcDbEntity
  8
DRAFT
100
AcDbLine
 62
7
  6
CONTINUOUS
 10
-3.8307994286
 20
-13.75
 30
0.0
 11
-3.9432934636
 21
-13.75
 31
0.0
  0
LINE
  5
2E1
100
AcDbEntity
  8
0
100
AcDbLine
 62
7
  6
CONTINUOUS
 10
3.9633945419
 20
-13.65
 30
0.0
 11
4.1762702315
 21
-13.65
 31
0.0
  0
LINE
  5
2E2
100
AcDbEntity
  8
ASSI
100
AcDbLine
 62
7
  6
CONTINUOUS
 10
3.9633945419
 20
-13.65
 30
0.0
 11
4.1762702315
 21
-13.65
 31
0.0
  0
LINE
  5
2E3
100
AcDbEntity
  8
0
100
AcDbLine
 62
7
  6
CONTINUOUS
 10
-3.9633945419
 20
-13.65
 30
0.0
 11
-4.1762702315
 21
-13.65
 31
0.0
  0
LINE
  5
2E4
100
AcDbEntity
  8
ASSI
100
AcDbLine
 62
7
  6
CONTINUOUS
 10
-3.9633945419
 20
-13.65
 30
0.0
 11
-4.1762702315
 21
-13.65
 31
0.0
  0
LINE
  5
2E5
100
AcDbEntity
  8
0
100
AcDbLine
 62
7
  6
CONTINUOUS
 10
-3.8906705111
 20
-13.7239349895
 30
0.0
 11
-3.9415487389
 21
-13.7194837213
 31
0.0
  0
LINE
  5
2E6
100
AcDbEntity
  8
ASSI
100
AcDbLine
 62
7
  6
CONTINUOUS
 10
-3.8906705111
 20
-13.7239349895
 30
0.0
 11
-3.9415487389
 21
-13.7194837213
 31
0.0
  0
LINE
  5
2E7
100
AcDbEntity
  8
0
100
AcDbLine
 62
250
  6
CONTINUOUS
 10
2.75
 20
-22.6249809619
 30
0.0
 11
2.7871300921
 21
-22.662111054
 31
0.0
  0
LINE
  5
2E8
100
AcDbEntity
  8
0
100
AcDbLine
 62
250
  6
CONTINUOUS
 10
2.8749809619
 20
-22.5
 30
0.0
 11
2.912111054
 21
-22.5371300921
 31
0.0
  0
LINE
  5
2E9
100
AcDbEntity
  8
0
100
AcDbLine
 62
7
  6
CONTINUOUS
 10
-1.8301519976
 20
19.2121458629
 30
0.0
 11
-1.6298157689
 21
19.5008405716
 31
0.0
  0
LINE
  5
2EA
100
AcDbEntity
  8
0
100
AcDbLine
 62
7
  6
CONTINUOUS
 10
1.0611588638
 20
20.856039722
 30
0.0
 11
0.8053791921
 21
20.5329596369
 31
0.0
  0
LINE
  5
2EB
100
AcDbEntity
  8
0
100
AcDbLine
 62
250
  6
CONTINUOUS
 10
-4.45
 20
-12.3462940041
 30
0.0
 11
-3.9762702315
 21
-12.3462940041
 31
0.0
  0
LINE
  5
2EC
100
AcDbEntity
  8
ASSI
100
AcDbLine
 62
250
  6
CONTINUOUS
 10
-4.45
 20
-12.3462940041
 30
0.0
 11
-3.9762702315
 21
-12.3462940041
 31
0.0
  0
LINE
  5
2ED
100
AcDbEntity
  8
0
100
AcDbLine
 62
250
  6
CONTINUOUS
 10
3.9762702315
 20
-12.3462940041
 30
0.0
 11
4.45
 21
-12.3462940041
 31
0.0
  0
LINE
  5
2EE
100
AcDbEntity
  8
ASSI
100
AcDbLine
 62
250
  6
CONTINUOUS
 10
3.9762702315
 20
-12.3462940041
 30
0.0
 11
4.45
 21
-12.3462940041
 31
0.0
  0
LINE
  5
2EF
100
AcDbEntity
  8
0
100
AcDbLine
 62
250
  6
CONTINUOUS
 10
-4.45
 20
-12.0963320803
 30
0.0
 11
-3.967692402
 21
-12.0963320803
 31
0.0
  0
LINE
  5
2F0
100
AcDbEntity
  8
ASSI
100
AcDbLine
 62
250
  6
CONTINUOUS
 10
-4.45
 20
-12.0963320803
 30
0.0
 11
-3.967692402
 21
-12.0963320803
 31
0.0
  0
LINE
  5
2F1
100
AcDbEntity
  8
0
100
AcDbLine
 62
250
  6
CONTINUOUS
 10
3.967692402
 20
-12.0963320803
 30
0.0
 11
4.45
 21
-12.0963320803
 31
0.0
  0
LINE
  5
2F2
100
AcDbEntity
  8
ASSI
100
AcDbLine
 62
250
  6
CONTINUOUS
 10
3.967692402
 20
-12.0963320803
 30
0.0
 11
4.45
 21
-12.0963320803
 31
0.0
  0
LINE
  5
2F3
100
AcDbEntity
  8
0
100
AcDbLine
 62
7
  6
CONTINUOUS
 10
-4.45
 20
-12.05
 30
0.0
 11
-3.875
 21
-12.05
 31
0.0
  0
LINE
  5
2F4
100
AcDbEntity
  8
ASSI
100
AcDbLine
 62
7
  6
CONTINUOUS
 10
-4.45
 20
-12.05
 30
0.0
 11
-3.875
 21
-12.05
 31
0.0
  0
LINE
  5
2F5
100
AcDbEntity
  8
0
100
AcDbLine
 62
7
  6
CONTINUOUS
 10
4.45
 20
-12.05
 30
0.0
 11
3.875
 21
-12.05
 31
0.0
  0
LINE
  5
2F6
100
AcDbEntity
  8
ASSI
100
AcDbLine
 62
7
  6
CONTINUOUS
 10
4.45
 20
-12.05
 30
0.0
 11
3.875
 21
-12.05
 31
0.0
  0
LINE
  5
2F7
100
AcDbEntity
  8
DRAFT
100
AcDbLine
 62
7
  6
CONTINUOUS
 10
-4.45
 20
-12.0
 30
0.0
 11
-3.8692005714
 21
-12.0
 31
0.0
  0
LINE
  5
2F8
100
AcDbEntity
  8
DRAFT
100
AcDbLine
 62
7
  6
CONTINUOUS
 10
4.45
 20
-12.0
 30
0.0
 11
3.8692005714
 21
-12.0
 31
0.0
  0
LINE
  5
2F9
100
AcDbEntity
  8
DRAFT
100
AcDbLine
 62
7
  6
CONTINUOUS
 10
-4.3976348052
 20
-11.9476348052
 30
0.0
 11
-3.8692005714
 21
-11.9476348052
 31
0.0
  0
LINE
  5
2FA
100
AcDbEntity
  8
DRAFT
100
AcDbLine
 62
7
  6
CONTINUOUS
 10
4.3976348052
 20
-11.9476348052
 30
0.0
 11
3.8692005714
 21
-11.9476348052
 31
0.0
  0
LINE
  5
2FB
100
AcDbEntity
  8
0
100
AcDbLine
 62
7
  6
CONTINUOUS
 10
-2.7794251415
 20
20.4728682171
 30
0.0
 11
-2.7266376654
 21
20.6246380872
 31
0.0
  0
LINE
  5
2FC
100
AcDbEntity
  8
0
100
AcDbLine
 62
7
  6
CONTINUOUS
 10
-2.19662884
 20
21.2062669282
 30
0.0
 11
-2.1438413639
 21
21.3580367984
 31
0.0
  0
LINE
  5
2FD
100
AcDbEntity
  8
0
100
AcDbLine
 62
7
  6
CONTINUOUS
 10
-2.5326568044
 20
21.2062669282
 30
0.0
 11
-2.384823479
 21
21.6251517699
 31
0.0
  0
LINE
  5
2FE
100
AcDbEntity
  8
0
100
AcDbLine
 62
7
  6
CONTINUOUS
 10
-2.4049329694
 20
21.7071074998
 30
0.0
 11
-2.5288151173
 21
21.3594122338
 31
0.0
  0
LINE
  5
2FF
100
AcDbEntity
  8
0
100
AcDbLine
 62
7
  6
CONTINUOUS
 10
-3.1072480611
 20
21.7071074998
 30
0.0
 11
-3.2451689045
 21
21.344187818
 31
0.0
  0
LINE
  5
300
100
AcDbEntity
  8
0
100
AcDbLine
 62
7
  6
CONTINUOUS
 10
-3.1072480611
 20
20.9737087886
 30
0.0
 11
-3.2451689045
 21
20.6107891068
 31
0.0
  0
LINE
  5
301
100
AcDbEntity
  8
0
100
AcDbLine
 62
7
  6
CONTINUOUS
 10
-2.6595269209
 20
20.9737087886
 30
0.0
 11
-2.8499032387
 21
20.4728682171
 31
0.0
  0
LINE
  5
302
100
AcDbEntity
  8
0
100
AcDbLine
 62
7
  6
CONTINUOUS
 10
-2.0767306194
 20
21.7071074998
 30
0.0
 11
-2.2671069373
 21
21.2062669282
 31
0.0
  0
LINE
  5
303
100
AcDbEntity
  8
0
100
AcDbLine
 62
7
  6
CONTINUOUS
 10
-2.7548099143
 20
19.5008405716
 30
0.0
 11
-2.9451862321
 21
19.0
 31
0.0
  0
LINE
  5
304
100
AcDbEntity
  8
0
100
AcDbLine
 62
7
  6
CONTINUOUS
 10
-3.2355884242
 20
21.2062669282
 30
0.0
 11
-3.0358213413
 21
21.7071074998
 31
0.0
  0
LINE
  5
305
100
AcDbEntity
  8
0
100
AcDbLine
 62
7
  6
CONTINUOUS
 10
-3.2355884242
 20
20.4728682171
 30
0.0
 11
-3.0358213413
 21
20.9737087886
 31
0.0
  0
LINE
  5
306
100
AcDbEntity
  8
0
100
AcDbLine
 62
7
  6
CONTINUOUS
 10
2.5082371355
 20
20.9737087886
 30
0.0
 11
2.2745115355
 21
20.6489212665
 31
0.0
  0
LINE
  5
307
100
AcDbEntity
  8
0
100
AcDbLine
 62
7
  6
CONTINUOUS
 10
2.3353143412
 20
20.6489212665
 30
0.0
 11
2.4960955459
 21
20.8724024292
 31
0.0
  0
LINE
  5
308
100
AcDbEntity
  8
0
100
AcDbLine
 62
7
  6
CONTINUOUS
 10
3.875
 20
12.05
 30
0.0
 11
3.967692402
 21
12.0963320803
 31
0.0
  0
LINE
  5
309
100
AcDbEntity
  8
ASSI
100
AcDbLine
 62
7
  6
CONTINUOUS
 10
3.875
 20
12.05
 30
0.0
 11
3.967692402
 21
12.0963320803
 31
0.0
  0
LINE
  5
30A
100
AcDbEntity
  8
0
100
AcDbLine
 62
7
  6
CONTINUOUS
 10
-2.25
 20
-10.825
 30
0.0
 11
-1.825
 21
-10.825
 31
0.0
  0
LINE
  5
30B
100
AcDbEntity
  8
0
100
AcDbLine
 62
7
  6
CONTINUOUS
 10
1.825
 20
-10.825
 30
0.0
 11
2.25
 21
-10.825
 31
0.0
  0
LINE
  5
30C
100
AcDbEntity
  8
0
100
AcDbLine
 62
7
  6
CONTINUOUS
 10
-2.25
 20
-10.8119087013
 30
0.0
 11
-1.8119087013
 21
-10.8119087013
 31
0.0
  0
LINE
  5
30D
100
AcDbEntity
  8
0
100
AcDbLine
 62
7
  6
CONTINUOUS
 10
1.8119087013
 20
-10.8119087013
 30
0.0
 11
2.25
 21
-10.8119087013
 31
0.0
  0
LINE
  5
30E
100
AcDbEntity
  8
0
100
AcDbLine
 62
7
  6
CONTINUOUS
 10
-2.25
 20
-10.6380912987
 30
0.0
 11
-2.2
 21
-10.6380912987
 31
0.0
  0
LINE
  5
30F
100
AcDbEntity
  8
0
100
AcDbLine
 62
7
  6
CONTINUOUS
 10
-1.618017974
 20
-10.6380912987
 30
0.0
 11
-1.5880912987
 21
-10.6380912987
 31
0.0
  0
LINE
  5
310
100
AcDbEntity
  8
0
100
AcDbLine
 62
7
  6
CONTINUOUS
 10
1.5880912987
 20
-10.6380912987
 30
0.0
 11
1.618017974
 21
-10.6380912987
 31
0.0
  0
LINE
  5
311
100
AcDbEntity
  8
0
100
AcDbLine
 62
7
  6
CONTINUOUS
 10
2.2
 20
-10.6380912987
 30
0.0
 11
2.25
 21
-10.6380912987
 31
0.0
  0
LINE
  5
312
100
AcDbEntity
  8
DRAFT
100
AcDbLine
 62
7
  6
CONTINUOUS
 10
4.3976348052
 20
-10.2822233378
 30
0.0
 11
2.25
 21
-10.2822233378
 31
0.0
  0
LINE
  5
313
100
AcDbEntity
  8
DRAFT
100
AcDbLine
 62
7
  6
CONTINUOUS
 10
-2.25
 20
-10.2822233378
 30
0.0
 11
-4.3976348052
 21
-10.2822233378
 31
0.0
  0
LINE
  5
314
100
AcDbEntity
  8
DRAFT
100
AcDbLine
 62
7
  6
CONTINUOUS
 10
4.4281811688
 20
-10.1905097241
 30
0.0
 11
2.25
 21
-10.1905097241
 31
0.0
  0
LINE
  5
315
100
AcDbEntity
  8
DRAFT
100
AcDbLine
 62
7
  6
CONTINUOUS
 10
-2.25
 20
-10.1905097241
 30
0.0
 11
-4.4281811688
 21
-10.1905097241
 31
0.0
  0
LINE
  5
316
100
AcDbEntity
  8
DRAFT
100
AcDbLine
 62
7
  6
CONTINUOUS
 10
1.6555463636
 20
-9.65
 30
0.0
 11
-1.6555463636
 21
-9.65
 31
0.0
  0
LINE
  5
317
100
AcDbEntity
  8
SMUSSO
100
AcDbLine
 62
7
  6
CONTINUOUS
 10
4.4281811688
 20
-9.2905097241
 30
0.0
 11
2.25
 21
-9.2905097241
 31
0.0
  0
LINE
  5
318
100
AcDbEntity
  8
SMUSSO
100
AcDbLine
 62
7
  6
CONTINUOUS
 10
-2.25
 20
-9.2905097241
 30
0.0
 11
-4.4281811688
 21
-9.2905097241
 31
0.0
  0
LINE
  5
319
100
AcDbEntity
  8
0
100
AcDbLine
 62
7
  6
CONTINUOUS
 10
3.967692402
 20
-12.0963320803
 30
0.0
 11
3.875
 21
-12.05
 31
0.0
  0
LINE
  5
31A
100
AcDbEntity
  8
ASSI
100
AcDbLine
 62
7
  6
CONTINUOUS
 10
3.967692402
 20
-12.0963320803
 30
0.0
 11
3.875
 21
-12.05
 31
0.0
  0
LINE
  5
31B
100
AcDbEntity
  8
DRAFT
100
AcDbLine
 62
7
  6
CONTINUOUS
 10
-1.6555463636
 20
-17.0056685335
 30
0.0
 11
-1.8119087013
 21
-16.7348410202
 31
0.0
  0
LINE
  5
31C
100
AcDbEntity
  8
DRAFT
100
AcDbLine
 62
7
  6
CONTINUOUS
 10
-1.8119087013
 20
-16.673748293
 30
0.0
 11
-1.625
 21
-16.99748366
 31
0.0
  0
LINE
  5
31D
100
AcDbEntity
  8
0
100
AcDbLine
 62
7
  6
CONTINUOUS
 10
-2.8747081349
 20
19.0
 30
0.0
 11
-2.8219206588
 21
19.1517698702
 31
0.0
  0
LINE
  5
31E
100
AcDbEntity
  8
0
100
AcDbLine
 62
7
  6
CONTINUOUS
 10
-0.7408237602
 20
19.7425049033
 30
0.0
 11
-0.6880362841
 21
19.8942747735
 31
0.0
  0
LINE
  5
31F
100
AcDbEntity
  8
0
100
AcDbLine
 62
7
  6
CONTINUOUS
 10
-1.0768517246
 20
19.7425049033
 30
0.0
 11
-0.9290183992
 21
20.161389745
 31
0.0
  0
LINE
  5
320
100
AcDbEntity
  8
0
100
AcDbLine
 62
7
  6
CONTINUOUS
 10
-0.9491278896
 20
20.2433454749
 30
0.0
 11
-1.0730100375
 21
19.8956502089
 31
0.0
  0
LINE
  5
321
100
AcDbEntity
  8
0
100
AcDbLine
 62
7
  6
CONTINUOUS
 10
-0.9369389175
 20
20.9737087886
 30
0.0
 11
-1.074859761
 21
20.6107891068
 31
0.0
  0
LINE
  5
322
100
AcDbEntity
  8
0
100
AcDbLine
 62
7
  6
CONTINUOUS
 10
-0.6209255396
 20
20.2433454749
 30
0.0
 11
-0.8113018574
 21
19.7425049033
 31
0.0
  0
LINE
  5
323
100
AcDbEntity
  8
0
100
AcDbLine
 62
7
  6
CONTINUOUS
 10
0.0146581917
 20
21.7071074998
 30
0.0
 11
-0.1757181262
 21
21.2062669282
 31
0.0
  0
LINE
  5
324
100
AcDbEntity
  8
0
100
AcDbLine
 62
7
  6
CONTINUOUS
 10
-1.0652792807
 20
20.4728682171
 30
0.0
 11
-0.8655121977
 21
20.9737087886
 31
0.0
  0
LINE
  5
325
100
AcDbEntity
  8
SMUSSO
100
AcDbLine
 62
7
  6
CONTINUOUS
 10
4.4346283226
 20
-8.921152534
 30
0.0
 11
2.25
 21
-8.921152534
 31
0.0
  0
LINE
  5
326
100
AcDbEntity
  8
SMUSSO
100
AcDbLine
 62
7
  6
CONTINUOUS
 10
-2.25
 20
-8.921152534
 30
0.0
 11
-4.4346283226
 21
-8.921152534
 31
0.0
  0
LINE
  5
327
100
AcDbEntity
  8
DRAFT
100
AcDbLine
 62
7
  6
CONTINUOUS
 10
4.45
 20
-8.875
 30
0.0
 11
2.25
 21
-8.875
 31
0.0
  0
LINE
  5
328
100
AcDbEntity
  8
DRAFT
100
AcDbLine
 62
7
  6
CONTINUOUS
 10
-2.25
 20
-8.875
 30
0.0
 11
-4.45
 21
-8.875
 31
0.0
  0
LINE
  5
329
100
AcDbEntity
  8
DRAFT
100
AcDbLine
 62
7
  6
CONTINUOUS
 10
-2.1624716104
 20
-8.8
 30
0.0
 11
2.1624716104
 21
-8.8
 31
0.0
  0
LINE
  5
32A
100
AcDbEntity
  8
DRAFT
100
AcDbLine
 62
7
  6
CONTINUOUS
 10
-2.1799266753
 20
-7.8
 30
0.0
 11
2.1799266753
 21
-7.8
 31
0.0
  0
LINE
  5
32B
100
AcDbEntity
  8
DRAFT
100
AcDbLine
 62
7
  6
CONTINUOUS
 10
-4.3976348052
 20
-10.2822233378
 30
0.0
 11
-4.4281811688
 21
-10.1905097241
 31
0.0
  0
LINE
  5
32C
100
AcDbEntity
  8
0
100
AcDbLine
 62
7
  6
CONTINUOUS
 10
-3.3709481584
 20
20.0339030541
 30
0.0
 11
-3.3779675294
 21
19.9792659008
 31
0.0
  0
LINE
  5
32D
100
AcDbEntity
  8
DRAFT
100
AcDbLine
 62
7
  6
CONTINUOUS
 10
-4.3976348052
 20
9.0322233378
 30
0.0
 11
-4.45
 21
8.875
 31
0.0
  0
LINE
  5
32E
100
AcDbEntity
  8
0
100
AcDbLine
 62
7
  6
CONTINUOUS
 10
-0.1052400289
 20
21.2062669282
 30
0.0
 11
-0.0524525529
 21
21.3580367984
 31
0.0
  0
LINE
  5
32F
100
AcDbEntity
  8
0
100
AcDbLine
 62
7
  6
CONTINUOUS
 10
1.2880073793
 20
20.4728682171
 30
0.0
 11
1.3407948554
 21
20.6246380872
 31
0.0
  0
LINE
  5
330
100
AcDbEntity
  8
0
100
AcDbLine
 62
7
  6
CONTINUOUS
 10
1.4079055999
 20
20.9737087886
 30
0.0
 11
1.217529282
 21
20.4728682171
 31
0.0
  0
LINE
  5
331
100
AcDbEntity
  8
DRAFT
100
AcDbLine
 62
7
  6
CONTINUOUS
 10
4.3976348052
 20
11.9476348052
 30
0.0
 11
4.45
 21
12.0
 31
0.0
  0
LINE
  5
332
100
AcDbEntity
  8
0
100
AcDbLine
 62
7
  6
CONTINUOUS
 10
1.825
 20
-10.825
 30
0.0
 11
1.8119087013
 21
-10.8119087013
 31
0.0
  0
LINE
  5
333
100
AcDbEntity
  8
DRAFT
100
AcDbLine
 62
7
  6
CONTINUOUS
 10
4.3976348052
 20
-11.9476348052
 30
0.0
 11
4.45
 21
-12.0
 31
0.0
  0
LINE
  5
334
100
AcDbEntity
  8
DRAFT
100
AcDbLine
 62
7
  6
CONTINUOUS
 10
1.8119087013
 20
-15.026251707
 30
0.0
 11
1.625
 21
-14.70251634
 31
0.0
  0
LINE
  5
335
100
AcDbEntity
  8
DRAFT
100
AcDbLine
 62
7
  6
CONTINUOUS
 10
1.8119087013
 20
-14.9651589798
 30
0.0
 11
1.6555463636
 21
-14.6943314665
 31
0.0
  0
LINE
  5
336
100
AcDbEntity
  8
SMUSSO
100
AcDbLine
 62
7
  6
CONTINUOUS
 10
-4.4346283226
 20
-8.921152534
 30
0.0
 11
-4.45
 21
-8.875
 31
0.0
  0
LINE
  5
337
100
AcDbEntity
  8
SMUSSO
100
AcDbLine
 62
7
  6
CONTINUOUS
 10
-4.4281811688
 20
-9.2905097241
 30
0.0
 11
-4.4346283226
 21
-8.921152534
 31
0.0
  0
LINE
  5
338
100
AcDbEntity
  8
RACCORDO
100
AcDbLine
 62
7
  6
CONTINUOUS
 10
-4.45
 20
26.9500761524
 30
0.0
 11
-4.45
 21
18.0
 31
0.0
  0
LINE
  5
339
100
AcDbEntity
  8
RACCORDO
100
AcDbLine
 62
7
  6
CONTINUOUS
 10
-4.45
 20
-18.0
 30
0.0
 11
-4.45
 21
-26.9500761524
 31
0.0
  0
LINE
  5
33A
100
AcDbEntity
  8
0
100
AcDbLine
 62
7
  6
CONTINUOUS
 10
-4.45
 20
-23.375
 30
0.0
 11
-4.45
 21
-10.6531051612
 31
0.0
  0
LINE
  5
33B
100
AcDbEntity
  8
ASSI
100
AcDbLine
 62
7
  6
CONTINUOUS
 10
-4.45
 20
-23.375
 30
0.0
 11
-4.45
 21
-10.6531051612
 31
0.0
  0
LINE
  5
33C
100
AcDbEntity
  8
DRAFT
100
AcDbLine
 62
7
  6
CONTINUOUS
 10
-4.45
 20
-12.0
 30
0.0
 11
-4.45
 21
12.0
 31
0.0
  0
LINE
  5
33D
100
AcDbEntity
  8
0
100
AcDbLine
 62
7
  6
CONTINUOUS
 10
-4.45
 20
11.75
 30
0.0
 11
-4.45
 21
23.375
 31
0.0
  0
LINE
  5
33E
100
AcDbEntity
  8
ASSI
100
AcDbLine
 62
7
  6
CONTINUOUS
 10
-4.45
 20
11.75
 30
0.0
 11
-4.45
 21
23.375
 31
0.0
  0
LINE
  5
33F
100
AcDbEntity
  8
SMUSSO
100
AcDbLine
 62
7
  6
CONTINUOUS
 10
-4.4281811688
 20
-10.1905097241
 30
0.0
 11
-4.4281811688
 21
-9.2905097241
 31
0.0
  0
LINE
  5
340
100
AcDbEntity
  8
RACCORDO
100
AcDbLine
 62
7
  6
CONTINUOUS
 10
-4.3976348052
 20
-26.8977109576
 30
0.0
 11
-4.3976348052
 21
-18.0523651948
 31
0.0
  0
LINE
  5
341
100
AcDbEntity
  8
DRAFT
100
AcDbLine
 62
7
  6
CONTINUOUS
 10
-4.3976348052
 20
-11.9476348052
 30
0.0
 11
-4.3976348052
 21
-10.2822233378
 31
0.0
  0
LINE
  5
342
100
AcDbEntity
  8
DRAFT
100
AcDbLine
 62
7
  6
CONTINUOUS
 10
-4.3976348052
 20
9.0322233378
 30
0.0
 11
-4.3976348052
 21
11.9476348052
 31
0.0
  0
LINE
  5
343
100
AcDbEntity
  8
RACCORDO
100
AcDbLine
 62
7
  6
CONTINUOUS
 10
-4.3976348052
 20
18.0523651948
 30
0.0
 11
-4.3976348052
 21
26.8977109576
 31
0.0
  0
LINE
  5
344
100
AcDbEntity
  8
DRAFT
100
AcDbLine
 62
7
  6
CONTINUOUS
 10
-4.25
 20
9.0088198634
 30
0.0
 11
-4.25
 21
7.975
 31
0.0
  0
LINE
  5
345
100
AcDbEntity
  8
0
100
AcDbLine
 62
7
  6
CONTINUOUS
 10
-4.1762702315
 20
-13.65
 30
0.0
 11
-4.1762702315
 21
-16.35
 31
0.0
  0
LINE
  5
346
100
AcDbEntity
  8
ASSI
100
AcDbLine
 62
7
  6
CONTINUOUS
 10
-4.1762702315
 20
-13.65
 30
0.0
 11
-4.1762702315
 21
-16.35
 31
0.0
  0
LINE
  5
347
100
AcDbEntity
  8
0
100
AcDbLine
 62
7
  6
CONTINUOUS
 10
-4.1762702315
 20
13.65
 30
0.0
 11
-4.1762702315
 21
16.35
 31
0.0
  0
LINE
  5
348
100
AcDbEntity
  8
ASSI
100
AcDbLine
 62
7
  6
CONTINUOUS
 10
-4.1762702315
 20
13.65
 30
0.0
 11
-4.1762702315
 21
16.35
 31
0.0
  0
LINE
  5
349
100
AcDbEntity
  8
0
100
AcDbLine
 62
7
  6
CONTINUOUS
 10
-3.9762702315
 20
-17.6537059959
 30
0.0
 11
-3.9762702315
 21
-16.35
 31
0.0
  0
LINE
  5
34A
100
AcDbEntity
  8
ASSI
100
AcDbLine
 62
7
  6
CONTINUOUS
 10
-3.9762702315
 20
-17.6537059959
 30
0.0
 11
-3.9762702315
 21
-16.35
 31
0.0
  0
LINE
  5
34B
100
AcDbEntity
  8
0
100
AcDbLine
 62
7
  6
CONTINUOUS
 10
-3.9762702315
 20
-13.65
 30
0.0
 11
-3.9762702315
 21
-12.3462940041
 31
0.0
  0
LINE
  5
34C
100
AcDbEntity
  8
ASSI
100
AcDbLine
 62
7
  6
CONTINUOUS
 10
-3.9762702315
 20
-13.65
 30
0.0
 11
-3.9762702315
 21
-12.3462940041
 31
0.0
  0
LINE
  5
34D
100
AcDbEntity
  8
0
100
AcDbLine
 62
7
  6
CONTINUOUS
 10
-3.9762702315
 20
12.3462940041
 30
0.0
 11
-3.9762702315
 21
13.65
 31
0.0
  0
LINE
  5
34E
100
AcDbEntity
  8
ASSI
100
AcDbLine
 62
7
  6
CONTINUOUS
 10
-3.9762702315
 20
12.3462940041
 30
0.0
 11
-3.9762702315
 21
13.65
 31
0.0
  0
LINE
  5
34F
100
AcDbEntity
  8
0
100
AcDbLine
 62
7
  6
CONTINUOUS
 10
-3.9762702315
 20
16.35
 30
0.0
 11
-3.9762702315
 21
17.6537059959
 31
0.0
  0
LINE
  5
350
100
AcDbEntity
  8
ASSI
100
AcDbLine
 62
7
  6
CONTINUOUS
 10
-3.9762702315
 20
16.35
 30
0.0
 11
-3.9762702315
 21
17.6537059959
 31
0.0
  0
LINE
  5
351
100
AcDbEntity
  8
0
100
AcDbLine
 62
7
  6
CONTINUOUS
 10
-3.9633945419
 20
-13.65
 30
0.0
 11
-3.9633945419
 21
-16.35
 31
0.0
  0
LINE
  5
352
100
AcDbEntity
  8
ASSI
100
AcDbLine
 62
7
  6
CONTINUOUS
 10
-3.9633945419
 20
-13.65
 30
0.0
 11
-3.9633945419
 21
-16.35
 31
0.0
  0
LINE
  5
353
100
AcDbEntity
  8
0
100
AcDbLine
 62
7
  6
CONTINUOUS
 10
-3.9633945419
 20
13.65
 30
0.0
 11
-3.9633945419
 21
16.35
 31
0.0
  0
LINE
  5
354
100
AcDbEntity
  8
ASSI
100
AcDbLine
 62
7
  6
CONTINUOUS
 10
-3.9633945419
 20
13.65
 30
0.0
 11
-3.9633945419
 21
16.35
 31
0.0
  0
LINE
  5
355
100
AcDbEntity
  8
0
100
AcDbLine
 62
7
  6
CONTINUOUS
 10
-3.9432934636
 20
16.2308591874
 30
0.0
 11
-3.9432934636
 21
13.7691408126
 31
0.0
  0
LINE
  5
356
100
AcDbEntity
  8
ASSI
100
AcDbLine
 62
7
  6
CONTINUOUS
 10
-3.9432934636
 20
16.2308591874
 30
0.0
 11
-3.9432934636
 21
13.7691408126
 31
0.0
  0
LINE
  5
357
100
AcDbEntity
  8
0
100
AcDbLine
 62
7
  6
CONTINUOUS
 10
-3.9432934636
 20
-13.7691408126
 30
0.0
 11
-3.9432934636
 21
-16.2308591874
 31
0.0
  0
LINE
  5
358
100
AcDbEntity
  8
ASSI
100
AcDbLine
 62
7
  6
CONTINUOUS
 10
-3.9432934636
 20
-13.7691408126
 30
0.0
 11
-3.9432934636
 21
-16.2308591874
 31
0.0
  0
LINE
  5
359
100
AcDbEntity
  8
0
100
AcDbLine
 62
7
  6
CONTINUOUS
 10
-3.875
 20
-18.0
 30
0.0
 11
-3.875
 21
-16.25
 31
0.0
  0
LINE
  5
35A
100
AcDbEntity
  8
ASSI
100
AcDbLine
 62
7
  6
CONTINUOUS
 10
-3.875
 20
-18.0
 30
0.0
 11
-3.875
 21
-16.25
 31
0.0
  0
LINE
  5
35B
100
AcDbEntity
  8
0
100
AcDbLine
 62
7
  6
CONTINUOUS
 10
-3.875
 20
-13.75
 30
0.0
 11
-3.875
 21
-12.0
 31
0.0
  0
LINE
  5
35C
100
AcDbEntity
  8
ASSI
100
AcDbLine
 62
7
  6
CONTINUOUS
 10
-3.875
 20
-13.75
 30
0.0
 11
-3.875
 21
-12.0
 31
0.0
  0
LINE
  5
35D
100
AcDbEntity
  8
0
100
AcDbLine
 62
7
  6
CONTINUOUS
 10
-3.875
 20
12.0
 30
0.0
 11
-3.875
 21
13.75
 31
0.0
  0
LINE
  5
35E
100
AcDbEntity
  8
ASSI
100
AcDbLine
 62
7
  6
CONTINUOUS
 10
-3.875
 20
12.0
 30
0.0
 11
-3.875
 21
13.75
 31
0.0
  0
LINE
  5
35F
100
AcDbEntity
  8
0
100
AcDbLine
 62
7
  6
CONTINUOUS
 10
-3.875
 20
16.25
 30
0.0
 11
-3.875
 21
18.0
 31
0.0
  0
LINE
  5
360
100
AcDbEntity
  8
ASSI
100
AcDbLine
 62
7
  6
CONTINUOUS
 10
-3.875
 20
16.25
 30
0.0
 11
-3.875
 21
18.0
 31
0.0
  0
LINE
  5
361
100
AcDbEntity
  8
DRAFT
100
AcDbLine
 62
7
  6
CONTINUOUS
 10
-3.8692005714
 20
18.0523651948
 30
0.0
 11
-3.8692005714
 21
16.25
 31
0.0
  0
LINE
  5
362
100
AcDbEntity
  8
DRAFT
100
AcDbLine
 62
7
  6
CONTINUOUS
 10
-3.8692005714
 20
-11.9476348052
 30
0.0
 11
-3.8692005714
 21
-13.75
 31
0.0
  0
LINE
  5
363
100
AcDbEntity
  8
DRAFT
100
AcDbLine
 62
7
  6
CONTINUOUS
 10
-3.8692005714
 20
-16.25
 30
0.0
 11
-3.8692005714
 21
-18.0523651948
 31
0.0
  0
LINE
  5
364
100
AcDbEntity
  8
DRAFT
100
AcDbLine
 62
7
  6
CONTINUOUS
 10
-3.8692005714
 20
11.9476348052
 30
0.0
 11
-3.8692005714
 21
13.75
 31
0.0
  0
LINE
  5
365
100
AcDbEntity
  8
DRAFT
100
AcDbLine
 62
7
  6
CONTINUOUS
 10
-3.85
 20
16.25
 30
0.0
 11
-3.85
 21
13.75
 31
0.0
  0
LINE
  5
366
100
AcDbEntity
  8
DRAFT
100
AcDbLine
 62
7
  6
CONTINUOUS
 10
-3.85
 20
-13.75
 30
0.0
 11
-3.85
 21
-16.25
 31
0.0
  0
LINE
  5
367
100
AcDbEntity
  8
DRAFT
100
AcDbLine
 62
7
  6
CONTINUOUS
 10
-3.8307994286
 20
16.25
 30
0.0
 11
-3.8307994286
 21
13.75
 31
0.0
  0
LINE
  5
368
100
AcDbEntity
  8
DRAFT
100
AcDbLine
 62
7
  6
CONTINUOUS
 10
-3.8307994286
 20
-13.75
 30
0.0
 11
-3.8307994286
 21
-16.25
 31
0.0
  0
LINE
  5
369
100
AcDbEntity
  8
0
100
AcDbLine
 62
7
  6
CONTINUOUS
 10
-3.8
 20
-26.6250190381
 30
0.0
 11
-3.8
 21
-22.6249809619
 31
0.0
  0
LINE
  5
36A
100
AcDbEntity
  8
0
100
AcDbLine
 62
7
  6
CONTINUOUS
 10
-3.8
 20
23.1249809619
 30
0.0
 11
-3.8
 21
26.6250190381
 31
0.0
  0
LINE
  5
36B
100
AcDbEntity
  8
0
100
AcDbLine
 62
250
  6
CONTINUOUS
 10
-3.7628699079
 20
26.587888946
 30
0.0
 11
-3.7628699079
 21
23.162111054
 31
0.0
  0
LINE
  5
36C
100
AcDbEntity
  8
0
100
AcDbLine
 62
250
  6
CONTINUOUS
 10
-3.7628699079
 20
-26.587888946
 30
0.0
 11
-3.7628699079
 21
-22.662111054
 31
0.0
  0
LINE
  5
36D
100
AcDbEntity
  8
0
100
AcDbLine
 62
250
  6
CONTINUOUS
 10
-3.637888946
 20
-26.7128699079
 30
0.0
 11
-3.637888946
 21
-22.5371300921
 31
0.0
  0
LINE
  5
36E
100
AcDbEntity
  8
0
100
AcDbLine
 62
250
  6
CONTINUOUS
 10
-3.637888946
 20
23.0371300921
 30
0.0
 11
-3.637888946
 21
26.7128699079
 31
0.0
  0
LINE
  5
36F
100
AcDbEntity
  8
0
100
AcDbLine
 62
7
  6
CONTINUOUS
 10
-3.5
 20
19.5008405716
 30
0.0
 11
-3.5
 21
19.0
 31
0.0
  0
LINE
  5
370
100
AcDbEntity
  8
0
100
AcDbLine
 62
7
  6
CONTINUOUS
 10
-1.8168246878
 20
20.0339030541
 30
0.0
 11
-1.8238440587
 21
19.9792659008
 31
0.0
  0
LINE
  5
371
100
AcDbEntity
  8
0
100
AcDbLine
 62
7
  6
CONTINUOUS
 10
2.3583169889
 20
19.7425049033
 30
0.0
 11
2.4111044649
 21
19.8942747735
 31
0.0
  0
LINE
  5
372
100
AcDbEntity
  8
0
100
AcDbLine
 62
7
  6
CONTINUOUS
 10
2.4782152095
 20
20.2433454749
 30
0.0
 11
2.2878388916
 21
19.7425049033
 31
0.0
  0
LINE
  5
373
100
AcDbEntity
  8
0
100
AcDbLine
 62
7
  6
CONTINUOUS
 10
3.3478565424
 20
20.2433454749
 30
0.0
 11
3.209935699
 21
19.8804257931
 31
0.0
  0
LINE
  5
374
100
AcDbEntity
  8
0
100
AcDbLine
 62
7
  6
CONTINUOUS
 10
3.2195161793
 20
19.7425049033
 30
0.0
 11
3.4192832622
 21
20.2433454749
 31
0.0
  0
LINE
  5
375
100
AcDbEntity
  8
DRAFT
100
AcDbLine
 62
7
  6
CONTINUOUS
 10
-2.1624716104
 20
-8.8
 30
0.0
 11
-2.1799266753
 21
-7.8
 31
0.0
  0
LINE
  5
376
100
AcDbEntity
  8
0
100
AcDbLine
 62
7
  6
CONTINUOUS
 10
-3.4332212571
 20
19.0
 30
0.0
 11
-3.4332212571
 21
19.5008405716
 31
0.0
  0
LINE
  5
377
100
AcDbEntity
  8
DRAFT
100
AcDbLine
 62
7
  6
CONTINUOUS
 10
-3.375
 20
7.975
 30
0.0
 11
-3.375
 21
9.0088198634
 31
0.0
  0
LINE
  5
378
100
AcDbEntity
  8
0
100
AcDbLine
 62
7
  6
CONTINUOUS
 10
-3.3512655272
 20
19.5008405716
 30
0.0
 11
-3.3512655272
 21
19.4431680209
 31
0.0
  0
LINE
  5
379
100
AcDbEntity
  8
0
100
AcDbLine
 62
7
  6
CONTINUOUS
 10
-3.1873540674
 20
19.4431680209
 30
0.0
 11
-3.1873540674
 21
19.0
 31
0.0
  0
LINE
  5
37A
100
AcDbEntity
  8
0
100
AcDbLine
 62
7
  6
CONTINUOUS
 10
-3.1205753246
 20
19.0
 30
0.0
 11
-3.1205753246
 21
19.4431680209
 31
0.0
  0
LINE
  5
37B
100
AcDbEntity
  8
DRAFT
100
AcDbLine
 62
7
  6
CONTINUOUS
 10
-3.0
 20
0.75
 30
0.0
 11
-3.0
 21
-0.75
 31
0.0
  0
LINE
  5
37C
100
AcDbEntity
  8
0
100
AcDbLine
 62
7
  6
CONTINUOUS
 10
-2.9797613701
 20
21.7071074998
 30
0.0
 11
-2.9797613701
 21
21.2062669282
 31
0.0
  0
LINE
  5
37D
100
AcDbEntity
  8
0
100
AcDbLine
 62
7
  6
CONTINUOUS
 10
-2.9797613701
 20
20.9737087886
 30
0.0
 11
-2.9797613701
 21
20.4728682171
 31
0.0
  0
LINE
  5
37E
100
AcDbEntity
  8
RACCORDO
100
AcDbLine
 62
7
  6
CONTINUOUS
 10
-2.9685713075
 20
-0.4771491138
 30
0.0
 11
-2.9685713075
 21
0.4771491138
 31
0.0
  0
LINE
  5
37F
100
AcDbEntity
  8
0
100
AcDbLine
 62
7
  6
CONTINUOUS
 10
-2.9566638648
 20
19.4431680209
 30
0.0
 11
-2.9566638648
 21
19.5008405716
 31
0.0
  0
LINE
  5
380
100
AcDbEntity
  8
0
100
AcDbLine
 62
7
  6
CONTINUOUS
 10
-2.9129826272
 20
20.4728682171
 30
0.0
 11
-2.9129826272
 21
20.9737087886
 31
0.0
  0
LINE
  5
381
100
AcDbEntity
  8
0
100
AcDbLine
 62
7
  6
CONTINUOUS
 10
-2.9129826272
 20
21.2062669282
 30
0.0
 11
-2.9129826272
 21
21.7071074998
 31
0.0
  0
LINE
  5
382
100
AcDbEntity
  8
0
100
AcDbLine
 62
250
  6
CONTINUOUS
 10
-2.912111054
 20
-22.5371300921
 30
0.0
 11
-2.912111054
 21
-26.7128699079
 31
0.0
  0
LINE
  5
383
100
AcDbEntity
  8
0
100
AcDbLine
 62
7
  6
CONTINUOUS
 10
-2.8006729233
 20
21.7071074998
 30
0.0
 11
-2.8006729233
 21
21.2062669282
 31
0.0
  0
LINE
  5
384
100
AcDbEntity
  8
0
100
AcDbLine
 62
250
  6
CONTINUOUS
 10
-2.7871300921
 20
-22.662111054
 30
0.0
 11
-2.7871300921
 21
-26.587888946
 31
0.0
  0
LINE
  5
385
100
AcDbEntity
  8
0
100
AcDbLine
 62
7
  6
CONTINUOUS
 10
-2.75
 20
-22.6249809619
 30
0.0
 11
-2.75
 21
-26.6250190381
 31
0.0
  0
LINE
  5
386
100
AcDbEntity
  8
0
100
AcDbLine
 62
7
  6
CONTINUOUS
 10
-2.7338941804
 20
21.2062669282
 30
0.0
 11
-2.7338941804
 21
21.6312225647
 31
0.0
  0
LINE
  5
387
100
AcDbEntity
  8
DRAFT
100
AcDbLine
 62
7
  6
CONTINUOUS
 10
-2.625
 20
9.0088198634
 30
0.0
 11
-2.625
 21
7.975
 31
0.0
  0
LINE
  5
388
100
AcDbEntity
  8
RACCORDO
100
AcDbLine
 62
7
  6
CONTINUOUS
 10
-2.4911542732
 20
-0.4771491138
 30
0.0
 11
-2.4911542732
 21
0.4771491138
 31
0.0
  0
LINE
  5
389
100
AcDbEntity
  8
0
100
AcDbLine
 62
7
  6
CONTINUOUS
 10
-2.4285047165
 20
19.5008405716
 30
0.0
 11
-2.4285047165
 21
19.0
 31
0.0
  0
LINE
  5
38A
100
AcDbEntity
  8
0
100
AcDbLine
 62
7
  6
CONTINUOUS
 10
-2.384823479
 20
21.6251517699
 30
0.0
 11
-2.384823479
 21
21.2062669282
 31
0.0
  0
LINE
  5
38B
100
AcDbEntity
  8
0
100
AcDbLine
 62
7
  6
CONTINUOUS
 10
-2.3617259737
 20
19.0576725507
 30
0.0
 11
-2.3617259737
 21
19.5008405716
 31
0.0
  0
LINE
  5
38C
100
AcDbEntity
  8
0
100
AcDbLine
 62
7
  6
CONTINUOUS
 10
-2.3332217231
 20
20.9737087886
 30
0.0
 11
-2.3332217231
 21
20.4728682171
 31
0.0
  0
LINE
  5
38D
100
AcDbEntity
  8
0
100
AcDbLine
 62
7
  6
CONTINUOUS
 10
-2.3180447361
 20
21.2062669282
 30
0.0
 11
-2.3180447361
 21
21.7071074998
 31
0.0
  0
LINE
  5
38E
100
AcDbEntity
  8
0
100
AcDbLine
 62
7
  6
CONTINUOUS
 10
-2.2664429803
 20
20.5305407677
 30
0.0
 11
-2.2664429803
 21
20.9737087886
 31
0.0
  0
LINE
  5
38F
100
AcDbEntity
  8
0
100
AcDbLine
 62
7
  6
CONTINUOUS
 10
-2.25
 20
-27.0
 30
0.0
 11
-2.25
 21
-21.55
 31
0.0
  0
LINE
  5
390
100
AcDbEntity
  8
0
100
AcDbLine
 62
7
  6
CONTINUOUS
 10
-2.25
 20
-10.825
 30
0.0
 11
-2.25
 21
-10.2822233378
 31
0.0
  0
LINE
  5
391
100
AcDbEntity
  8
DRAFT
100
AcDbLine
 62
7
  6
CONTINUOUS
 10
-2.25
 20
-10.2822233378
 30
0.0
 11
-2.25
 21
-10.1905097241
 31
0.0
  0
LINE
  5
392
100
AcDbEntity
  8
SMUSSO
100
AcDbLine
 62
7
  6
CONTINUOUS
 10
-2.25
 20
-10.1905097241
 30
0.0
 11
-2.25
 21
-8.875
 31
0.0
  0
LINE
  5
393
100
AcDbEntity
  8
DRAFT
100
AcDbLine
 62
7
  6
CONTINUOUS
 10
-2.25
 20
-0.75
 30
0.0
 11
-2.25
 21
0.75
 31
0.0
  0
LINE
  5
394
100
AcDbEntity
  8
RACCORDO
100
AcDbLine
 62
7
  6
CONTINUOUS
 10
-2.2
 20
-24.8000380762
 30
0.0
 11
-2.2
 21
-21.5630912987
 31
0.0
  0
LINE
  5
395
100
AcDbEntity
  8
RACCORDO
100
AcDbLine
 62
7
  6
CONTINUOUS
 10
-2.2
 20
-10.8119087013
 30
0.0
 11
-2.2
 21
-8.35
 31
0.0
  0
LINE
  5
396
100
AcDbEntity
  8
RACCORDO
100
AcDbLine
 62
7
  6
CONTINUOUS
 10
-2.189526961
 20
-7.95
 30
0.0
 11
-2.189526961
 21
-8.2
 31
0.0
  0
LINE
  5
397
100
AcDbEntity
  8
RACCORDO
100
AcDbLine
 62
7
  6
CONTINUOUS
 10
-2.1624716104
 20
-24.7625096866
 30
0.0
 11
-2.1624716104
 21
-21.5630912987
 31
0.0
  0
LINE
  5
398
100
AcDbEntity
  8
RACCORDO
100
AcDbLine
 62
7
  6
CONTINUOUS
 10
-2.1624716104
 20
-10.8119087013
 30
0.0
 11
-2.1624716104
 21
-8.8
 31
0.0
  0
LINE
  5
399
100
AcDbEntity
  8
0
100
AcDbLine
 62
7
  6
CONTINUOUS
 10
-2.1128233866
 20
19.0
 30
0.0
 11
-2.1128233866
 21
19.0576725507
 31
0.0
  0
LINE
  5
39A
100
AcDbEntity
  8
0
100
AcDbLine
 62
7
  6
CONTINUOUS
 10
-2.0175403932
 20
20.4728682171
 30
0.0
 11
-2.0175403932
 21
20.5305407677
 31
0.0
  0
LINE
  5
39B
100
AcDbEntity
  8
0
100
AcDbLine
 62
7
  6
CONTINUOUS
 10
-1.9386200607
 20
20.9737087886
 30
0.0
 11
-1.9386200607
 21
20.4728682171
 31
0.0
  0
LINE
  5
39C
100
AcDbEntity
  8
0
100
AcDbLine
 62
7
  6
CONTINUOUS
 10
-1.8969307405
 20
19.2121458629
 30
0.0
 11
-1.8969307405
 21
19.0
 31
0.0
  0
LINE
  5
39D
100
AcDbEntity
  8
0
100
AcDbLine
 62
7
  6
CONTINUOUS
 10
-1.8718413178
 20
20.5305407677
 30
0.0
 11
-1.8718413178
 21
20.7035584197
 31
0.0
  0
LINE
  5
39E
100
AcDbEntity
  8
0
100
AcDbLine
 62
7
  6
CONTINUOUS
 10
-1.8718413178
 20
20.7612309704
 30
0.0
 11
-1.8718413178
 21
20.916036238
 31
0.0
  0
LINE
  5
39F
100
AcDbEntity
  8
0
100
AcDbLine
 62
7
  6
CONTINUOUS
 10
-1.8301519976
 20
19.0
 30
0.0
 11
-1.8301519976
 21
19.2121458629
 31
0.0
  0
LINE
  5
3A0
100
AcDbEntity
  8
0
100
AcDbLine
 62
7
  6
CONTINUOUS
 10
-1.825
 20
-21.55
 30
0.0
 11
-1.825
 21
-10.825
 31
0.0
  0
LINE
  5
3A1
100
AcDbEntity
  8
0
100
AcDbLine
 62
7
  6
CONTINUOUS
 10
-1.8119087013
 20
-21.5630912987
 30
0.0
 11
-1.8119087013
 21
-10.8119087013
 31
0.0
  0
LINE
  5
3A2
100
AcDbEntity
  8
DRAFT
100
AcDbLine
 62
7
  6
CONTINUOUS
 10
-1.75
 20
7.975
 30
0.0
 11
-1.75
 21
9.0088198634
 31
0.0
  0
LINE
  5
3A3
100
AcDbEntity
  8
0
100
AcDbLine
 62
7
  6
CONTINUOUS
 10
-1.7443546269
 20
21.7071074998
 30
0.0
 11
-1.7443546269
 21
21.2062669282
 31
0.0
  0
LINE
  5
3A4
100
AcDbEntity
  8
0
100
AcDbLine
 62
7
  6
CONTINUOUS
 10
-1.677575884
 20
21.2062669282
 30
0.0
 11
-1.677575884
 21
21.4278509386
 31
0.0
  0
LINE
  5
3A5
100
AcDbEntity
  8
0
100
AcDbLine
 62
7
  6
CONTINUOUS
 10
-1.677575884
 20
21.4855234893
 30
0.0
 11
-1.677575884
 21
21.6494349491
 31
0.0
  0
LINE
  5
3A6
100
AcDbEntity
  8
DRAFT
100
AcDbLine
 62
7
  6
CONTINUOUS
 10
-1.6555463636
 20
-9.65
 30
0.0
 11
-1.6555463636
 21
-14.6943314665
 31
0.0
  0
LINE
  5
3A7
100
AcDbEntity
  8
DRAFT
100
AcDbLine
 62
7
  6
CONTINUOUS
 10
-1.6555463636
 20
-17.0056685335
 30
0.0
 11
-1.6555463636
 21
-24.3
 31
0.0
  0
LINE
  5
3A8
100
AcDbEntity
  8
DRAFT
100
AcDbLine
 62
7
  6
CONTINUOUS
 10
-1.6311092727
 20
-23.2
 30
0.0
 11
-1.6311092727
 21
-20.8
 31
0.0
  0
LINE
  5
3A9
100
AcDbEntity
  8
DRAFT
100
AcDbLine
 62
7
  6
CONTINUOUS
 10
-1.625
 20
-14.70251634
 30
0.0
 11
-1.625
 21
-16.99748366
 31
0.0
  0
LINE
  5
3AA
100
AcDbEntity
  8
DRAFT
100
AcDbLine
 62
7
  6
CONTINUOUS
 10
-1.618017974
 20
-9.65
 30
0.0
 11
-1.618017974
 21
-20.8
 31
0.0
  0
LINE
  5
3AB
100
AcDbEntity
  8
DRAFT
100
AcDbLine
 62
7
  6
CONTINUOUS
 10
-1.618017974
 20
-23.2
 30
0.0
 11
-1.618017974
 21
-24.3
 31
0.0
  0
LINE
  5
3AC
100
AcDbEntity
  8
DRAFT
100
AcDbLine
 62
7
  6
CONTINUOUS
 10
-2.1888254005
 20
-7.8
 30
0.0
 11
-2.189526961
 21
-7.95
 31
0.0
  0
LINE
  5
3AD
100
AcDbEntity
  8
0
100
AcDbLine
 62
7
  6
CONTINUOUS
 10
-1.6863731759
 20
2.4554838109
 30
0.0
 11
-1.7392411759
 21
2.4026158109
 31
0.0
  0
LINE
  5
3AE
100
AcDbEntity
  8
0
100
AcDbLine
 62
7
  6
CONTINUOUS
 10
-1.5
 20
-2.486314
 30
0.0
 11
1.5
 21
-2.486314
 31
0.0
  0
LINE
  5
3AF
100
AcDbEntity
  8
0
100
AcDbLine
 62
7
  6
CONTINUOUS
 10
1.5
 20
-1.736314
 30
0.0
 11
-1.5
 21
-1.736314
 31
0.0
  0
LINE
  5
3B0
100
AcDbEntity
  8
0
100
AcDbLine
 62
7
  6
CONTINUOUS
 10
-1.7392411759
 20
-0.9618701891
 30
0.0
 11
-1.6863731759
 21
-1.0147381891
 31
0.0
  0
LINE
  5
3B1
100
AcDbEntity
  8
0
100
AcDbLine
 62
7
  6
CONTINUOUS
 10
-0.6658946759
 20
0.0057398109
 30
0.0
 11
-0.6163271759
 21
-0.5608231891
 31
0.0
  0
LINE
  5
3B2
100
AcDbEntity
  8
0
100
AcDbLine
 62
7
  6
CONTINUOUS
 10
-0.7927906759
 20
1.4561658109
 30
0.0
 11
-0.6744011759
 21
0.1029693109
 31
0.0
  0
LINE
  5
3B3
100
AcDbEntity
  8
0
100
AcDbLine
 62
7
  6
CONTINUOUS
 10
-0.8370931759
 20
1.9625408109
 30
0.0
 11
-0.8029281759
 21
1.5720388109
 31
0.0
  0
LINE
  5
3B4
100
AcDbEntity
  8
0
100
AcDbLine
 62
7
  6
CONTINUOUS
 10
-0.8615070907
 20
2.2415936064
 30
0.0
 11
-0.8501751759
 21
2.1120738109
 31
0.0
  0
LINE
  5
3B5
100
AcDbEntity
  8
0
100
AcDbLine
 62
7
  6
CONTINUOUS
 10
-0.8126491759
 20
2.1120738109
 30
0.0
 11
-0.8218636581
 21
2.2173992664
 31
0.0
  0
LINE
  5
3B6
100
AcDbEntity
  8
0
100
AcDbLine
 62
7
  6
CONTINUOUS
 10
-0.7618046759
 20
1.5309148109
 30
0.0
 11
-0.7995666759
 21
1.9625408109
 31
0.0
  0
LINE
  5
3B7
100
AcDbEntity
  8
0
100
AcDbLine
 62
7
  6
CONTINUOUS
 10
-0.6398946759
 20
0.1374763109
 30
0.0
 11
-0.7516671759
 21
1.4150418109
 31
0.0
  0
LINE
  5
3B8
100
AcDbEntity
  8
0
100
AcDbLine
 62
7
  6
CONTINUOUS
 10
-0.5820716759
 20
-0.5234401891
 30
0.0
 11
-0.6313881759
 21
0.0402473109
 31
0.0
  0
LINE
  5
3B9
100
AcDbEntity
  8
0
100
AcDbLine
 62
7
  6
CONTINUOUS
 10
-1.5986555515
 20
20.7035584197
 30
0.0
 11
-1.5986555515
 21
20.7612309704
 31
0.0
  0
LINE
  5
3BA
100
AcDbEntity
  8
0
100
AcDbLine
 62
7
  6
CONTINUOUS
 10
-1.5880912987
 20
-10.6380912987
 30
0.0
 11
-1.5880912987
 21
-20.8
 31
0.0
  0
LINE
  5
3BB
100
AcDbEntity
  8
0
100
AcDbLine
 62
7
  6
CONTINUOUS
 10
-1.5804431671
 20
20.916036238
 30
0.0
 11
-1.5804431671
 21
20.9737087886
 31
0.0
  0
LINE
  5
3BC
100
AcDbEntity
  8
0
100
AcDbLine
 62
7
  6
CONTINUOUS
 10
-1.5683015774
 20
20.4728682171
 30
0.0
 11
-1.5683015774
 21
20.5305407677
 31
0.0
  0
LINE
  5
3BD
100
AcDbEntity
  8
0
100
AcDbLine
 62
7
  6
CONTINUOUS
 10
-1.5
 20
-1.736314
 30
0.0
 11
-1.5
 21
-2.486314
 31
0.0
  0
LINE
  5
3BE
100
AcDbEntity
  8
0
100
AcDbLine
 62
7
  6
CONTINUOUS
 10
-1.3448678435
 20
20.2433454749
 30
0.0
 11
-1.3448678435
 21
19.7425049033
 31
0.0
  0
LINE
  5
3BF
100
AcDbEntity
  8
0
100
AcDbLine
 62
7
  6
CONTINUOUS
 10
-1.2780891006
 20
19.7425049033
 30
0.0
 11
-1.2780891006
 21
20.1674605398
 31
0.0
  0
LINE
  5
3C0
100
AcDbEntity
  8
0
100
AcDbLine
 62
7
  6
CONTINUOUS
 10
-1.1443166759
 20
2.1120738109
 30
0.0
 11
-1.1443166759
 21
1.9625408109
 31
0.0
  0
LINE
  5
3C1
100
AcDbEntity
  8
0
100
AcDbLine
 62
7
  6
CONTINUOUS
 10
-0.9290183992
 20
20.161389745
 30
0.0
 11
-0.9290183992
 21
19.7425049033
 31
0.0
  0
LINE
  5
3C2
100
AcDbEntity
  8
0
100
AcDbLine
 62
7
  6
CONTINUOUS
 10
-0.8622396563
 20
19.7425049033
 30
0.0
 11
-0.8622396563
 21
20.2433454749
 31
0.0
  0
LINE
  5
3C3
100
AcDbEntity
  8
0
100
AcDbLine
 62
7
  6
CONTINUOUS
 10
-0.8094522266
 20
20.9737087886
 30
0.0
 11
-0.8094522266
 21
20.4728682171
 31
0.0
  0
LINE
  5
3C4
100
AcDbEntity
  8
0
100
AcDbLine
 62
7
  6
CONTINUOUS
 10
-0.7517936759
 20
2.4298308109
 30
0.0
 11
-0.7517937487
 21
2.2834815201
 31
0.0
  0
LINE
  5
3C5
100
AcDbEntity
  8
0
100
AcDbLine
 62
7
  6
CONTINUOUS
 10
-0.7517936759
 20
2.2438543618
 30
0.0
 11
-0.7517936759
 21
2.1120738109
 31
0.0
  0
LINE
  5
3C6
100
AcDbEntity
  8
0
100
AcDbLine
 62
7
  6
CONTINUOUS
 10
-0.7426734837
 20
20.4728682171
 30
0.0
 11
-0.7426734837
 21
20.9737087886
 31
0.0
  0
LINE
  5
3C7
100
AcDbEntity
  8
0
100
AcDbLine
 62
7
  6
CONTINUOUS
 10
-0.7144101444
 20
2.2960672141
 30
0.0
 11
-0.7144101759
 21
2.3924473109
 31
0.0
  0
LINE
  5
3C8
100
AcDbEntity
  8
0
100
AcDbLine
 62
7
  6
CONTINUOUS
 10
-0.7144101759
 20
2.1494573109
 30
0.0
 11
-0.7144102258
 21
2.256712461
 31
0.0
  0
LINE
  5
3C9
100
AcDbEntity
  8
0
100
AcDbLine
 62
7
  6
CONTINUOUS
 10
-0.6163271759
 20
-0.5608231891
 30
0.0
 11
-0.6163271759
 21
-0.8598891891
 31
0.0
  0
LINE
  5
3CA
100
AcDbEntity
  8
0
100
AcDbLine
 62
7
  6
CONTINUOUS
 10
-0.6022611759
 20
2.3924473109
 30
0.0
 11
-0.6022612016
 21
2.3289139093
 31
0.0
  0
LINE
  5
3CB
100
AcDbEntity
  8
0
100
AcDbLine
 62
7
  6
CONTINUOUS
 10
-0.6022611352
 20
2.290254158
 30
0.0
 11
-0.6022611759
 21
2.1494573109
 31
0.0
  0
LINE
  5
3CC
100
AcDbEntity
  8
0
100
AcDbLine
 62
7
  6
CONTINUOUS
 10
-0.5817974213
 20
21.7071074998
 30
0.0
 11
-0.5817974213
 21
21.2062669282
 31
0.0
  0
LINE
  5
3CD
100
AcDbEntity
  8
0
100
AcDbLine
 62
7
  6
CONTINUOUS
 10
-0.5648776912
 20
2.3382728748
 30
0.0
 11
-0.5648776759
 21
2.4298308109
 31
0.0
  0
LINE
  5
3CE
100
AcDbEntity
  8
0
100
AcDbLine
 62
7
  6
CONTINUOUS
 10
-0.5648776759
 20
2.1120738109
 30
0.0
 11
-0.5648776759
 21
2.2998073765
 31
0.0
  0
LINE
  5
3CF
100
AcDbEntity
  8
0
100
AcDbLine
 62
7
  6
CONTINUOUS
 10
-0.5602521759
 20
-0.8038141891
 30
0.0
 11
-0.5602521759
 21
-0.5795151891
 31
0.0
  0
LINE
  5
3D0
100
AcDbEntity
  8
0
100
AcDbLine
 62
7
  6
CONTINUOUS
 10
-0.5150186784
 20
21.2062669282
 30
0.0
 11
-0.5150186784
 21
21.4126739516
 31
0.0
  0
LINE
  5
3D1
100
AcDbEntity
  8
0
100
AcDbLine
 62
7
  6
CONTINUOUS
 10
-0.5150186784
 20
21.4703465023
 30
0.0
 11
-0.5150186784
 21
21.6494349491
 31
0.0
  0
LINE
  5
3D2
100
AcDbEntity
  8
0
100
AcDbLine
 62
7
  6
CONTINUOUS
 10
-0.4481031759
 20
-0.5795151891
 30
0.0
 11
-0.4481031759
 21
-0.8038141891
 31
0.0
  0
LINE
  5
3D3
100
AcDbEntity
  8
0
100
AcDbLine
 62
7
  6
CONTINUOUS
 10
-0.3920281759
 20
-0.8598891891
 30
0.0
 11
-0.3920281759
 21
-0.5608231891
 31
0.0
  0
LINE
  5
3D4
100
AcDbEntity
  8
0
100
AcDbLine
 62
7
  6
CONTINUOUS
 10
-0.288549547
 20
20.2433454749
 30
0.0
 11
-0.288549547
 21
19.7425049033
 31
0.0
  0
LINE
  5
3D5
100
AcDbEntity
  8
0
100
AcDbLine
 62
7
  6
CONTINUOUS
 10
-0.2471211759
 20
1.4017933109
 30
0.0
 11
-0.2471211759
 21
1.2148773109
 31
0.0
  0
LINE
  5
3D6
100
AcDbEntity
  8
0
100
AcDbLine
 62
7
  6
CONTINUOUS
 10
-0.2217708041
 20
19.7425049033
 30
0.0
 11
-0.2217708041
 21
19.9640889138
 31
0.0
  0
LINE
  5
3D7
100
AcDbEntity
  8
0
100
AcDbLine
 62
7
  6
CONTINUOUS
 10
-0.2217708041
 20
20.0217614645
 30
0.0
 11
-0.2217708041
 21
20.1856729243
 31
0.0
  0
LINE
  5
3D8
100
AcDbEntity
  8
0
100
AcDbLine
 62
7
  6
CONTINUOUS
 10
-0.2097376759
 20
1.2522608109
 30
0.0
 11
-0.2097376759
 21
1.3644108109
 31
0.0
  0
LINE
  5
3D9
100
AcDbEntity
  8
0
100
AcDbLine
 62
7
  6
CONTINUOUS
 10
-0.1723541737
 20
2.3539527466
 30
0.0
 11
-0.1723541759
 21
2.2616068109
 31
0.0
  0
LINE
  5
3DA
100
AcDbEntity
  8
0
100
AcDbLine
 62
7
  6
CONTINUOUS
 10
-0.1723541759
 20
2.4859058109
 30
0.0
 11
-0.1723541737
 21
2.3913567452
 31
0.0
  0
LINE
  5
3DB
100
AcDbEntity
  8
0
100
AcDbLine
 62
7
  6
CONTINUOUS
 10
-0.1349711759
 20
2.2989898109
 30
0.0
 11
-0.134971172
 21
2.3548600442
 31
0.0
  0
LINE
  5
3DC
100
AcDbEntity
  8
0
100
AcDbLine
 62
7
  6
CONTINUOUS
 10
-0.134971175
 20
2.3922472518
 30
0.0
 11
-0.1349711759
 21
2.4485223109
 31
0.0
  0
LINE
  5
3DD
100
AcDbEntity
  8
0
100
AcDbLine
 62
7
  6
CONTINUOUS
 10
-0.1173816185
 20
20.9737087886
 30
0.0
 11
-0.1173816185
 21
20.4728682171
 31
0.0
  0
LINE
  5
3DE
100
AcDbEntity
  8
0
100
AcDbLine
 62
7
  6
CONTINUOUS
 10
-0.0506028757
 20
20.5305407677
 30
0.0
 11
-0.0506028757
 21
20.7035584197
 31
0.0
  0
LINE
  5
3DF
100
AcDbEntity
  8
0
100
AcDbLine
 62
7
  6
CONTINUOUS
 10
-0.0506028757
 20
20.7612309704
 30
0.0
 11
-0.0506028757
 21
20.916036238
 31
0.0
  0
LINE
  5
3E0
100
AcDbEntity
  8
0
100
AcDbLine
 62
7
  6
CONTINUOUS
 10
0.2225828907
 20
20.7035584197
 30
0.0
 11
0.2225828907
 21
20.7612309704
 31
0.0
  0
LINE
  5
3E1
100
AcDbEntity
  8
0
100
AcDbLine
 62
7
  6
CONTINUOUS
 10
0.2407952751
 20
20.916036238
 30
0.0
 11
0.2407952751
 21
20.9737087886
 31
0.0
  0
LINE
  5
3E2
100
AcDbEntity
  8
RACCORDO
100
AcDbLine
 62
7
  6
CONTINUOUS
 10
-3.0
 20
-0.75
 30
0.0
 11
-2.9769968205
 21
-0.7269968205
 31
0.0
  0
LINE
  5
3E3
100
AcDbEntity
  8
0
100
AcDbLine
 62
7
  6
CONTINUOUS
 10
-0.0569976759
 20
0.7203728109
 30
0.0
 11
-0.6398946759
 21
0.1374763109
 31
0.0
  0
LINE
  5
3E4
100
AcDbEntity
  8
0
100
AcDbLine
 62
7
  6
CONTINUOUS
 10
0.9982543241
 20
1.7756248109
 30
0.0
 11
0.7776178241
 21
1.5549883109
 31
0.0
  0
LINE
  5
3E5
100
AcDbEntity
  8
0
100
AcDbLine
 62
7
  6
CONTINUOUS
 10
-0.6744011759
 20
0.1029693109
 30
0.0
 11
-1.7392411759
 21
-0.9618701891
 31
0.0
  0
LINE
  5
3E6
100
AcDbEntity
  8
0
100
AcDbLine
 62
7
  6
CONTINUOUS
 10
0.6500753241
 20
1.4274463109
 30
0.0
 11
-0.0041301759
 21
0.7732403109
 31
0.0
  0
LINE
  5
3E7
100
AcDbEntity
  8
0
100
AcDbLine
 62
7
  6
CONTINUOUS
 10
1.6781128241
 20
2.4554838109
 30
0.0
 11
1.0356378241
 21
1.8130083109
 31
0.0
  0
LINE
  5
3E8
100
AcDbEntity
  8
0
100
AcDbLine
 62
7
  6
CONTINUOUS
 10
0.7364938241
 20
1.5138648109
 30
0.0
 11
0.6874588241
 21
1.4648293109
 31
0.0
  0
LINE
  5
3E9
100
AcDbEntity
  8
0
100
AcDbLine
 62
7
  6
CONTINUOUS
 10
-0.6313881759
 20
0.0402473109
 30
0.0
 11
-0.0041301759
 21
0.6675053109
 31
0.0
  0
LINE
  5
3EA
100
AcDbEntity
  8
0
100
AcDbLine
 62
7
  6
CONTINUOUS
 10
0.0487373241
 20
0.7203728109
 30
0.0
 11
0.7263563241
 21
1.3979918109
 31
0.0
  0
LINE
  5
3EB
100
AcDbEntity
  8
0
100
AcDbLine
 62
7
  6
CONTINUOUS
 10
0.7675413241
 20
1.4391768109
 30
0.0
 11
1.0612903241
 21
1.7329258109
 31
0.0
  0
LINE
  5
3EC
100
AcDbEntity
  8
0
100
AcDbLine
 62
7
  6
CONTINUOUS
 10
-1.6863731759
 20
-1.0147381891
 30
0.0
 11
-0.6658946759
 21
0.0057398109
 31
0.0
  0
LINE
  5
3ED
100
AcDbEntity
  8
0
100
AcDbLine
 62
7
  6
CONTINUOUS
 10
1.0986738241
 20
1.7703083109
 30
0.0
 11
1.7309808241
 21
2.4026158109
 31
0.0
  0
LINE
  5
3EE
100
AcDbEntity
  8
RACCORDO
100
AcDbLine
 62
7
  6
CONTINUOUS
 10
2.25
 20
-0.75
 30
0.0
 11
2.4265047981
 21
-0.7269968205
 31
0.0
  0
LINE
  5
3EF
100
AcDbEntity
  8
0
100
AcDbLine
 62
7
  6
CONTINUOUS
 10
-0.6163271759
 20
-0.8598891891
 30
0.0
 11
-0.3920281759
 21
-0.8598891891
 31
0.0
  0
LINE
  5
3F0
100
AcDbEntity
  8
0
100
AcDbLine
 62
7
  6
CONTINUOUS
 10
-0.4481031759
 20
-0.8038141891
 30
0.0
 11
-0.5602521759
 21
-0.8038141891
 31
0.0
  0
LINE
  5
3F1
100
AcDbEntity
  8
DRAFT
100
AcDbLine
 62
7
  6
CONTINUOUS
 10
-3.0
 20
-0.75
 30
0.0
 11
-2.25
 21
-0.75
 31
0.0
  0
LINE
  5
3F2
100
AcDbEntity
  8
DRAFT
100
AcDbLine
 62
7
  6
CONTINUOUS
 10
2.25
 20
-0.75
 30
0.0
 11
3.0
 21
-0.75
 31
0.0
  0
LINE
  5
3F3
100
AcDbEntity
  8
RACCORDO
100
AcDbLine
 62
250
  6
CONTINUOUS
 10
-2.9769968205
 20
-0.7269968205
 30
0.0
 11
-2.4265047981
 21
-0.7269968205
 31
0.0
  0
LINE
  5
3F4
100
AcDbEntity
  8
RACCORDO
100
AcDbLine
 62
250
  6
CONTINUOUS
 10
2.4265047981
 20
-0.7269968205
 30
0.0
 11
2.9769968205
 21
-0.7269968205
 31
0.0
  0
LINE
  5
3F5
100
AcDbEntity
  8
0
100
AcDbLine
 62
7
  6
CONTINUOUS
 10
-0.5602521759
 20
-0.5795151891
 30
0.0
 11
-0.4481031759
 21
-0.5795151891
 31
0.0
  0
LINE
  5
3F6
100
AcDbEntity
  8
0
100
AcDbLine
 62
7
  6
CONTINUOUS
 10
-0.3920281759
 20
-0.5608231891
 30
0.0
 11
0.230049051
 21
-0.5608232047
 31
0.0
  0
LINE
  5
3F7
100
AcDbEntity
  8
0
100
AcDbLine
 62
7
  6
CONTINUOUS
 10
0.2300489469
 20
-0.5234401675
 30
0.0
 11
-0.5820716759
 21
-0.5234401891
 31
0.0
  0
LINE
  5
3F8
100
AcDbEntity
  8
RACCORDO
100
AcDbLine
 62
250
  6
CONTINUOUS
 10
-2.9685713075
 20
-0.4771491138
 30
0.0
 11
-2.4911542732
 21
-0.4771491138
 31
0.0
  0
LINE
  5
3F9
100
AcDbEntity
  8
RACCORDO
100
AcDbLine
 62
250
  6
CONTINUOUS
 10
2.4911542732
 20
-0.4771491138
 30
0.0
 11
2.9685713075
 21
-0.4771491138
 31
0.0
  0
LINE
  5
3FA
100
AcDbEntity
  8
RACCORDO
100
AcDbLine
 62
7
  6
CONTINUOUS
 10
-2.25
 20
-0.75
 30
0.0
 11
-2.4265047981
 21
-0.7269968205
 31
0.0
  0
LINE
  5
3FB
100
AcDbEntity
  8
RACCORDO
100
AcDbLine
 62
7
  6
CONTINUOUS
 10
-3.0
 20
0.75
 30
0.0
 11
-2.9769968205
 21
0.7269968205
 31
0.0
  0
LINE
  5
3FC
100
AcDbEntity
  8
0
100
AcDbLine
 62
7
  6
CONTINUOUS
 10
0.2529368647
 20
20.4728682171
 30
0.0
 11
0.2529368647
 21
20.5305407677
 31
0.0
  0
LINE
  5
3FD
100
AcDbEntity
  8
0
100
AcDbLine
 62
7
  6
CONTINUOUS
 10
0.2949348798
 20
2.3126545717
 30
0.0
 11
0.2949348241
 21
2.2989898109
 31
0.0
  0
LINE
  5
3FE
100
AcDbEntity
  8
0
100
AcDbLine
 62
7
  6
CONTINUOUS
 10
0.2949348241
 20
2.4485223109
 30
0.0
 11
0.2949348362
 21
2.3508633687
 31
0.0
  0
LINE
  5
3FF
100
AcDbEntity
  8
0
100
AcDbLine
 62
7
  6
CONTINUOUS
 10
0.3323183241
 20
2.2616068109
 30
0.0
 11
0.3323183275
 21
2.3042858253
 31
0.0
  0
LINE
  5
400
100
AcDbEntity
  8
0
100
AcDbLine
 62
7
  6
CONTINUOUS
 10
0.3323183451
 20
2.3426619022
 30
0.0
 11
0.3323183241
 21
2.4859058109
 31
0.0
  0
LINE
  5
401
100
AcDbEntity
  8
0
100
AcDbLine
 62
7
  6
CONTINUOUS
 10
0.3470341842
 20
20.9737087886
 30
0.0
 11
0.3470341842
 21
20.4728682171
 31
0.0
  0
LINE
  5
402
100
AcDbEntity
  8
0
100
AcDbLine
 62
7
  6
CONTINUOUS
 10
0.3697013241
 20
1.3644108109
 30
0.0
 11
0.3697013241
 21
1.2522608109
 31
0.0
  0
LINE
  5
403
100
AcDbEntity
  8
0
100
AcDbLine
 62
7
  6
CONTINUOUS
 10
0.4070848241
 20
1.2148773109
 30
0.0
 11
0.4070848241
 21
1.4017933109
 31
0.0
  0
LINE
  5
404
100
AcDbEntity
  8
0
100
AcDbLine
 62
7
  6
CONTINUOUS
 10
0.4138129271
 20
20.4728682171
 30
0.0
 11
0.4138129271
 21
20.8569882982
 31
0.0
  0
LINE
  5
405
100
AcDbEntity
  8
0
100
AcDbLine
 62
7
  6
CONTINUOUS
 10
0.6500753241
 20
1.8130083109
 30
0.0
 11
0.6500753241
 21
1.4274463109
 31
0.0
  0
LINE
  5
406
100
AcDbEntity
  8
0
100
AcDbLine
 62
7
  6
CONTINUOUS
 10
0.668786309
 20
20.9737087886
 30
0.0
 11
0.668786309
 21
20.5895887538
 31
0.0
  0
LINE
  5
407
100
AcDbEntity
  8
0
100
AcDbLine
 62
7
  6
CONTINUOUS
 10
0.6874588241
 20
1.4648293109
 30
0.0
 11
0.6874588241
 21
1.7756248109
 31
0.0
  0
LINE
  5
408
100
AcDbEntity
  8
0
100
AcDbLine
 62
7
  6
CONTINUOUS
 10
0.7355650519
 20
20.4728682171
 30
0.0
 11
0.7355650519
 21
20.9737087886
 31
0.0
  0
LINE
  5
409
100
AcDbEntity
  8
0
100
AcDbLine
 62
7
  6
CONTINUOUS
 10
0.8053791921
 20
20.5329596369
 30
0.0
 11
0.8053791921
 21
20.4728682171
 31
0.0
  0
LINE
  5
40A
100
AcDbEntity
  8
0
100
AcDbLine
 62
7
  6
CONTINUOUS
 10
0.8357331662
 20
20.9737087886
 30
0.0
 11
0.8357331662
 21
20.916036238
 31
0.0
  0
LINE
  5
40B
100
AcDbEntity
  8
0
100
AcDbLine
 62
7
  6
CONTINUOUS
 10
0.9304488241
 20
1.9625408109
 30
0.0
 11
0.9304488847
 21
2.0095817202
 31
0.0
  0
LINE
  5
40C
100
AcDbEntity
  8
0
100
AcDbLine
 62
7
  6
CONTINUOUS
 10
1.0612903241
 20
1.7329258109
 30
0.0
 11
1.0612903241
 21
1.4391768109
 31
0.0
  0
LINE
  5
40D
100
AcDbEntity
  8
0
100
AcDbLine
 62
7
  6
CONTINUOUS
 10
1.0986738241
 20
1.4017933109
 30
0.0
 11
1.0986738241
 21
1.7703083109
 31
0.0
  0
LINE
  5
40E
100
AcDbEntity
  8
0
100
AcDbLine
 62
7
  6
CONTINUOUS
 10
1.1836181937
 20
20.2433454749
 30
0.0
 11
1.1836181937
 21
20.1856729243
 31
0.0
  0
LINE
  5
40F
100
AcDbEntity
  8
0
100
AcDbLine
 62
7
  6
CONTINUOUS
 10
1.1908746624
 20
20.916036238
 30
0.0
 11
1.1908746624
 21
20.9737087886
 31
0.0
  0
LINE
  5
410
100
AcDbEntity
  8
0
100
AcDbLine
 62
7
  6
CONTINUOUS
 10
1.203016252
 20
20.4728682171
 30
0.0
 11
1.203016252
 21
20.5305407677
 31
0.0
  0
LINE
  5
411
100
AcDbEntity
  8
0
100
AcDbLine
 62
7
  6
CONTINUOUS
 10
1.3475296535
 20
20.1856729243
 30
0.0
 11
1.3475296535
 21
19.7425049033
 31
0.0
  0
LINE
  5
412
100
AcDbEntity
  8
0
100
AcDbLine
 62
7
  6
CONTINUOUS
 10
1.4143083964
 20
19.7425049033
 30
0.0
 11
1.4143083964
 21
20.1856729243
 31
0.0
  0
LINE
  5
413
100
AcDbEntity
  8
0
100
AcDbLine
 62
7
  6
CONTINUOUS
 10
1.5
 20
-2.486314
 30
0.0
 11
1.5
 21
-1.736314
 31
0.0
  0
LINE
  5
414
100
AcDbEntity
  8
0
100
AcDbLine
 62
7
  6
CONTINUOUS
 10
1.5782198562
 20
20.1856729243
 30
0.0
 11
1.5782198562
 21
20.2433454749
 31
0.0
  0
LINE
  5
415
100
AcDbEntity
  8
0
100
AcDbLine
 62
7
  6
CONTINUOUS
 10
1.5880912987
 20
-20.8
 30
0.0
 11
1.5880912987
 21
-10.6380912987
 31
0.0
  0
LINE
  5
416
100
AcDbEntity
  8
DRAFT
100
AcDbLine
 62
7
  6
CONTINUOUS
 10
1.618017974
 20
-24.3
 30
0.0
 11
1.618017974
 21
-23.2
 31
0.0
  0
LINE
  5
417
100
AcDbEntity
  8
DRAFT
100
AcDbLine
 62
7
  6
CONTINUOUS
 10
1.618017974
 20
-20.8
 30
0.0
 11
1.618017974
 21
-9.65
 31
0.0
  0
LINE
  5
418
100
AcDbEntity
  8
DRAFT
100
AcDbLine
 62
7
  6
CONTINUOUS
 10
1.625
 20
-16.99748366
 30
0.0
 11
1.625
 21
-14.70251634
 31
0.0
  0
LINE
  5
419
100
AcDbEntity
  8
DRAFT
100
AcDbLine
 62
7
  6
CONTINUOUS
 10
1.6311092727
 20
-23.2
 30
0.0
 11
1.6311092727
 21
-20.8
 31
0.0
  0
LINE
  5
41A
100
AcDbEntity
  8
0
100
AcDbLine
 62
7
  6
CONTINUOUS
 10
1.6541047913
 20
20.2433454749
 30
0.0
 11
1.6541047913
 21
19.7425049033
 31
0.0
  0
LINE
  5
41B
100
AcDbEntity
  8
DRAFT
100
AcDbLine
 62
7
  6
CONTINUOUS
 10
1.6555463636
 20
-24.3
 30
0.0
 11
1.6555463636
 21
-17.0056685335
 31
0.0
  0
LINE
  5
41C
100
AcDbEntity
  8
DRAFT
100
AcDbLine
 62
7
  6
CONTINUOUS
 10
1.6555463636
 20
-14.6943314665
 30
0.0
 11
1.6555463636
 21
-9.65
 31
0.0
  0
LINE
  5
41D
100
AcDbEntity
  8
0
100
AcDbLine
 62
7
  6
CONTINUOUS
 10
1.7208835341
 20
19.7425049033
 30
0.0
 11
1.7208835341
 21
20.2433454749
 31
0.0
  0
LINE
  5
41E
100
AcDbEntity
  8
DRAFT
100
AcDbLine
 62
7
  6
CONTINUOUS
 10
1.75
 20
7.975
 30
0.0
 11
1.75
 21
9.0088198634
 31
0.0
  0
LINE
  5
41F
100
AcDbEntity
  8
0
100
AcDbLine
 62
7
  6
CONTINUOUS
 10
1.8119087013
 20
-21.5630912987
 30
0.0
 11
1.8119087013
 21
-10.8119087013
 31
0.0
  0
LINE
  5
420
100
AcDbEntity
  8
0
100
AcDbLine
 62
7
  6
CONTINUOUS
 10
1.825
 20
-10.825
 30
0.0
 11
1.825
 21
-21.55
 31
0.0
  0
LINE
  5
421
100
AcDbEntity
  8
0
100
AcDbLine
 62
7
  6
CONTINUOUS
 10
1.9527594107
 20
20.850775217
 30
0.0
 11
1.9527594107
 21
20.7912055603
 31
0.0
  0
LINE
  5
422
100
AcDbEntity
  8
0
100
AcDbLine
 62
7
  6
CONTINUOUS
 10
2.0772107042
 20
20.8654779159
 30
0.0
 11
2.0772107042
 21
20.4728682171
 31
0.0
  0
LINE
  5
423
100
AcDbEntity
  8
0
100
AcDbLine
 62
7
  6
CONTINUOUS
 10
0.7757483241
 20
1.9625408109
 30
0.0
 11
0.7626653241
 21
1.8130083109
 31
0.0
  0
LINE
  5
424
100
AcDbEntity
  8
0
100
AcDbLine
 62
7
  6
CONTINUOUS
 10
0.7263563241
 20
1.3979918109
 30
0.0
 11
0.6173268241
 21
0.1517833109
 31
0.0
  0
LINE
  5
425
100
AcDbEntity
  8
0
100
AcDbLine
 62
7
  6
CONTINUOUS
 10
0.6088208241
 20
0.0545538109
 30
0.0
 11
0.5851262912
 21
-0.2162735655
 31
0.0
  0
LINE
  5
426
100
AcDbEntity
  8
0
100
AcDbLine
 62
7
  6
CONTINUOUS
 10
0.7593948241
 20
1.7756248109
 30
0.0
 11
0.7364938241
 21
1.5138648109
 31
0.0
  0
LINE
  5
427
100
AcDbEntity
  8
0
100
AcDbLine
 62
7
  6
CONTINUOUS
 10
0.7776178241
 20
1.5549883109
 30
0.0
 11
0.7969213241
 21
1.7756248109
 31
0.0
  0
LINE
  5
428
100
AcDbEntity
  8
0
100
AcDbLine
 62
7
  6
CONTINUOUS
 10
0.8001913241
 20
1.8130083109
 30
0.0
 11
0.8132738241
 21
1.9625408109
 31
0.0
  0
LINE
  5
429
100
AcDbEntity
  8
0
100
AcDbLine
 62
7
  6
CONTINUOUS
 10
0.6221807693
 20
-0.2216669571
 30
0.0
 11
0.6433278241
 21
0.0200473109
 31
0.0
  0
LINE
  5
42A
100
AcDbEntity
  8
0
100
AcDbLine
 62
7
  6
CONTINUOUS
 10
0.6518343241
 20
0.1172758109
 30
0.0
 11
0.7642148241
 21
1.4017933109
 31
0.0
  0
LINE
  5
42B
100
AcDbEntity
  8
RACCORDO
100
AcDbLine
 62
7
  6
CONTINUOUS
 10
3.0
 20
0.75
 30
0.0
 11
2.9769968205
 21
0.7269968205
 31
0.0
  0
LINE
  5
42C
100
AcDbEntity
  8
0
100
AcDbLine
 62
7
  6
CONTINUOUS
 10
1.6781128241
 20
-1.0147381891
 30
0.0
 11
1.7309808241
 21
-0.9618701891
 31
0.0
  0
LINE
  5
42D
100
AcDbEntity
  8
RACCORDO
100
AcDbLine
 62
7
  6
CONTINUOUS
 10
-2.25
 20
0.75
 30
0.0
 11
-2.4265047981
 21
0.7269968205
 31
0.0
  0
LINE
  5
42E
100
AcDbEntity
  8
RACCORDO
100
AcDbLine
 62
250
  6
CONTINUOUS
 10
2.9685713075
 20
0.4771491138
 30
0.0
 11
2.4911542732
 21
0.4771491138
 31
0.0
  0
LINE
  5
42F
100
AcDbEntity
  8
RACCORDO
100
AcDbLine
 62
250
  6
CONTINUOUS
 10
-2.4911542732
 20
0.4771491138
 30
0.0
 11
-2.9685713075
 21
0.4771491138
 31
0.0
  0
LINE
  5
430
100
AcDbEntity
  8
RACCORDO
100
AcDbLine
 62
250
  6
CONTINUOUS
 10
2.9769968205
 20
0.7269968205
 30
0.0
 11
2.4265047981
 21
0.7269968205
 31
0.0
  0
LINE
  5
431
100
AcDbEntity
  8
RACCORDO
100
AcDbLine
 62
250
  6
CONTINUOUS
 10
-2.4265047981
 20
0.7269968205
 30
0.0
 11
-2.9769968205
 21
0.7269968205
 31
0.0
  0
LINE
  5
432
100
AcDbEntity
  8
DRAFT
100
AcDbLine
 62
7
  6
CONTINUOUS
 10
3.0
 20
0.75
 30
0.0
 11
2.25
 21
0.75
 31
0.0
  0
LINE
  5
433
100
AcDbEntity
  8
DRAFT
100
AcDbLine
 62
7
  6
CONTINUOUS
 10
-2.25
 20
0.75
 30
0.0
 11
-3.0
 21
0.75
 31
0.0
  0
LINE
  5
434
100
AcDbEntity
  8
0
100
AcDbLine
 62
7
  6
CONTINUOUS
 10
-0.2471211759
 20
1.2148773109
 30
0.0
 11
0.4070848241
 21
1.2148773109
 31
0.0
  0
LINE
  5
435
100
AcDbEntity
  8
0
100
AcDbLine
 62
7
  6
CONTINUOUS
 10
0.3697013241
 20
1.2522608109
 30
0.0
 11
-0.2097376759
 21
1.2522608109
 31
0.0
  0
LINE
  5
436
100
AcDbEntity
  8
0
100
AcDbLine
 62
7
  6
CONTINUOUS
 10
-0.2097376759
 20
1.3644108109
 30
0.0
 11
0.3697013241
 21
1.3644108109
 31
0.0
  0
LINE
  5
437
100
AcDbEntity
  8
0
100
AcDbLine
 62
7
  6
CONTINUOUS
 10
0.4070848241
 20
1.4017933109
 30
0.0
 11
-0.2471211759
 21
1.4017933109
 31
0.0
  0
LINE
  5
438
100
AcDbEntity
  8
0
100
AcDbLine
 62
7
  6
CONTINUOUS
 10
0.7642148241
 20
1.4017933109
 30
0.0
 11
1.0986738241
 21
1.4017933109
 31
0.0
  0
LINE
  5
439
100
AcDbEntity
  8
0
100
AcDbLine
 62
7
  6
CONTINUOUS
 10
1.0612903241
 20
1.4391768109
 30
0.0
 11
0.7675413241
 21
1.4391768109
 31
0.0
  0
LINE
  5
43A
100
AcDbEntity
  8
0
100
AcDbLine
 62
7
  6
CONTINUOUS
 10
0.6874588241
 20
1.7756248109
 30
0.0
 11
0.7593948241
 21
1.7756248109
 31
0.0
  0
LINE
  5
43B
100
AcDbEntity
  8
0
100
AcDbLine
 62
7
  6
CONTINUOUS
 10
0.7969213241
 20
1.7756248109
 30
0.0
 11
0.9982543241
 21
1.7756248109
 31
0.0
  0
LINE
  5
43C
100
AcDbEntity
  8
0
100
AcDbLine
 62
7
  6
CONTINUOUS
 10
0.7626653241
 20
1.8130083109
 30
0.0
 11
0.6500753241
 21
1.8130083109
 31
0.0
  0
LINE
  5
43D
100
AcDbEntity
  8
0
100
AcDbLine
 62
7
  6
CONTINUOUS
 10
1.0356378241
 20
1.8130083109
 30
0.0
 11
0.8001913241
 21
1.8130083109
 31
0.0
  0
LINE
  5
43E
100
AcDbEntity
  8
0
100
AcDbLine
 62
7
  6
CONTINUOUS
 10
-1.1443166759
 20
1.9625408109
 30
0.0
 11
-0.8370931759
 21
1.9625408109
 31
0.0
  0
LINE
  5
43F
100
AcDbEntity
  8
0
100
AcDbLine
 62
7
  6
CONTINUOUS
 10
-0.7995666759
 20
1.9625408109
 30
0.0
 11
0.7757483241
 21
1.9625408109
 31
0.0
  0
LINE
  5
440
100
AcDbEntity
  8
0
100
AcDbLine
 62
7
  6
CONTINUOUS
 10
0.8132738241
 20
1.9625408109
 30
0.0
 11
0.9304488241
 21
1.9625408109
 31
0.0
  0
LINE
  5
441
100
AcDbEntity
  8
RACCORDO
100
AcDbLine
 62
7
  6
CONTINUOUS
 10
2.25
 20
0.75
 30
0.0
 11
2.4265047981
 21
0.7269968205
 31
0.0
  0
LINE
  5
442
100
AcDbEntity
  8
0
100
AcDbLine
 62
7
  6
CONTINUOUS
 10
-0.0041301759
 20
0.6675053109
 30
0.0
 11
0.6088208241
 21
0.0545538109
 31
0.0
  0
LINE
  5
443
100
AcDbEntity
  8
0
100
AcDbLine
 62
7
  6
CONTINUOUS
 10
0.6433278241
 20
0.0200473109
 30
0.0
 11
1.6781128241
 21
-1.0147381891
 31
0.0
  0
LINE
  5
444
100
AcDbEntity
  8
0
100
AcDbLine
 62
7
  6
CONTINUOUS
 10
-0.7516671759
 20
1.4150418109
 30
0.0
 11
-0.0569976759
 21
0.7203728109
 31
0.0
  0
LINE
  5
445
100
AcDbEntity
  8
0
100
AcDbLine
 62
7
  6
CONTINUOUS
 10
-1.7392411759
 20
2.4026158109
 30
0.0
 11
-0.7927906759
 21
1.4561658109
 31
0.0
  0
LINE
  5
446
100
AcDbEntity
  8
0
100
AcDbLine
 62
7
  6
CONTINUOUS
 10
1.7309808241
 20
-0.9618701891
 30
0.0
 11
0.6518343241
 21
0.1172758109
 31
0.0
  0
LINE
  5
447
100
AcDbEntity
  8
0
100
AcDbLine
 62
7
  6
CONTINUOUS
 10
0.6173268241
 20
0.1517833109
 30
0.0
 11
0.0487373241
 21
0.7203728109
 31
0.0
  0
LINE
  5
448
100
AcDbEntity
  8
0
100
AcDbLine
 62
7
  6
CONTINUOUS
 10
-0.0041301759
 20
0.7732403109
 30
0.0
 11
-0.7618046759
 21
1.5309148109
 31
0.0
  0
LINE
  5
449
100
AcDbEntity
  8
0
100
AcDbLine
 62
7
  6
CONTINUOUS
 10
-0.8029281759
 20
1.5720388109
 30
0.0
 11
-1.6863731759
 21
2.4554838109
 31
0.0
  0
LINE
  5
44A
100
AcDbEntity
  8
RACCORDO
100
AcDbLine
 62
7
  6
CONTINUOUS
 10
3.0
 20
-0.75
 30
0.0
 11
2.9769968205
 21
-0.7269968205
 31
0.0
  0
LINE
  5
44B
100
AcDbEntity
  8
DRAFT
100
AcDbLine
 62
7
  6
CONTINUOUS
 10
2.1888254005
 20
-7.8
 30
0.0
 11
2.189526961
 21
-7.95
 31
0.0
  0
LINE
  5
44C
100
AcDbEntity
  8
0
100
AcDbLine
 62
7
  6
CONTINUOUS
 10
2.1379186523
 20
20.4728682171
 30
0.0
 11
2.1379186523
 21
20.976744186
 31
0.0
  0
LINE
  5
44D
100
AcDbEntity
  8
RACCORDO
100
AcDbLine
 62
7
  6
CONTINUOUS
 10
2.1624716104
 20
-8.8
 30
0.0
 11
2.1624716104
 21
-10.8119087013
 31
0.0
  0
LINE
  5
44E
100
AcDbEntity
  8
RACCORDO
100
AcDbLine
 62
7
  6
CONTINUOUS
 10
2.1624716104
 20
-21.5630912987
 30
0.0
 11
2.1624716104
 21
-24.7625096866
 31
0.0
  0
LINE
  5
44F
100
AcDbEntity
  8
RACCORDO
100
AcDbLine
 62
7
  6
CONTINUOUS
 10
2.189526961
 20
-7.95
 30
0.0
 11
2.189526961
 21
-8.2
 31
0.0
  0
LINE
  5
450
100
AcDbEntity
  8
RACCORDO
100
AcDbLine
 62
7
  6
CONTINUOUS
 10
2.2
 20
-8.35
 30
0.0
 11
2.2
 21
-10.8119087013
 31
0.0
  0
LINE
  5
451
100
AcDbEntity
  8
RACCORDO
100
AcDbLine
 62
7
  6
CONTINUOUS
 10
2.2
 20
-21.5630912987
 30
0.0
 11
2.2
 21
-24.8000380762
 31
0.0
  0
LINE
  5
452
100
AcDbEntity
  8
DRAFT
100
AcDbLine
 62
7
  6
CONTINUOUS
 10
2.25
 20
0.75
 30
0.0
 11
2.25
 21
-0.75
 31
0.0
  0
LINE
  5
453
100
AcDbEntity
  8
0
100
AcDbLine
 62
7
  6
CONTINUOUS
 10
2.25
 20
-10.2822233378
 30
0.0
 11
2.25
 21
-10.825
 31
0.0
  0
LINE
  5
454
100
AcDbEntity
  8
0
100
AcDbLine
 62
7
  6
CONTINUOUS
 10
2.25
 20
-21.55
 30
0.0
 11
2.25
 21
-27.0
 31
0.0
  0
LINE
  5
455
100
AcDbEntity
  8
DRAFT
100
AcDbLine
 62
7
  6
CONTINUOUS
 10
2.25
 20
-10.2822233378
 30
0.0
 11
2.25
 21
-10.1905097241
 31
0.0
  0
LINE
  5
456
100
AcDbEntity
  8
SMUSSO
100
AcDbLine
 62
7
  6
CONTINUOUS
 10
2.25
 20
-10.1905097241
 30
0.0
 11
2.25
 21
-8.875
 31
0.0
  0
LINE
  5
457
100
AcDbEntity
  8
0
100
AcDbLine
 62
7
  6
CONTINUOUS
 10
2.2745115355
 20
20.6489212665
 30
0.0
 11
2.2745115355
 21
20.5912487158
 31
0.0
  0
LINE
  5
458
100
AcDbEntity
  8
RACCORDO
100
AcDbLine
 62
7
  6
CONTINUOUS
 10
2.4911542732
 20
-0.4771491138
 30
0.0
 11
2.4911542732
 21
0.4771491138
 31
0.0
  0
LINE
  5
459
100
AcDbEntity
  8
0
100
AcDbLine
 62
7
  6
CONTINUOUS
 10
2.4960955459
 20
20.8724024292
 30
0.0
 11
2.4960955459
 21
20.6489212665
 31
0.0
  0
LINE
  5
45A
100
AcDbEntity
  8
0
100
AcDbLine
 62
7
  6
CONTINUOUS
 10
2.4960955459
 20
20.5912487158
 30
0.0
 11
2.4960955459
 21
20.4728682171
 31
0.0
  0
LINE
  5
45B
100
AcDbEntity
  8
0
100
AcDbLine
 62
7
  6
CONTINUOUS
 10
2.556803494
 20
20.4728682171
 30
0.0
 11
2.556803494
 21
20.5912487158
 31
0.0
  0
LINE
  5
45C
100
AcDbEntity
  8
0
100
AcDbLine
 62
7
  6
CONTINUOUS
 10
2.556803494
 20
20.6489212665
 30
0.0
 11
2.556803494
 21
20.9737087886
 31
0.0
  0
LINE
  5
45D
100
AcDbEntity
  8
0
100
AcDbLine
 62
7
  6
CONTINUOUS
 10
2.6235822369
 20
20.5912487158
 30
0.0
 11
2.6235822369
 21
20.6489212665
 31
0.0
  0
LINE
  5
45E
100
AcDbEntity
  8
DRAFT
100
AcDbLine
 62
7
  6
CONTINUOUS
 10
2.625
 20
9.0088198634
 30
0.0
 11
2.625
 21
7.975
 31
0.0
  0
LINE
  5
45F
100
AcDbEntity
  8
0
100
AcDbLine
 62
7
  6
CONTINUOUS
 10
2.75
 20
-26.6250190381
 30
0.0
 11
2.75
 21
-22.6249809619
 31
0.0
  0
LINE
  5
460
100
AcDbEntity
  8
0
100
AcDbLine
 62
250
  6
CONTINUOUS
 10
2.7871300921
 20
-26.587888946
 30
0.0
 11
2.7871300921
 21
-22.662111054
 31
0.0
  0
LINE
  5
461
100
AcDbEntity
  8
0
100
AcDbLine
 62
250
  6
CONTINUOUS
 10
2.912111054
 20
-26.7128699079
 30
0.0
 11
2.912111054
 21
-22.5371300921
 31
0.0
  0
LINE
  5
462
100
AcDbEntity
  8
RACCORDO
100
AcDbLine
 62
7
  6
CONTINUOUS
 10
2.9685713075
 20
-0.4771491138
 30
0.0
 11
2.9685713075
 21
0.4771491138
 31
0.0
  0
LINE
  5
463
100
AcDbEntity
  8
DRAFT
100
AcDbLine
 62
7
  6
CONTINUOUS
 10
3.0
 20
-0.75
 30
0.0
 11
3.0
 21
0.75
 31
0.0
  0
LINE
  5
464
100
AcDbEntity
  8
DRAFT
100
AcDbLine
 62
7
  6
CONTINUOUS
 10
3.375
 20
9.0088198634
 30
0.0
 11
3.375
 21
7.975
 31
0.0
  0
LINE
  5
465
100
AcDbEntity
  8
0
100
AcDbLine
 62
7
  6
CONTINUOUS
 10
3.4753432334
 20
20.2433454749
 30
0.0
 11
3.4753432334
 21
19.7425049033
 31
0.0
  0
LINE
  5
466
100
AcDbEntity
  8
0
100
AcDbLine
 62
7
  6
CONTINUOUS
 10
3.5421219763
 20
19.7425049033
 30
0.0
 11
3.5421219763
 21
20.2433454749
 31
0.0
  0
LINE
  5
467
100
AcDbEntity
  8
0
100
AcDbLine
 62
250
  6
CONTINUOUS
 10
3.637888946
 20
-22.5371300921
 30
0.0
 11
3.637888946
 21
-26.7128699079
 31
0.0
  0
LINE
  5
468
100
AcDbEntity
  8
0
100
AcDbLine
 62
250
  6
CONTINUOUS
 10
3.637888946
 20
23.0371300921
 30
0.0
 11
3.637888946
 21
26.7128699079
 31
0.0
  0
LINE
  5
469
100
AcDbEntity
  8
0
100
AcDbLine
 62
250
  6
CONTINUOUS
 10
3.7628699079
 20
-22.662111054
 30
0.0
 11
3.7628699079
 21
-26.587888946
 31
0.0
  0
LINE
  5
46A
100
AcDbEntity
  8
0
100
AcDbLine
 62
250
  6
CONTINUOUS
 10
3.7628699079
 20
23.162111054
 30
0.0
 11
3.7628699079
 21
26.587888946
 31
0.0
  0
LINE
  5
46B
100
AcDbEntity
  8
0
100
AcDbLine
 62
7
  6
CONTINUOUS
 10
3.8
 20
-22.6249809619
 30
0.0
 11
3.8
 21
-26.6250190381
 31
0.0
  0
LINE
  5
46C
100
AcDbEntity
  8
0
100
AcDbLine
 62
7
  6
CONTINUOUS
 10
3.8
 20
23.1249809619
 30
0.0
 11
3.8
 21
26.6250190381
 31
0.0
  0
LINE
  5
46D
100
AcDbEntity
  8
DRAFT
100
AcDbLine
 62
7
  6
CONTINUOUS
 10
3.8307994286
 20
-16.25
 30
0.0
 11
3.8307994286
 21
-13.75
 31
0.0
  0
LINE
  5
46E
100
AcDbEntity
  8
DRAFT
100
AcDbLine
 62
7
  6
CONTINUOUS
 10
3.8307994286
 20
13.75
 30
0.0
 11
3.8307994286
 21
16.25
 31
0.0
  0
LINE
  5
46F
100
AcDbEntity
  8
DRAFT
100
AcDbLine
 62
7
  6
CONTINUOUS
 10
3.85
 20
16.25
 30
0.0
 11
3.85
 21
13.75
 31
0.0
  0
LINE
  5
470
100
AcDbEntity
  8
DRAFT
100
AcDbLine
 62
7
  6
CONTINUOUS
 10
3.85
 20
-13.75
 30
0.0
 11
3.85
 21
-16.25
 31
0.0
  0
LINE
  5
471
100
AcDbEntity
  8
DRAFT
100
AcDbLine
 62
7
  6
CONTINUOUS
 10
3.8692005714
 20
-11.9476348052
 30
0.0
 11
3.8692005714
 21
-13.75
 31
0.0
  0
LINE
  5
472
100
AcDbEntity
  8
DRAFT
100
AcDbLine
 62
7
  6
CONTINUOUS
 10
3.8692005714
 20
-18.0523651948
 30
0.0
 11
3.8692005714
 21
-16.25
 31
0.0
  0
LINE
  5
473
100
AcDbEntity
  8
DRAFT
100
AcDbLine
 62
7
  6
CONTINUOUS
 10
3.8692005714
 20
11.9476348052
 30
0.0
 11
3.8692005714
 21
13.75
 31
0.0
  0
LINE
  5
474
100
AcDbEntity
  8
DRAFT
100
AcDbLine
 62
7
  6
CONTINUOUS
 10
3.8692005714
 20
16.25
 30
0.0
 11
3.8692005714
 21
18.0523651948
 31
0.0
  0
LINE
  5
475
100
AcDbEntity
  8
0
100
AcDbLine
 62
7
  6
CONTINUOUS
 10
3.875
 20
-18.0
 30
0.0
 11
3.875
 21
-16.25
 31
0.0
  0
LINE
  5
476
100
AcDbEntity
  8
ASSI
100
AcDbLine
 62
7
  6
CONTINUOUS
 10
3.875
 20
-18.0
 30
0.0
 11
3.875
 21
-16.25
 31
0.0
  0
LINE
  5
477
100
AcDbEntity
  8
0
100
AcDbLine
 62
7
  6
CONTINUOUS
 10
3.875
 20
-13.75
 30
0.0
 11
3.875
 21
-12.0
 31
0.0
  0
LINE
  5
478
100
AcDbEntity
  8
ASSI
100
AcDbLine
 62
7
  6
CONTINUOUS
 10
3.875
 20
-13.75
 30
0.0
 11
3.875
 21
-12.0
 31
0.0
  0
LINE
  5
479
100
AcDbEntity
  8
0
100
AcDbLine
 62
7
  6
CONTINUOUS
 10
3.875
 20
12.0
 30
0.0
 11
3.875
 21
13.75
 31
0.0
  0
LINE
  5
47A
100
AcDbEntity
  8
ASSI
100
AcDbLine
 62
7
  6
CONTINUOUS
 10
3.875
 20
12.0
 30
0.0
 11
3.875
 21
13.75
 31
0.0
  0
LINE
  5
47B
100
AcDbEntity
  8
0
100
AcDbLine
 62
7
  6
CONTINUOUS
 10
3.875
 20
16.25
 30
0.0
 11
3.875
 21
18.0
 31
0.0
  0
LINE
  5
47C
100
AcDbEntity
  8
ASSI
100
AcDbLine
 62
7
  6
CONTINUOUS
 10
3.875
 20
16.25
 30
0.0
 11
3.875
 21
18.0
 31
0.0
  0
LINE
  5
47D
100
AcDbEntity
  8
0
100
AcDbLine
 62
7
  6
CONTINUOUS
 10
3.9432934636
 20
16.2308591874
 30
0.0
 11
3.9432934636
 21
13.7691408126
 31
0.0
  0
LINE
  5
47E
100
AcDbEntity
  8
ASSI
100
AcDbLine
 62
7
  6
CONTINUOUS
 10
3.9432934636
 20
16.2308591874
 30
0.0
 11
3.9432934636
 21
13.7691408126
 31
0.0
  0
LINE
  5
47F
100
AcDbEntity
  8
0
100
AcDbLine
 62
7
  6
CONTINUOUS
 10
3.9432934636
 20
-13.7691408126
 30
0.0
 11
3.9432934636
 21
-16.2308591874
 31
0.0
  0
LINE
  5
480
100
AcDbEntity
  8
ASSI
100
AcDbLine
 62
7
  6
CONTINUOUS
 10
3.9432934636
 20
-13.7691408126
 30
0.0
 11
3.9432934636
 21
-16.2308591874
 31
0.0
  0
LINE
  5
481
100
AcDbEntity
  8
DRAFT
100
AcDbLine
 62
7
  6
CONTINUOUS
 10
2.1624716104
 20
-8.8
 30
0.0
 11
2.1799266753
 21
-7.8
 31
0.0
  0
LINE
  5
482
100
AcDbEntity
  8
0
100
AcDbLine
 62
7
  6
CONTINUOUS
 10
0.6729733194
 20
2.1120738098
 30
0.0
 11
-0.5648776759
 21
2.1120738109
 31
0.0
  0
LINE
  5
483
100
AcDbEntity
  8
0
100
AcDbLine
 62
7
  6
CONTINUOUS
 10
-0.7517936759
 20
2.1120738109
 30
0.0
 11
-0.8126491759
 21
2.1120738109
 31
0.0
  0
LINE
  5
484
100
AcDbEntity
  8
0
100
AcDbLine
 62
7
  6
CONTINUOUS
 10
-0.8501751759
 20
2.1120738109
 30
0.0
 11
-1.1443166759
 21
2.1120738109
 31
0.0
  0
LINE
  5
485
100
AcDbEntity
  8
0
100
AcDbLine
 62
7
  6
CONTINUOUS
 10
-0.6022611759
 20
2.1494573109
 30
0.0
 11
-0.7144101759
 21
2.1494573109
 31
0.0
  0
LINE
  5
486
100
AcDbEntity
  8
0
100
AcDbLine
 62
7
  6
CONTINUOUS
 10
-0.1723541759
 20
2.2616068109
 30
0.0
 11
0.3323183241
 21
2.2616068109
 31
0.0
  0
LINE
  5
487
100
AcDbEntity
  8
0
100
AcDbLine
 62
7
  6
CONTINUOUS
 10
0.2949348241
 20
2.2989898109
 30
0.0
 11
-0.1349711759
 21
2.2989898109
 31
0.0
  0
LINE
  5
488
100
AcDbEntity
  8
0
100
AcDbLine
 62
7
  6
CONTINUOUS
 10
-0.7144101759
 20
2.3924473109
 30
0.0
 11
-0.6022611759
 21
2.3924473109
 31
0.0
  0
LINE
  5
489
100
AcDbEntity
  8
0
100
AcDbLine
 62
7
  6
CONTINUOUS
 10
-0.5648776759
 20
2.4298308109
 30
0.0
 11
-0.7517936759
 21
2.4298308109
 31
0.0
  0
LINE
  5
48A
100
AcDbEntity
  8
0
100
AcDbLine
 62
7
  6
CONTINUOUS
 10
-0.1349711759
 20
2.4485223109
 30
0.0
 11
0.2949348241
 21
2.4485223109
 31
0.0
  0
LINE
  5
48B
100
AcDbEntity
  8
0
100
AcDbLine
 62
7
  6
CONTINUOUS
 10
0.3323183241
 20
2.4859058109
 30
0.0
 11
-0.1723541759
 21
2.4859058109
 31
0.0
  0
LINE
  5
48C
100
AcDbEntity
  8
0
100
AcDbLine
 62
7
  6
CONTINUOUS
 10
1.7309808241
 20
2.4026158109
 30
0.0
 11
1.6781128241
 21
2.4554838109
 31
0.0
  0
LINE
  5
48D
100
AcDbEntity
  8
0
100
AcDbLine
 62
7
  6
CONTINUOUS
 10
-3.2989523392
 20
20.6107891068
 30
0.0
 11
-3.4290001858
 21
20.9737087886
 31
0.0
  0
LINE
  5
48E
100
AcDbEntity
  8
0
100
AcDbLine
 62
7
  6
CONTINUOUS
 10
3.9633945419
 20
-13.65
 30
0.0
 11
3.9633945419
 21
-16.35
 31
0.0
  0
LINE
  5
48F
100
AcDbEntity
  8
ASSI
100
AcDbLine
 62
7
  6
CONTINUOUS
 10
3.9633945419
 20
-13.65
 30
0.0
 11
3.9633945419
 21
-16.35
 31
0.0
  0
LINE
  5
490
100
AcDbEntity
  8
0
100
AcDbLine
 62
7
  6
CONTINUOUS
 10
3.9633945419
 20
13.65
 30
0.0
 11
3.9633945419
 21
16.35
 31
0.0
  0
LINE
  5
491
100
AcDbEntity
  8
ASSI
100
AcDbLine
 62
7
  6
CONTINUOUS
 10
3.9633945419
 20
13.65
 30
0.0
 11
3.9633945419
 21
16.35
 31
0.0
  0
LINE
  5
492
100
AcDbEntity
  8
0
100
AcDbLine
 62
7
  6
CONTINUOUS
 10
3.9762702315
 20
-17.6537059959
 30
0.0
 11
3.9762702315
 21
-16.35
 31
0.0
  0
LINE
  5
493
100
AcDbEntity
  8
ASSI
100
AcDbLine
 62
7
  6
CONTINUOUS
 10
3.9762702315
 20
-17.6537059959
 30
0.0
 11
3.9762702315
 21
-16.35
 31
0.0
  0
LINE
  5
494
100
AcDbEntity
  8
0
100
AcDbLine
 62
7
  6
CONTINUOUS
 10
3.9762702315
 20
-13.65
 30
0.0
 11
3.9762702315
 21
-12.3462940041
 31
0.0
  0
LINE
  5
495
100
AcDbEntity
  8
ASSI
100
AcDbLine
 62
7
  6
CONTINUOUS
 10
3.9762702315
 20
-13.65
 30
0.0
 11
3.9762702315
 21
-12.3462940041
 31
0.0
  0
LINE
  5
496
100
AcDbEntity
  8
0
100
AcDbLine
 62
7
  6
CONTINUOUS
 10
3.9762702315
 20
12.3462940041
 30
0.0
 11
3.9762702315
 21
13.65
 31
0.0
  0
LINE
  5
497
100
AcDbEntity
  8
ASSI
100
AcDbLine
 62
7
  6
CONTINUOUS
 10
3.9762702315
 20
12.3462940041
 30
0.0
 11
3.9762702315
 21
13.65
 31
0.0
  0
LINE
  5
498
100
AcDbEntity
  8
0
100
AcDbLine
 62
7
  6
CONTINUOUS
 10
3.9762702315
 20
16.35
 30
0.0
 11
3.9762702315
 21
17.6537059959
 31
0.0
  0
LINE
  5
499
100
AcDbEntity
  8
ASSI
100
AcDbLine
 62
7
  6
CONTINUOUS
 10
3.9762702315
 20
16.35
 30
0.0
 11
3.9762702315
 21
17.6537059959
 31
0.0
  0
LINE
  5
49A
100
AcDbEntity
  8
0
100
AcDbLine
 62
7
  6
CONTINUOUS
 10
4.1762702315
 20
-13.65
 30
0.0
 11
4.1762702315
 21
-16.35
 31
0.0
  0
LINE
  5
49B
100
AcDbEntity
  8
ASSI
100
AcDbLine
 62
7
  6
CONTINUOUS
 10
4.1762702315
 20
-13.65
 30
0.0
 11
4.1762702315
 21
-16.35
 31
0.0
  0
LINE
  5
49C
100
AcDbEntity
  8
0
100
AcDbLine
 62
7
  6
CONTINUOUS
 10
4.1762702315
 20
13.65
 30
0.0
 11
4.1762702315
 21
16.35
 31
0.0
  0
LINE
  5
49D
100
AcDbEntity
  8
ASSI
100
AcDbLine
 62
7
  6
CONTINUOUS
 10
4.1762702315
 20
13.65
 30
0.0
 11
4.1762702315
 21
16.35
 31
0.0
  0
LINE
  5
49E
100
AcDbEntity
  8
DRAFT
100
AcDbLine
 62
7
  6
CONTINUOUS
 10
4.25
 20
7.975
 30
0.0
 11
4.25
 21
9.0088198634
 31
0.0
  0
LINE
  5
49F
100
AcDbEntity
  8
RACCORDO
100
AcDbLine
 62
7
  6
CONTINUOUS
 10
4.3976348052
 20
-26.8977109576
 30
0.0
 11
4.3976348052
 21
-18.0523651948
 31
0.0
  0
LINE
  5
4A0
100
AcDbEntity
  8
DRAFT
100
AcDbLine
 62
7
  6
CONTINUOUS
 10
4.3976348052
 20
-11.9476348052
 30
0.0
 11
4.3976348052
 21
-10.2822233378
 31
0.0
  0
LINE
  5
4A1
100
AcDbEntity
  8
DRAFT
100
AcDbLine
 62
7
  6
CONTINUOUS
 10
4.3976348052
 20
9.0322233378
 30
0.0
 11
4.3976348052
 21
11.9476348052
 31
0.0
  0
LINE
  5
4A2
100
AcDbEntity
  8
RACCORDO
100
AcDbLine
 62
7
  6
CONTINUOUS
 10
4.3976348052
 20
18.0523651948
 30
0.0
 11
4.3976348052
 21
26.8977109576
 31
0.0
  0
LINE
  5
4A3
100
AcDbEntity
  8
SMUSSO
100
AcDbLine
 62
7
  6
CONTINUOUS
 10
4.4281811688
 20
-9.2905097241
 30
0.0
 11
4.4281811688
 21
-10.1905097241
 31
0.0
  0
LINE
  5
4A4
100
AcDbEntity
  8
RACCORDO
100
AcDbLine
 62
7
  6
CONTINUOUS
 10
4.45
 20
-26.9500761524
 30
0.0
 11
4.45
 21
-18.0
 31
0.0
  0
LINE
  5
4A5
100
AcDbEntity
  8
0
100
AcDbLine
 62
7
  6
CONTINUOUS
 10
4.45
 20
-23.375
 30
0.0
 11
4.45
 21
-10.6531051612
 31
0.0
  0
LINE
  5
4A6
100
AcDbEntity
  8
ASSI
100
AcDbLine
 62
7
  6
CONTINUOUS
 10
4.45
 20
-23.375
 30
0.0
 11
4.45
 21
-10.6531051612
 31
0.0
  0
LINE
  5
4A7
100
AcDbEntity
  8
DRAFT
100
AcDbLine
 62
7
  6
CONTINUOUS
 10
4.45
 20
-12.0
 30
0.0
 11
4.45
 21
12.0
 31
0.0
  0
LINE
  5
4A8
100
AcDbEntity
  8
0
100
AcDbLine
 62
7
  6
CONTINUOUS
 10
4.45
 20
11.75
 30
0.0
 11
4.45
 21
23.375
 31
0.0
  0
LINE
  5
4A9
100
AcDbEntity
  8
ASSI
100
AcDbLine
 62
7
  6
CONTINUOUS
 10
4.45
 20
11.75
 30
0.0
 11
4.45
 21
23.375
 31
0.0
  0
LINE
  5
4AA
100
AcDbEntity
  8
RACCORDO
100
AcDbLine
 62
7
  6
CONTINUOUS
 10
4.45
 20
18.0
 30
0.0
 11
4.45
 21
26.9500761524
 31
0.0
  0
LINE
  5
4AB
100
AcDbEntity
  8
SMUSSO
100
AcDbLine
 62
7
  6
CONTINUOUS
 10
4.4346283226
 20
-8.921152534
 30
0.0
 11
4.4281811688
 21
-9.2905097241
 31
0.0
  0
LINE
  5
4AC
100
AcDbEntity
  8
DRAFT
100
AcDbLine
 62
7
  6
CONTINUOUS
 10
-4.3976348052
 20
-11.9476348052
 30
0.0
 11
-4.45
 21
-12.0
 31
0.0
  0
LINE
  5
4AD
100
AcDbEntity
  8
DRAFT
100
AcDbLine
 62
7
  6
CONTINUOUS
 10
-4.3976348052
 20
11.9476348052
 30
0.0
 11
-4.45
 21
12.0
 31
0.0
  0
LINE
  5
4AE
100
AcDbEntity
  8
0
100
AcDbLine
 62
7
  6
CONTINUOUS
 10
-2.4819561496
 20
19.0
 30
0.0
 11
-2.6825769511
 21
19.5008405716
 31
0.0
  0
LINE
  5
4AF
100
AcDbEntity
  8
0
100
AcDbLine
 62
7
  6
CONTINUOUS
 10
-2.3866731562
 20
20.4728682171
 30
0.0
 11
-2.5872939577
 21
20.9737087886
 31
0.0
  0
LINE
  5
4B0
100
AcDbEntity
  8
0
100
AcDbLine
 62
7
  6
CONTINUOUS
 10
-3.5
 20
20.9737087886
 30
0.0
 11
-3.3074420033
 21
20.4728682171
 31
0.0
  0
LINE
  5
4B1
100
AcDbEntity
  8
0
100
AcDbLine
 62
7
  6
CONTINUOUS
 10
-3.5
 20
21.7071074998
 30
0.0
 11
-3.3074420033
 21
21.2062669282
 31
0.0
  0
LINE
  5
4B2
100
AcDbEntity
  8
0
100
AcDbLine
 62
7
  6
CONTINUOUS
 10
-2.608826266
 20
19.1517698702
 30
0.0
 11
-2.5529560101
 21
19.0
 31
0.0
  0
LINE
  5
4B3
100
AcDbEntity
  8
0
100
AcDbLine
 62
7
  6
CONTINUOUS
 10
-2.5135432726
 20
20.6246380872
 30
0.0
 11
-2.4576730167
 21
20.4728682171
 31
0.0
  0
LINE
  5
4B4
100
AcDbEntity
  8
0
100
AcDbLine
 62
7
  6
CONTINUOUS
 10
-1.9307469712
 20
21.3580367984
 30
0.0
 11
-1.8748767152
 21
21.2062669282
 31
0.0
  0
LINE
  5
4B5
100
AcDbEntity
  8
0
100
AcDbLine
 62
7
  6
CONTINUOUS
 10
-3.2989523392
 20
21.344187818
 30
0.0
 11
-3.4290001858
 21
21.7071074998
 31
0.0
  0
LINE
  5
4B6
100
AcDbEntity
  8
0
100
AcDbLine
 62
7
  6
CONTINUOUS
 10
-2.7338941804
 20
21.6312225647
 30
0.0
 11
-2.5894756365
 21
21.2062669282
 31
0.0
  0
LINE
  5
4B7
100
AcDbEntity
  8
0
100
AcDbLine
 62
7
  6
CONTINUOUS
 10
-1.2780891006
 20
20.1674605398
 30
0.0
 11
-1.1336705567
 21
19.7425049033
 31
0.0
  0
LINE
  5
4B8
100
AcDbEntity
  8
0
100
AcDbLine
 62
7
  6
CONTINUOUS
 10
-2.5802745867
 20
21.3532465814
 30
0.0
 11
-2.6988922295
 21
21.7071074998
 31
0.0
  0
LINE
  5
4B9
100
AcDbEntity
  8
0
100
AcDbLine
 62
7
  6
CONTINUOUS
 10
-1.1244695069
 20
19.8894845565
 30
0.0
 11
-1.2430871497
 21
20.2433454749
 31
0.0
  0
LINE
  5
4BA
100
AcDbEntity
  8
SMUSSO
100
AcDbLine
 62
7
  6
CONTINUOUS
 10
4.4346283226
 20
-8.921152534
 30
0.0
 11
4.45
 21
-8.875
 31
0.0
  0
LINE
  5
4BB
100
AcDbEntity
  8
DRAFT
100
AcDbLine
 62
7
  6
CONTINUOUS
 10
4.3976348052
 20
-10.2822233378
 30
0.0
 11
4.4281811688
 21
-10.1905097241
 31
0.0
  0
LINE
  5
4BC
100
AcDbEntity
  8
DRAFT
100
AcDbLine
 62
7
  6
CONTINUOUS
 10
-1.6555463636
 20
-14.6943314665
 30
0.0
 11
-1.8119087013
 21
-14.9651589798
 31
0.0
  0
LINE
  5
4BD
100
AcDbEntity
  8
DRAFT
100
AcDbLine
 62
7
  6
CONTINUOUS
 10
-1.625
 20
-14.70251634
 30
0.0
 11
-1.8119087013
 21
-15.026251707
 31
0.0
  0
LINE
  5
4BE
100
AcDbEntity
  8
0
100
AcDbLine
 62
7
  6
CONTINUOUS
 10
-1.825
 20
-10.825
 30
0.0
 11
-1.8119087013
 21
-10.8119087013
 31
0.0
  0
LINE
  5
4BF
100
AcDbEntity
  8
0
100
AcDbLine
 62
7
  6
CONTINUOUS
 10
-1.8038768547
 20
21.2062669282
 30
0.0
 11
-2.0044976562
 21
21.7071074998
 31
0.0
  0
LINE
  5
4C0
100
AcDbEntity
  8
0
100
AcDbLine
 62
7
  6
CONTINUOUS
 10
-0.3480717749
 20
19.7425049033
 30
0.0
 11
-0.5486925764
 21
20.2433454749
 31
0.0
  0
LINE
  5
4C1
100
AcDbEntity
  8
0
100
AcDbLine
 62
7
  6
CONTINUOUS
 10
-1.3296908564
 20
20.9737087886
 30
0.0
 11
-1.1371328597
 21
20.4728682171
 31
0.0
  0
LINE
  5
4C2
100
AcDbEntity
  8
0
100
AcDbLine
 62
7
  6
CONTINUOUS
 10
-0.4749418913
 20
19.8942747735
 30
0.0
 11
-0.4190716354
 21
19.7425049033
 31
0.0
  0
LINE
  5
4C3
100
AcDbEntity
  8
0
100
AcDbLine
 62
7
  6
CONTINUOUS
 10
0.1606418399
 20
21.3580367984
 30
0.0
 11
0.2165120959
 21
21.2062669282
 31
0.0
  0
LINE
  5
4C4
100
AcDbEntity
  8
0
100
AcDbLine
 62
7
  6
CONTINUOUS
 10
-1.1286431957
 20
20.6107891068
 30
0.0
 11
-1.2586910423
 21
20.9737087886
 31
0.0
  0
LINE
  5
4C5
100
AcDbEntity
  8
DRAFT
100
AcDbLine
 62
7
  6
CONTINUOUS
 10
4.3976348052
 20
9.0322233378
 30
0.0
 11
4.45
 21
8.875
 31
0.0
  0
LINE
  5
4C6
100
AcDbEntity
  8
0
100
AcDbLine
 62
7
  6
CONTINUOUS
 10
-3.967692402
 20
-12.0963320803
 30
0.0
 11
-3.875
 21
-12.05
 31
0.0
  0
LINE
  5
4C7
100
AcDbEntity
  8
ASSI
100
AcDbLine
 62
7
  6
CONTINUOUS
 10
-3.967692402
 20
-12.0963320803
 30
0.0
 11
-3.875
 21
-12.05
 31
0.0
  0
LINE
  5
4C8
100
AcDbEntity
  8
0
100
AcDbLine
 62
7
  6
CONTINUOUS
 10
1.75
 20
7.975
 30
0.0
 11
2.625
 21
7.975
 31
0.0
  0
LINE
  5
4C9
100
AcDbEntity
  8
0
100
AcDbLine
 62
7
  6
CONTINUOUS
 10
-1.75
 20
7.975
 30
0.0
 11
-2.625
 21
7.975
 31
0.0
  0
LINE
  5
4CA
100
AcDbEntity
  8
0
100
AcDbLine
 62
7
  6
CONTINUOUS
 10
3.375
 20
7.975
 30
0.0
 11
4.25
 21
7.975
 31
0.0
  0
LINE
  5
4CB
100
AcDbEntity
  8
0
100
AcDbLine
 62
7
  6
CONTINUOUS
 10
-3.375
 20
7.975
 30
0.0
 11
-4.25
 21
7.975
 31
0.0
  0
LINE
  5
4CC
100
AcDbEntity
  8
DRAFT
100
AcDbLine
 62
7
  6
CONTINUOUS
 10
4.45
 20
8.875
 30
0.0
 11
4.25
 21
8.875
 31
0.0
  0
LINE
  5
4CD
100
AcDbEntity
  8
DRAFT
100
AcDbLine
 62
7
  6
CONTINUOUS
 10
3.375
 20
8.875
 30
0.0
 11
2.625
 21
8.875
 31
0.0
  0
LINE
  5
4CE
100
AcDbEntity
  8
DRAFT
100
AcDbLine
 62
7
  6
CONTINUOUS
 10
1.75
 20
8.875
 30
0.0
 11
-1.75
 21
8.875
 31
0.0
  0
LINE
  5
4CF
100
AcDbEntity
  8
DRAFT
100
AcDbLine
 62
7
  6
CONTINUOUS
 10
-2.625
 20
8.875
 30
0.0
 11
-3.375
 21
8.875
 31
0.0
  0
LINE
  5
4D0
100
AcDbEntity
  8
DRAFT
100
AcDbLine
 62
7
  6
CONTINUOUS
 10
-4.25
 20
8.875
 30
0.0
 11
-4.45
 21
8.875
 31
0.0
  0
LINE
  5
4D1
100
AcDbEntity
  8
DRAFT
100
AcDbLine
 62
7
  6
CONTINUOUS
 10
1.75
 20
9.0088198634
 30
0.0
 11
2.625
 21
9.0088198634
 31
0.0
  0
LINE
  5
4D2
100
AcDbEntity
  8
DRAFT
100
AcDbLine
 62
7
  6
CONTINUOUS
 10
-1.75
 20
9.0088198634
 30
0.0
 11
-2.625
 21
9.0088198634
 31
0.0
  0
LINE
  5
4D3
100
AcDbEntity
  8
DRAFT
100
AcDbLine
 62
7
  6
CONTINUOUS
 10
3.375
 20
9.0088198634
 30
0.0
 11
4.25
 21
9.0088198634
 31
0.0
  0
LINE
  5
4D4
100
AcDbEntity
  8
DRAFT
100
AcDbLine
 62
7
  6
CONTINUOUS
 10
-3.375
 20
9.0088198634
 30
0.0
 11
-4.25
 21
9.0088198634
 31
0.0
  0
LINE
  5
4D5
100
AcDbEntity
  8
DRAFT
100
AcDbLine
 62
7
  6
CONTINUOUS
 10
4.3976348052
 20
9.0322233378
 30
0.0
 11
-4.3976348052
 21
9.0322233378
 31
0.0
  0
LINE
  5
4D6
100
AcDbEntity
  8
0
100
AcDbLine
 62
7
  6
CONTINUOUS
 10
-3.875
 20
12.05
 30
0.0
 11
-3.967692402
 21
12.0963320803
 31
0.0
  0
LINE
  5
4D7
100
AcDbEntity
  8
ASSI
100
AcDbLine
 62
7
  6
CONTINUOUS
 10
-3.875
 20
12.05
 30
0.0
 11
-3.967692402
 21
12.0963320803
 31
0.0
  0
LINE
  5
4D8
100
AcDbEntity
  8
0
100
AcDbLine
 62
7
  6
CONTINUOUS
 10
-2.0881607769
 20
19.5008405716
 30
0.0
 11
-1.8969307405
 21
19.2121458629
 31
0.0
  0
LINE
  5
4D9
100
AcDbEntity
  8
0
100
AcDbLine
 62
7
  6
CONTINUOUS
 10
0.2875119563
 20
21.2062669282
 30
0.0
 11
0.0868911549
 21
21.7071074998
 31
0.0
  0
LINE
  5
4DA
100
AcDbEntity
  8
0
100
AcDbLine
 62
7
  6
CONTINUOUS
 10
1.6807593646
 20
20.4728682171
 30
0.0
 11
1.4801385631
 21
20.9737087886
 31
0.0
  0
LINE
  5
4DB
100
AcDbEntity
  8
0
100
AcDbLine
 62
7
  6
CONTINUOUS
 10
1.5538892481
 20
20.6246380872
 30
0.0
 11
1.6097595041
 21
20.4728682171
 31
0.0
  0
LINE
  5
4DC
100
AcDbEntity
  8
0
100
AcDbLine
 62
7
  6
CONTINUOUS
 10
2.6241988577
 20
19.8942747735
 30
0.0
 11
2.6800691137
 21
19.7425049033
 31
0.0
  0
LINE
  5
4DD
100
AcDbEntity
  8
DRAFT
100
AcDbLine
 62
7
  6
CONTINUOUS
 10
1.625
 20
-16.99748366
 30
0.0
 11
1.8119087013
 21
-16.673748293
 31
0.0
  0
LINE
  5
4DE
100
AcDbEntity
  8
DRAFT
100
AcDbLine
 62
7
  6
CONTINUOUS
 10
1.6555463636
 20
-17.0056685335
 30
0.0
 11
1.8119087013
 21
-16.7348410202
 31
0.0
  0
LINE
  5
4DF
100
AcDbEntity
  8
0
100
AcDbLine
 62
7
  6
CONTINUOUS
 10
2.7510689741
 20
19.7425049033
 30
0.0
 11
2.5504481727
 21
20.2433454749
 31
0.0
  0
LINE
  5
4E0
100
AcDbEntity
  8
0
100
AcDbLine
 62
7
  6
CONTINUOUS
 10
2.9551046035
 20
20.2433454749
 30
0.0
 11
3.1476626002
 21
19.7425049033
 31
0.0
  0
LINE
  5
4E1
100
AcDbEntity
  8
0
100
AcDbLine
 62
7
  6
CONTINUOUS
 10
3.1561522643
 20
19.8804257931
 30
0.0
 11
3.0261044177
 21
20.2433454749
 31
0.0
  0
LINE
  5
4E2
100
AcDbEntity
  8
DRAFT
100
AcDbLine
 62
7
  6
CONTINUOUS
 10
-4.3976348052
 20
11.9476348052
 30
0.0
 11
-3.8692005714
 21
11.9476348052
 31
0.0
  0
LINE
  5
4E3
100
AcDbEntity
  8
DRAFT
100
AcDbLine
 62
7
  6
CONTINUOUS
 10
4.3976348052
 20
11.9476348052
 30
0.0
 11
3.8692005714
 21
11.9476348052
 31
0.0
  0
LINE
  5
4E4
100
AcDbEntity
  8
DRAFT
100
AcDbLine
 62
7
  6
CONTINUOUS
 10
-4.45
 20
12.0
 30
0.0
 11
-3.8692005714
 21
12.0
 31
0.0
  0
LINE
  5
4E5
100
AcDbEntity
  8
DRAFT
100
AcDbLine
 62
7
  6
CONTINUOUS
 10
4.45
 20
12.0
 30
0.0
 11
3.8692005714
 21
12.0
 31
0.0
  0
LINE
  5
4E6
100
AcDbEntity
  8
0
100
AcDbLine
 62
7
  6
CONTINUOUS
 10
-4.45
 20
12.05
 30
0.0
 11
-3.875
 21
12.05
 31
0.0
  0
LINE
  5
4E7
100
AcDbEntity
  8
ASSI
100
AcDbLine
 62
7
  6
CONTINUOUS
 10
-4.45
 20
12.05
 30
0.0
 11
-3.875
 21
12.05
 31
0.0
  0
LINE
  5
4E8
100
AcDbEntity
  8
0
100
AcDbLine
 62
7
  6
CONTINUOUS
 10
4.45
 20
12.05
 30
0.0
 11
3.875
 21
12.05
 31
0.0
  0
LINE
  5
4E9
100
AcDbEntity
  8
ASSI
100
AcDbLine
 62
7
  6
CONTINUOUS
 10
4.45
 20
12.05
 30
0.0
 11
3.875
 21
12.05
 31
0.0
  0
LINE
  5
4EA
100
AcDbEntity
  8
0
100
AcDbLine
 62
250
  6
CONTINUOUS
 10
-4.45
 20
12.0963320803
 30
0.0
 11
-3.967692402
 21
12.0963320803
 31
0.0
  0
LINE
  5
4EB
100
AcDbEntity
  8
ASSI
100
AcDbLine
 62
250
  6
CONTINUOUS
 10
-4.45
 20
12.0963320803
 30
0.0
 11
-3.967692402
 21
12.0963320803
 31
0.0
  0
LINE
  5
4EC
100
AcDbEntity
  8
0
100
AcDbLine
 62
250
  6
CONTINUOUS
 10
3.967692402
 20
12.0963320803
 30
0.0
 11
4.45
 21
12.0963320803
 31
0.0
  0
LINE
  5
4ED
100
AcDbEntity
  8
ASSI
100
AcDbLine
 62
250
  6
CONTINUOUS
 10
3.967692402
 20
12.0963320803
 30
0.0
 11
4.45
 21
12.0963320803
 31
0.0
  0
LINE
  5
4EE
100
AcDbEntity
  8
0
100
AcDbLine
 62
250
  6
CONTINUOUS
 10
-4.45
 20
12.3462940041
 30
0.0
 11
-3.9762702315
 21
12.3462940041
 31
0.0
  0
LINE
  5
4EF
100
AcDbEntity
  8
ASSI
100
AcDbLine
 62
250
  6
CONTINUOUS
 10
-4.45
 20
12.3462940041
 30
0.0
 11
-3.9762702315
 21
12.3462940041
 31
0.0
  0
LINE
  5
4F0
100
AcDbEntity
  8
0
100
AcDbLine
 62
250
  6
CONTINUOUS
 10
3.9762702315
 20
12.3462940041
 30
0.0
 11
4.45
 21
12.3462940041
 31
0.0
  0
LINE
  5
4F1
100
AcDbEntity
  8
ASSI
100
AcDbLine
 62
250
  6
CONTINUOUS
 10
3.9762702315
 20
12.3462940041
 30
0.0
 11
4.45
 21
12.3462940041
 31
0.0
  0
LINE
  5
4F2
100
AcDbEntity
  8
0
100
AcDbLine
 62
7
  6
CONTINUOUS
 10
0.4138129271
 20
20.8569882982
 30
0.0
 11
0.6645652377
 21
20.4728682171
 31
0.0
  0
LINE
  5
4F3
100
AcDbEntity
  8
0
100
AcDbLine
 62
7
  6
CONTINUOUS
 10
0.668786309
 20
20.5895887538
 30
0.0
 11
0.4180340447
 21
20.9737087886
 31
0.0
  0
LINE
  5
4F4
100
AcDbEntity
  8
0
100
AcDbLine
 62
250
  6
CONTINUOUS
 10
-2.8749809619
 20
-22.5
 30
0.0
 11
-2.912111054
 21
-22.5371300921
 31
0.0
  0
LINE
  5
4F5
100
AcDbEntity
  8
0
100
AcDbLine
 62
250
  6
CONTINUOUS
 10
-2.75
 20
-22.6249809619
 30
0.0
 11
-2.7871300921
 21
-22.662111054
 31
0.0
  0
LINE
  5
4F6
100
AcDbEntity
  8
0
100
AcDbLine
 62
7
  6
CONTINUOUS
 10
-3.9415487389
 20
13.7194837213
 30
0.0
 11
-3.8906705111
 21
13.7239349895
 31
0.0
  0
LINE
  5
4F7
100
AcDbEntity
  8
ASSI
100
AcDbLine
 62
7
  6
CONTINUOUS
 10
-3.9415487389
 20
13.7194837213
 30
0.0
 11
-3.8906705111
 21
13.7239349895
 31
0.0
  0
LINE
  5
4F8
100
AcDbEntity
  8
0
100
AcDbLine
 62
7
  6
CONTINUOUS
 10
3.9633945419
 20
13.65
 30
0.0
 11
4.1762702315
 21
13.65
 31
0.0
  0
LINE
  5
4F9
100
AcDbEntity
  8
ASSI
100
AcDbLine
 62
7
  6
CONTINUOUS
 10
3.9633945419
 20
13.65
 30
0.0
 11
4.1762702315
 21
13.65
 31
0.0
  0
LINE
  5
4FA
100
AcDbEntity
  8
0
100
AcDbLine
 62
7
  6
CONTINUOUS
 10
-3.9633945419
 20
13.65
 30
0.0
 11
-4.1762702315
 21
13.65
 31
0.0
  0
LINE
  5
4FB
100
AcDbEntity
  8
ASSI
100
AcDbLine
 62
7
  6
CONTINUOUS
 10
-3.9633945419
 20
13.65
 30
0.0
 11
-4.1762702315
 21
13.65
 31
0.0
  0
LINE
  5
4FC
100
AcDbEntity
  8
DRAFT
100
AcDbLine
 62
7
  6
CONTINUOUS
 10
3.8307994286
 20
13.75
 30
0.0
 11
3.9432934636
 21
13.75
 31
0.0
  0
LINE
  5
4FD
100
AcDbEntity
  8
DRAFT
100
AcDbLine
 62
7
  6
CONTINUOUS
 10
-3.8307994286
 20
13.75
 30
0.0
 11
-3.9432934636
 21
13.75
 31
0.0
  0
LINE
  5
4FE
100
AcDbEntity
  8
0
100
AcDbLine
 62
7
  6
CONTINUOUS
 10
3.9415487389
 20
13.7194837213
 30
0.0
 11
3.8906705111
 21
13.7239349895
 31
0.0
  0
LINE
  5
4FF
100
AcDbEntity
  8
ASSI
100
AcDbLine
 62
7
  6
CONTINUOUS
 10
3.9415487389
 20
13.7194837213
 30
0.0
 11
3.8906705111
 21
13.7239349895
 31
0.0
  0
LINE
  5
500
100
AcDbEntity
  8
DRAFT
100
AcDbLine
 62
7
  6
CONTINUOUS
 10
4.3976348052
 20
-18.0523651948
 30
0.0
 11
4.45
 21
-18.0
 31
0.0
  0
LINE
  5
501
100
AcDbEntity
  8
RACCORDO
100
AcDbLine
 62
250
  6
CONTINUOUS
 10
-4.45
 20
-26.9500761524
 30
0.0
 11
-4.3976348052
 21
-26.8977109576
 31
0.0
  0
LINE
  5
502
100
AcDbEntity
  8
RACCORDO
100
AcDbLine
 62
250
  6
CONTINUOUS
 10
-2.2
 20
-24.8000380762
 30
0.0
 11
-2.1624716104
 21
-24.7625096866
 31
0.0
  0
LINE
  5
503
100
AcDbEntity
  8
0
100
AcDbLine
 62
250
  6
CONTINUOUS
 10
-3.7628699079
 20
-26.587888946
 30
0.0
 11
-3.8
 21
-26.6250190381
 31
0.0
  0
LINE
  5
504
100
AcDbEntity
  8
0
100
AcDbLine
 62
250
  6
CONTINUOUS
 10
-3.637888946
 20
-26.7128699079
 30
0.0
 11
-3.6750190381
 21
-26.75
 31
0.0
  0
LINE
  5
505
100
AcDbEntity
  8
RACCORDO
100
AcDbLine
 62
250
  6
CONTINUOUS
 10
-1.9500380762
 20
-25.05
 30
0.0
 11
-1.9125096866
 21
-25.0124716104
 31
0.0
  0
LINE
  5
506
100
AcDbEntity
  8
0
100
AcDbLine
 62
7
  6
CONTINUOUS
 10
1.825
 20
-21.55
 30
0.0
 11
1.8119087013
 21
-21.5630912987
 31
0.0
  0
LINE
  5
507
100
AcDbEntity
  8
RACCORDO
100
AcDbLine
 62
250
  6
CONTINUOUS
 10
-3.9500761524
 20
-27.45
 30
0.0
 11
-3.8977109576
 21
-27.3976348052
 31
0.0
  0
LINE
  5
508
100
AcDbEntity
  8
0
100
AcDbLine
 62
7
  6
CONTINUOUS
 10
3.8906705111
 20
16.2760650105
 30
0.0
 11
3.9415487389
 21
16.2805162787
 31
0.0
  0
LINE
  5
509
100
AcDbEntity
  8
ASSI
100
AcDbLine
 62
7
  6
CONTINUOUS
 10
3.8906705111
 20
16.2760650105
 30
0.0
 11
3.9415487389
 21
16.2805162787
 31
0.0
  0
LINE
  5
50A
100
AcDbEntity
  8
DRAFT
100
AcDbLine
 62
7
  6
CONTINUOUS
 10
3.8307994286
 20
16.25
 30
0.0
 11
3.9432934636
 21
16.25
 31
0.0
  0
LINE
  5
50B
100
AcDbEntity
  8
DRAFT
100
AcDbLine
 62
7
  6
CONTINUOUS
 10
-3.8307994286
 20
16.25
 30
0.0
 11
-3.9432934636
 21
16.25
 31
0.0
  0
LINE
  5
50C
100
AcDbEntity
  8
0
100
AcDbLine
 62
7
  6
CONTINUOUS
 10
3.9633945419
 20
16.35
 30
0.0
 11
4.1762702315
 21
16.35
 31
0.0
  0
LINE
  5
50D
100
AcDbEntity
  8
ASSI
100
AcDbLine
 62
7
  6
CONTINUOUS
 10
3.9633945419
 20
16.35
 30
0.0
 11
4.1762702315
 21
16.35
 31
0.0
  0
LINE
  5
50E
100
AcDbEntity
  8
0
100
AcDbLine
 62
7
  6
CONTINUOUS
 10
-3.9633945419
 20
16.35
 30
0.0
 11
-4.1762702315
 21
16.35
 31
0.0
  0
LINE
  5
50F
100
AcDbEntity
  8
ASSI
100
AcDbLine
 62
7
  6
CONTINUOUS
 10
-3.9633945419
 20
16.35
 30
0.0
 11
-4.1762702315
 21
16.35
 31
0.0
  0
LINE
  5
510
100
AcDbEntity
  8
0
100
AcDbLine
 62
7
  6
CONTINUOUS
 10
-3.8906705111
 20
16.2760650105
 30
0.0
 11
-3.9415487389
 21
16.2805162787
 31
0.0
  0
LINE
  5
511
100
AcDbEntity
  8
ASSI
100
AcDbLine
 62
7
  6
CONTINUOUS
 10
-3.8906705111
 20
16.2760650105
 30
0.0
 11
-3.9415487389
 21
16.2805162787
 31
0.0
  0
LINE
  5
512
100
AcDbEntity
  8
DRAFT
100
AcDbLine
 62
7
  6
CONTINUOUS
 10
4.3976348052
 20
18.0523651948
 30
0.0
 11
4.45
 21
18.0
 31
0.0
  0
LINE
  5
513
100
AcDbEntity
  8
RACCORDO
100
AcDbLine
 62
250
  6
CONTINUOUS
 10
-4.3976348052
 20
26.8977109576
 30
0.0
 11
-4.45
 21
26.9500761524
 31
0.0
  0
LINE
  5
514
100
AcDbEntity
  8
0
100
AcDbLine
 62
250
  6
CONTINUOUS
 10
-3.8
 20
26.6250190381
 30
0.0
 11
-3.7628699079
 21
26.587888946
 31
0.0
  0
LINE
  5
515
100
AcDbEntity
  8
0
100
AcDbLine
 62
250
  6
CONTINUOUS
 10
-3.6750190381
 20
26.75
 30
0.0
 11
-3.637888946
 21
26.7128699079
 31
0.0
  0
LINE
  5
516
100
AcDbEntity
  8
RACCORDO
100
AcDbLine
 62
250
  6
CONTINUOUS
 10
-3.8977109576
 20
27.3976348052
 30
0.0
 11
-3.9500761524
 21
27.45
 31
0.0
  0
LINE
  5
517
100
AcDbEntity
  8
0
100
AcDbLine
 62
250
  6
CONTINUOUS
 10
3.6750190381
 20
-22.5
 30
0.0
 11
3.637888946
 21
-22.5371300921
 31
0.0
  0
LINE
  5
518
100
AcDbEntity
  8
0
100
AcDbLine
 62
250
  6
CONTINUOUS
 10
3.8
 20
-22.6249809619
 30
0.0
 11
3.7628699079
 21
-22.662111054
 31
0.0
  0
LINE
  5
519
100
AcDbEntity
  8
0
100
AcDbLine
 62
7
  6
CONTINUOUS
 10
3.875
 20
-17.95
 30
0.0
 11
3.967692402
 21
-17.9036679197
 31
0.0
  0
LINE
  5
51A
100
AcDbEntity
  8
ASSI
100
AcDbLine
 62
7
  6
CONTINUOUS
 10
3.875
 20
-17.95
 30
0.0
 11
3.967692402
 21
-17.9036679197
 31
0.0
  0
LINE
  5
51B
100
AcDbEntity
  8
0
100
AcDbLine
 62
250
  6
CONTINUOUS
 10
-4.45
 20
17.6537059959
 30
0.0
 11
-3.9762702315
 21
17.6537059959
 31
0.0
  0
LINE
  5
51C
100
AcDbEntity
  8
ASSI
100
AcDbLine
 62
250
  6
CONTINUOUS
 10
-4.45
 20
17.6537059959
 30
0.0
 11
-3.9762702315
 21
17.6537059959
 31
0.0
  0
LINE
  5
51D
100
AcDbEntity
  8
0
100
AcDbLine
 62
250
  6
CONTINUOUS
 10
3.9762702315
 20
17.6537059959
 30
0.0
 11
4.45
 21
17.6537059959
 31
0.0
  0
LINE
  5
51E
100
AcDbEntity
  8
ASSI
100
AcDbLine
 62
250
  6
CONTINUOUS
 10
3.9762702315
 20
17.6537059959
 30
0.0
 11
4.45
 21
17.6537059959
 31
0.0
  0
LINE
  5
51F
100
AcDbEntity
  8
0
100
AcDbLine
 62
250
  6
CONTINUOUS
 10
-4.45
 20
17.9036679197
 30
0.0
 11
-3.967692402
 21
17.9036679197
 31
0.0
  0
LINE
  5
520
100
AcDbEntity
  8
ASSI
100
AcDbLine
 62
250
  6
CONTINUOUS
 10
-4.45
 20
17.9036679197
 30
0.0
 11
-3.967692402
 21
17.9036679197
 31
0.0
  0
LINE
  5
521
100
AcDbEntity
  8
0
100
AcDbLine
 62
250
  6
CONTINUOUS
 10
3.967692402
 20
17.9036679197
 30
0.0
 11
4.45
 21
17.9036679197
 31
0.0
  0
LINE
  5
522
100
AcDbEntity
  8
ASSI
100
AcDbLine
 62
250
  6
CONTINUOUS
 10
3.967692402
 20
17.9036679197
 30
0.0
 11
4.45
 21
17.9036679197
 31
0.0
  0
LINE
  5
523
100
AcDbEntity
  8
0
100
AcDbLine
 62
7
  6
CONTINUOUS
 10
-4.45
 20
17.95
 30
0.0
 11
-3.875
 21
17.95
 31
0.0
  0
LINE
  5
524
100
AcDbEntity
  8
ASSI
100
AcDbLine
 62
7
  6
CONTINUOUS
 10
-4.45
 20
17.95
 30
0.0
 11
-3.875
 21
17.95
 31
0.0
  0
LINE
  5
525
100
AcDbEntity
  8
0
100
AcDbLine
 62
7
  6
CONTINUOUS
 10
4.45
 20
17.95
 30
0.0
 11
3.875
 21
17.95
 31
0.0
  0
LINE
  5
526
100
AcDbEntity
  8
ASSI
100
AcDbLine
 62
7
  6
CONTINUOUS
 10
4.45
 20
17.95
 30
0.0
 11
3.875
 21
17.95
 31
0.0
  0
LINE
  5
527
100
AcDbEntity
  8
DRAFT
100
AcDbLine
 62
7
  6
CONTINUOUS
 10
-4.45
 20
18.0
 30
0.0
 11
-3.8692005714
 21
18.0
 31
0.0
  0
LINE
  5
528
100
AcDbEntity
  8
DRAFT
100
AcDbLine
 62
7
  6
CONTINUOUS
 10
4.45
 20
18.0
 30
0.0
 11
3.8692005714
 21
18.0
 31
0.0
  0
LINE
  5
529
100
AcDbEntity
  8
DRAFT
100
AcDbLine
 62
7
  6
CONTINUOUS
 10
-4.3976348052
 20
18.0523651948
 30
0.0
 11
-3.8692005714
 21
18.0523651948
 31
0.0
  0
LINE
  5
52A
100
AcDbEntity
  8
DRAFT
100
AcDbLine
 62
7
  6
CONTINUOUS
 10
4.3976348052
 20
18.0523651948
 30
0.0
 11
3.8692005714
 21
18.0523651948
 31
0.0
  0
LINE
  5
52B
100
AcDbEntity
  8
0
100
AcDbLine
 62
7
  6
CONTINUOUS
 10
3.967692402
 20
17.9036679197
 30
0.0
 11
3.875
 21
17.95
 31
0.0
  0
LINE
  5
52C
100
AcDbEntity
  8
ASSI
100
AcDbLine
 62
7
  6
CONTINUOUS
 10
3.967692402
 20
17.9036679197
 30
0.0
 11
3.875
 21
17.95
 31
0.0
  0
LINE
  5
52D
100
AcDbEntity
  8
0
100
AcDbLine
 62
7
  6
CONTINUOUS
 10
2.1822639395
 20
20.0904373597
 30
0.0
 11
2.2490426824
 21
20.1058040619
 31
0.0
  0
LINE
  5
52E
100
AcDbEntity
  8
0
100
AcDbLine
 62
7
  6
CONTINUOUS
 10
-0.2812930783
 20
20.8208006734
 30
0.0
 11
-0.2145143355
 21
20.8361673756
 31
0.0
  0
LINE
  5
52F
100
AcDbEntity
  8
0
100
AcDbLine
 62
7
  6
CONTINUOUS
 10
-1.8851685813
 20
19.8821331839
 30
0.0
 11
-1.9458765294
 21
19.8730269917
 31
0.0
  0
LINE
  5
530
100
AcDbEntity
  8
0
100
AcDbLine
 62
7
  6
CONTINUOUS
 10
-3.4392920519
 20
19.8821331839
 30
0.0
 11
-3.5
 21
19.8730269917
 31
0.0
  0
LINE
  5
531
100
AcDbEntity
  8
0
100
AcDbLine
 62
7
  6
CONTINUOUS
 10
-2.0763986177
 20
20.115858784
 30
0.0
 11
-2.0156906697
 21
20.1219295788
 31
0.0
  0
LINE
  5
532
100
AcDbEntity
  8
0
100
AcDbLine
 62
7
  6
CONTINUOUS
 10
-2.853460353
 20
20.115858784
 30
0.0
 11
-2.792752405
 21
20.1219295788
 31
0.0
  0
LINE
  5
533
100
AcDbEntity
  8
0
100
AcDbLine
 62
7
  6
CONTINUOUS
 10
0.7981227235
 20
19.9094517605
 30
0.0
 11
0.734379378
 21
19.9064163631
 31
0.0
  0
LINE
  5
534
100
AcDbEntity
  8
0
100
AcDbLine
 62
7
  6
CONTINUOUS
 10
1.0500607079
 20
20.100681797
 30
0.0
 11
1.1168394508
 21
20.1037171944
 31
0.0
  0
LINE
  5
535
100
AcDbEntity
  8
0
100
AcDbLine
 62
7
  6
CONTINUOUS
 10
-3.5
 20
19.0
 30
0.0
 11
-3.4332212571
 21
19.0
 31
0.0
  0
LINE
  5
536
100
AcDbEntity
  8
0
100
AcDbLine
 62
7
  6
CONTINUOUS
 10
-3.1873540674
 20
19.0
 30
0.0
 11
-3.1205753246
 21
19.0
 31
0.0
  0
LINE
  5
537
100
AcDbEntity
  8
0
100
AcDbLine
 62
7
  6
CONTINUOUS
 10
-2.9451862321
 20
19.0
 30
0.0
 11
-2.8747081349
 21
19.0
 31
0.0
  0
LINE
  5
538
100
AcDbEntity
  8
0
100
AcDbLine
 62
7
  6
CONTINUOUS
 10
-2.4285047165
 20
19.0
 30
0.0
 11
-2.1128233866
 21
19.0
 31
0.0
  0
LINE
  5
539
100
AcDbEntity
  8
0
100
AcDbLine
 62
7
  6
CONTINUOUS
 10
-2.5529560101
 20
19.0
 30
0.0
 11
-2.4819561496
 21
19.0
 31
0.0
  0
LINE
  5
53A
100
AcDbEntity
  8
0
100
AcDbLine
 62
7
  6
CONTINUOUS
 10
-1.8969307405
 20
19.0
 30
0.0
 11
-1.8301519976
 21
19.0
 31
0.0
  0
LINE
  5
53B
100
AcDbEntity
  8
0
100
AcDbLine
 62
7
  6
CONTINUOUS
 10
-2.1128233866
 20
19.0576725507
 30
0.0
 11
-2.3617259737
 21
19.0576725507
 31
0.0
  0
LINE
  5
53C
100
AcDbEntity
  8
0
100
AcDbLine
 62
7
  6
CONTINUOUS
 10
-2.8219206588
 20
19.1517698702
 30
0.0
 11
-2.608826266
 21
19.1517698702
 31
0.0
  0
LINE
  5
53D
100
AcDbEntity
  8
0
100
AcDbLine
 62
7
  6
CONTINUOUS
 10
-2.6289831853
 20
19.2064070234
 30
0.0
 11
-2.8029019846
 21
19.2064070234
 31
0.0
  0
LINE
  5
53E
100
AcDbEntity
  8
0
100
AcDbLine
 62
7
  6
CONTINUOUS
 10
-3.3512655272
 20
19.4431680209
 30
0.0
 11
-3.1873540674
 21
19.4431680209
 31
0.0
  0
LINE
  5
53F
100
AcDbEntity
  8
0
100
AcDbLine
 62
7
  6
CONTINUOUS
 10
-3.1205753246
 20
19.4431680209
 30
0.0
 11
-2.9566638648
 21
19.4431680209
 31
0.0
  0
LINE
  5
540
100
AcDbEntity
  8
0
100
AcDbLine
 62
7
  6
CONTINUOUS
 10
-1.6298157689
 20
19.5008405716
 30
0.0
 11
-1.7103960634
 21
19.5008405716
 31
0.0
  0
LINE
  5
541
100
AcDbEntity
  8
0
100
AcDbLine
 62
7
  6
CONTINUOUS
 10
-2.0087187275
 20
19.5008405716
 30
0.0
 11
-2.0881607769
 21
19.5008405716
 31
0.0
  0
LINE
  5
542
100
AcDbEntity
  8
0
100
AcDbLine
 62
7
  6
CONTINUOUS
 10
-2.3617259737
 20
19.5008405716
 30
0.0
 11
-2.4285047165
 21
19.5008405716
 31
0.0
  0
LINE
  5
543
100
AcDbEntity
  8
0
100
AcDbLine
 62
7
  6
CONTINUOUS
 10
-2.6825769511
 20
19.5008405716
 30
0.0
 11
-2.7548099143
 21
19.5008405716
 31
0.0
  0
LINE
  5
544
100
AcDbEntity
  8
0
100
AcDbLine
 62
7
  6
CONTINUOUS
 10
-3.4332212571
 20
19.5008405716
 30
0.0
 11
-3.5
 21
19.5008405716
 31
0.0
  0
LINE
  5
545
100
AcDbEntity
  8
0
100
AcDbLine
 62
7
  6
CONTINUOUS
 10
-2.9566638648
 20
19.5008405716
 30
0.0
 11
-3.3512655272
 21
19.5008405716
 31
0.0
  0
LINE
  5
546
100
AcDbEntity
  8
0
100
AcDbLine
 62
7
  6
CONTINUOUS
 10
-1.3448678435
 20
19.7425049033
 30
0.0
 11
-1.2780891006
 21
19.7425049033
 31
0.0
  0
LINE
  5
547
100
AcDbEntity
  8
0
100
AcDbLine
 62
7
  6
CONTINUOUS
 10
-0.9290183992
 20
19.7425049033
 30
0.0
 11
-0.8622396563
 21
19.7425049033
 31
0.0
  0
LINE
  5
548
100
AcDbEntity
  8
0
100
AcDbLine
 62
7
  6
CONTINUOUS
 10
-1.1336705567
 20
19.7425049033
 30
0.0
 11
-1.0768517246
 21
19.7425049033
 31
0.0
  0
LINE
  5
549
100
AcDbEntity
  8
0
100
AcDbLine
 62
7
  6
CONTINUOUS
 10
-0.8113018574
 20
19.7425049033
 30
0.0
 11
-0.7408237602
 21
19.7425049033
 31
0.0
  0
LINE
  5
54A
100
AcDbEntity
  8
0
100
AcDbLine
 62
7
  6
CONTINUOUS
 10
-0.4190716354
 20
19.7425049033
 30
0.0
 11
-0.3480717749
 21
19.7425049033
 31
0.0
  0
LINE
  5
54B
100
AcDbEntity
  8
0
100
AcDbLine
 62
7
  6
CONTINUOUS
 10
-0.288549547
 20
19.7425049033
 30
0.0
 11
-0.2217708041
 21
19.7425049033
 31
0.0
  0
LINE
  5
54C
100
AcDbEntity
  8
0
100
AcDbLine
 62
7
  6
CONTINUOUS
 10
0.0671610949
 20
19.7425049033
 30
0.0
 11
0.1456071393
 21
19.7425049033
 31
0.0
  0
LINE
  5
54D
100
AcDbEntity
  8
0
100
AcDbLine
 62
7
  6
CONTINUOUS
 10
1.3475296535
 20
19.7425049033
 30
0.0
 11
1.4143083964
 21
19.7425049033
 31
0.0
  0
LINE
  5
54E
100
AcDbEntity
  8
0
100
AcDbLine
 62
7
  6
CONTINUOUS
 10
1.6541047913
 20
19.7425049033
 30
0.0
 11
1.7208835341
 21
19.7425049033
 31
0.0
  0
LINE
  5
54F
100
AcDbEntity
  8
0
100
AcDbLine
 62
7
  6
CONTINUOUS
 10
2.2878388916
 20
19.7425049033
 30
0.0
 11
2.3583169889
 21
19.7425049033
 31
0.0
  0
LINE
  5
550
100
AcDbEntity
  8
0
100
AcDbLine
 62
7
  6
CONTINUOUS
 10
2.6800691137
 20
19.7425049033
 30
0.0
 11
2.7510689741
 21
19.7425049033
 31
0.0
  0
LINE
  5
551
100
AcDbEntity
  8
0
100
AcDbLine
 62
7
  6
CONTINUOUS
 10
3.1476626002
 20
19.7425049033
 30
0.0
 11
3.2195161793
 21
19.7425049033
 31
0.0
  0
LINE
  5
552
100
AcDbEntity
  8
0
100
AcDbLine
 62
7
  6
CONTINUOUS
 10
3.4753432334
 20
19.7425049033
 30
0.0
 11
3.5421219763
 21
19.7425049033
 31
0.0
  0
LINE
  5
553
100
AcDbEntity
  8
0
100
AcDbLine
 62
7
  6
CONTINUOUS
 10
-0.6880362841
 20
19.8942747735
 30
0.0
 11
-0.4749418913
 21
19.8942747735
 31
0.0
  0
LINE
  5
554
100
AcDbEntity
  8
0
100
AcDbLine
 62
7
  6
CONTINUOUS
 10
2.4111044649
 20
19.8942747735
 30
0.0
 11
2.6241988577
 21
19.8942747735
 31
0.0
  0
LINE
  5
555
100
AcDbEntity
  8
0
100
AcDbLine
 62
7
  6
CONTINUOUS
 10
2.6040419385
 20
19.9489119268
 30
0.0
 11
2.4301231391
 21
19.9489119268
 31
0.0
  0
LINE
  5
556
100
AcDbEntity
  8
0
100
AcDbLine
 62
7
  6
CONTINUOUS
 10
-0.4950988106
 20
19.9489119268
 30
0.0
 11
-0.6690176099
 21
19.9489119268
 31
0.0
  0
LINE
  5
557
100
AcDbEntity
  8
0
100
AcDbLine
 62
7
  6
CONTINUOUS
 10
-0.0807196593
 20
20.0217614645
 30
0.0
 11
-0.2217708041
 21
20.0217614645
 31
0.0
  0
LINE
  5
558
100
AcDbEntity
  8
0
100
AcDbLine
 62
7
  6
CONTINUOUS
 10
-0.2217708041
 20
20.1856729243
 30
0.0
 11
-0.0647838114
 21
20.1856729243
 31
0.0
  0
LINE
  5
559
100
AcDbEntity
  8
0
100
AcDbLine
 62
7
  6
CONTINUOUS
 10
1.1836181937
 20
20.1856729243
 30
0.0
 11
1.3475296535
 21
20.1856729243
 31
0.0
  0
LINE
  5
55A
100
AcDbEntity
  8
0
100
AcDbLine
 62
7
  6
CONTINUOUS
 10
1.4143083964
 20
20.1856729243
 30
0.0
 11
1.5782198562
 21
20.1856729243
 31
0.0
  0
LINE
  5
55B
100
AcDbEntity
  8
0
100
AcDbLine
 62
7
  6
CONTINUOUS
 10
3.4192832622
 20
20.2433454749
 30
0.0
 11
3.3478565424
 21
20.2433454749
 31
0.0
  0
LINE
  5
55C
100
AcDbEntity
  8
0
100
AcDbLine
 62
7
  6
CONTINUOUS
 10
3.5421219763
 20
20.2433454749
 30
0.0
 11
3.4753432334
 21
20.2433454749
 31
0.0
  0
LINE
  5
55D
100
AcDbEntity
  8
0
100
AcDbLine
 62
7
  6
CONTINUOUS
 10
3.0261044177
 20
20.2433454749
 30
0.0
 11
2.9551046035
 21
20.2433454749
 31
0.0
  0
LINE
  5
55E
100
AcDbEntity
  8
0
100
AcDbLine
 62
7
  6
CONTINUOUS
 10
2.5504481727
 20
20.2433454749
 30
0.0
 11
2.4782152095
 21
20.2433454749
 31
0.0
  0
LINE
  5
55F
100
AcDbEntity
  8
0
100
AcDbLine
 62
7
  6
CONTINUOUS
 10
1.7208835341
 20
20.2433454749
 30
0.0
 11
1.6541047913
 21
20.2433454749
 31
0.0
  0
LINE
  5
560
100
AcDbEntity
  8
0
100
AcDbLine
 62
7
  6
CONTINUOUS
 10
1.5782198562
 20
20.2433454749
 30
0.0
 11
1.1836181937
 21
20.2433454749
 31
0.0
  0
LINE
  5
561
100
AcDbEntity
  8
0
100
AcDbLine
 62
7
  6
CONTINUOUS
 10
-0.0674872071
 20
20.2433454749
 30
0.0
 11
-0.288549547
 21
20.2433454749
 31
0.0
  0
LINE
  5
562
100
AcDbEntity
  8
0
100
AcDbLine
 62
7
  6
CONTINUOUS
 10
-0.5486925764
 20
20.2433454749
 30
0.0
 11
-0.6209255396
 21
20.2433454749
 31
0.0
  0
LINE
  5
563
100
AcDbEntity
  8
0
100
AcDbLine
 62
7
  6
CONTINUOUS
 10
-0.8622396563
 20
20.2433454749
 30
0.0
 11
-0.9491278896
 21
20.2433454749
 31
0.0
  0
LINE
  5
564
100
AcDbEntity
  8
0
100
AcDbLine
 62
7
  6
CONTINUOUS
 10
-1.2430871497
 20
20.2433454749
 30
0.0
 11
-1.3448678435
 21
20.2433454749
 31
0.0
  0
LINE
  5
565
100
AcDbEntity
  8
0
100
AcDbLine
 62
7
  6
CONTINUOUS
 10
-3.3074420033
 20
20.4728682171
 30
0.0
 11
-3.2355884242
 21
20.4728682171
 31
0.0
  0
LINE
  5
566
100
AcDbEntity
  8
0
100
AcDbLine
 62
7
  6
CONTINUOUS
 10
-2.9797613701
 20
20.4728682171
 30
0.0
 11
-2.9129826272
 21
20.4728682171
 31
0.0
  0
LINE
  5
567
100
AcDbEntity
  8
0
100
AcDbLine
 62
7
  6
CONTINUOUS
 10
-2.8499032387
 20
20.4728682171
 30
0.0
 11
-2.7794251415
 21
20.4728682171
 31
0.0
  0
LINE
  5
568
100
AcDbEntity
  8
0
100
AcDbLine
 62
7
  6
CONTINUOUS
 10
-2.4576730167
 20
20.4728682171
 30
0.0
 11
-2.3866731562
 21
20.4728682171
 31
0.0
  0
LINE
  5
569
100
AcDbEntity
  8
0
100
AcDbLine
 62
7
  6
CONTINUOUS
 10
-2.3332217231
 20
20.4728682171
 30
0.0
 11
-2.0175403932
 21
20.4728682171
 31
0.0
  0
LINE
  5
56A
100
AcDbEntity
  8
0
100
AcDbLine
 62
7
  6
CONTINUOUS
 10
-1.9386200607
 20
20.4728682171
 30
0.0
 11
-1.5683015774
 21
20.4728682171
 31
0.0
  0
LINE
  5
56B
100
AcDbEntity
  8
0
100
AcDbLine
 62
7
  6
CONTINUOUS
 10
-1.1371328597
 20
20.4728682171
 30
0.0
 11
-1.0652792807
 21
20.4728682171
 31
0.0
  0
LINE
  5
56C
100
AcDbEntity
  8
0
100
AcDbLine
 62
7
  6
CONTINUOUS
 10
-0.8094522266
 20
20.4728682171
 30
0.0
 11
-0.7426734837
 21
20.4728682171
 31
0.0
  0
LINE
  5
56D
100
AcDbEntity
  8
0
100
AcDbLine
 62
7
  6
CONTINUOUS
 10
-0.1173816185
 20
20.4728682171
 30
0.0
 11
0.2529368647
 21
20.4728682171
 31
0.0
  0
LINE
  5
56E
100
AcDbEntity
  8
0
100
AcDbLine
 62
7
  6
CONTINUOUS
 10
0.3470341842
 20
20.4728682171
 30
0.0
 11
0.4138129271
 21
20.4728682171
 31
0.0
  0
LINE
  5
56F
100
AcDbEntity
  8
0
100
AcDbLine
 62
7
  6
CONTINUOUS
 10
0.6645652377
 20
20.4728682171
 30
0.0
 11
0.7355650519
 21
20.4728682171
 31
0.0
  0
LINE
  5
570
100
AcDbEntity
  8
0
100
AcDbLine
 62
7
  6
CONTINUOUS
 10
0.8053791921
 20
20.4728682171
 30
0.0
 11
1.203016252
 21
20.4728682171
 31
0.0
  0
LINE
  5
571
100
AcDbEntity
  8
0
100
AcDbLine
 62
7
  6
CONTINUOUS
 10
1.217529282
 20
20.4728682171
 30
0.0
 11
1.2880073793
 21
20.4728682171
 31
0.0
  0
LINE
  5
572
100
AcDbEntity
  8
0
100
AcDbLine
 62
7
  6
CONTINUOUS
 10
1.6097595041
 20
20.4728682171
 30
0.0
 11
1.6807593646
 21
20.4728682171
 31
0.0
  0
LINE
  5
573
100
AcDbEntity
  8
0
100
AcDbLine
 62
7
  6
CONTINUOUS
 10
2.0772107042
 20
20.4728682171
 30
0.0
 11
2.1379186523
 21
20.4728682171
 31
0.0
  0
LINE
  5
574
100
AcDbEntity
  8
0
100
AcDbLine
 62
7
  6
CONTINUOUS
 10
2.4960955459
 20
20.4728682171
 30
0.0
 11
2.556803494
 21
20.4728682171
 31
0.0
  0
LINE
  5
575
100
AcDbEntity
  8
0
100
AcDbLine
 62
7
  6
CONTINUOUS
 10
1.203016252
 20
20.5305407677
 30
0.0
 11
0.8810270295
 21
20.5305407677
 31
0.0
  0
LINE
  5
576
100
AcDbEntity
  8
0
100
AcDbLine
 62
7
  6
CONTINUOUS
 10
0.2529368647
 20
20.5305407677
 30
0.0
 11
-0.0506028757
 21
20.5305407677
 31
0.0
  0
LINE
  5
577
100
AcDbEntity
  8
0
100
AcDbLine
 62
7
  6
CONTINUOUS
 10
-1.5683015774
 20
20.5305407677
 30
0.0
 11
-1.8718413178
 21
20.5305407677
 31
0.0
  0
LINE
  5
578
100
AcDbEntity
  8
0
100
AcDbLine
 62
7
  6
CONTINUOUS
 10
-2.0175403932
 20
20.5305407677
 30
0.0
 11
-2.2664429803
 21
20.5305407677
 31
0.0
  0
LINE
  5
579
100
AcDbEntity
  8
0
100
AcDbLine
 62
7
  6
CONTINUOUS
 10
2.2745115355
 20
20.5912487158
 30
0.0
 11
2.4960955459
 21
20.5912487158
 31
0.0
  0
LINE
  5
57A
100
AcDbEntity
  8
0
100
AcDbLine
 62
7
  6
CONTINUOUS
 10
2.556803494
 20
20.5912487158
 30
0.0
 11
2.6235822369
 21
20.5912487158
 31
0.0
  0
LINE
  5
57B
100
AcDbEntity
  8
0
100
AcDbLine
 62
7
  6
CONTINUOUS
 10
-2.7266376654
 20
20.6246380872
 30
0.0
 11
-2.5135432726
 21
20.6246380872
 31
0.0
  0
LINE
  5
57C
100
AcDbEntity
  8
0
100
AcDbLine
 62
7
  6
CONTINUOUS
 10
1.3407948554
 20
20.6246380872
 30
0.0
 11
1.5538892481
 21
20.6246380872
 31
0.0
  0
LINE
  5
57D
100
AcDbEntity
  8
0
100
AcDbLine
 62
7
  6
CONTINUOUS
 10
-3.4939292052
 20
20.115858784
 30
0.0
 11
-3.4332212571
 21
20.1067525918
 31
0.0
  0
LINE
  5
57E
100
AcDbEntity
  8
0
100
AcDbLine
 62
7
  6
CONTINUOUS
 10
-1.9398057346
 20
20.115858784
 30
0.0
 11
-1.8790977865
 21
20.1067525918
 31
0.0
  0
LINE
  5
57F
100
AcDbEntity
  8
0
100
AcDbLine
 62
7
  6
CONTINUOUS
 10
2.261184272
 20
19.9015312885
 30
0.0
 11
2.1944055291
 21
19.9182734262
 31
0.0
  0
LINE
  5
580
100
AcDbEntity
  8
0
100
AcDbLine
 62
7
  6
CONTINUOUS
 10
-0.2023727458
 20
20.6318946022
 30
0.0
 11
-0.2691514887
 21
20.6486367399
 31
0.0
  0
LINE
  5
581
100
AcDbEntity
  8
0
100
AcDbLine
 62
250
  6
CONTINUOUS
 10
3.6750190381
 20
23.0
 30
0.0
 11
3.637888946
 21
23.0371300921
 31
0.0
  0
LINE
  5
582
100
AcDbEntity
  8
0
100
AcDbLine
 62
250
  6
CONTINUOUS
 10
3.8
 20
23.1249809619
 30
0.0
 11
3.7628699079
 21
23.162111054
 31
0.0
  0
LINE
  5
583
100
AcDbEntity
  8
0
100
AcDbLine
 62
250
  6
CONTINUOUS
 10
2.75
 20
-26.6250190381
 30
0.0
 11
2.7871300921
 21
-26.587888946
 31
0.0
  0
LINE
  5
584
100
AcDbEntity
  8
0
100
AcDbLine
 62
250
  6
CONTINUOUS
 10
2.8749809619
 20
-26.75
 30
0.0
 11
2.912111054
 21
-26.7128699079
 31
0.0
  0
LINE
  5
585
100
AcDbEntity
  8
0
100
AcDbLine
 62
7
  6
CONTINUOUS
 10
-1.0067530578
 20
21.3732137854
 30
0.0
 11
-1.0704964033
 21
21.370178388
 31
0.0
  0
LINE
  5
586
100
AcDbEntity
  8
0
100
AcDbLine
 62
7
  6
CONTINUOUS
 10
-0.7548150733
 20
21.5644438218
 30
0.0
 11
-0.6880363304
 21
21.5674792192
 31
0.0
  0
LINE
  5
587
100
AcDbEntity
  8
0
100
AcDbLine
 62
7
  6
CONTINUOUS
 10
2.6235822369
 20
20.6489212665
 30
0.0
 11
2.556803494
 21
20.6489212665
 31
0.0
  0
LINE
  5
588
100
AcDbEntity
  8
0
100
AcDbLine
 62
7
  6
CONTINUOUS
 10
2.4960955459
 20
20.6489212665
 30
0.0
 11
2.3353143412
 21
20.6489212665
 31
0.0
  0
LINE
  5
589
100
AcDbEntity
  8
0
100
AcDbLine
 62
7
  6
CONTINUOUS
 10
1.5337323289
 20
20.6792752405
 30
0.0
 11
1.3598135295
 21
20.6792752405
 31
0.0
  0
LINE
  5
58A
100
AcDbEntity
  8
0
100
AcDbLine
 62
7
  6
CONTINUOUS
 10
-2.5337001919
 20
20.6792752405
 30
0.0
 11
-2.7076189912
 21
20.6792752405
 31
0.0
  0
LINE
  5
58B
100
AcDbEntity
  8
0
100
AcDbLine
 62
7
  6
CONTINUOUS
 10
-1.8718413178
 20
20.7035584197
 30
0.0
 11
-1.5986555515
 21
20.7035584197
 31
0.0
  0
LINE
  5
58C
100
AcDbEntity
  8
0
100
AcDbLine
 62
7
  6
CONTINUOUS
 10
-0.0506028757
 20
20.7035584197
 30
0.0
 11
0.2225828907
 21
20.7035584197
 31
0.0
  0
LINE
  5
58D
100
AcDbEntity
  8
0
100
AcDbLine
 62
7
  6
CONTINUOUS
 10
0.2225828907
 20
20.7612309704
 30
0.0
 11
-0.0506028757
 21
20.7612309704
 31
0.0
  0
LINE
  5
58E
100
AcDbEntity
  8
0
100
AcDbLine
 62
7
  6
CONTINUOUS
 10
-1.5986555515
 20
20.7612309704
 30
0.0
 11
-1.8718413178
 21
20.7612309704
 31
0.0
  0
LINE
  5
58F
100
AcDbEntity
  8
0
100
AcDbLine
 62
7
  6
CONTINUOUS
 10
-1.8718413178
 20
20.916036238
 30
0.0
 11
-1.5804431671
 21
20.916036238
 31
0.0
  0
LINE
  5
590
100
AcDbEntity
  8
0
100
AcDbLine
 62
7
  6
CONTINUOUS
 10
-0.0506028757
 20
20.916036238
 30
0.0
 11
0.2407952751
 21
20.916036238
 31
0.0
  0
LINE
  5
591
100
AcDbEntity
  8
0
100
AcDbLine
 62
7
  6
CONTINUOUS
 10
0.8357331662
 20
20.916036238
 30
0.0
 11
1.1132823365
 21
20.916036238
 31
0.0
  0
LINE
  5
592
100
AcDbEntity
  8
0
100
AcDbLine
 62
7
  6
CONTINUOUS
 10
2.556803494
 20
20.9737087886
 30
0.0
 11
2.5082371355
 21
20.9737087886
 31
0.0
  0
LINE
  5
593
100
AcDbEntity
  8
0
100
AcDbLine
 62
7
  6
CONTINUOUS
 10
1.4801385631
 20
20.9737087886
 30
0.0
 11
1.4079055999
 21
20.9737087886
 31
0.0
  0
LINE
  5
594
100
AcDbEntity
  8
0
100
AcDbLine
 62
7
  6
CONTINUOUS
 10
0.7355650519
 20
20.9737087886
 30
0.0
 11
0.668786309
 21
20.9737087886
 31
0.0
  0
LINE
  5
595
100
AcDbEntity
  8
0
100
AcDbLine
 62
7
  6
CONTINUOUS
 10
1.1908746624
 20
20.9737087886
 30
0.0
 11
0.8357331662
 21
20.9737087886
 31
0.0
  0
LINE
  5
596
100
AcDbEntity
  8
0
100
AcDbLine
 62
7
  6
CONTINUOUS
 10
0.4180340447
 20
20.9737087886
 30
0.0
 11
0.3470341842
 21
20.9737087886
 31
0.0
  0
LINE
  5
597
100
AcDbEntity
  8
0
100
AcDbLine
 62
7
  6
CONTINUOUS
 10
0.2407952751
 20
20.9737087886
 30
0.0
 11
-0.1173816185
 21
20.9737087886
 31
0.0
  0
LINE
  5
598
100
AcDbEntity
  8
0
100
AcDbLine
 62
7
  6
CONTINUOUS
 10
-0.7426734837
 20
20.9737087886
 30
0.0
 11
-0.8094522266
 21
20.9737087886
 31
0.0
  0
LINE
  5
599
100
AcDbEntity
  8
0
100
AcDbLine
 62
7
  6
CONTINUOUS
 10
-0.8655121977
 20
20.9737087886
 30
0.0
 11
-0.9369389175
 21
20.9737087886
 31
0.0
  0
LINE
  5
59A
100
AcDbEntity
  8
0
100
AcDbLine
 62
7
  6
CONTINUOUS
 10
-1.2586910423
 20
20.9737087886
 30
0.0
 11
-1.3296908564
 21
20.9737087886
 31
0.0
  0
LINE
  5
59B
100
AcDbEntity
  8
0
100
AcDbLine
 62
7
  6
CONTINUOUS
 10
-1.5804431671
 20
20.9737087886
 30
0.0
 11
-1.9386200607
 21
20.9737087886
 31
0.0
  0
LINE
  5
59C
100
AcDbEntity
  8
0
100
AcDbLine
 62
7
  6
CONTINUOUS
 10
-2.2664429803
 20
20.9737087886
 30
0.0
 11
-2.3332217231
 21
20.9737087886
 31
0.0
  0
LINE
  5
59D
100
AcDbEntity
  8
0
100
AcDbLine
 62
7
  6
CONTINUOUS
 10
-2.5872939577
 20
20.9737087886
 30
0.0
 11
-2.6595269209
 21
20.9737087886
 31
0.0
  0
LINE
  5
59E
100
AcDbEntity
  8
0
100
AcDbLine
 62
7
  6
CONTINUOUS
 10
-3.0358213413
 20
20.9737087886
 30
0.0
 11
-3.1072480611
 21
20.9737087886
 31
0.0
  0
LINE
  5
59F
100
AcDbEntity
  8
0
100
AcDbLine
 62
7
  6
CONTINUOUS
 10
-2.9129826272
 20
20.9737087886
 30
0.0
 11
-2.9797613701
 21
20.9737087886
 31
0.0
  0
LINE
  5
5A0
100
AcDbEntity
  8
0
100
AcDbLine
 62
7
  6
CONTINUOUS
 10
-3.4290001858
 20
20.9737087886
 30
0.0
 11
-3.5
 21
20.9737087886
 31
0.0
  0
LINE
  5
5A1
100
AcDbEntity
  8
0
100
AcDbLine
 62
7
  6
CONTINUOUS
 10
2.1379186523
 20
20.976744186
 30
0.0
 11
2.0987904877
 21
20.976744186
 31
0.0
  0
LINE
  5
5A2
100
AcDbEntity
  8
0
100
AcDbLine
 62
7
  6
CONTINUOUS
 10
-3.3074420033
 20
21.2062669282
 30
0.0
 11
-3.2355884242
 21
21.2062669282
 31
0.0
  0
LINE
  5
5A3
100
AcDbEntity
  8
0
100
AcDbLine
 62
7
  6
CONTINUOUS
 10
-2.9797613701
 20
21.2062669282
 30
0.0
 11
-2.9129826272
 21
21.2062669282
 31
0.0
  0
LINE
  5
5A4
100
AcDbEntity
  8
0
100
AcDbLine
 62
7
  6
CONTINUOUS
 10
-2.8006729233
 20
21.2062669282
 30
0.0
 11
-2.7338941804
 21
21.2062669282
 31
0.0
  0
LINE
  5
5A5
100
AcDbEntity
  8
0
100
AcDbLine
 62
7
  6
CONTINUOUS
 10
-2.384823479
 20
21.2062669282
 30
0.0
 11
-2.3180447361
 21
21.2062669282
 31
0.0
  0
LINE
  5
5A6
100
AcDbEntity
  8
0
100
AcDbLine
 62
7
  6
CONTINUOUS
 10
-2.5894756365
 20
21.2062669282
 30
0.0
 11
-2.5326568044
 21
21.2062669282
 31
0.0
  0
LINE
  5
5A7
100
AcDbEntity
  8
0
100
AcDbLine
 62
7
  6
CONTINUOUS
 10
-2.2671069373
 20
21.2062669282
 30
0.0
 11
-2.19662884
 21
21.2062669282
 31
0.0
  0
LINE
  5
5A8
100
AcDbEntity
  8
0
100
AcDbLine
 62
7
  6
CONTINUOUS
 10
-1.8748767152
 20
21.2062669282
 30
0.0
 11
-1.8038768547
 21
21.2062669282
 31
0.0
  0
LINE
  5
5A9
100
AcDbEntity
  8
0
100
AcDbLine
 62
7
  6
CONTINUOUS
 10
-1.7443546269
 20
21.2062669282
 30
0.0
 11
-1.677575884
 21
21.2062669282
 31
0.0
  0
LINE
  5
5AA
100
AcDbEntity
  8
0
100
AcDbLine
 62
7
  6
CONTINUOUS
 10
-1.3886439849
 20
21.2062669282
 30
0.0
 11
-1.3101979405
 21
21.2062669282
 31
0.0
  0
LINE
  5
5AB
100
AcDbEntity
  8
0
100
AcDbLine
 62
7
  6
CONTINUOUS
 10
-0.5817974213
 20
21.2062669282
 30
0.0
 11
-0.5150186784
 21
21.2062669282
 31
0.0
  0
LINE
  5
5AC
100
AcDbEntity
  8
0
100
AcDbLine
 62
7
  6
CONTINUOUS
 10
0.2165120959
 20
21.2062669282
 30
0.0
 11
0.2875119563
 21
21.2062669282
 31
0.0
  0
LINE
  5
5AD
100
AcDbEntity
  8
0
100
AcDbLine
 62
7
  6
CONTINUOUS
 10
-0.1757181262
 20
21.2062669282
 30
0.0
 11
-0.1052400289
 21
21.2062669282
 31
0.0
  0
LINE
  5
5AE
100
AcDbEntity
  8
0
100
AcDbLine
 62
7
  6
CONTINUOUS
 10
-2.1438413639
 20
21.3580367984
 30
0.0
 11
-1.9307469712
 21
21.3580367984
 31
0.0
  0
LINE
  5
5AF
100
AcDbEntity
  8
0
100
AcDbLine
 62
7
  6
CONTINUOUS
 10
-0.0524525529
 20
21.3580367984
 30
0.0
 11
0.1606418399
 21
21.3580367984
 31
0.0
  0
LINE
  5
5B0
100
AcDbEntity
  8
0
100
AcDbLine
 62
7
  6
CONTINUOUS
 10
-0.5150186784
 20
21.4126739516
 30
0.0
 11
-0.3903776696
 21
21.4126739516
 31
0.0
  0
LINE
  5
5B1
100
AcDbEntity
  8
0
100
AcDbLine
 62
7
  6
CONTINUOUS
 10
0.1404849207
 20
21.4126739516
 30
0.0
 11
-0.0334338787
 21
21.4126739516
 31
0.0
  0
LINE
  5
5B2
100
AcDbEntity
  8
0
100
AcDbLine
 62
7
  6
CONTINUOUS
 10
-1.9509038904
 20
21.4126739516
 30
0.0
 11
-2.1248226898
 21
21.4126739516
 31
0.0
  0
LINE
  5
5B3
100
AcDbEntity
  8
0
100
AcDbLine
 62
7
  6
CONTINUOUS
 10
-1.5365247392
 20
21.4855234893
 30
0.0
 11
-1.677575884
 21
21.4855234893
 31
0.0
  0
LINE
  5
5B4
100
AcDbEntity
  8
0
100
AcDbLine
 62
7
  6
CONTINUOUS
 10
-1.677575884
 20
21.6494349491
 30
0.0
 11
-1.5205888912
 21
21.6494349491
 31
0.0
  0
LINE
  5
5B5
100
AcDbEntity
  8
0
100
AcDbLine
 62
7
  6
CONTINUOUS
 10
-0.5150186784
 20
21.6494349491
 30
0.0
 11
-0.3909941978
 21
21.6494349491
 31
0.0
  0
LINE
  5
5B6
100
AcDbEntity
  8
0
100
AcDbLine
 62
7
  6
CONTINUOUS
 10
0.0868911549
 20
21.7071074998
 30
0.0
 11
0.0146581917
 21
21.7071074998
 31
0.0
  0
LINE
  5
5B7
100
AcDbEntity
  8
0
100
AcDbLine
 62
7
  6
CONTINUOUS
 10
-0.3973021367
 20
21.7071074998
 30
0.0
 11
-0.5817974213
 21
21.7071074998
 31
0.0
  0
LINE
  5
5B8
100
AcDbEntity
  8
0
100
AcDbLine
 62
7
  6
CONTINUOUS
 10
-1.523292287
 20
21.7071074998
 30
0.0
 11
-1.7443546269
 21
21.7071074998
 31
0.0
  0
LINE
  5
5B9
100
AcDbEntity
  8
0
100
AcDbLine
 62
7
  6
CONTINUOUS
 10
-2.0044976562
 20
21.7071074998
 30
0.0
 11
-2.0767306194
 21
21.7071074998
 31
0.0
  0
LINE
  5
5BA
100
AcDbEntity
  8
0
100
AcDbLine
 62
7
  6
CONTINUOUS
 10
-2.3180447361
 20
21.7071074998
 30
0.0
 11
-2.4049329694
 21
21.7071074998
 31
0.0
  0
LINE
  5
5BB
100
AcDbEntity
  8
0
100
AcDbLine
 62
7
  6
CONTINUOUS
 10
-2.6988922295
 20
21.7071074998
 30
0.0
 11
-2.8006729233
 21
21.7071074998
 31
0.0
  0
LINE
  5
5BC
100
AcDbEntity
  8
0
100
AcDbLine
 62
7
  6
CONTINUOUS
 10
-2.9129826272
 20
21.7071074998
 30
0.0
 11
-2.9797613701
 21
21.7071074998
 31
0.0
  0
LINE
  5
5BD
100
AcDbEntity
  8
0
100
AcDbLine
 62
7
  6
CONTINUOUS
 10
-3.0358213413
 20
21.7071074998
 30
0.0
 11
-3.1072480611
 21
21.7071074998
 31
0.0
  0
LINE
  5
5BE
100
AcDbEntity
  8
0
100
AcDbLine
 62
7
  6
CONTINUOUS
 10
-3.4290001858
 20
21.7071074998
 30
0.0
 11
-3.5
 21
21.7071074998
 31
0.0
  0
LINE
  5
5BF
100
AcDbEntity
  8
0
100
AcDbLine
 62
7
  6
CONTINUOUS
 10
3.6750190381
 20
23.0
 30
0.0
 11
-3.6750190381
 21
23.0
 31
0.0
  0
LINE
  5
5C0
100
AcDbEntity
  8
0
100
AcDbLine
 62
250
  6
CONTINUOUS
 10
-3.637888946
 20
23.0371300921
 30
0.0
 11
3.637888946
 21
23.0371300921
 31
0.0
  0
LINE
  5
5C1
100
AcDbEntity
  8
0
100
AcDbLine
 62
250
  6
CONTINUOUS
 10
3.7628699079
 20
23.162111054
 30
0.0
 11
-3.7628699079
 21
23.162111054
 31
0.0
  0
LINE
  5
5C2
100
AcDbEntity
  8
0
100
AcDbLine
 62
250
  6
CONTINUOUS
 10
-3.7628699079
 20
26.587888946
 30
0.0
 11
3.7628699079
 21
26.587888946
 31
0.0
  0
LINE
  5
5C3
100
AcDbEntity
  8
0
100
AcDbLine
 62
250
  6
CONTINUOUS
 10
-3.637888946
 20
26.7128699079
 30
0.0
 11
3.637888946
 21
26.7128699079
 31
0.0
  0
LINE
  5
5C4
100
AcDbEntity
  8
0
100
AcDbLine
 62
7
  6
CONTINUOUS
 10
3.6750190381
 20
26.75
 30
0.0
 11
-3.6750190381
 21
26.75
 31
0.0
  0
LINE
  5
5C5
100
AcDbEntity
  8
RACCORDO
100
AcDbLine
 62
7
  6
CONTINUOUS
 10
3.8977109576
 20
27.3976348052
 30
0.0
 11
-3.8977109576
 21
27.3976348052
 31
0.0
  0
LINE
  5
5C6
100
AcDbEntity
  8
RACCORDO
100
AcDbLine
 62
7
  6
CONTINUOUS
 10
3.9500761524
 20
27.45
 30
0.0
 11
-3.9500761524
 21
27.45
 31
0.0
  0
ARC
  5
5C7
100
AcDbEntity
  8
0
100
AcDbCircle
 62
7
  6
CONTINUOUS
 10
-0.1069342224
 20
0.4298284307
 30
0.0
 40
1.9626193486
100
AcDbArc
 50
66.1507656662
 51
77.0671262523
  0
ARC
  5
5C8
100
AcDbEntity
  8
0
100
AcDbCircle
 62
7
  6
CONTINUOUS
 10
-0.1069336759
 20
0.4298308109
 30
0.0
 40
1.9626171233
100
AcDbArc
 50
104.6184599962
 51
108.0305274071
  0
ARC
  5
5C9
100
AcDbEntity
  8
0
100
AcDbCircle
 62
7
  6
CONTINUOUS
 10
-0.1069336759
 20
0.4298308109
 30
0.0
 40
1.9626169941
100
AcDbArc
 50
109.1820962274
 51
112.6110327739
  0
ARC
  5
5CA
100
AcDbEntity
  8
0
100
AcDbCircle
 62
7
  6
CONTINUOUS
 10
-0.1069336759
 20
0.4298308109
 30
0.0
 40
1.9626167199
100
AcDbArc
 50
78.1844571259
 51
90.8185424079
  0
ARC
  5
5CB
100
AcDbEntity
  8
0
100
AcDbCircle
 62
7
  6
CONTINUOUS
 10
-0.1069336759
 20
0.4298308109
 30
0.0
 40
1.9626165781
100
AcDbArc
 50
91.9102115712
 51
103.4934032385
  0
ARC
  5
5CC
100
AcDbEntity
  8
0
100
AcDbCircle
 62
7
  6
CONTINUOUS
 10
-0.1069336759
 20
0.4298308109
 30
0.0
 40
1.9252339761
100
AcDbArc
 50
109.5695884542
 51
111.7987181432
  0
ARC
  5
5CD
100
AcDbEntity
  8
0
100
AcDbCircle
 62
7
  6
CONTINUOUS
 10
-0.1069337777
 20
0.4298303763
 30
0.0
 40
1.9252339187
100
AcDbArc
 50
66.0805562364
 51
76.8115157989
  0
ARC
  5
5CE
100
AcDbEntity
  8
0
100
AcDbCircle
 62
7
  6
CONTINUOUS
 10
-0.1069336759
 20
0.4298308109
 30
0.0
 40
1.925233769
100
AcDbArc
 50
91.9473168422
 51
103.7605121028
  0
ARC
  5
5CF
100
AcDbEntity
  8
0
100
AcDbCircle
 62
7
  6
CONTINUOUS
 10
-0.1069336759
 20
0.4298308109
 30
0.0
 40
1.9252335761
100
AcDbArc
 50
104.9088315982
 51
108.3930507127
  0
ARC
  5
5D0
100
AcDbEntity
  8
0
100
AcDbCircle
 62
7
  6
CONTINUOUS
 10
-0.1069336759
 20
0.4298308109
 30
0.0
 40
1.9252334015
100
AcDbArc
 50
77.9516186991
 51
90.8344375197
  0
ARC
  5
5D1
100
AcDbEntity
  8
0
100
AcDbCircle
 62
7
  6
CONTINUOUS
 10
-2.2779499556
 20
20.2398803019
 30
0.0
 40
1.0358985649
100
AcDbArc
 50
159.0191965856
 51
163.7921491218
  0
ARC
  5
5D2
100
AcDbEntity
  8
0
100
AcDbCircle
 62
7
  6
CONTINUOUS
 10
-0.1076408119
 20
20.2398803019
 30
0.0
 40
1.035898565
100
AcDbArc
 50
159.0191965859
 51
163.7921491217
  0
ARC
  5
5D3
100
AcDbEntity
  8
0
100
AcDbCircle
 62
7
  6
CONTINUOUS
 10
-2.2779499556
 20
20.973279013
 30
0.0
 40
1.0358985649
100
AcDbArc
 50
159.0191965856
 51
163.7921491218
  0
ARC
  5
5D4
100
AcDbEntity
  8
0
100
AcDbCircle
 62
7
  6
CONTINUOUS
 10
4.1771546476
 20
19.5095169883
 30
0.0
 40
1.0358985646
100
AcDbArc
 50
159.0191965847
 51
163.7921491224
  0
ARC
  5
5D5
100
AcDbEntity
  8
0
100
AcDbCircle
 62
7
  6
CONTINUOUS
 10
0.5566173241
 20
-0.5421316891
 30
0.0
 40
0.3271028553
100
AcDbArc
 50
84.9999868542
 51
176.7241833468
  0
ARC
  5
5D6
100
AcDbEntity
  8
0
100
AcDbCircle
 62
7
  6
CONTINUOUS
 10
0.5566173241
 20
-0.5421316891
 30
0.0
 40
0.3271027511
100
AcDbArc
 50
183.2758166532
 51
78.4374939936
  0
CIRCLE
  5
5D7
100
AcDbEntity
  8
0
100
AcDbCircle
 62
7
  6
CONTINUOUS
 10
0.5566173241
 20
-0.5421316891
 30
0.0
 40
0.186916
  0
ARC
  5
5D8
100
AcDbEntity
  8
0
100
AcDbCircle
 62
7
  6
CONTINUOUS
 10
0.8369913086
 20
2.1494573341
 30
0.0
 40
0.1682245698
100
AcDbArc
 50
303.748776311
 51
153.3682546595
  0
ARC
  5
5D9
100
AcDbEntity
  8
0
100
AcDbCircle
 62
7
  6
CONTINUOUS
 10
0.8369913583
 20
2.1494573187
 30
0.0
 40
0.1682243853
100
AcDbArc
 50
166.153055358
 51
192.8396974407
  0
ARC
  5
5DA
100
AcDbEntity
  8
0
100
AcDbCircle
 62
250
  6
CONTINUOUS
 10
-3.6378368857
 20
23.1621632045
 30
0.0
 40
0.1250337589
100
AcDbArc
 50
180.0238977388
 51
269.9761436404
  0
ARC
  5
5DB
100
AcDbEntity
  8
0
100
AcDbCircle
 62
250
  6
CONTINUOUS
 10
-3.6378368857
 20
-26.5878367955
 30
0.0
 40
0.1250337589
100
AcDbArc
 50
180.0238977387
 51
269.9761436404
  0
ARC
  5
5DC
100
AcDbEntity
  8
0
100
AcDbCircle
 62
250
  6
CONTINUOUS
 10
3.6378368904
 20
26.58783683
 30
0.0
 40
0.1250337417
100
AcDbArc
 50
0.0238819325
 51
89.9761457842
  0
ARC
  5
5DD
100
AcDbEntity
  8
0
100
AcDbCircle
 62
250
  6
CONTINUOUS
 10
3.6378368904
 20
-22.66216317
 30
0.0
 40
0.1250337417
100
AcDbArc
 50
0.0238819221
 51
89.9761457941
  0
ARC
  5
5DE
100
AcDbEntity
  8
0
100
AcDbCircle
 62
250
  6
CONTINUOUS
 10
-2.9121631096
 20
-22.66216317
 30
0.0
 40
0.1250337417
100
AcDbArc
 50
0.0238819323
 51
89.9761457878
  0
ARC
  5
5DF
100
AcDbEntity
  8
0
100
AcDbCircle
 62
250
  6
CONTINUOUS
 10
-2.9121632116
 20
-26.5878369323
 30
0.0
 40
0.125033741
100
AcDbArc
 50
270.023901007
 51
359.9761649749
  0
ARC
  5
5E0
100
AcDbEntity
  8
0
100
AcDbCircle
 62
250
  6
CONTINUOUS
 10
3.6378369125
 20
23.1621630875
 30
0.0
 40
0.1250337056
100
AcDbArc
 50
270.0238441111
 51
359.9761558889
  0
ARC
  5
5E1
100
AcDbEntity
  8
0
100
AcDbCircle
 62
250
  6
CONTINUOUS
 10
-3.6378369125
 20
26.5878369125
 30
0.0
 40
0.1250337057
100
AcDbArc
 50
90.0238441163
 51
179.9761558837
  0
ARC
  5
5E2
100
AcDbEntity
  8
0
100
AcDbCircle
 62
250
  6
CONTINUOUS
 10
3.6378369125
 20
-26.5878369125
 30
0.0
 40
0.1250337056
100
AcDbArc
 50
270.0238441153
 51
359.9761558847
  0
ARC
  5
5E3
100
AcDbEntity
  8
0
100
AcDbCircle
 62
250
  6
CONTINUOUS
 10
2.9121630875
 20
-26.5878369125
 30
0.0
 40
0.1250337056
100
AcDbArc
 50
180.0238441153
 51
269.9761558847
  0
ARC
  5
5E4
100
AcDbEntity
  8
0
100
AcDbCircle
 62
250
  6
CONTINUOUS
 10
2.9121630875
 20
-22.6621630875
 30
0.0
 40
0.1250337056
100
AcDbArc
 50
90.0238441126
 51
179.9761558874
  0
ARC
  5
5E5
100
AcDbEntity
  8
0
100
AcDbCircle
 62
250
  6
CONTINUOUS
 10
-3.6378369125
 20
-22.6621630875
 30
0.0
 40
0.1250337057
100
AcDbArc
 50
90.0238441195
 51
179.9761558805
  0
CIRCLE
  5
5E6
100
AcDbEntity
  8
0
100
AcDbCircle
 62
7
  6
CONTINUOUS
 10
0.5566173241
 20
-0.5421316891
 30
0.0
 40
0.1121495
  0
LINE
  5
5E7
100
AcDbEntity
  8
0
100
AcDbLine
 62
7
  6
CONTINUOUS
 10
-1.7103960634
 20
19.5008405716
 30
0.0
 11
-1.8612647862
 21
19.2674469732
 31
0.0
  0
SPLINE
  5
5E8
100
AcDbEntity
  8
0
100
AcDbSpline
 62
7
  6
CONTINUOUS
 70
0
 71
3
 72
11
 73
7
 74
0
 42
0.0000001
 43
0.0000001
 44
0.0000000001
 40
0.0
 40
0.0
 40
0.0
 40
0.0
 40
0.1679533301
 40
0.3454262213
 40
0.6727131107
 40
1.0
 40
1.0
 40
1.0
 40
1.0
 10
-1.8612647862
 20
19.2674469732
 30
0.0
 10
-1.8686226618
 20
19.2810419873
 30
0.0
 10
-1.884581149
 20
19.3085941721
 30
0.0
 10
-1.9206056059
 20
19.359004783
 30
0.0
 10
-1.9600910937
 20
19.4246759243
 30
0.0
 10
-1.9926327038
 20
19.4753716953
 30
0.0
 10
-2.0087187275
 20
19.5008405716
 30
0.0
  0
SPLINE
  5
5E9
100
AcDbEntity
  8
0
100
AcDbSpline
 62
7
  6
CONTINUOUS
 70
0
 71
3
 72
10
 73
6
 74
0
 42
0.0000001
 43
0.0000001
 44
0.0000000001
 40
0.0
 40
0.0
 40
0.0
 40
0.0
 40
0.6059677489
 40
0.8024274232
 40
1.0
 40
1.0
 40
1.0
 40
1.0
 10
-2.8029019846
 20
19.2064070234
 30
0.0
 10
-2.7848635058
 20
19.2551472875
 30
0.0
 10
-2.7616717252
 20
19.3199189271
 30
0.0
 10
-2.7304761097
 20
19.3998814632
 30
0.0
 10
-2.7220160608
 20
19.4326874813
 30
0.0
 10
-2.7183851454
 20
19.4492388157
 30
0.0
  0
SPLINE
  5
5EA
100
AcDbEntity
  8
0
100
AcDbSpline
 62
7
  6
CONTINUOUS
 70
0
 71
3
 72
11
 73
7
 74
0
 42
0.0000001
 43
0.0000001
 44
0.0000000001
 40
0.0
 40
0.0
 40
0.0
 40
0.0
 40
0.1914546415
 40
0.4289323167
 40
0.7144661583
 40
1.0
 40
1.0
 40
1.0
 40
1.0
 10
-2.7183851454
 20
19.4492388157
 30
0.0
 10
-2.7137520649
 20
19.4333821929
 30
0.0
 10
-2.7023370249
 20
19.3981662944
 30
0.0
 10
-2.6819524582
 20
19.339972609
 30
0.0
 10
-2.6557748169
 20
19.2752898359
 30
0.0
 10
-2.6379708132
 20
19.2293464096
 30
0.0
 10
-2.6289831853
 20
19.2064070234
 30
0.0
  0
SPLINE
  5
5EB
100
AcDbEntity
  8
0
100
AcDbSpline
 62
7
  6
CONTINUOUS
 70
0
 71
3
 72
9
 73
5
 74
0
 42
0.0000001
 43
0.0000001
 44
0.0000000001
 40
0.0
 40
0.0
 40
0.0
 40
0.0
 40
0.3500357027
 40
1.0
 40
1.0
 40
1.0
 40
1.0
 10
0.9204160525
 20
19.9729342707
 30
0.0
 10
0.9306305407
 20
19.9703905711
 30
0.0
 10
0.959695338
 20
19.9627990085
 30
0.0
 10
0.9890589083
 20
19.9556074131
 30
0.0
 10
1.0071857601
 20
19.9482953986
 30
0.0
  0
SPLINE
  5
5EC
100
AcDbEntity
  8
0
100
AcDbSpline
 62
7
  6
CONTINUOUS
 70
0
 71
3
 72
13
 73
9
 74
0
 42
0.0000001
 43
0.0000001
 44
0.0000000001
 40
0.0
 40
0.0
 40
0.0
 40
0.0
 40
0.1591293638
 40
0.2900566573
 40
0.4289523222
 40
0.5896488984
 40
0.7912592345
 40
1.0
 40
1.0
 40
1.0
 40
1.0
 10
1.0071857601
 20
19.9482953986
 30
0.0
 10
1.0233212981
 20
19.9419162336
 30
0.0
 10
1.0534506049
 20
19.925155582
 30
0.0
 10
1.0666079242
 20
19.876541415
 30
0.0
 10
1.0516144789
 20
19.8289900917
 30
0.0
 10
1.0036054635
 20
19.7964189453
 30
0.0
 10
0.9408722978
 20
19.7876889963
 30
0.0
 10
0.8955319606
 20
19.7949759065
 30
0.0
 10
0.8742664334
 20
19.8032739705
 30
0.0
  0
SPLINE
  5
5ED
100
AcDbEntity
  8
0
100
AcDbSpline
 62
7
  6
CONTINUOUS
 70
0
 71
3
 72
17
 73
13
 74
0
 42
0.0000001
 43
0.0000001
 44
0.0000000001
 40
0.0
 40
0.0
 40
0.0
 40
0.0
 40
0.1660697659
 40
0.2474949485
 40
0.3303605504
 40
0.4224345745
 40
0.5299330203
 40
0.6176865268
 40
0.6998926525
 40
0.8475964127
 40
0.9839605582
 40
1.0
 40
1.0
 40
1.0
 40
1.0
 10
0.734379378
 20
19.9064163631
 30
0.0
 10
0.7352363174
 20
19.8744736996
 30
0.0
 10
0.7488896192
 20
19.8256553528
 30
0.0
 10
0.7909619232
 20
19.7769204596
 30
0.0
 10
0.8336589647
 20
19.7507037482
 30
0.0
 10
0.8865242352
 20
19.7360776715
 30
0.0
 10
0.94189765
 20
19.7318808442
 30
0.0
 10
0.9954446132
 20
19.7362959679
 30
0.0
 10
1.0540850866
 20
19.7548766847
 30
0.0
 10
1.1122887816
 20
19.801373236
 30
0.0
 10
1.1296680143
 20
19.8602157837
 30
0.0
 10
1.1289320328
 20
19.8897237978
 30
0.0
 10
1.1287475241
 20
19.8928191314
 30
0.0
  0
SPLINE
  5
5EE
100
AcDbEntity
  8
0
100
AcDbSpline
 62
7
  6
CONTINUOUS
 70
0
 71
3
 72
9
 73
5
 74
0
 42
0.0000001
 43
0.0000001
 44
0.0000000001
 40
0.0
 40
0.0
 40
0.0
 40
0.0
 40
0.1708537376
 40
1.0
 40
1.0
 40
1.0
 40
1.0
 10
1.0440373419
 20
20.0059679493
 30
0.0
 10
1.0381721479
 20
20.0086491769
 30
0.0
 10
1.0028274062
 20
20.0220525393
 30
0.0
 10
0.9660144402
 20
20.0309259871
 30
0.0
 10
0.9355456108
 20
20.0380767429
 30
0.0
  0
SPLINE
  5
5EF
100
AcDbEntity
  8
0
100
AcDbSpline
 62
7
  6
CONTINUOUS
 70
0
 71
3
 72
14
 73
10
 74
0
 42
0.0000001
 43
0.0000001
 44
0.0000000001
 40
0.0
 40
0.0
 40
0.0
 40
0.0
 40
0.2179129112
 40
0.3431396291
 40
0.4239794096
 40
0.5071863491
 40
0.6054326828
 40
0.7097686956
 40
1.0
 40
1.0
 40
1.0
 40
1.0
 10
0.9355456108
 20
20.0380767429
 30
0.0
 10
0.9140725469
 20
20.0431162747
 30
0.0
 10
0.8808870984
 20
20.0519907275
 30
0.0
 10
0.8399304687
 20
20.0688536201
 30
0.0
 10
0.8222462886
 20
20.0936747485
 30
0.0
 10
0.8175516055
 20
20.1204818584
 30
0.0
 10
0.8240440034
 20
20.1496665434
 30
0.0
 10
0.8575000038
 20
20.1893428577
 30
0.0
 10
0.9020193241
 20
20.1947791165
 30
0.0
 10
0.9313956827
 20
20.1947791165
 30
0.0
  0
SPLINE
  5
5F0
100
AcDbEntity
  8
0
100
AcDbSpline
 62
7
  6
CONTINUOUS
 70
0
 71
3
 72
9
 73
5
 74
0
 42
0.0000001
 43
0.0000001
 44
0.0000000001
 40
0.0
 40
0.0
 40
0.0
 40
0.0
 40
0.5306823676
 40
1.0
 40
1.0
 40
1.0
 40
1.0
 10
0.9313956827
 20
20.1947791165
 30
0.0
 10
0.9607917036
 20
20.1947791165
 30
0.0
 10
1.0233529691
 20
20.1856148354
 30
0.0
 10
1.0472939833
 20
20.1265310048
 30
0.0
 10
1.0500607079
 20
20.100681797
 30
0.0
  0
SPLINE
  5
5F1
100
AcDbEntity
  8
0
100
AcDbSpline
 62
7
  6
CONTINUOUS
 70
0
 71
3
 72
15
 73
11
 74
0
 42
0.0000001
 43
0.0000001
 44
0.0000000001
 40
0.0
 40
0.0
 40
0.0
 40
0.0
 40
0.1557109465
 40
0.3144876739
 40
0.4048624014
 40
0.5043926636
 40
0.6813276216
 40
0.8337062637
 40
0.9745754115
 40
1.0
 40
1.0
 40
1.0
 40
1.0
 10
1.1168394508
 20
20.1037171944
 30
0.0
 10
1.1157726999
 20
20.1310974736
 30
0.0
 10
1.0996666525
 20
20.1879675296
 30
0.0
 10
1.0392741416
 20
20.2336113846
 30
0.0
 10
0.9797543101
 20
20.2498184129
 30
0.0
 10
0.9152345349
 20
20.2549331643
 30
0.0
 10
0.8385074228
 20
20.2441298201
 30
0.0
 10
0.7682575296
 20
20.1917047466
 30
0.0
 10
0.751081396
 20
20.134580394
 30
0.0
 10
0.7528941883
 20
20.1047441412
 30
0.0
 10
0.753421305
 20
20.1002153727
 30
0.0
  0
SPLINE
  5
5F2
100
AcDbEntity
  8
0
100
AcDbSpline
 62
7
  6
CONTINUOUS
 70
0
 71
3
 72
9
 73
5
 74
0
 42
0.0000001
 43
0.0000001
 44
0.0000000001
 40
0.0
 40
0.0
 40
0.0
 40
0.0
 40
0.4885215093
 40
1.0
 40
1.0
 40
1.0
 40
1.0
 10
2.0536390034
 20
19.7333987111
 30
0.0
 10
2.1000768457
 20
19.7333987111
 30
0.0
 10
2.2010607045
 20
19.7617821831
 30
0.0
 10
2.2491934996
 20
19.8544129898
 30
0.0
 10
2.261184272
 20
19.9015312885
 30
0.0
  0
SPLINE
  5
5F3
100
AcDbEntity
  8
0
100
AcDbSpline
 62
7
  6
CONTINUOUS
 70
0
 71
3
 72
15
 73
11
 74
0
 42
0.0000001
 43
0.0000001
 44
0.0000000001
 40
0.0
 40
0.0
 40
0.0
 40
0.0
 40
0.1866468812
 40
0.271400931
 40
0.3612167075
 40
0.5134730287
 40
0.591184325
 40
0.6735270003
 40
0.8674036366
 40
1.0
 40
1.0
 40
1.0
 40
1.0
 10
2.1944055291
 20
19.9182734262
 30
0.0
 10
2.1867142277
 20
19.8828773934
 30
0.0
 10
2.1619494665
 20
19.8302072618
 30
0.0
 10
2.09873976
 20
19.7958442712
 30
0.0
 10
2.0351045699
 20
19.7866810203
 30
0.0
 10
1.9716814081
 20
19.8030450425
 30
0.0
 10
1.9245469559
 20
19.8429937059
 30
0.0
 10
1.8913670033
 20
19.9044955943
 30
0.0
 10
1.8810612207
 20
19.9851241559
 30
0.0
 10
1.8877990977
 20
20.0489282965
 30
0.0
 10
1.8944010484
 20
20.073823866
 30
0.0
  0
SPLINE
  5
5F4
100
AcDbEntity
  8
0
100
AcDbSpline
 62
7
  6
CONTINUOUS
 70
0
 71
3
 72
16
 73
12
 74
0
 42
0.0000001
 43
0.0000001
 44
0.0000000001
 40
0.0
 40
0.0
 40
0.0
 40
0.0
 40
0.1666821197
 40
0.248784594
 40
0.3381466442
 40
0.4199639275
 40
0.4996832409
 40
0.6574850646
 40
0.7440551693
 40
0.8391627987
 40
1.0
 40
1.0
 40
1.0
 40
1.0
 10
2.2490426824
 20
20.1058040619
 30
0.0
 10
2.2371467984
 20
20.1472423688
 30
0.0
 10
2.200614031
 20
20.2074923253
 30
0.0
 10
2.1205808742
 20
20.2470283434
 30
0.0
 10
2.0545859376
 20
20.2550981618
 30
0.0
 10
1.9895903127
 20
20.2475656085
 30
0.0
 10
1.9115789368
 20
20.2177299745
 30
0.0
 10
1.8502665983
 20
20.1525648186
 30
0.0
 10
1.8223289029
 20
20.0684345656
 30
0.0
 10
1.8140800151
 20
19.9797848434
 30
0.0
 10
1.8249584041
 20
19.9126364423
 30
0.0
 10
1.8398678662
 20
19.8736014122
 30
0.0
  0
SPLINE
  5
5F5
100
AcDbEntity
  8
0
100
AcDbSpline
 62
7
  6
CONTINUOUS
 70
0
 71
3
 72
10
 73
6
 74
0
 42
0.0000001
 43
0.0000001
 44
0.0000000001
 40
0.0
 40
0.0
 40
0.0
 40
0.0
 40
0.6059677489
 40
0.8024274232
 40
1.0
 40
1.0
 40
1.0
 40
1.0
 10
2.4301231391
 20
19.9489119268
 30
0.0
 10
2.4481616179
 20
19.9976521909
 30
0.0
 10
2.4713533985
 20
20.0624238304
 30
0.0
 10
2.5025490141
 20
20.1423863665
 30
0.0
 10
2.511009063
 20
20.1751923846
 30
0.0
 10
2.5146399783
 20
20.1917437191
 30
0.0
  0
SPLINE
  5
5F6
100
AcDbEntity
  8
0
100
AcDbSpline
 62
7
  6
CONTINUOUS
 70
0
 71
3
 72
11
 73
7
 74
0
 42
0.0000001
 43
0.0000001
 44
0.0000000001
 40
0.0
 40
0.0
 40
0.0
 40
0.0
 40
0.1914546415
 40
0.4289323167
 40
0.7144661583
 40
1.0
 40
1.0
 40
1.0
 40
1.0
 10
2.5146399783
 20
20.1917437191
 30
0.0
 10
2.5192730588
 20
20.1758870963
 30
0.0
 10
2.5306880988
 20
20.1406711978
 30
0.0
 10
2.5510726656
 20
20.0824775123
 30
0.0
 10
2.5772503068
 20
20.0177947392
 30
0.0
 10
2.5950543106
 20
19.9718513129
 30
0.0
 10
2.6040419385
 20
19.9489119268
 30
0.0
  0
SPLINE
  5
5F7
100
AcDbEntity
  8
0
100
AcDbSpline
 62
7
  6
CONTINUOUS
 70
0
 71
3
 72
8
 73
4
 74
0
 42
0.0000001
 43
0.0000001
 44
0.0000000001
 40
0.0
 40
0.0
 40
0.0
 40
0.0
 40
1.0
 40
1.0
 40
1.0
 40
1.0
 10
3.1824274071
 20
19.7986597785
 30
0.0
 10
3.1747847241
 20
19.8262487635
 30
0.0
 10
3.165853254
 20
19.8534915492
 30
0.0
 10
3.1561522643
 20
19.8804257931
 30
0.0
  0
SPLINE
  5
5F8
100
AcDbEntity
  8
0
100
AcDbSpline
 62
7
  6
CONTINUOUS
 70
0
 71
3
 72
12
 73
8
 74
0
 42
0.0000001
 43
0.0000001
 44
0.0000000001
 40
0.0
 40
0.0
 40
0.0
 40
0.0
 40
0.2685244939
 40
0.4697426202
 40
0.6173170278
 40
0.7733171665
 40
1.0
 40
1.0
 40
1.0
 40
1.0
 10
-0.0647838114
 20
20.1856729243
 30
0.0
 10
-0.0366394674
 20
20.1856729243
 30
0.0
 10
0.0195520536
 20
20.1785959691
 30
0.0
 10
0.0489657129
 20
20.1107573315
 30
0.0
 10
0.0329548033
 20
20.0569047406
 30
0.0
 10
-0.0153830274
 20
20.0224446473
 30
0.0
 10
-0.0569607852
 20
20.0217614645
 30
0.0
 10
-0.0807196593
 20
20.0217614645
 30
0.0
  0
SPLINE
  5
5F9
100
AcDbEntity
  8
0
100
AcDbSpline
 62
7
  6
CONTINUOUS
 70
0
 71
3
 72
11
 73
7
 74
0
 42
0.0000001
 43
0.0000001
 44
0.0000000001
 40
0.0
 40
0.0
 40
0.0
 40
0.0
 40
0.3275664086
 40
0.4913496129
 40
0.6551328172
 40
1.0
 40
1.0
 40
1.0
 40
1.0
 10
0.1456071393
 20
19.7425049033
 30
0.0
 10
0.1314261418
 20
19.7651992484
 30
0.0
 10
0.110228276
 20
19.7992830314
 30
0.0
 10
0.0816699332
 20
19.8445590135
 30
0.0
 10
0.0533650854
 20
19.8916090674
 30
0.0
 10
0.0274566966
 20
19.9246174667
 30
0.0
 10
0.0074491518
 20
19.9444537114
 30
0.0
  0
SPLINE
  5
5FA
100
AcDbEntity
  8
0
100
AcDbSpline
 62
7
  6
CONTINUOUS
 70
0
 71
3
 72
8
 73
4
 74
0
 42
0.0000001
 43
0.0000001
 44
0.0000000001
 40
0.0
 40
0.0
 40
0.0
 40
0.0
 40
1.0
 40
1.0
 40
1.0
 40
1.0
 10
0.0074491518
 20
19.9444537114
 30
0.0
 10
-0.0035201778
 20
19.9551427987
 30
0.0
 10
-0.0170460374
 20
19.9630952102
 30
0.0
 10
-0.030635579
 20
19.9701597086
 30
0.0
  0
SPLINE
  5
5FB
100
AcDbEntity
  8
0
100
AcDbSpline
 62
7
  6
CONTINUOUS
 70
0
 71
3
 72
16
 73
12
 74
0
 42
0.0000001
 43
0.0000001
 44
0.0000000001
 40
0.0
 40
0.0
 40
0.0
 40
0.0
 40
0.2461932902
 40
0.3489826529
 40
0.4554222435
 40
0.540654108
 40
0.6242535915
 40
0.7047507299
 40
0.782070314
 40
0.8752353342
 40
1.0
 40
1.0
 40
1.0
 40
1.0
 10
-0.030635579
 20
19.9701597086
 30
0.0
 10
0.0074460511
 20
19.9754481293
 30
0.0
 10
0.0651317897
 20
19.994540547
 30
0.0
 10
0.1039095467
 20
20.0568931718
 30
0.0
 10
0.1111724483
 20
20.1032722252
 30
0.0
 10
0.1058163088
 20
20.1463976681
 30
0.0
 10
0.0902169811
 20
20.1825964466
 30
0.0
 10
0.0662327403
 20
20.2125034843
 30
0.0
 10
0.0317615025
 20
20.232902026
 30
0.0
 10
-0.0139815091
 20
20.2418632821
 30
0.0
 10
-0.0480031787
 20
20.2433454749
 30
0.0
 10
-0.0674872071
 20
20.2433454749
 30
0.0
  0
SPLINE
  5
5FC
100
AcDbEntity
  8
0
100
AcDbSpline
 62
7
  6
CONTINUOUS
 70
0
 71
3
 72
19
 73
15
 74
0
 42
0.0000001
 43
0.0000001
 44
0.0000000001
 40
0.0
 40
0.0
 40
0.0
 40
0.0
 40
0.0952812498
 40
0.1905624996
 40
0.245197925
 40
0.2822620984
 40
0.3221406595
 40
0.364275167
 40
0.4152531507
 40
0.4824516281
 40
0.5726455714
 40
0.6919067302
 40
0.8459533651
 40
1.0
 40
1.0
 40
1.0
 40
1.0
 10
-0.2217708041
 20
19.9640889138
 30
0.0
 10
-0.209083791
 20
19.9640889138
 30
0.0
 10
-0.1837138861
 20
19.9640410006
 30
0.0
 10
-0.1510490629
 20
19.9642259511
 30
0.0
 10
-0.1261843535
 20
19.9638491973
 30
0.0
 10
-0.1086226973
 20
19.962347732
 30
0.0
 10
-0.093601668
 20
19.9568879001
 30
0.0
 10
-0.0778057748
 20
19.9487243589
 30
0.0
 10
-0.0614731778
 20
19.9347004278
 30
0.0
 10
-0.0436529403
 20
19.9133716617
 30
0.0
 10
-0.022311704
 20
19.8833256351
 30
0.0
 10
0.0041848765
 20
19.8428141293
 30
0.0
 10
0.0342795522
 20
19.794518461
 30
0.0
 10
0.0562210196
 20
19.7598556798
 30
0.0
 10
0.0671610949
 20
19.7425049033
 30
0.0
  0
SPLINE
  5
5FD
100
AcDbEntity
  8
0
100
AcDbSpline
 62
7
  6
CONTINUOUS
 70
0
 71
3
 72
10
 73
6
 74
0
 42
0.0000001
 43
0.0000001
 44
0.0000000001
 40
0.0
 40
0.0
 40
0.0
 40
0.0
 40
0.6059677489
 40
0.8024274232
 40
1.0
 40
1.0
 40
1.0
 40
1.0
 10
-0.6690176099
 20
19.9489119268
 30
0.0
 10
-0.6509791311
 20
19.9976521909
 30
0.0
 10
-0.6277873505
 20
20.0624238304
 30
0.0
 10
-0.5965917349
 20
20.1423863665
 30
0.0
 10
-0.5881316861
 20
20.1751923846
 30
0.0
 10
-0.5845007707
 20
20.1917437191
 30
0.0
  0
SPLINE
  5
5FE
100
AcDbEntity
  8
0
100
AcDbSpline
 62
7
  6
CONTINUOUS
 70
0
 71
3
 72
11
 73
7
 74
0
 42
0.0000001
 43
0.0000001
 44
0.0000000001
 40
0.0
 40
0.0
 40
0.0
 40
0.0
 40
0.1914546415
 40
0.4289323167
 40
0.7144661583
 40
1.0
 40
1.0
 40
1.0
 40
1.0
 10
-0.5845007707
 20
20.1917437191
 30
0.0
 10
-0.5798676902
 20
20.1758870963
 30
0.0
 10
-0.5684526502
 20
20.1406711978
 30
0.0
 10
-0.5480680835
 20
20.0824775123
 30
0.0
 10
-0.5218904422
 20
20.0177947392
 30
0.0
 10
-0.5040864385
 20
19.9718513129
 30
0.0
 10
-0.4950988106
 20
19.9489119268
 30
0.0
  0
SPLINE
  5
5FF
100
AcDbEntity
  8
0
100
AcDbSpline
 62
7
  6
CONTINUOUS
 70
0
 71
3
 72
9
 73
5
 74
0
 42
0.0000001
 43
0.0000001
 44
0.0000000001
 40
0.0
 40
0.0
 40
0.0
 40
0.0
 40
0.3106214921
 40
1.0
 40
1.0
 40
1.0
 40
1.0
 10
-1.0730100375
 20
19.8956502089
 30
0.0
 10
-1.0759342175
 20
19.8873823499
 30
0.0
 10
-1.0852940549
 20
19.8607467778
 30
0.0
 10
-1.09452804
 20
19.8340625324
 30
0.0
 10
-1.1005183293
 20
19.8155441563
 30
0.0
  0
SPLINE
  5
600
100
AcDbEntity
  8
0
100
AcDbSpline
 62
7
  6
CONTINUOUS
 70
0
 71
3
 72
9
 73
5
 74
0
 42
0.0000001
 43
0.0000001
 44
0.0000000001
 40
0.0
 40
0.0
 40
0.0
 40
0.0
 40
0.1862683768
 40
1.0
 40
1.0
 40
1.0
 40
1.0
 10
-1.1005183293
 20
19.8155441563
 30
0.0
 10
-1.1019369126
 20
19.8201567692
 30
0.0
 10
-1.109705451
 20
19.8448729489
 30
0.0
 10
-1.1178258244
 20
19.8694766645
 30
0.0
 10
-1.1244695069
 20
19.8894845565
 30
0.0
  0
SPLINE
  5
601
100
AcDbEntity
  8
0
100
AcDbSpline
 62
7
  6
CONTINUOUS
 70
0
 71
3
 72
21
 73
17
 74
0
 42
0.0000001
 43
0.0000001
 44
0.0000000001
 40
0.0
 40
0.0
 40
0.0
 40
0.0
 40
0.1144253209
 40
0.2249444651
 40
0.3372455037
 40
0.3955490154
 40
0.4577357249
 40
0.5266911853
 40
0.5914313016
 40
0.6543319773
 40
0.7179754575
 40
0.7806675531
 40
0.8406064365
 40
0.9004353618
 40
0.9628115636
 40
1.0
 40
1.0
 40
1.0
 40
1.0
 10
-1.9458765294
 20
19.8730269917
 30
0.0
 10
-1.9439516412
 20
19.8537188962
 30
0.0
 10
-1.9341995241
 20
19.8157612677
 30
0.0
 10
-1.8983575135
 20
19.7693840162
 30
0.0
 10
-1.8563001856
 20
19.7443694716
 30
0.0
 10
-1.8177775113
 20
19.7348561598
 30
0.0
 10
-1.7856072441
 20
19.732583935
 30
0.0
 10
-1.7523348143
 20
19.7351075102
 30
0.0
 10
-1.7198979559
 20
19.7436655665
 30
0.0
 10
-1.6906323613
 20
19.7581990314
 30
0.0
 10
-1.6653043389
 20
19.778229813
 30
0.0
 10
-1.6443473367
 20
19.8021170299
 30
0.0
 10
-1.6289872889
 20
19.8292458117
 30
0.0
 10
-1.619892607
 20
19.8590310077
 30
0.0
 10
-1.6174941594
 20
19.8860736815
 30
0.0
 10
-1.6183870222
 20
19.9030643246
 30
0.0
 10
-1.619115927
 20
19.9093580276
 30
0.0
  0
SPLINE
  5
602
100
AcDbEntity
  8
0
100
AcDbSpline
 62
7
  6
CONTINUOUS
 70
0
 71
3
 72
14
 73
10
 74
0
 42
0.0000001
 43
0.0000001
 44
0.0000000001
 40
0.0
 40
0.0
 40
0.0
 40
0.0
 40
0.1588577103
 40
0.3059174983
 40
0.4659853257
 40
0.6351193164
 40
0.817864823
 40
0.9480939084
 40
1.0
 40
1.0
 40
1.0
 40
1.0
 10
-1.7142377505
 20
20.0138409925
 30
0.0
 10
-1.6940369883
 20
20.0231968418
 30
0.0
 10
-1.6575694763
 20
20.0510115085
 30
0.0
 10
-1.6392550624
 20
20.1176687133
 30
0.0
 10
-1.6584525419
 20
20.1851775352
 30
0.0
 10
-1.7146256931
 20
20.2356075907
 30
0.0
 10
-1.7832222442
 20
20.2501682412
 30
0.0
 10
-1.8346433628
 20
20.242813624
 30
0.0
 10
-1.8582537802
 20
20.2324978193
 30
0.0
 10
-1.8647055614
 20
20.2290366993
 30
0.0
  0
SPLINE
  5
603
100
AcDbEntity
  8
0
100
AcDbSpline
 62
7
  6
CONTINUOUS
 70
0
 71
3
 72
15
 73
11
 74
0
 42
0.0000001
 43
0.0000001
 44
0.0000000001
 40
0.0
 40
0.0
 40
0.0
 40
0.0
 40
0.2579657359
 40
0.3699623741
 40
0.4882781144
 40
0.6066973315
 40
0.7168254487
 40
0.824450879
 40
0.9355947973
 40
1.0
 40
1.0
 40
1.0
 40
1.0
 10
-1.8790977865
 20
20.1067525918
 30
0.0
 10
-1.8753735788
 20
20.1307530133
 30
0.0
 10
-1.8620088342
 20
20.1670784914
 30
0.0
 10
-1.8213878106
 20
20.1915718976
 30
0.0
 10
-1.7883382898
 20
20.1964031915
 30
0.0
 10
-1.7553033322
 20
20.1916903299
 30
0.0
 10
-1.7277817925
 20
20.1743251421
 30
0.0
 10
-1.7094679165
 20
20.1480903762
 30
0.0
 10
-1.7052259646
 20
20.1212524845
 30
0.0
 10
-1.7064738588
 20
20.104339591
 30
0.0
 10
-1.7076051997
 20
20.0983119899
 30
0.0
  0
SPLINE
  5
604
100
AcDbEntity
  8
0
100
AcDbSpline
 62
7
  6
CONTINUOUS
 70
0
 71
3
 72
8
 73
4
 74
0
 42
0.0000001
 43
0.0000001
 44
0.0000000001
 40
0.0
 40
0.0
 40
0.0
 40
0.0
 40
1.0
 40
1.0
 40
1.0
 40
1.0
 10
-1.8068173482
 20
20.0331916683
 30
0.0
 10
-1.8101615457
 20
20.0331916683
 30
0.0
 10
-1.813501556
 20
20.0335282837
 30
0.0
 10
-1.8168246878
 20
20.0339030541
 30
0.0
  0
SPLINE
  5
605
100
AcDbEntity
  8
0
100
AcDbSpline
 62
7
  6
CONTINUOUS
 70
0
 71
3
 72
16
 73
12
 74
0
 42
0.0000001
 43
0.0000001
 44
0.0000000001
 40
0.0
 40
0.0
 40
0.0
 40
0.0
 40
0.1348915716
 40
0.2561781452
 40
0.3706125199
 40
0.4834362409
 40
0.6006593583
 40
0.7243722665
 40
0.8451034062
 40
0.9669278383
 40
1.0
 40
1.0
 40
1.0
 40
1.0
 10
-1.8238440587
 20
19.9792659008
 30
0.0
 10
-1.8092954972
 20
19.9829936474
 30
0.0
 10
-1.7809880088
 20
19.9885933735
 30
0.0
 10
-1.7391192978
 20
19.9821094976
 30
0.0
 10
-1.7055262542
 20
19.9607001869
 30
0.0
 10
-1.682943613
 20
19.9282092593
 30
0.0
 10
-1.6765412508
 20
19.8883642156
 30
0.0
 10
-1.6833307949
 20
19.8476916029
 30
0.0
 10
-1.7068826788
 20
19.8129886117
 30
0.0
 10
-1.7331032977
 20
19.7954007336
 30
0.0
 10
-1.7495320854
 20
19.7899637339
 30
0.0
 10
-1.7530961643
 20
19.788992402
 30
0.0
  0
SPLINE
  5
606
100
AcDbEntity
  8
0
100
AcDbSpline
 62
7
  6
CONTINUOUS
 70
0
 71
3
 72
19
 73
15
 74
0
 42
0.0000001
 43
0.0000001
 44
0.0000000001
 40
0.0
 40
0.0
 40
0.0
 40
0.0
 40
0.1530917822
 40
0.2277477892
 40
0.2672194008
 40
0.3096958747
 40
0.366403577
 40
0.4193005608
 40
0.5241613048
 40
0.6667191535
 40
0.7549763455
 40
0.8569842435
 40
0.9479439795
 40
1.0
 40
1.0
 40
1.0
 40
1.0
 10
-2.0156906697
 20
20.1219295788
 30
0.0
 10
-2.0200242891
 20
20.1556386715
 30
0.0
 10
-2.042871906
 20
20.2074332019
 30
0.0
 10
-2.0961562649
 20
20.2371186987
 30
0.0
 10
-2.1301199513
 20
20.2451626488
 30
0.0
 10
-2.1609432986
 20
20.247216042
 30
0.0
 10
-2.1947972906
 20
20.2442479672
 30
0.0
 10
-2.2406032634
 20
20.2298921128
 30
0.0
 10
-2.2947678586
 20
20.1863557296
 30
0.0
 10
-2.3238342417
 20
20.1149020256
 30
0.0
 10
-2.335629575
 20
20.0420178151
 30
0.0
 10
-2.3383695701
 20
19.9794884805
 30
0.0
 10
-2.336056601
 20
19.9250303029
 30
0.0
 10
-2.3315410628
 20
19.8936141361
 30
0.0
 10
-2.329261224
 20
19.8822698877
 30
0.0
  0
SPLINE
  5
607
100
AcDbEntity
  8
0
100
AcDbSpline
 62
7
  6
CONTINUOUS
 70
0
 71
3
 72
16
 73
12
 74
0
 42
0.0000001
 43
0.0000001
 44
0.0000000001
 40
0.0
 40
0.0
 40
0.0
 40
0.0
 40
0.1766053368
 40
0.3115788099
 40
0.4197603384
 40
0.5154692733
 40
0.5899443525
 40
0.6652210269
 40
0.7565520107
 40
0.8473499214
 40
1.0
 40
1.0
 40
1.0
 40
1.0
 10
-2.2767348464
 20
20.0008456843
 30
0.0
 10
-2.2765383509
 20
20.0230353084
 30
0.0
 10
-2.2745651583
 20
20.0622314929
 30
0.0
 10
-2.2623964223
 20
20.1141235788
 30
0.0
 10
-2.2418892305
 20
20.1517789617
 30
0.0
 10
-2.218256603
 20
20.1785236013
 30
0.0
 10
-2.1898467229
 20
20.192098428
 30
0.0
 10
-2.1594864267
 20
20.1964649346
 30
0.0
 10
-2.1268916387
 20
20.1905691423
 30
0.0
 10
-2.0908435854
 20
20.1656614625
 30
0.0
 10
-2.0806578762
 20
20.1345604078
 30
0.0
 10
-2.0763986177
 20
20.115858784
 30
0.0
  0
SPLINE
  5
608
100
AcDbEntity
  8
0
100
AcDbSpline
 62
7
  6
CONTINUOUS
 70
0
 71
3
 72
19
 73
15
 74
0
 42
0.0000001
 43
0.0000001
 44
0.0000000001
 40
0.0
 40
0.0
 40
0.0
 40
0.0
 40
0.1530917822
 40
0.2277477892
 40
0.2672194008
 40
0.3096958747
 40
0.366403577
 40
0.4193005608
 40
0.5241613048
 40
0.6667191535
 40
0.7549763455
 40
0.8569842435
 40
0.9479439795
 40
1.0
 40
1.0
 40
1.0
 40
1.0
 10
-2.792752405
 20
20.1219295788
 30
0.0
 10
-2.7970860244
 20
20.1556386715
 30
0.0
 10
-2.8199336413
 20
20.2074332019
 30
0.0
 10
-2.8732180002
 20
20.2371186987
 30
0.0
 10
-2.9071816866
 20
20.2451626488
 30
0.0
 10
-2.9380050339
 20
20.247216042
 30
0.0
 10
-2.971859026
 20
20.2442479672
 30
0.0
 10
-3.0176649987
 20
20.2298921128
 30
0.0
 10
-3.0718295939
 20
20.1863557296
 30
0.0
 10
-3.100895977
 20
20.1149020256
 30
0.0
 10
-3.1126913104
 20
20.0420178151
 30
0.0
 10
-3.1154313054
 20
19.9794884805
 30
0.0
 10
-3.1131183364
 20
19.9250303029
 30
0.0
 10
-3.1086027981
 20
19.8936141361
 30
0.0
 10
-3.1063229593
 20
19.8822698877
 30
0.0
  0
SPLINE
  5
609
100
AcDbEntity
  8
0
100
AcDbSpline
 62
7
  6
CONTINUOUS
 70
0
 71
3
 72
16
 73
12
 74
0
 42
0.0000001
 43
0.0000001
 44
0.0000000001
 40
0.0
 40
0.0
 40
0.0
 40
0.0
 40
0.1766053368
 40
0.3115788099
 40
0.4197603384
 40
0.5154692733
 40
0.5899443525
 40
0.6652210269
 40
0.7565520107
 40
0.8473499214
 40
1.0
 40
1.0
 40
1.0
 40
1.0
 10
-3.0537965817
 20
20.0008456843
 30
0.0
 10
-3.0536000862
 20
20.0230353084
 30
0.0
 10
-3.0516268936
 20
20.0622314929
 30
0.0
 10
-3.0394581576
 20
20.1141235788
 30
0.0
 10
-3.0189509658
 20
20.1517789617
 30
0.0
 10
-2.9953183383
 20
20.1785236013
 30
0.0
 10
-2.9669084582
 20
20.192098428
 30
0.0
 10
-2.936548162
 20
20.1964649346
 30
0.0
 10
-2.903953374
 20
20.1905691423
 30
0.0
 10
-2.8679053207
 20
20.1656614625
 30
0.0
 10
-2.8577196116
 20
20.1345604078
 30
0.0
 10
-2.853460353
 20
20.115858784
 30
0.0
  0
SPLINE
  5
60A
100
AcDbEntity
  8
0
100
AcDbSpline
 62
7
  6
CONTINUOUS
 70
0
 71
3
 72
21
 73
17
 74
0
 42
0.0000001
 43
0.0000001
 44
0.0000000001
 40
0.0
 40
0.0
 40
0.0
 40
0.0
 40
0.1144253209
 40
0.2249444651
 40
0.3372455037
 40
0.3955490154
 40
0.4577357249
 40
0.5266911853
 40
0.5914313016
 40
0.6543319773
 40
0.7179754575
 40
0.7806675531
 40
0.8406064365
 40
0.9004353618
 40
0.9628115636
 40
1.0
 40
1.0
 40
1.0
 40
1.0
 10
-3.5
 20
19.8730269917
 30
0.0
 10
-3.4980751118
 20
19.8537188962
 30
0.0
 10
-3.4883229947
 20
19.8157612677
 30
0.0
 10
-3.4524809841
 20
19.7693840162
 30
0.0
 10
-3.4104236562
 20
19.7443694716
 30
0.0
 10
-3.371900982
 20
19.7348561598
 30
0.0
 10
-3.3397307147
 20
19.732583935
 30
0.0
 10
-3.3064582849
 20
19.7351075102
 30
0.0
 10
-3.2740214265
 20
19.7436655665
 30
0.0
 10
-3.2447558319
 20
19.7581990314
 30
0.0
 10
-3.2194278096
 20
19.778229813
 30
0.0
 10
-3.1984708073
 20
19.8021170299
 30
0.0
 10
-3.1831107596
 20
19.8292458117
 30
0.0
 10
-3.1740160776
 20
19.8590310077
 30
0.0
 10
-3.17161763
 20
19.8860736815
 30
0.0
 10
-3.1725104928
 20
19.9030643246
 30
0.0
 10
-3.1732393976
 20
19.9093580276
 30
0.0
  0
SPLINE
  5
60B
100
AcDbEntity
  8
0
100
AcDbSpline
 62
7
  6
CONTINUOUS
 70
0
 71
3
 72
14
 73
10
 74
0
 42
0.0000001
 43
0.0000001
 44
0.0000000001
 40
0.0
 40
0.0
 40
0.0
 40
0.0
 40
0.1588577103
 40
0.3059174983
 40
0.4659853257
 40
0.6351193164
 40
0.817864823
 40
0.9480939084
 40
1.0
 40
1.0
 40
1.0
 40
1.0
 10
-3.2683612212
 20
20.0138409925
 30
0.0
 10
-3.2481604589
 20
20.0231968418
 30
0.0
 10
-3.2116929469
 20
20.0510115085
 30
0.0
 10
-3.193378533
 20
20.1176687133
 30
0.0
 10
-3.2125760125
 20
20.1851775352
 30
0.0
 10
-3.2687491638
 20
20.2356075907
 30
0.0
 10
-3.3373457149
 20
20.2501682412
 30
0.0
 10
-3.3887668335
 20
20.242813624
 30
0.0
 10
-3.4123772508
 20
20.2324978193
 30
0.0
 10
-3.418829032
 20
20.2290366993
 30
0.0
  0
SPLINE
  5
60C
100
AcDbEntity
  8
0
100
AcDbSpline
 62
7
  6
CONTINUOUS
 70
0
 71
3
 72
15
 73
11
 74
0
 42
0.0000001
 43
0.0000001
 44
0.0000000001
 40
0.0
 40
0.0
 40
0.0
 40
0.0
 40
0.2579657359
 40
0.3699623741
 40
0.4882781144
 40
0.6066973315
 40
0.7168254487
 40
0.824450879
 40
0.9355947973
 40
1.0
 40
1.0
 40
1.0
 40
1.0
 10
-3.4332212571
 20
20.1067525918
 30
0.0
 10
-3.4294970494
 20
20.1307530133
 30
0.0
 10
-3.4161323048
 20
20.1670784914
 30
0.0
 10
-3.3755112812
 20
20.1915718976
 30
0.0
 10
-3.3424617604
 20
20.1964031915
 30
0.0
 10
-3.3094268029
 20
20.1916903299
 30
0.0
 10
-3.2819052631
 20
20.1743251421
 30
0.0
 10
-3.2635913871
 20
20.1480903762
 30
0.0
 10
-3.2593494353
 20
20.1212524845
 30
0.0
 10
-3.2605973294
 20
20.104339591
 30
0.0
 10
-3.2617286703
 20
20.0983119899
 30
0.0
  0
SPLINE
  5
60D
100
AcDbEntity
  8
0
100
AcDbSpline
 62
7
  6
CONTINUOUS
 70
0
 71
3
 72
8
 73
4
 74
0
 42
0.0000001
 43
0.0000001
 44
0.0000000001
 40
0.0
 40
0.0
 40
0.0
 40
0.0
 40
1.0
 40
1.0
 40
1.0
 40
1.0
 10
-3.3609408188
 20
20.0331916683
 30
0.0
 10
-3.3642850164
 20
20.0331916683
 30
0.0
 10
-3.3676250267
 20
20.0335282837
 30
0.0
 10
-3.3709481584
 20
20.0339030541
 30
0.0
  0
SPLINE
  5
60E
100
AcDbEntity
  8
0
100
AcDbSpline
 62
7
  6
CONTINUOUS
 70
0
 71
3
 72
16
 73
12
 74
0
 42
0.0000001
 43
0.0000001
 44
0.0000000001
 40
0.0
 40
0.0
 40
0.0
 40
0.0
 40
0.1348915716
 40
0.2561781452
 40
0.3706125199
 40
0.4834362409
 40
0.6006593583
 40
0.7243722665
 40
0.8451034062
 40
0.9669278383
 40
1.0
 40
1.0
 40
1.0
 40
1.0
 10
-3.3779675294
 20
19.9792659008
 30
0.0
 10
-3.3634189678
 20
19.9829936474
 30
0.0
 10
-3.3351114795
 20
19.9885933735
 30
0.0
 10
-3.2932427684
 20
19.9821094976
 30
0.0
 10
-3.2596497248
 20
19.9607001869
 30
0.0
 10
-3.2370670836
 20
19.9282092593
 30
0.0
 10
-3.2306647214
 20
19.8883642156
 30
0.0
 10
-3.2374542655
 20
19.8476916029
 30
0.0
 10
-3.2610061494
 20
19.8129886117
 30
0.0
 10
-3.2872267683
 20
19.7954007336
 30
0.0
 10
-3.303655556
 20
19.7899637339
 30
0.0
 10
-3.3072196349
 20
19.788992402
 30
0.0
  0
SPLINE
  5
60F
100
AcDbEntity
  8
0
100
AcDbSpline
 62
7
  6
CONTINUOUS
 70
0
 71
3
 72
8
 73
4
 74
0
 42
0.0000001
 43
0.0000001
 44
0.0000000001
 40
0.0
 40
0.0
 40
0.0
 40
0.0
 40
1.0
 40
1.0
 40
1.0
 40
1.0
 10
1.1132823365
 20
20.916036238
 30
0.0
 10
1.0949919007
 20
20.8968715194
 30
0.0
 10
1.0777504061
 20
20.8766927413
 30
0.0
 10
1.0611588638
 20
20.856039722
 30
0.0
  0
LINE
  5
610
100
AcDbEntity
  8
0
100
AcDbLine
 62
7
  6
CONTINUOUS
 10
0.8810270295
 20
20.5305407677
 30
0.0
 11
1.1908746624
 21
20.916036238
 31
0.0
  0
SPLINE
  5
611
100
AcDbEntity
  8
0
100
AcDbSpline
 62
7
  6
CONTINUOUS
 70
0
 71
3
 72
10
 73
6
 74
0
 42
0.0000001
 43
0.0000001
 44
0.0000000001
 40
0.0
 40
0.0
 40
0.0
 40
0.0
 40
0.6059677489
 40
0.8024274232
 40
1.0
 40
1.0
 40
1.0
 40
1.0
 10
1.3598135295
 20
20.6792752405
 30
0.0
 10
1.3778520083
 20
20.7280155046
 30
0.0
 10
1.4010437889
 20
20.7927871441
 30
0.0
 10
1.4322394045
 20
20.8727496802
 30
0.0
 10
1.4406994534
 20
20.9055556983
 30
0.0
 10
1.4443303688
 20
20.9221070328
 30
0.0
  0
SPLINE
  5
612
100
AcDbEntity
  8
0
100
AcDbSpline
 62
7
  6
CONTINUOUS
 70
0
 71
3
 72
11
 73
7
 74
0
 42
0.0000001
 43
0.0000001
 44
0.0000000001
 40
0.0
 40
0.0
 40
0.0
 40
0.0
 40
0.1914546415
 40
0.4289323167
 40
0.7144661583
 40
1.0
 40
1.0
 40
1.0
 40
1.0
 10
1.4443303688
 20
20.9221070328
 30
0.0
 10
1.4489634493
 20
20.90625041
 30
0.0
 10
1.4603784893
 20
20.8710345115
 30
0.0
 10
1.480763056
 20
20.812840826
 30
0.0
 10
1.5069406973
 20
20.748158053
 30
0.0
 10
1.524744701
 20
20.7022146267
 30
0.0
 10
1.5337323289
 20
20.6792752405
 30
0.0
  0
SPLINE
  5
613
100
AcDbEntity
  8
0
100
AcDbSpline
 62
7
  6
CONTINUOUS
 70
0
 71
3
 72
9
 73
5
 74
0
 42
0.0000001
 43
0.0000001
 44
0.0000000001
 40
0.0
 40
0.0
 40
0.0
 40
0.0
 40
0.4449057075
 40
1.0
 40
1.0
 40
1.0
 40
1.0
 10
2.0987904877
 20
20.976744186
 30
0.0
 10
2.0859079437
 20
20.9508279437
 30
0.0
 10
2.0407062949
 20
20.9014021524
 30
0.0
 10
1.9854803671
 20
20.8660469832
 30
0.0
 10
1.9527594107
 20
20.850775217
 30
0.0
  0
SPLINE
  5
614
100
AcDbEntity
  8
0
100
AcDbSpline
 62
7
  6
CONTINUOUS
 70
0
 71
3
 72
11
 73
7
 74
0
 42
0.0000001
 43
0.0000001
 44
0.0000000001
 40
0.0
 40
0.0
 40
0.0
 40
0.0
 40
0.2308286057
 40
0.5005232368
 40
0.769747873
 40
1.0
 40
1.0
 40
1.0
 40
1.0
 10
1.9527594107
 20
20.7912055603
 30
0.0
 10
1.9632830018
 20
20.7950573203
 30
0.0
 10
1.9855694305
 20
20.8048658334
 30
0.0
 10
2.0184558031
 20
20.8226638557
 30
0.0
 10
2.0500736673
 20
20.8426071916
 30
0.0
 10
2.0690781927
 20
20.8578086395
 30
0.0
 10
2.0772107042
 20
20.8654779159
 30
0.0
  0
SPLINE
  5
615
100
AcDbEntity
  8
0
100
AcDbSpline
 62
7
  6
CONTINUOUS
 70
0
 71
3
 72
8
 73
4
 74
0
 42
0.0000001
 43
0.0000001
 44
0.0000000001
 40
0.0
 40
0.0
 40
0.0
 40
0.0
 40
1.0
 40
1.0
 40
1.0
 40
1.0
 10
-3.2726771964
 20
20.5290230922
 30
0.0
 10
-3.2803198794
 20
20.5566120772
 30
0.0
 10
-3.2892513495
 20
20.5838548629
 30
0.0
 10
-3.2989523392
 20
20.6107891068
 30
0.0
  0
SPLINE
  5
616
100
AcDbEntity
  8
0
100
AcDbSpline
 62
7
  6
CONTINUOUS
 70
0
 71
3
 72
11
 73
7
 74
0
 42
0.0000001
 43
0.0000001
 44
0.0000000001
 40
0.0
 40
0.0
 40
0.0
 40
0.0
 40
0.1914546415
 40
0.4289323167
 40
0.7144661583
 40
1.0
 40
1.0
 40
1.0
 40
1.0
 10
-2.623102152
 20
20.9221070328
 30
0.0
 10
-2.6184690715
 20
20.90625041
 30
0.0
 10
-2.6070540315
 20
20.8710345115
 30
0.0
 10
-2.5866694648
 20
20.812840826
 30
0.0
 10
-2.5604918235
 20
20.748158053
 30
0.0
 10
-2.5426878198
 20
20.7022146267
 30
0.0
 10
-2.5337001919
 20
20.6792752405
 30
0.0
  0
SPLINE
  5
617
100
AcDbEntity
  8
0
100
AcDbSpline
 62
7
  6
CONTINUOUS
 70
0
 71
3
 72
10
 73
6
 74
0
 42
0.0000001
 43
0.0000001
 44
0.0000000001
 40
0.0
 40
0.0
 40
0.0
 40
0.0
 40
0.6059677489
 40
0.8024274232
 40
1.0
 40
1.0
 40
1.0
 40
1.0
 10
-2.7076189912
 20
20.6792752405
 30
0.0
 10
-2.6895805125
 20
20.7280155046
 30
0.0
 10
-2.6663887318
 20
20.7927871441
 30
0.0
 10
-2.6351931163
 20
20.8727496802
 30
0.0
 10
-2.6267330674
 20
20.9055556983
 30
0.0
 10
-2.623102152
 20
20.9221070328
 30
0.0
  0
SPLINE
  5
618
100
AcDbEntity
  8
0
100
AcDbSpline
 62
7
  6
CONTINUOUS
 70
0
 71
3
 72
8
 73
4
 74
0
 42
0.0000001
 43
0.0000001
 44
0.0000000001
 40
0.0
 40
0.0
 40
0.0
 40
0.0
 40
1.0
 40
1.0
 40
1.0
 40
1.0
 10
-1.1023680528
 20
20.5290230922
 30
0.0
 10
-1.1100107359
 20
20.5566120772
 30
0.0
 10
-1.118942206
 20
20.5838548629
 30
0.0
 10
-1.1286431957
 20
20.6107891068
 30
0.0
  0
SPLINE
  5
619
100
AcDbEntity
  8
0
100
AcDbSpline
 62
7
  6
CONTINUOUS
 70
0
 71
3
 72
16
 73
12
 74
0
 42
0.0000001
 43
0.0000001
 44
0.0000000001
 40
0.0
 40
0.0
 40
0.0
 40
0.0
 40
0.1666821197
 40
0.248784594
 40
0.3381466442
 40
0.4199639275
 40
0.4996832409
 40
0.6574850646
 40
0.7440551693
 40
0.8391627987
 40
1.0
 40
1.0
 40
1.0
 40
1.0
 10
-0.2145143355
 20
20.8361673756
 30
0.0
 10
-0.2264102194
 20
20.8776056826
 30
0.0
 10
-0.2629429868
 20
20.937855639
 30
0.0
 10
-0.3429761436
 20
20.9773916571
 30
0.0
 10
-0.4089710802
 20
20.9854614756
 30
0.0
 10
-0.4739667051
 20
20.9779289222
 30
0.0
 10
-0.551978081
 20
20.9480932882
 30
0.0
 10
-0.6132904196
 20
20.8829281323
 30
0.0
 10
-0.6412281149
 20
20.7987978794
 30
0.0
 10
-0.6494770027
 20
20.7101481571
 30
0.0
 10
-0.6385986137
 20
20.6429997561
 30
0.0
 10
-0.6236891516
 20
20.603964726
 30
0.0
  0
SPLINE
  5
61A
100
AcDbEntity
  8
0
100
AcDbSpline
 62
7
  6
CONTINUOUS
 70
0
 71
3
 72
9
 73
5
 74
0
 42
0.0000001
 43
0.0000001
 44
0.0000000001
 40
0.0
 40
0.0
 40
0.0
 40
0.0
 40
0.4885215093
 40
1.0
 40
1.0
 40
1.0
 40
1.0
 10
-0.4099180144
 20
20.4637620248
 30
0.0
 10
-0.3634801721
 20
20.4637620248
 30
0.0
 10
-0.2624963133
 20
20.4921454968
 30
0.0
 10
-0.2143635183
 20
20.5847763035
 30
0.0
 10
-0.2023727458
 20
20.6318946022
 30
0.0
  0
SPLINE
  5
61B
100
AcDbEntity
  8
0
100
AcDbSpline
 62
7
  6
CONTINUOUS
 70
0
 71
3
 72
15
 73
11
 74
0
 42
0.0000001
 43
0.0000001
 44
0.0000000001
 40
0.0
 40
0.0
 40
0.0
 40
0.0
 40
0.1866468812
 40
0.271400931
 40
0.3612167075
 40
0.5134730287
 40
0.591184325
 40
0.6735270003
 40
0.8674036366
 40
1.0
 40
1.0
 40
1.0
 40
1.0
 10
-0.2691514887
 20
20.6486367399
 30
0.0
 10
-0.2768427901
 20
20.6132407071
 30
0.0
 10
-0.3016075513
 20
20.5605705756
 30
0.0
 10
-0.3648172579
 20
20.5262075849
 30
0.0
 10
-0.4284524479
 20
20.517044334
 30
0.0
 10
-0.4918756098
 20
20.5334083563
 30
0.0
 10
-0.5390100619
 20
20.5733570196
 30
0.0
 10
-0.5721900145
 20
20.634858908
 30
0.0
 10
-0.5824957971
 20
20.7154874696
 30
0.0
 10
-0.5757579201
 20
20.7792916102
 30
0.0
 10
-0.5691559694
 20
20.8041871797
 30
0.0
  0
SPLINE
  5
61C
100
AcDbEntity
  8
0
100
AcDbSpline
 62
7
  6
CONTINUOUS
 70
0
 71
3
 72
10
 73
6
 74
0
 42
0.0000001
 43
0.0000001
 44
0.0000000001
 40
0.0
 40
0.0
 40
0.0
 40
0.0
 40
0.6059677489
 40
0.8024274232
 40
1.0
 40
1.0
 40
1.0
 40
1.0
 10
-0.0334338787
 20
21.4126739516
 30
0.0
 10
-0.0153953999
 20
21.4614142157
 30
0.0
 10
0.0077963807
 20
21.5261858553
 30
0.0
 10
0.0389919963
 20
21.6061483913
 30
0.0
 10
0.0474520452
 20
21.6389544095
 30
0.0
 10
0.0510829605
 20
21.6555057439
 30
0.0
  0
SPLINE
  5
61D
100
AcDbEntity
  8
0
100
AcDbSpline
 62
7
  6
CONTINUOUS
 70
0
 71
3
 72
11
 73
7
 74
0
 42
0.0000001
 43
0.0000001
 44
0.0000000001
 40
0.0
 40
0.0
 40
0.0
 40
0.0
 40
0.1914546415
 40
0.4289323167
 40
0.7144661583
 40
1.0
 40
1.0
 40
1.0
 40
1.0
 10
0.0510829605
 20
21.6555057439
 30
0.0
 10
0.055716041
 20
21.6396491211
 30
0.0
 10
0.067131081
 20
21.6044332226
 30
0.0
 10
0.0875156478
 20
21.5462395371
 30
0.0
 10
0.113693289
 20
21.4815567641
 30
0.0
 10
0.1314972927
 20
21.4356133378
 30
0.0
 10
0.1404849207
 20
21.4126739516
 30
0.0
  0
SPLINE
  5
61E
100
AcDbEntity
  8
0
100
AcDbSpline
 62
7
  6
CONTINUOUS
 70
0
 71
3
 72
9
 73
5
 74
0
 42
0.0000001
 43
0.0000001
 44
0.0000000001
 40
0.0
 40
0.0
 40
0.0
 40
0.0
 40
0.8336714283
 40
1.0
 40
1.0
 40
1.0
 40
1.0
 10
-0.3909941978
 20
21.6494349491
 30
0.0
 10
-0.3742904459
 20
21.6494349491
 30
0.0
 10
-0.3541420037
 20
21.6493456263
 30
0.0
 10
-0.3343527587
 20
21.6458623653
 30
0.0
 10
-0.3311399683
 20
21.6449767338
 30
0.0
  0
SPLINE
  5
61F
100
AcDbEntity
  8
0
100
AcDbSpline
 62
7
  6
CONTINUOUS
 70
0
 71
3
 72
16
 73
12
 74
0
 42
0.0000001
 43
0.0000001
 44
0.0000000001
 40
0.0
 40
0.0
 40
0.0
 40
0.0
 40
0.1256910257
 40
0.193904178
 40
0.2676640161
 40
0.3655987942
 40
0.4528901311
 40
0.5517810222
 40
0.6858605661
 40
0.842930283
 40
1.0
 40
1.0
 40
1.0
 40
1.0
 10
-0.3311399683
 20
21.6449767338
 30
0.0
 10
-0.3150614489
 20
21.6403958643
 30
0.0
 10
-0.292335997
 20
21.623321191
 30
0.0
 10
-0.2774350728
 20
21.5904514723
 30
0.0
 10
-0.2737859
 20
21.5583965128
 30
0.0
 10
-0.2785809636
 20
21.5235597079
 30
0.0
 10
-0.3001783648
 20
21.4905041717
 30
0.0
 10
-0.3406319214
 20
21.4721827134
 30
0.0
 10
-0.39280074
 20
21.4696849455
 30
0.0
 10
-0.452319124
 20
21.470548169
 30
0.0
 10
-0.4941266049
 20
21.4703465023
 30
0.0
 10
-0.5150186784
 20
21.4703465023
 30
0.0
  0
SPLINE
  5
620
100
AcDbEntity
  8
0
100
AcDbSpline
 62
7
  6
CONTINUOUS
 70
0
 71
3
 72
17
 73
13
 74
0
 42
0.0000001
 43
0.0000001
 44
0.0000000001
 40
0.0
 40
0.0
 40
0.0
 40
0.0
 40
0.162866463
 40
0.2822094762
 40
0.3878291633
 40
0.4976552
 40
0.6261669659
 40
0.740930338
 40
0.798068872
 40
0.8616252876
 40
0.9203209906
 40
1.0
 40
1.0
 40
1.0
 40
1.0
 10
-0.3903776696
 20
21.4126739516
 30
0.0
 10
-0.3610973555
 20
21.4126739516
 30
0.0
 10
-0.3094908169
 20
21.4156651905
 30
0.0
 10
-0.2455465054
 20
21.4507360728
 30
0.0
 10
-0.2146516072
 20
21.504914582
 30
0.0
 10
-0.2045853254
 20
21.5668781867
 30
0.0
 10
-0.2173554634
 20
21.6310344858
 30
0.0
 10
-0.2522747446
 20
21.6757108912
 30
0.0
 10
-0.2904458127
 20
21.6951016148
 30
0.0
 10
-0.3219118284
 20
21.703004959
 30
0.0
 10
-0.3580837044
 20
21.706679815
 30
0.0
 10
-0.3829773556
 20
21.7071074998
 30
0.0
 10
-0.3973021367
 20
21.7071074998
 30
0.0
  0
SPLINE
  5
621
100
AcDbEntity
  8
0
100
AcDbSpline
 62
7
  6
CONTINUOUS
 70
0
 71
3
 72
17
 73
13
 74
0
 42
0.0000001
 43
0.0000001
 44
0.0000000001
 40
0.0
 40
0.0
 40
0.0
 40
0.0
 40
0.1660697659
 40
0.2474949485
 40
0.3303605504
 40
0.4224345745
 40
0.5299330203
 40
0.6176865268
 40
0.6998926525
 40
0.8475964127
 40
0.9839605582
 40
1.0
 40
1.0
 40
1.0
 40
1.0
 10
-1.0704964033
 20
21.370178388
 30
0.0
 10
-1.0696394639
 20
21.3382357245
 30
0.0
 10
-1.0559861621
 20
21.2894173777
 30
0.0
 10
-1.013913858
 20
21.2406824844
 30
0.0
 10
-0.9712168166
 20
21.214465773
 30
0.0
 10
-0.918351546
 20
21.1998396963
 30
0.0
 10
-0.8629781312
 20
21.1956428691
 30
0.0
 10
-0.8094311681
 20
21.2000579927
 30
0.0
 10
-0.7507906946
 20
21.2186387096
 30
0.0
 10
-0.6925869996
 20
21.2651352608
 30
0.0
 10
-0.6752077669
 20
21.3239778086
 30
0.0
 10
-0.6759437485
 20
21.3534858227
 30
0.0
 10
-0.6761282572
 20
21.3565811563
 30
0.0
  0
SPLINE
  5
622
100
AcDbEntity
  8
0
100
AcDbSpline
 62
7
  6
CONTINUOUS
 70
0
 71
3
 72
9
 73
5
 74
0
 42
0.0000001
 43
0.0000001
 44
0.0000000001
 40
0.0
 40
0.0
 40
0.0
 40
0.0
 40
0.1708537376
 40
1.0
 40
1.0
 40
1.0
 40
1.0
 10
-0.7608384393
 20
21.4697299741
 30
0.0
 10
-0.7667036333
 20
21.4724112018
 30
0.0
 10
-0.8020483751
 20
21.4858145641
 30
0.0
 10
-0.838861341
 20
21.494688012
 30
0.0
 10
-0.8693301705
 20
21.5018387677
 30
0.0
  0
SPLINE
  5
623
100
AcDbEntity
  8
0
100
AcDbSpline
 62
7
  6
CONTINUOUS
 70
0
 71
3
 72
14
 73
10
 74
0
 42
0.0000001
 43
0.0000001
 44
0.0000000001
 40
0.0
 40
0.0
 40
0.0
 40
0.0
 40
0.2179129112
 40
0.3431396291
 40
0.4239794096
 40
0.5071863491
 40
0.6054326828
 40
0.7097686956
 40
1.0
 40
1.0
 40
1.0
 40
1.0
 10
-0.8693301705
 20
21.5018387677
 30
0.0
 10
-0.8908032344
 20
21.5068782995
 30
0.0
 10
-0.9239886828
 20
21.5157527524
 30
0.0
 10
-0.9649453125
 20
21.532615645
 30
0.0
 10
-0.9826294926
 20
21.5574367733
 30
0.0
 10
-0.9873241757
 20
21.5842438832
 30
0.0
 10
-0.9808317779
 20
21.6134285683
 30
0.0
 10
-0.9473757775
 20
21.6531048825
 30
0.0
 10
-0.9028564572
 20
21.6585411413
 30
0.0
 10
-0.8734800986
 20
21.6585411413
 30
0.0
  0
SPLINE
  5
624
100
AcDbEntity
  8
0
100
AcDbSpline
 62
7
  6
CONTINUOUS
 70
0
 71
3
 72
9
 73
5
 74
0
 42
0.0000001
 43
0.0000001
 44
0.0000000001
 40
0.0
 40
0.0
 40
0.0
 40
0.0
 40
0.5306823676
 40
1.0
 40
1.0
 40
1.0
 40
1.0
 10
-0.8734800986
 20
21.6585411413
 30
0.0
 10
-0.8440840777
 20
21.6585411413
 30
0.0
 10
-0.7815228121
 20
21.6493768603
 30
0.0
 10
-0.7575817979
 20
21.5902930296
 30
0.0
 10
-0.7548150733
 20
21.5644438218
 30
0.0
  0
SPLINE
  5
625
100
AcDbEntity
  8
0
100
AcDbSpline
 62
7
  6
CONTINUOUS
 70
0
 71
3
 72
15
 73
11
 74
0
 42
0.0000001
 43
0.0000001
 44
0.0000000001
 40
0.0
 40
0.0
 40
0.0
 40
0.0
 40
0.1557109465
 40
0.3144876739
 40
0.4048624014
 40
0.5043926636
 40
0.6813276216
 40
0.8337062637
 40
0.9745754115
 40
1.0
 40
1.0
 40
1.0
 40
1.0
 10
-0.6880363304
 20
21.5674792192
 30
0.0
 10
-0.6891030814
 20
21.5948594984
 30
0.0
 10
-0.7052091287
 20
21.6517295545
 30
0.0
 10
-0.7656016397
 20
21.6973734095
 30
0.0
 10
-0.8251214712
 20
21.7135804377
 30
0.0
 10
-0.8896412463
 20
21.7186951891
 30
0.0
 10
-0.9663683585
 20
21.707891845
 30
0.0
 10
-1.0366182516
 20
21.6554667714
 30
0.0
 10
-1.0537943852
 20
21.5983424189
 30
0.0
 10
-1.051981593
 20
21.5685061661
 30
0.0
 10
-1.0514544762
 20
21.5639773975
 30
0.0
  0
SPLINE
  5
626
100
AcDbEntity
  8
0
100
AcDbSpline
 62
7
  6
CONTINUOUS
 70
0
 71
3
 72
9
 73
5
 74
0
 42
0.0000001
 43
0.0000001
 44
0.0000000001
 40
0.0
 40
0.0
 40
0.0
 40
0.0
 40
0.3500357027
 40
1.0
 40
1.0
 40
1.0
 40
1.0
 10
-0.8844597287
 20
21.4366962956
 30
0.0
 10
-0.8742452405
 20
21.4341525959
 30
0.0
 10
-0.8451804432
 20
21.4265610334
 30
0.0
 10
-0.8158168729
 20
21.4193694379
 30
0.0
 10
-0.7976900211
 20
21.4120574234
 30
0.0
  0
SPLINE
  5
627
100
AcDbEntity
  8
0
100
AcDbSpline
 62
7
  6
CONTINUOUS
 70
0
 71
3
 72
13
 73
9
 74
0
 42
0.0000001
 43
0.0000001
 44
0.0000000001
 40
0.0
 40
0.0
 40
0.0
 40
0.0
 40
0.1591293638
 40
0.2900566573
 40
0.4289523222
 40
0.5896488984
 40
0.7912592345
 40
1.0
 40
1.0
 40
1.0
 40
1.0
 10
-0.7976900211
 20
21.4120574234
 30
0.0
 10
-0.7815544831
 20
21.4056782584
 30
0.0
 10
-0.7514251763
 20
21.3889176068
 30
0.0
 10
-0.738267857
 20
21.3403034399
 30
0.0
 10
-0.7532613023
 20
21.2927521166
 30
0.0
 10
-0.8012703177
 20
21.2601809701
 30
0.0
 10
-0.8640034834
 20
21.2514510211
 30
0.0
 10
-0.9093438206
 20
21.2587379314
 30
0.0
 10
-0.9306093479
 20
21.2670359954
 30
0.0
  0
SPLINE
  5
628
100
AcDbEntity
  8
0
100
AcDbSpline
 62
7
  6
CONTINUOUS
 70
0
 71
3
 72
12
 73
8
 74
0
 42
0.0000001
 43
0.0000001
 44
0.0000000001
 40
0.0
 40
0.0
 40
0.0
 40
0.0
 40
0.2685244939
 40
0.4697426202
 40
0.6173170278
 40
0.7733171665
 40
1.0
 40
1.0
 40
1.0
 40
1.0
 10
-1.5205888912
 20
21.6494349491
 30
0.0
 10
-1.4924445472
 20
21.6494349491
 30
0.0
 10
-1.4362530262
 20
21.6423579939
 30
0.0
 10
-1.4068393669
 20
21.5745193563
 30
0.0
 10
-1.4228502765
 20
21.5206667655
 30
0.0
 10
-1.4711881073
 20
21.4862066721
 30
0.0
 10
-1.512765865
 20
21.4855234893
 30
0.0
 10
-1.5365247392
 20
21.4855234893
 30
0.0
  0
SPLINE
  5
629
100
AcDbEntity
  8
0
100
AcDbSpline
 62
7
  6
CONTINUOUS
 70
0
 71
3
 72
11
 73
7
 74
0
 42
0.0000001
 43
0.0000001
 44
0.0000000001
 40
0.0
 40
0.0
 40
0.0
 40
0.0
 40
0.3275664086
 40
0.4913496129
 40
0.6551328172
 40
1.0
 40
1.0
 40
1.0
 40
1.0
 10
-1.3101979405
 20
21.2062669282
 30
0.0
 10
-1.324378938
 20
21.2289612732
 30
0.0
 10
-1.3455768038
 20
21.2630450562
 30
0.0
 10
-1.3741351466
 20
21.3083210384
 30
0.0
 10
-1.4024399944
 20
21.3553710922
 30
0.0
 10
-1.4283483833
 20
21.3883794916
 30
0.0
 10
-1.448355928
 20
21.4082157363
 30
0.0
  0
SPLINE
  5
62A
100
AcDbEntity
  8
0
100
AcDbSpline
 62
7
  6
CONTINUOUS
 70
0
 71
3
 72
8
 73
4
 74
0
 42
0.0000001
 43
0.0000001
 44
0.0000000001
 40
0.0
 40
0.0
 40
0.0
 40
0.0
 40
1.0
 40
1.0
 40
1.0
 40
1.0
 10
-1.448355928
 20
21.4082157363
 30
0.0
 10
-1.4593252577
 20
21.4189048236
 30
0.0
 10
-1.4728511173
 20
21.426857235
 30
0.0
 10
-1.4864406588
 20
21.4339217334
 30
0.0
  0
SPLINE
  5
62B
100
AcDbEntity
  8
0
100
AcDbSpline
 62
7
  6
CONTINUOUS
 70
0
 71
3
 72
16
 73
12
 74
0
 42
0.0000001
 43
0.0000001
 44
0.0000000001
 40
0.0
 40
0.0
 40
0.0
 40
0.0
 40
0.2461932902
 40
0.3489826529
 40
0.4554222435
 40
0.540654108
 40
0.6242535915
 40
0.7047507299
 40
0.782070314
 40
0.8752353342
 40
1.0
 40
1.0
 40
1.0
 40
1.0
 10
-1.4864406588
 20
21.4339217334
 30
0.0
 10
-1.4483590287
 20
21.4392101541
 30
0.0
 10
-1.3906732902
 20
21.4583025719
 30
0.0
 10
-1.3518955332
 20
21.5206551966
 30
0.0
 10
-1.3446326316
 20
21.5670342501
 30
0.0
 10
-1.349988771
 20
21.6101596929
 30
0.0
 10
-1.3655880987
 20
21.6463584715
 30
0.0
 10
-1.3895723395
 20
21.6762655092
 30
0.0
 10
-1.4240435774
 20
21.6966640509
 30
0.0
 10
-1.469786589
 20
21.7056253069
 30
0.0
 10
-1.5038082585
 20
21.7071074998
 30
0.0
 10
-1.523292287
 20
21.7071074998
 30
0.0
  0
SPLINE
  5
62C
100
AcDbEntity
  8
0
100
AcDbSpline
 62
7
  6
CONTINUOUS
 70
0
 71
3
 72
19
 73
15
 74
0
 42
0.0000001
 43
0.0000001
 44
0.0000000001
 40
0.0
 40
0.0
 40
0.0
 40
0.0
 40
0.0952812498
 40
0.1905624996
 40
0.245197925
 40
0.2822620984
 40
0.3221406595
 40
0.364275167
 40
0.4152531507
 40
0.4824516281
 40
0.5726455714
 40
0.6919067302
 40
0.8459533651
 40
1.0
 40
1.0
 40
1.0
 40
1.0
 10
-1.677575884
 20
21.4278509386
 30
0.0
 10
-1.6648888708
 20
21.4278509386
 30
0.0
 10
-1.6395189659
 20
21.4278030255
 30
0.0
 10
-1.6068541427
 20
21.427987976
 30
0.0
 10
-1.5819894333
 20
21.4276112221
 30
0.0
 10
-1.5644277772
 20
21.4261097569
 30
0.0
 10
-1.5494067479
 20
21.420649925
 30
0.0
 10
-1.5336108547
 20
21.4124863838
 30
0.0
 10
-1.5172782576
 20
21.3984624527
 30
0.0
 10
-1.4994580201
 20
21.3771336865
 30
0.0
 10
-1.4781167838
 20
21.3470876599
 30
0.0
 10
-1.4516202033
 20
21.3065761541
 30
0.0
 10
-1.4215255276
 20
21.2582804859
 30
0.0
 10
-1.3995840602
 20
21.2236177047
 30
0.0
 10
-1.3886439849
 20
21.2062669282
 30
0.0
  0
SPLINE
  5
62D
100
AcDbEntity
  8
0
100
AcDbSpline
 62
7
  6
CONTINUOUS
 70
0
 71
3
 72
10
 73
6
 74
0
 42
0.0000001
 43
0.0000001
 44
0.0000000001
 40
0.0
 40
0.0
 40
0.0
 40
0.0
 40
0.6059677489
 40
0.8024274232
 40
1.0
 40
1.0
 40
1.0
 40
1.0
 10
-2.1248226898
 20
21.4126739516
 30
0.0
 10
-2.106784211
 20
21.4614142157
 30
0.0
 10
-2.0835924304
 20
21.5261858553
 30
0.0
 10
-2.0523968148
 20
21.6061483913
 30
0.0
 10
-2.0439367659
 20
21.6389544095
 30
0.0
 10
-2.0403058505
 20
21.6555057439
 30
0.0
  0
SPLINE
  5
62E
100
AcDbEntity
  8
0
100
AcDbSpline
 62
7
  6
CONTINUOUS
 70
0
 71
3
 72
11
 73
7
 74
0
 42
0.0000001
 43
0.0000001
 44
0.0000000001
 40
0.0
 40
0.0
 40
0.0
 40
0.0
 40
0.1914546415
 40
0.4289323167
 40
0.7144661583
 40
1.0
 40
1.0
 40
1.0
 40
1.0
 10
-2.0403058505
 20
21.6555057439
 30
0.0
 10
-2.03567277
 20
21.6396491211
 30
0.0
 10
-2.02425773
 20
21.6044332226
 30
0.0
 10
-2.0038731633
 20
21.5462395371
 30
0.0
 10
-1.977695522
 20
21.4815567641
 30
0.0
 10
-1.9598915183
 20
21.4356133378
 30
0.0
 10
-1.9509038904
 20
21.4126739516
 30
0.0
  0
SPLINE
  5
62F
100
AcDbEntity
  8
0
100
AcDbSpline
 62
7
  6
CONTINUOUS
 70
0
 71
3
 72
9
 73
5
 74
0
 42
0.0000001
 43
0.0000001
 44
0.0000000001
 40
0.0
 40
0.0
 40
0.0
 40
0.0
 40
0.3106214921
 40
1.0
 40
1.0
 40
1.0
 40
1.0
 10
-2.5288151173
 20
21.3594122338
 30
0.0
 10
-2.5317392973
 20
21.3511443747
 30
0.0
 10
-2.5410991348
 20
21.3245088027
 30
0.0
 10
-2.5503331198
 20
21.2978245572
 30
0.0
 10
-2.5563234091
 20
21.2793061811
 30
0.0
  0
SPLINE
  5
630
100
AcDbEntity
  8
0
100
AcDbSpline
 62
7
  6
CONTINUOUS
 70
0
 71
3
 72
9
 73
5
 74
0
 42
0.0000001
 43
0.0000001
 44
0.0000000001
 40
0.0
 40
0.0
 40
0.0
 40
0.0
 40
0.1862683768
 40
1.0
 40
1.0
 40
1.0
 40
1.0
 10
-2.5563234091
 20
21.2793061811
 30
0.0
 10
-2.5577419924
 20
21.283918794
 30
0.0
 10
-2.5655105308
 20
21.3086349737
 30
0.0
 10
-2.5736309042
 20
21.3332386894
 30
0.0
 10
-2.5802745867
 20
21.3532465814
 30
0.0
  0
SPLINE
  5
631
100
AcDbEntity
  8
0
100
AcDbSpline
 62
7
  6
CONTINUOUS
 70
0
 71
3
 72
8
 73
4
 74
0
 42
0.0000001
 43
0.0000001
 44
0.0000000001
 40
0.0
 40
0.0
 40
0.0
 40
0.0
 40
1.0
 40
1.0
 40
1.0
 40
1.0
 10
-3.2726771964
 20
21.2624218033
 30
0.0
 10
-3.2803198794
 20
21.2900107883
 30
0.0
 10
-3.2892513495
 20
21.317253574
 30
0.0
 10
-3.2989523392
 20
21.344187818
 30
0.0
  0
SPLINE
  5
632
100
AcDbEntity
  8
0
100
AcDbSpline
 62
7
  6
CONTINUOUS
 70
0
 71
3
 72
22
 73
18
 74
0
 42
0.0000001
 43
0.0000001
 44
0.0000000001
 40
0.0
 40
0.0
 40
0.0
 40
0.0
 40
0.0794201042
 40
0.1644753708
 40
0.3235903841
 40
0.404672551
 40
0.4886422183
 40
0.5527203565
 40
0.6128009157
 40
0.6714571433
 40
0.73144586
 40
0.7926915485
 40
0.8564811374
 40
0.9247839546
 40
0.961403025
 40
0.9804410243
 40
1.0
 40
1.0
 40
1.0
 40
1.0
 10
0.6674886194
 20
20.0012104916
 30
0.0
 10
0.6669756405
 20
20.0221077412
 30
0.0
 10
0.662235347
 20
20.0652617722
 30
0.0
 10
0.6354809697
 20
20.146607453
 30
0.0
 10
0.5748111143
 20
20.2141673664
 30
0.0
 10
0.4952828143
 20
20.2472901288
 30
0.0
 10
0.4348572273
 20
20.2543460995
 30
0.0
 10
0.3801557772
 20
20.2497996364
 30
0.0
 10
0.3336526114
 20
20.2365417277
 30
0.0
 10
0.2921379035
 20
20.2138929795
 30
0.0
 10
0.2561728967
 20
20.1827375767
 30
0.0
 10
0.2268597671
 20
20.1435390508
 30
0.0
 10
0.2056509446
 20
20.0970221581
 30
0.0
 10
0.1956347504
 20
20.0536100061
 30
0.0
 10
0.1922075572
 20
20.0212286283
 30
0.0
 10
0.1912103722
 20
20.0015049769
 30
0.0
 10
0.1910338027
 20
19.9913724192
 30
0.0
 10
0.1910432427
 20
19.986237843
 30
0.0
  0
SPLINE
  5
633
100
AcDbEntity
  8
0
100
AcDbSpline
 62
7
  6
CONTINUOUS
 70
0
 71
3
 72
20
 73
16
 74
0
 42
0.0000001
 43
0.0000001
 44
0.0000000001
 40
0.0
 40
0.0
 40
0.0
 40
0.0
 40
0.0104395809
 40
0.0208097597
 40
0.0413940822
 40
0.0823130656
 40
0.1642828535
 40
0.3237566997
 40
0.4892775164
 40
0.6478931173
 40
0.7275631178
 40
0.8095102867
 40
0.8961237154
 40
0.9884257803
 40
1.0
 40
1.0
 40
1.0
 40
1.0
 10
0.1910432427
 20
19.986237843
 30
0.0
 10
0.1910482813
 20
19.9834972688
 30
0.0
 10
0.1911144979
 20
19.9780343888
 30
0.0
 10
0.1915627861
 20
19.9671760765
 30
0.0
 10
0.1931105407
 20
19.9483626517
 30
0.0
 10
0.1994295277
 20
19.9111554565
 30
0.0
 10
0.2234636591
 20
19.8405019039
 30
0.0
 10
0.298002117
 20
19.7552321754
 30
0.0
 10
0.4276645595
 20
19.7226187014
 30
0.0
 10
0.535003789
 20
19.7491126331
 30
0.0
 10
0.6029782605
 20
19.8006866571
 30
0.0
 10
0.64018635
 20
19.8553898047
 30
0.0
 10
0.6630664093
 20
19.9206573047
 30
0.0
 10
0.6678958032
 20
19.9708214778
 30
0.0
 10
0.667563378
 20
19.9981650491
 30
0.0
 10
0.6674886194
 20
20.0012104916
 30
0.0
  0
SPLINE
  5
634
100
AcDbEntity
  8
0
100
AcDbSpline
 62
7
  6
CONTINUOUS
 70
0
 71
3
 72
22
 73
18
 74
0
 42
0.0000001
 43
0.0000001
 44
0.0000000001
 40
0.0
 40
0.0
 40
0.0
 40
0.0
 40
0.0134573573
 40
0.0900470857
 40
0.158939012
 40
0.281808155
 40
0.3954970217
 40
0.4525258931
 40
0.5129183347
 40
0.5723691374
 40
0.6287856369
 40
0.7419971305
 40
0.8622987437
 40
0.9279801255
 40
0.9630667162
 40
0.9812886587
 40
1.0
 40
1.0
 40
1.0
 40
1.0
 10
0.6007250901
 20
20.0006207411
 30
0.0
 10
0.6007875046
 20
19.9979452338
 30
0.0
 10
0.6009993839
 20
19.9800380178
 30
0.0
 10
0.5990861176
 20
19.9484600229
 30
0.0
 10
0.587872385
 20
19.8961779595
 30
0.0
 10
0.5576080769
 20
19.8414340001
 30
0.0
 10
0.5086256161
 20
19.8062306778
 30
0.0
 10
0.4643640845
 20
19.7930497486
 30
0.0
 10
0.4291767488
 20
19.7900575327
 30
0.0
 10
0.3941143866
 20
19.7930390912
 30
0.0
 10
0.3502479534
 20
19.8061598498
 30
0.0
 10
0.3019150671
 20
19.8407770565
 30
0.0
 10
0.2711423682
 20
19.8936477543
 30
0.0
 10
0.2611673885
 20
19.9365986839
 30
0.0
 10
0.2586689548
 20
19.9601060011
 30
0.0
 10
0.2579370204
 20
19.9743857488
 30
0.0
 10
0.2578285286
 20
19.9817172943
 30
0.0
 10
0.2578219856
 20
19.9854315532
 30
0.0
  0
SPLINE
  5
635
100
AcDbEntity
  8
0
100
AcDbSpline
 62
7
  6
CONTINUOUS
 70
0
 71
3
 72
21
 73
17
 74
0
 42
0.0000001
 43
0.0000001
 44
0.0000000001
 40
0.0
 40
0.0
 40
0.0
 40
0.0
 40
0.0232701471
 40
0.0457212977
 40
0.0882275611
 40
0.1643044852
 40
0.2307274606
 40
0.2908481215
 40
0.4024714046
 40
0.5144309851
 40
0.5944142589
 40
0.6721937645
 40
0.7499145172
 40
0.8301370358
 40
0.9170807444
 40
1.0
 40
1.0
 40
1.0
 40
1.0
 10
0.2578219856
 20
19.9854315532
 30
0.0
 10
0.2578138485
 20
19.9900507492
 30
0.0
 10
0.2579450063
 20
19.9991262988
 30
0.0
 10
0.2586822455
 20
20.0166269486
 30
0.0
 10
0.2611962027
 20
20.0445156521
 30
0.0
 10
0.2684583411
 20
20.0807419379
 30
0.0
 10
0.2848699554
 20
20.1178598211
 30
0.0
 10
0.3138442443
 20
20.1557511311
 30
0.0
 10
0.363000995
 20
20.1869182491
 30
0.0
 10
0.4236281098
 20
20.1975700903
 30
0.0
 10
0.4773790416
 20
20.1908731243
 30
0.0
 10
0.5207201853
 20
20.1716364843
 30
0.0
 10
0.5568294912
 20
20.1407572861
 30
0.0
 10
0.5826553918
 20
20.0987672206
 30
0.0
 10
0.5971611843
 20
20.0508236201
 30
0.0
 10
0.6003405151
 20
20.017106227
 30
0.0
 10
0.6007250901
 20
20.0006207411
 30
0.0
  0
SPLINE
  5
636
100
AcDbEntity
  8
0
100
AcDbSpline
 62
7
  6
CONTINUOUS
 70
0
 71
3
 72
15
 73
11
 74
0
 42
0.0000001
 43
0.0000001
 44
0.0000000001
 40
0.0
 40
0.0
 40
0.0
 40
0.0
 40
0.0610561409
 40
0.1301165708
 40
0.2559030469
 40
0.480263895
 40
0.6424787495
 40
0.8144425707
 40
0.9063656941
 40
1.0
 40
1.0
 40
1.0
 40
1.0
 10
-2.0673480768
 20
19.8964050787
 30
0.0
 10
-2.0675124056
 20
19.8895417449
 30
0.0
 10
-2.0686481234
 20
19.8749407198
 30
0.0
 10
-2.07487235
 20
19.846791033
 30
0.0
 10
-2.0975746413
 20
19.8040140267
 30
0.0
 10
-2.1568181351
 20
19.7770188617
 30
0.0
 10
-2.2205629122
 20
19.7958716688
 30
0.0
 10
-2.2522073334
 20
19.8352070971
 30
0.0
 10
-2.2652644522
 20
19.8733749814
 30
0.0
 10
-2.2675782049
 20
19.8942677957
 30
0.0
 10
-2.2676286542
 20
19.90480383
 30
0.0
  0
SPLINE
  5
637
100
AcDbEntity
  8
0
100
AcDbSpline
 62
7
  6
CONTINUOUS
 70
0
 71
3
 72
18
 73
14
 74
0
 42
0.0000001
 43
0.0000001
 44
0.0000000001
 40
0.0
 40
0.0
 40
0.0
 40
0.0
 40
0.0683659042
 40
0.1319981354
 40
0.2534625745
 40
0.3710962434
 40
0.4893835121
 40
0.6101440078
 40
0.7249594221
 40
0.8460759255
 40
0.9123832101
 40
0.9852250711
 40
1.0
 40
1.0
 40
1.0
 40
1.0
 10
-2.2676286542
 20
19.90480383
 30
0.0
 10
-2.267665489
 20
19.9124965821
 30
0.0
 10
-2.266586794
 20
19.9273425338
 30
0.0
 10
-2.2593438496
 20
19.9550542758
 30
0.0
 10
-2.2403304049
 20
19.9844168028
 30
0.0
 10
-2.2063866677
 20
20.0079722471
 30
0.0
 10
-2.1659701619
 20
20.0149400174
 30
0.0
 10
-2.1257338354
 20
20.0083320232
 30
0.0
 10
-2.091950795
 20
19.9843163272
 30
0.0
 10
-2.0747431026
 20
19.9538509109
 30
0.0
 10
-2.0682761293
 20
19.9252270512
 30
0.0
 10
-2.0672004949
 20
19.9079190937
 30
0.0
 10
-2.067308311
 20
19.8980659316
 30
0.0
 10
-2.0673480768
 20
19.8964050787
 30
0.0
  0
SPLINE
  5
638
100
AcDbEntity
  8
0
100
AcDbSpline
 62
7
  6
CONTINUOUS
 70
0
 71
3
 72
23
 73
19
 74
0
 42
0.0000001
 43
0.0000001
 44
0.0000000001
 40
0.0
 40
0.0
 40
0.0
 40
0.0
 40
0.1112816515
 40
0.202624339
 40
0.2750639463
 40
0.3307680116
 40
0.3768933297
 40
0.4189609065
 40
0.4998997236
 40
0.5808188565
 40
0.6228273858
 40
0.6688471186
 40
0.7244610663
 40
0.7969202942
 40
0.8884380016
 40
0.9416592337
 40
0.9701840243
 40
1.0
 40
1.0
 40
1.0
 40
1.0
 10
-2.4558232928
 20
19.9898730022
 30
0.0
 10
-2.4558231283
 20
19.9708733047
 30
0.0
 10
-2.456711859
 20
19.9362775135
 30
0.0
 10
-2.4618971413
 20
19.8895633717
 30
0.0
 10
-2.4703866789
 20
19.8529063717
 30
0.0
 10
-2.483638062
 20
19.8258533155
 30
0.0
 10
-2.500331588
 20
19.8075439765
 30
0.0
 10
-2.5236869921
 20
19.7902023223
 30
0.0
 10
-2.5590236005
 20
19.7815865842
 30
0.0
 10
-2.5943489369
 20
19.7901730276
 30
0.0
 10
-2.6177139234
 20
19.8074442434
 30
0.0
 10
-2.6344224201
 20
19.8256832841
 30
0.0
 10
-2.6476780721
 20
19.8527050485
 30
0.0
 10
-2.6561618312
 20
19.8893823794
 30
0.0
 10
-2.6602423515
 20
19.9262703343
 30
0.0
 10
-2.6617074813
 20
19.9558096857
 30
0.0
 10
-2.6621571057
 20
19.9748446603
 30
0.0
 10
-2.6622310957
 20
19.9848011386
 30
0.0
 10
-2.6622303166
 20
19.9898898149
 30
0.0
  0
SPLINE
  5
639
100
AcDbEntity
  8
0
100
AcDbSpline
 62
7
  6
CONTINUOUS
 70
0
 71
3
 72
21
 73
17
 74
0
 42
0.0000001
 43
0.0000001
 44
0.0000000001
 40
0.0
 40
0.0
 40
0.0
 40
0.0
 40
0.0294903968
 40
0.0577818115
 40
0.1108265127
 40
0.2032582306
 40
0.339357997
 40
0.4195401062
 40
0.4985764058
 40
0.5814758934
 40
0.6239446931
 40
0.6702465642
 40
0.7260358788
 40
0.7983672623
 40
0.8893312584
 40
1.0
 40
1.0
 40
1.0
 40
1.0
 10
-2.6622303166
 20
19.9898898149
 30
0.0
 10
-2.6622295461
 20
19.9949229248
 30
0.0
 10
-2.6621540621
 20
20.004785013
 30
0.0
 10
-2.6616746115
 20
20.0236884408
 30
0.0
 10
-2.6601292409
 20
20.0533584945
 30
0.0
 10
-2.6543166136
 20
20.1007418165
 30
0.0
 10
-2.6402608807
 20
20.1538364905
 30
0.0
 10
-2.6009581331
 20
20.1890065333
 30
0.0
 10
-2.5590983138
 20
20.1978873162
 30
0.0
 10
-2.5236102281
 20
20.1896658031
 30
0.0
 10
-2.4998756832
 20
20.1720444111
 30
0.0
 10
-2.4832746596
 20
20.1534914161
 30
0.0
 10
-2.4702279426
 20
20.1263232702
 30
0.0
 10
-2.4618236907
 20
20.0897272046
 30
0.0
 10
-2.4567035617
 20
20.043193192
 30
0.0
 10
-2.4558234565
 20
20.0087680544
 30
0.0
 10
-2.4558232928
 20
19.9898730022
 30
0.0
  0
SPLINE
  5
63A
100
AcDbEntity
  8
0
100
AcDbSpline
 62
7
  6
CONTINUOUS
 70
0
 71
3
 72
22
 73
18
 74
0
 42
0.0000001
 43
0.0000001
 44
0.0000000001
 40
0.0
 40
0.0
 40
0.0
 40
0.0
 40
0.0516282938
 40
0.0977167532
 40
0.1739604932
 40
0.2362537675
 40
0.2917195536
 40
0.3919747842
 40
0.4439566271
 40
0.499804254
 40
0.5735938722
 40
0.6407845824
 40
0.7098418023
 40
0.7878033772
 40
0.8827057255
 40
0.9383265125
 40
1.0
 40
1.0
 40
1.0
 40
1.0
 10
-2.3951153739
 20
19.9896619083
 30
0.0
 10
-2.3951061541
 20
20.0014908678
 30
0.0
 10
-2.3955201686
 20
20.0238772846
 30
0.0
 10
-2.3980344681
 20
20.0636471153
 30
0.0
 10
-2.4043671485
 20
20.1056484481
 30
0.0
 10
-2.4183324253
 20
20.1479992804
 30
0.0
 10
-2.4397888815
 20
20.193248402
 30
0.0
 10
-2.475947168
 20
20.2280197268
 30
0.0
 10
-2.5214407324
 20
20.2439822737
 30
0.0
 10
-2.5631007131
 20
20.2479722571
 30
0.0
 10
-2.6085900179
 20
20.2425019081
 30
0.0
 10
-2.6522832568
 20
20.2197128479
 30
0.0
 10
-2.6850140164
 20
20.1819113046
 30
0.0
 10
-2.7079813675
 20
20.1308383572
 30
0.0
 10
-2.7180446265
 20
20.0791363788
 30
0.0
 10
-2.7222845447
 20
20.0307092097
 30
0.0
 10
-2.722947223
 20
20.0038305885
 30
0.0
 10
-2.7229382647
 20
19.9897000997
 30
0.0
  0
SPLINE
  5
63B
100
AcDbEntity
  8
0
100
AcDbSpline
 62
7
  6
CONTINUOUS
 70
0
 71
3
 72
22
 73
18
 74
0
 42
0.0000001
 43
0.0000001
 44
0.0000000001
 40
0.0
 40
0.0
 40
0.0
 40
0.0
 40
0.0497278504
 40
0.0960435603
 40
0.179070445
 40
0.2506679553
 40
0.3129972763
 40
0.4035064731
 40
0.4499875242
 40
0.5002617603
 40
0.5744272081
 40
0.6418322156
 40
0.7109955522
 40
0.7889275902
 40
0.8832926847
 40
0.9387415177
 40
1.0
 40
1.0
 40
1.0
 40
1.0
 10
-2.7229382647
 20
19.9897000997
 30
0.0
 10
-2.7229310416
 20
19.978306568
 30
0.0
 10
-2.722468325
 20
19.9563042076
 30
0.0
 10
-2.7195036645
 20
19.9153800942
 30
0.0
 10
-2.7124012353
 20
19.869772336
 30
0.0
 10
-2.697505456
 20
19.8221040337
 30
0.0
 10
-2.6719509622
 20
19.776874406
 30
0.0
 10
-2.6341540807
 20
19.7477135077
 30
0.0
 10
-2.5927780844
 20
19.7352419354
 30
0.0
 10
-2.5535876777
 20
19.7320036396
 30
0.0
 10
-2.5092323121
 20
19.7372704346
 30
0.0
 10
-2.4654231575
 20
19.7602145585
 30
0.0
 10
-2.4327214347
 20
19.7981356897
 30
0.0
 10
-2.4099623522
 20
19.8491813758
 30
0.0
 10
-2.3999256001
 20
19.9007053457
 30
0.0
 10
-2.3957585936
 20
19.9488836253
 30
0.0
 10
-2.3951263135
 20
19.9756265016
 30
0.0
 10
-2.3951153739
 20
19.9896619083
 30
0.0
  0
SPLINE
  5
63C
100
AcDbEntity
  8
0
100
AcDbSpline
 62
7
  6
CONTINUOUS
 70
0
 71
3
 72
15
 73
11
 74
0
 42
0.0000001
 43
0.0000001
 44
0.0000000001
 40
0.0
 40
0.0
 40
0.0
 40
0.0
 40
0.0610561409
 40
0.1301165708
 40
0.2559030469
 40
0.480263895
 40
0.6424787495
 40
0.8144425707
 40
0.9063656941
 40
1.0
 40
1.0
 40
1.0
 40
1.0
 10
-2.8444098121
 20
19.8964050787
 30
0.0
 10
-2.8445741409
 20
19.8895417449
 30
0.0
 10
-2.8457098587
 20
19.8749407198
 30
0.0
 10
-2.8519340853
 20
19.846791033
 30
0.0
 10
-2.8746363766
 20
19.8040140267
 30
0.0
 10
-2.9338798704
 20
19.7770188617
 30
0.0
 10
-2.9976246475
 20
19.7958716688
 30
0.0
 10
-3.0292690687
 20
19.8352070971
 30
0.0
 10
-3.0423261875
 20
19.8733749814
 30
0.0
 10
-3.0446399402
 20
19.8942677957
 30
0.0
 10
-3.0446903895
 20
19.90480383
 30
0.0
  0
SPLINE
  5
63D
100
AcDbEntity
  8
0
100
AcDbSpline
 62
7
  6
CONTINUOUS
 70
0
 71
3
 72
18
 73
14
 74
0
 42
0.0000001
 43
0.0000001
 44
0.0000000001
 40
0.0
 40
0.0
 40
0.0
 40
0.0
 40
0.0683659042
 40
0.1319981354
 40
0.2534625745
 40
0.3710962434
 40
0.4893835121
 40
0.6101440078
 40
0.7249594221
 40
0.8460759255
 40
0.9123832101
 40
0.9852250711
 40
1.0
 40
1.0
 40
1.0
 40
1.0
 10
-3.0446903895
 20
19.90480383
 30
0.0
 10
-3.0447272243
 20
19.9124965821
 30
0.0
 10
-3.0436485293
 20
19.9273425338
 30
0.0
 10
-3.0364055849
 20
19.9550542758
 30
0.0
 10
-3.0173921402
 20
19.9844168028
 30
0.0
 10
-2.983448403
 20
20.0079722471
 30
0.0
 10
-2.9430318972
 20
20.0149400174
 30
0.0
 10
-2.9027955707
 20
20.0083320232
 30
0.0
 10
-2.8690125303
 20
19.9843163272
 30
0.0
 10
-2.8518048379
 20
19.9538509109
 30
0.0
 10
-2.8453378647
 20
19.9252270512
 30
0.0
 10
-2.8442622302
 20
19.9079190937
 30
0.0
 10
-2.8443700463
 20
19.8980659316
 30
0.0
 10
-2.8444098121
 20
19.8964050787
 30
0.0
  0
SPLINE
  5
63E
100
AcDbEntity
  8
0
100
AcDbSpline
 62
7
  6
CONTINUOUS
 70
0
 71
3
 72
11
 73
7
 74
0
 42
0.0000001
 43
0.0000001
 44
0.0000000001
 40
0.0
 40
0.0
 40
0.0
 40
0.0
 40
0.0565022093
 40
0.301137647
 40
0.5190113537
 40
1.0
 40
1.0
 40
1.0
 40
1.0
 10
0.8742664334
 20
19.8032739705
 30
0.0
 10
0.87183977
 20
19.8042208837
 30
0.0
 10
0.8590312983
 20
19.8095862516
 30
0.0
 10
0.8382381981
 20
19.8218391526
 30
0.0
 10
0.8085363547
 20
19.8544714794
 30
0.0
 10
0.8005851073
 20
19.8874798277
 30
0.0
 10
0.7981227235
 20
19.9094517605
 30
0.0
  0
SPLINE
  5
63F
100
AcDbEntity
  8
0
100
AcDbSpline
 62
7
  6
CONTINUOUS
 70
0
 71
3
 72
10
 73
6
 74
0
 42
0.0000001
 43
0.0000001
 44
0.0000000001
 40
0.0
 40
0.0
 40
0.0
 40
0.0
 40
0.1966920722
 40
0.4450856607
 40
1.0
 40
1.0
 40
1.0
 40
1.0
 10
1.1287475241
 20
19.8928191314
 30
0.0
 10
1.1281675992
 20
19.9025479996
 30
0.0
 10
1.1244622186
 20
19.9243353519
 30
0.0
 10
1.1035613256
 20
19.9699705675
 30
0.0
 10
1.0688564539
 20
19.9944380104
 30
0.0
 10
1.0440373419
 20
20.0059679493
 30
0.0
  0
SPLINE
  5
640
100
AcDbEntity
  8
0
100
AcDbSpline
 62
7
  6
CONTINUOUS
 70
0
 71
3
 72
12
 73
8
 74
0
 42
0.0000001
 43
0.0000001
 44
0.0000000001
 40
0.0
 40
0.0
 40
0.0
 40
0.0
 40
0.2301291191
 40
0.3823588244
 40
0.5526749623
 40
0.7346080393
 40
1.0
 40
1.0
 40
1.0
 40
1.0
 10
0.753421305
 20
20.1002153727
 30
0.0
 10
0.7554527918
 20
20.0827616812
 30
0.0
 10
0.7649966604
 20
20.0545739754
 30
0.0
 10
0.7931654763
 20
20.0234344088
 30
0.0
 10
0.8252330228
 20
20.0027084684
 30
0.0
 10
0.8687489249
 20
19.9864616291
 30
0.0
 10
0.9011203761
 20
19.977739446
 30
0.0
 10
0.9204160525
 20
19.9729342707
 30
0.0
  0
SPLINE
  5
641
100
AcDbEntity
  8
0
100
AcDbSpline
 62
7
  6
CONTINUOUS
 70
0
 71
3
 72
15
 73
11
 74
0
 42
0.0000001
 43
0.0000001
 44
0.0000000001
 40
0.0
 40
0.0
 40
0.0
 40
0.0
 40
0.0507804797
 40
0.1695635135
 40
0.2860105221
 40
0.4070272953
 40
0.5409450774
 40
0.6572058833
 40
0.7622338128
 40
1.0
 40
1.0
 40
1.0
 40
1.0
 10
1.8944010484
 20
20.073823866
 30
0.0
 10
1.8961156347
 20
20.0802894705
 30
0.0
 10
1.9027114566
 20
20.1016497223
 30
0.0
 10
1.9192002224
 20
20.1360835039
 30
0.0
 10
1.9532569608
 20
20.1696821809
 30
0.0
 10
1.9982368456
 20
20.1910575145
 30
0.0
 10
2.0474308071
 20
20.1966391909
 30
0.0
 10
2.0944018723
 20
20.1914479144
 30
0.0
 10
2.1501470124
 20
20.1642249004
 30
0.0
 10
2.172844872
 20
20.120277406
 30
0.0
 10
2.1822639395
 20
20.0904373597
 30
0.0
  0
SPLINE
  5
642
100
AcDbEntity
  8
0
100
AcDbSpline
 62
7
  6
CONTINUOUS
 70
0
 71
3
 72
11
 73
7
 74
0
 42
0.0000001
 43
0.0000001
 44
0.0000000001
 40
0.0
 40
0.0
 40
0.0
 40
0.0
 40
0.0452571775
 40
0.2804836368
 40
0.5015722433
 40
1.0
 40
1.0
 40
1.0
 40
1.0
 10
1.8398678662
 20
19.8736014122
 30
0.0
 10
1.8413420673
 20
19.8697417501
 30
0.0
 10
1.8509676815
 20
19.8460128531
 30
0.0
 10
1.8736912219
 20
19.8059364407
 30
0.0
 10
1.9387871701
 20
19.7459020289
 30
0.0
 10
2.0083382646
 20
19.7333987111
 30
0.0
 10
2.0536390034
 20
19.7333987111
 30
0.0
  0
SPLINE
  5
643
100
AcDbEntity
  8
0
100
AcDbSpline
 62
7
  6
CONTINUOUS
 70
0
 71
3
 72
10
 73
6
 74
0
 42
0.0000001
 43
0.0000001
 44
0.0000000001
 40
0.0
 40
0.0
 40
0.0
 40
0.0
 40
0.1743520603
 40
0.4504295611
 40
1.0
 40
1.0
 40
1.0
 40
1.0
 10
-1.619115927
 20
19.9093580276
 30
0.0
 10
-1.620119837
 20
19.9180262531
 30
0.0
 10
-1.6246511323
 20
19.9401629823
 30
0.0
 10
-1.6482188582
 20
19.9852699587
 30
0.0
 10
-1.6875642973
 20
20.0076723928
 30
0.0
 10
-1.7142377505
 20
20.0138409925
 30
0.0
  0
SPLINE
  5
644
100
AcDbEntity
  8
0
100
AcDbSpline
 62
7
  6
CONTINUOUS
 70
0
 71
3
 72
9
 73
5
 74
0
 42
0.0000001
 43
0.0000001
 44
0.0000000001
 40
0.0
 40
0.0
 40
0.0
 40
0.0
 40
0.2129734184
 40
1.0
 40
1.0
 40
1.0
 40
1.0
 10
-1.8647055614
 20
20.2290366993
 30
0.0
 10
-1.8734179342
 20
20.2243628631
 30
0.0
 10
-1.9119555468
 20
20.1979541246
 30
0.0
 10
-1.9334010701
 20
20.1515885486
 30
0.0
 10
-1.9398057346
 20
20.115858784
 30
0.0
  0
SPLINE
  5
645
100
AcDbEntity
  8
0
100
AcDbSpline
 62
7
  6
CONTINUOUS
 70
0
 71
3
 72
11
 73
7
 74
0
 42
0.0000001
 43
0.0000001
 44
0.0000000001
 40
0.0
 40
0.0
 40
0.0
 40
0.0
 40
0.1536159786
 40
0.4259802824
 40
0.7097492521
 40
1.0
 40
1.0
 40
1.0
 40
1.0
 10
-1.7076051997
 20
20.0983119899
 30
0.0
 10
-1.7088284433
 20
20.0917947458
 30
0.0
 10
-1.7144039544
 20
20.0742973196
 30
0.0
 10
-1.7362366611
 20
20.0512731961
 30
0.0
 10
-1.7698139073
 20
20.0365941026
 30
0.0
 10
-1.7944293577
 20
20.0331916683
 30
0.0
 10
-1.8068173482
 20
20.0331916683
 30
0.0
  0
SPLINE
  5
646
100
AcDbEntity
  8
0
100
AcDbSpline
 62
7
  6
CONTINUOUS
 70
0
 71
3
 72
11
 73
7
 74
0
 42
0.0000001
 43
0.0000001
 44
0.0000000001
 40
0.0
 40
0.0
 40
0.0
 40
0.0
 40
0.1718739978
 40
0.3680567002
 40
0.5500495013
 40
1.0
 40
1.0
 40
1.0
 40
1.0
 10
-1.7530961643
 20
19.788992402
 30
0.0
 10
-1.7632902758
 20
19.7862141624
 30
0.0
 10
-1.7861074496
 20
19.7835850953
 30
0.0
 10
-1.8200229626
 20
19.7881659268
 30
0.0
 10
-1.8652929662
 20
19.8146545234
 30
0.0
 10
-1.8794897748
 20
19.8551527197
 30
0.0
 10
-1.8851685813
 20
19.8821331839
 30
0.0
  0
SPLINE
  5
647
100
AcDbEntity
  8
0
100
AcDbSpline
 62
7
  6
CONTINUOUS
 70
0
 71
3
 72
18
 73
14
 74
0
 42
0.0000001
 43
0.0000001
 44
0.0000000001
 40
0.0
 40
0.0
 40
0.0
 40
0.0
 40
0.031535114
 40
0.1823316211
 40
0.3088776263
 40
0.3717479951
 40
0.4383187056
 40
0.5161167752
 40
0.5906337987
 40
0.7415864461
 40
0.9043857412
 40
0.9665015969
 40
1.0
 40
1.0
 40
1.0
 40
1.0
 10
-2.329261224
 20
19.8822698877
 30
0.0
 10
-2.3281136217
 20
19.8765595341
 30
0.0
 10
-2.3205462488
 20
19.8436761787
 30
0.0
 10
-2.2970308548
 20
19.7895762901
 30
0.0
 10
-2.245053012
 20
19.7498797789
 30
0.0
 10
-2.1997308454
 20
19.7355429474
 30
0.0
 10
-2.1614098927
 20
19.7320379426
 30
0.0
 10
-2.1208683307
 20
19.7366850196
 30
0.0
 10
-2.0685215103
 20
19.7586395704
 30
0.0
 10
-2.0190040337
 20
19.8158924557
 30
0.0
 10
-2.0042743815
 20
19.886286812
 30
0.0
 10
-2.0078660542
 20
19.933939327
 30
0.0
 10
-2.0116284596
 20
19.95122883
 30
0.0
 10
-2.0132784114
 20
19.9571941062
 30
0.0
  0
SPLINE
  5
648
100
AcDbEntity
  8
0
100
AcDbSpline
 62
7
  6
CONTINUOUS
 70
0
 71
3
 72
13
 73
9
 74
0
 42
0.0000001
 43
0.0000001
 44
0.0000000001
 40
0.0
 40
0.0
 40
0.0
 40
0.0
 40
0.0404503354
 40
0.1329169066
 40
0.2255524106
 40
0.5691110373
 40
0.7777345384
 40
1.0
 40
1.0
 40
1.0
 40
1.0
 10
-2.0132784114
 20
19.9571941062
 30
0.0
 10
-2.0144764348
 20
19.9615254692
 30
0.0
 10
-2.0189878532
 20
19.9755984791
 30
0.0
 10
-2.0300807336
 20
19.9982386218
 30
0.0
 10
-2.0660303349
 20
20.0448482451
 30
0.0
 10
-2.1400024281
 20
20.0770971
 30
0.0
 10
-2.2265366711
 20
20.0558565793
 30
0.0
 10
-2.2631596455
 20
20.021425562
 30
0.0
 10
-2.2767348464
 20
20.0008456843
 30
0.0
  0
SPLINE
  5
649
100
AcDbEntity
  8
0
100
AcDbSpline
 62
7
  6
CONTINUOUS
 70
0
 71
3
 72
18
 73
14
 74
0
 42
0.0000001
 43
0.0000001
 44
0.0000000001
 40
0.0
 40
0.0
 40
0.0
 40
0.0
 40
0.031535114
 40
0.1823316211
 40
0.3088776263
 40
0.3717479951
 40
0.4383187056
 40
0.5161167752
 40
0.5906337987
 40
0.7415864461
 40
0.9043857412
 40
0.9665015969
 40
1.0
 40
1.0
 40
1.0
 40
1.0
 10
-3.1063229593
 20
19.8822698877
 30
0.0
 10
-3.105175357
 20
19.8765595341
 30
0.0
 10
-3.0976079841
 20
19.8436761787
 30
0.0
 10
-3.0740925901
 20
19.7895762901
 30
0.0
 10
-3.0221147473
 20
19.7498797789
 30
0.0
 10
-2.9767925807
 20
19.7355429474
 30
0.0
 10
-2.938471628
 20
19.7320379426
 30
0.0
 10
-2.897930066
 20
19.7366850196
 30
0.0
 10
-2.8455832457
 20
19.7586395704
 30
0.0
 10
-2.796065769
 20
19.8158924557
 30
0.0
 10
-2.7813361168
 20
19.886286812
 30
0.0
 10
-2.7849277896
 20
19.933939327
 30
0.0
 10
-2.7886901949
 20
19.95122883
 30
0.0
 10
-2.7903401468
 20
19.9571941062
 30
0.0
  0
SPLINE
  5
64A
100
AcDbEntity
  8
0
100
AcDbSpline
 62
7
  6
CONTINUOUS
 70
0
 71
3
 72
13
 73
9
 74
0
 42
0.0000001
 43
0.0000001
 44
0.0000000001
 40
0.0
 40
0.0
 40
0.0
 40
0.0
 40
0.0404503354
 40
0.1329169066
 40
0.2255524106
 40
0.5691110373
 40
0.7777345384
 40
1.0
 40
1.0
 40
1.0
 40
1.0
 10
-2.7903401468
 20
19.9571941062
 30
0.0
 10
-2.7915381701
 20
19.9615254692
 30
0.0
 10
-2.7960495886
 20
19.9755984791
 30
0.0
 10
-2.8071424689
 20
19.9982386218
 30
0.0
 10
-2.8430920702
 20
20.0448482451
 30
0.0
 10
-2.9170641634
 20
20.0770971
 30
0.0
 10
-3.0035984065
 20
20.0558565793
 30
0.0
 10
-3.0402213808
 20
20.021425562
 30
0.0
 10
-3.0537965817
 20
20.0008456843
 30
0.0
  0
SPLINE
  5
64B
100
AcDbEntity
  8
0
100
AcDbSpline
 62
7
  6
CONTINUOUS
 70
0
 71
3
 72
10
 73
6
 74
0
 42
0.0000001
 43
0.0000001
 44
0.0000000001
 40
0.0
 40
0.0
 40
0.0
 40
0.0
 40
0.1743520603
 40
0.4504295611
 40
1.0
 40
1.0
 40
1.0
 40
1.0
 10
-3.1732393976
 20
19.9093580276
 30
0.0
 10
-3.1742433077
 20
19.9180262531
 30
0.0
 10
-3.1787746029
 20
19.9401629823
 30
0.0
 10
-3.2023423288
 20
19.9852699587
 30
0.0
 10
-3.241687768
 20
20.0076723928
 30
0.0
 10
-3.2683612212
 20
20.0138409925
 30
0.0
  0
SPLINE
  5
64C
100
AcDbEntity
  8
0
100
AcDbSpline
 62
7
  6
CONTINUOUS
 70
0
 71
3
 72
9
 73
5
 74
0
 42
0.0000001
 43
0.0000001
 44
0.0000000001
 40
0.0
 40
0.0
 40
0.0
 40
0.0
 40
0.2129734184
 40
1.0
 40
1.0
 40
1.0
 40
1.0
 10
-3.418829032
 20
20.2290366993
 30
0.0
 10
-3.4275414049
 20
20.2243628631
 30
0.0
 10
-3.4660790174
 20
20.1979541246
 30
0.0
 10
-3.4875245407
 20
20.1515885486
 30
0.0
 10
-3.4939292052
 20
20.115858784
 30
0.0
  0
SPLINE
  5
64D
100
AcDbEntity
  8
0
100
AcDbSpline
 62
7
  6
CONTINUOUS
 70
0
 71
3
 72
11
 73
7
 74
0
 42
0.0000001
 43
0.0000001
 44
0.0000000001
 40
0.0
 40
0.0
 40
0.0
 40
0.0
 40
0.1536159786
 40
0.4259802824
 40
0.7097492521
 40
1.0
 40
1.0
 40
1.0
 40
1.0
 10
-3.2617286703
 20
20.0983119899
 30
0.0
 10
-3.2629519139
 20
20.0917947458
 30
0.0
 10
-3.268527425
 20
20.0742973196
 30
0.0
 10
-3.2903601318
 20
20.0512731961
 30
0.0
 10
-3.3239373779
 20
20.0365941026
 30
0.0
 10
-3.3485528283
 20
20.0331916683
 30
0.0
 10
-3.3609408188
 20
20.0331916683
 30
0.0
  0
SPLINE
  5
64E
100
AcDbEntity
  8
0
100
AcDbSpline
 62
7
  6
CONTINUOUS
 70
0
 71
3
 72
11
 73
7
 74
0
 42
0.0000001
 43
0.0000001
 44
0.0000000001
 40
0.0
 40
0.0
 40
0.0
 40
0.0
 40
0.1718739978
 40
0.3680567002
 40
0.5500495013
 40
1.0
 40
1.0
 40
1.0
 40
1.0
 10
-3.3072196349
 20
19.788992402
 30
0.0
 10
-3.3174137464
 20
19.7862141624
 30
0.0
 10
-3.3402309202
 20
19.7835850953
 30
0.0
 10
-3.3741464332
 20
19.7881659268
 30
0.0
 10
-3.4194164368
 20
19.8146545234
 30
0.0
 10
-3.4336132454
 20
19.8551527197
 30
0.0
 10
-3.4392920519
 20
19.8821331839
 30
0.0
  0
SPLINE
  5
64F
100
AcDbEntity
  8
0
100
AcDbSpline
 62
7
  6
CONTINUOUS
 70
0
 71
3
 72
11
 73
7
 74
0
 42
0.0000001
 43
0.0000001
 44
0.0000000001
 40
0.0
 40
0.0
 40
0.0
 40
0.0
 40
0.0452571776
 40
0.2804836368
 40
0.5015722433
 40
1.0
 40
1.0
 40
1.0
 40
1.0
 10
-0.6236891516
 20
20.603964726
 30
0.0
 10
-0.6222149505
 20
20.6001050638
 30
0.0
 10
-0.6125893363
 20
20.5763761668
 30
0.0
 10
-0.5898657959
 20
20.5362997544
 30
0.0
 10
-0.5247698477
 20
20.4762653426
 30
0.0
 10
-0.4552187532
 20
20.4637620248
 30
0.0
 10
-0.4099180144
 20
20.4637620248
 30
0.0
  0
SPLINE
  5
650
100
AcDbEntity
  8
0
100
AcDbSpline
 62
7
  6
CONTINUOUS
 70
0
 71
3
 72
15
 73
11
 74
0
 42
0.0000001
 43
0.0000001
 44
0.0000000001
 40
0.0
 40
0.0
 40
0.0
 40
0.0
 40
0.0507804797
 40
0.1695635136
 40
0.2860105221
 40
0.4070272954
 40
0.5409450774
 40
0.6572058833
 40
0.7622338128
 40
1.0
 40
1.0
 40
1.0
 40
1.0
 10
-0.5691559694
 20
20.8041871797
 30
0.0
 10
-0.5674413831
 20
20.8106527842
 30
0.0
 10
-0.5608455612
 20
20.832013036
 30
0.0
 10
-0.5443567954
 20
20.8664468177
 30
0.0
 10
-0.5103000571
 20
20.9000454946
 30
0.0
 10
-0.4653201722
 20
20.9214208282
 30
0.0
 10
-0.4161262107
 20
20.9270025047
 30
0.0
 10
-0.3691551455
 20
20.9218112282
 30
0.0
 10
-0.3134100054
 20
20.8945882141
 30
0.0
 10
-0.2907121458
 20
20.8506407197
 30
0.0
 10
-0.2812930783
 20
20.8208006734
 30
0.0
  0
SPLINE
  5
651
100
AcDbEntity
  8
0
100
AcDbSpline
 62
7
  6
CONTINUOUS
 70
0
 71
3
 72
10
 73
6
 74
0
 42
0.0000001
 43
0.0000001
 44
0.0000000001
 40
0.0
 40
0.0
 40
0.0
 40
0.0
 40
0.1966920722
 40
0.4450856607
 40
1.0
 40
1.0
 40
1.0
 40
1.0
 10
-0.6761282572
 20
21.3565811563
 30
0.0
 10
-0.676708182
 20
21.3663100244
 30
0.0
 10
-0.6804135626
 20
21.3880973768
 30
0.0
 10
-0.7013144556
 20
21.4337325924
 30
0.0
 10
-0.7360193273
 20
21.4582000353
 30
0.0
 10
-0.7608384393
 20
21.4697299741
 30
0.0
  0
SPLINE
  5
652
100
AcDbEntity
  8
0
100
AcDbSpline
 62
7
  6
CONTINUOUS
 70
0
 71
3
 72
12
 73
8
 74
0
 42
0.0000001
 43
0.0000001
 44
0.0000000001
 40
0.0
 40
0.0
 40
0.0
 40
0.0
 40
0.2301291191
 40
0.3823588244
 40
0.5526749623
 40
0.7346080393
 40
1.0
 40
1.0
 40
1.0
 40
1.0
 10
-1.0514544762
 20
21.5639773975
 30
0.0
 10
-1.0494229894
 20
21.546523706
 30
0.0
 10
-1.0398791209
 20
21.5183360003
 30
0.0
 10
-1.011710305
 20
21.4871964337
 30
0.0
 10
-0.9796427584
 20
21.4664704932
 30
0.0
 10
-0.9361268563
 20
21.4502236539
 30
0.0
 10
-0.9037554051
 20
21.4415014708
 30
0.0
 10
-0.8844597287
 20
21.4366962956
 30
0.0
  0
SPLINE
  5
653
100
AcDbEntity
  8
0
100
AcDbSpline
 62
7
  6
CONTINUOUS
 70
0
 71
3
 72
11
 73
7
 74
0
 42
0.0000001
 43
0.0000001
 44
0.0000000001
 40
0.0
 40
0.0
 40
0.0
 40
0.0
 40
0.0565022093
 40
0.301137647
 40
0.5190113537
 40
1.0
 40
1.0
 40
1.0
 40
1.0
 10
-0.9306093479
 20
21.2670359954
 30
0.0
 10
-0.9330360112
 20
21.2679829085
 30
0.0
 10
-0.9458444829
 20
21.2733482764
 30
0.0
 10
-0.9666375832
 20
21.2856011775
 30
0.0
 10
-0.9963394266
 20
21.3182335042
 30
0.0
 10
-1.0042906739
 20
21.3512418526
 30
0.0
 10
-1.0067530578
 20
21.3732137854
 30
0.0
  0
ELLIPSE
  5
654
100
AcDbEntity
  8
RACCORDO
100
AcDbEllipse
 62
7
  6
CONTINUOUS
 10
-2.1921452208
 20
-8.2
 30
0.0
 11
0.0
 21
0.15
 31
0.0
 40
0.0174550649
 41
-3.1415926536
 42
-1.5707963268
  0
ELLIPSE
  5
655
100
AcDbEntity
  8
RACCORDO
100
AcDbEllipse
 62
7
  6
CONTINUOUS
 10
2.1921452208
 20
-8.2
 30
0.0
 11
0.0
 21
0.15
 31
0.0
 40
0.0174550649
 41
1.5707963268
 42
3.1415926536
  0
ELLIPSE
  5
656
100
AcDbEntity
  8
RACCORDO
100
AcDbEllipse
 62
7
  6
CONTINUOUS
 10
-1.949961918
 20
-24.799961918
 30
0.0
 11
0.1768305473
 21
0.1768305473
 31
0.0
 40
0.9996954599
 41
-3.9268385237
 42
-2.3563467834
  0
ELLIPSE
  5
657
100
AcDbEntity
  8
RACCORDO
100
AcDbEllipse
 62
7
  6
CONTINUOUS
 10
1.949961918
 20
-24.799961918
 30
0.0
 11
-0.1768305473
 21
0.1768305473
 31
0.0
 40
0.9996954599
 41
-3.9268385237
 42
-2.3563467834
  0
ELLIPSE
  5
658
100
AcDbEntity
  8
RACCORDO
100
AcDbEllipse
 62
7
  6
CONTINUOUS
 10
-1.9124335284
 20
-24.7624335284
 30
0.0
 11
-0.1768305473
 21
-0.1768305473
 31
0.0
 40
0.9996954599
 41
-0.7852458701
 42
0.7852458701
  0
ELLIPSE
  5
659
100
AcDbEntity
  8
RACCORDO
100
AcDbEllipse
 62
7
  6
CONTINUOUS
 10
1.9124335284
 20
-24.7624335284
 30
0.0
 11
0.1768305473
 21
-0.1768305473
 31
0.0
 40
0.9996954599
 41
-0.7852458701
 42
0.7852458701
  0
ELLIPSE
  5
65A
100
AcDbEntity
  8
0
100
AcDbEllipse
 62
7
  6
CONTINUOUS
 10
3.9415353843
 20
13.7696758816
 30
0.0
 11
-0.0000187648
 21
0.0501923959
 31
0.0
 40
0.0350248103
 41
-3.1446701126
 42
-1.9736667886
  0
ELLIPSE
  5
65B
100
AcDbEntity
  8
0
100
AcDbEllipse
 62
7
  6
CONTINUOUS
 10
3.9415353843
 20
16.2303241184
 30
0.0
 11
0.0000187648
 21
0.0501923959
 31
0.0
 40
0.0350248103
 41
-1.5601226712
 42
-1.1679262599
  0
ELLIPSE
  5
65C
100
AcDbEntity
  8
0
100
AcDbEllipse
 62
7
  6
CONTINUOUS
 10
3.9415353843
 20
-16.2303241184
 30
0.0
 11
-0.0000187648
 21
0.0501923959
 31
0.0
 40
0.0350248103
 41
-3.1446701126
 42
-1.9736667886
  0
ELLIPSE
  5
65D
100
AcDbEntity
  8
0
100
AcDbEllipse
 62
7
  6
CONTINUOUS
 10
3.9415353843
 20
-13.7696758816
 30
0.0
 11
0.0000187648
 21
0.0501923959
 31
0.0
 40
0.0350248103
 41
-1.5601226712
 42
-1.1679262599
  0
ELLIPSE
  5
65E
100
AcDbEntity
  8
0
100
AcDbEllipse
 62
7
  6
CONTINUOUS
 10
-3.9415353843
 20
-16.2303241184
 30
0.0
 11
0.0000187648
 21
0.0501923959
 31
0.0
 40
0.0350248103
 41
-4.7017153248
 42
-4.3095185186
  0
ELLIPSE
  5
65F
100
AcDbEntity
  8
0
100
AcDbEllipse
 62
7
  6
CONTINUOUS
 10
-3.9415353843
 20
-13.7696758816
 30
0.0
 11
-0.0000187648
 21
0.0501923959
 31
0.0
 40
0.0350248103
 41
-0.0030774591
 42
1.1679262599
  0
ELLIPSE
  5
660
100
AcDbEntity
  8
0
100
AcDbEllipse
 62
7
  6
CONTINUOUS
 10
-3.9415353843
 20
16.2303241184
 30
0.0
 11
-0.0000187648
 21
0.0501923959
 31
0.0
 40
0.0350248103
 41
-0.0030774591
 42
1.1679262599
  0
ELLIPSE
  5
661
100
AcDbEntity
  8
0
100
AcDbEllipse
 62
7
  6
CONTINUOUS
 10
-3.9415353843
 20
13.7696758816
 30
0.0
 11
0.0000187648
 21
0.0501923959
 31
0.0
 40
0.0350248103
 41
-4.7017153248
 42
-4.3095185186
  0
ELLIPSE
  5
662
100
AcDbEntity
  8
0
100
AcDbEllipse
 62
7
  6
CONTINUOUS
 10
3.9675400392
 20
-17.6537059959
 30
0.0
 11
0.0
 21
0.25
 31
0.0
 40
0.0349207695
 41
-3.1241393611
 42
-1.5707963268
  0
ELLIPSE
  5
663
100
AcDbEntity
  8
0
100
AcDbEllipse
 62
7
  6
CONTINUOUS
 10
3.9675400392
 20
-12.3462940041
 30
0.0
 11
-0.0
 21
0.25
 31
0.0
 40
0.0349207695
 41
-1.5707963268
 42
-0.0174532925
  0
ELLIPSE
  5
664
100
AcDbEntity
  8
0
100
AcDbEllipse
 62
7
  6
CONTINUOUS
 10
3.9675400392
 20
12.3462940041
 30
0.0
 11
0.0
 21
0.25
 31
0.0
 40
0.0349207695
 41
-3.1241393611
 42
-1.5707963268
  0
ELLIPSE
  5
665
100
AcDbEntity
  8
0
100
AcDbEllipse
 62
7
  6
CONTINUOUS
 10
3.9675400392
 20
17.6537059959
 30
0.0
 11
0.0
 21
0.25
 31
0.0
 40
0.0349207695
 41
-1.5707963268
 42
-0.0174532925
  0
ELLIPSE
  5
666
100
AcDbEntity
  8
0
100
AcDbEllipse
 62
7
  6
CONTINUOUS
 10
3.8906837843
 20
16.2258751799
 30
0.0
 11
-0.0000079608
 21
0.0501900634
 31
0.0
 40
0.0348146882
 41
0.0030403169
 42
0.1368321574
  0
ELLIPSE
  5
667
100
AcDbEntity
  8
0
100
AcDbEllipse
 62
7
  6
CONTINUOUS
 10
3.8906837843
 20
13.7741248201
 30
0.0
 11
0.0000079608
 21
0.0501900634
 31
0.0
 40
0.0348146882
 41
-4.2101089846
 42
-3.1446329705
  0
ELLIPSE
  5
668
100
AcDbEntity
  8
0
100
AcDbEllipse
 62
7
  6
CONTINUOUS
 10
3.8906837843
 20
-16.2258751799
 30
0.0
 11
0.0000079608
 21
0.0501900634
 31
0.0
 40
0.0348146882
 41
-4.2101089846
 42
-3.1446329705
  0
ELLIPSE
  5
669
100
AcDbEntity
  8
0
100
AcDbEllipse
 62
7
  6
CONTINUOUS
 10
3.8906837843
 20
-13.7741248201
 30
0.0
 11
-0.0000079608
 21
0.0501900634
 31
0.0
 40
0.0348146882
 41
0.0030403169
 42
0.1368321574
  0
ELLIPSE
  5
66A
100
AcDbEntity
  8
0
100
AcDbEllipse
 62
7
  6
CONTINUOUS
 10
-3.8906837843
 20
-16.2258751799
 30
0.0
 11
-0.0000079608
 21
0.0501900634
 31
0.0
 40
0.0348146882
 41
-3.1385523367
 42
-3.0047630651
  0
ELLIPSE
  5
66B
100
AcDbEntity
  8
0
100
AcDbEllipse
 62
7
  6
CONTINUOUS
 10
-3.8906837843
 20
-13.7741248201
 30
0.0
 11
0.0000079608
 21
0.0501900634
 31
0.0
 40
0.0348146882
 41
-1.0685165789
 42
-0.0030403169
  0
ELLIPSE
  5
66C
100
AcDbEntity
  8
0
100
AcDbEllipse
 62
7
  6
CONTINUOUS
 10
-3.8906837843
 20
16.2258751799
 30
0.0
 11
0.0000079608
 21
0.0501900634
 31
0.0
 40
0.0348146882
 41
-1.0685165789
 42
-0.0030403169
  0
ELLIPSE
  5
66D
100
AcDbEntity
  8
0
100
AcDbEllipse
 62
7
  6
CONTINUOUS
 10
-3.8906837843
 20
13.7741248201
 30
0.0
 11
-0.0000079608
 21
0.0501900634
 31
0.0
 40
0.0348146882
 41
-3.1385523367
 42
-3.0047630651
  0
ELLIPSE
  5
66E
100
AcDbEntity
  8
0
100
AcDbEllipse
 62
7
  6
CONTINUOUS
 10
-3.9675400392
 20
-12.3462940041
 30
0.0
 11
0.0
 21
0.25
 31
0.0
 40
0.0349207695
 41
0.0174532925
 42
1.5707963268
  0
ELLIPSE
  5
66F
100
AcDbEntity
  8
0
100
AcDbEllipse
 62
7
  6
CONTINUOUS
 10
-3.9675400392
 20
-17.6537059959
 30
0.0
 11
0.0
 21
0.25
 31
0.0
 40
0.0349207695
 41
1.5707963268
 42
3.1241393611
  0
ELLIPSE
  5
670
100
AcDbEntity
  8
0
100
AcDbEllipse
 62
7
  6
CONTINUOUS
 10
-3.9675400392
 20
17.6537059959
 30
0.0
 11
0.0
 21
0.25
 31
0.0
 40
0.0349207695
 41
0.0174532925
 42
1.5707963268
  0
ELLIPSE
  5
671
100
AcDbEntity
  8
0
100
AcDbEllipse
 62
7
  6
CONTINUOUS
 10
-3.9675400392
 20
12.3462940041
 30
0.0
 11
0.0
 21
0.25
 31
0.0
 40
0.0349207695
 41
1.5707963268
 42
3.1241393611
  0
ELLIPSE
  5
672
100
AcDbEntity
  8
ASSI
100
AcDbEllipse
 62
7
  6
CONTINUOUS
 10
3.9415353843
 20
13.7696758816
 30
0.0
 11
-0.0000187648
 21
0.0501923959
 31
0.0
 40
0.0350248103
 41
-3.1446701126
 42
-1.9736667886
  0
ELLIPSE
  5
673
100
AcDbEntity
  8
ASSI
100
AcDbEllipse
 62
7
  6
CONTINUOUS
 10
3.9415353843
 20
16.2303241184
 30
0.0
 11
0.0000187648
 21
0.0501923959
 31
0.0
 40
0.0350248103
 41
-1.5601226712
 42
-1.1679262599
  0
ELLIPSE
  5
674
100
AcDbEntity
  8
ASSI
100
AcDbEllipse
 62
7
  6
CONTINUOUS
 10
3.9415353843
 20
-16.2303241184
 30
0.0
 11
-0.0000187648
 21
0.0501923959
 31
0.0
 40
0.0350248103
 41
-3.1446701126
 42
-1.9736667886
  0
ELLIPSE
  5
675
100
AcDbEntity
  8
ASSI
100
AcDbEllipse
 62
7
  6
CONTINUOUS
 10
3.9415353843
 20
-13.7696758816
 30
0.0
 11
0.0000187648
 21
0.0501923959
 31
0.0
 40
0.0350248103
 41
-1.5601226712
 42
-1.1679262599
  0
ELLIPSE
  5
676
100
AcDbEntity
  8
ASSI
100
AcDbEllipse
 62
7
  6
CONTINUOUS
 10
-3.9415353843
 20
-16.2303241184
 30
0.0
 11
0.0000187648
 21
0.0501923959
 31
0.0
 40
0.0350248103
 41
-4.7017153248
 42
-4.3095185186
  0
ELLIPSE
  5
677
100
AcDbEntity
  8
ASSI
100
AcDbEllipse
 62
7
  6
CONTINUOUS
 10
-3.9415353843
 20
-13.7696758816
 30
0.0
 11
-0.0000187648
 21
0.0501923959
 31
0.0
 40
0.0350248103
 41
-0.0030774591
 42
1.1679262599
  0
ELLIPSE
  5
678
100
AcDbEntity
  8
ASSI
100
AcDbEllipse
 62
7
  6
CONTINUOUS
 10
-3.9415353843
 20
16.2303241184
 30
0.0
 11
-0.0000187648
 21
0.0501923959
 31
0.0
 40
0.0350248103
 41
-0.0030774591
 42
1.1679262599
  0
ELLIPSE
  5
679
100
AcDbEntity
  8
ASSI
100
AcDbEllipse
 62
7
  6
CONTINUOUS
 10
-3.9415353843
 20
13.7696758816
 30
0.0
 11
0.0000187648
 21
0.0501923959
 31
0.0
 40
0.0350248103
 41
-4.7017153248
 42
-4.3095185186
  0
ELLIPSE
  5
67A
100
AcDbEntity
  8
ASSI
100
AcDbEllipse
 62
7
  6
CONTINUOUS
 10
3.9675400392
 20
-17.6537059959
 30
0.0
 11
0.0
 21
0.25
 31
0.0
 40
0.0349207695
 41
-3.1241393611
 42
-1.5707963268
  0
ELLIPSE
  5
67B
100
AcDbEntity
  8
ASSI
100
AcDbEllipse
 62
7
  6
CONTINUOUS
 10
3.9675400392
 20
-12.3462940041
 30
0.0
 11
-0.0
 21
0.25
 31
0.0
 40
0.0349207695
 41
-1.5707963268
 42
-0.0174532925
  0
ELLIPSE
  5
67C
100
AcDbEntity
  8
ASSI
100
AcDbEllipse
 62
7
  6
CONTINUOUS
 10
3.9675400392
 20
12.3462940041
 30
0.0
 11
0.0
 21
0.25
 31
0.0
 40
0.0349207695
 41
-3.1241393611
 42
-1.5707963268
  0
ELLIPSE
  5
67D
100
AcDbEntity
  8
ASSI
100
AcDbEllipse
 62
7
  6
CONTINUOUS
 10
3.9675400392
 20
17.6537059959
 30
0.0
 11
0.0
 21
0.25
 31
0.0
 40
0.0349207695
 41
-1.5707963268
 42
-0.0174532925
  0
ELLIPSE
  5
67E
100
AcDbEntity
  8
ASSI
100
AcDbEllipse
 62
7
  6
CONTINUOUS
 10
3.8906837843
 20
16.2258751799
 30
0.0
 11
-0.0000079608
 21
0.0501900634
 31
0.0
 40
0.0348146882
 41
0.0030403169
 42
0.1368321574
  0
ELLIPSE
  5
67F
100
AcDbEntity
  8
ASSI
100
AcDbEllipse
 62
7
  6
CONTINUOUS
 10
3.8906837843
 20
13.7741248201
 30
0.0
 11
0.0000079608
 21
0.0501900634
 31
0.0
 40
0.0348146882
 41
-4.2101089846
 42
-3.1446329705
  0
ELLIPSE
  5
680
100
AcDbEntity
  8
ASSI
100
AcDbEllipse
 62
7
  6
CONTINUOUS
 10
3.8906837843
 20
-16.2258751799
 30
0.0
 11
0.0000079608
 21
0.0501900634
 31
0.0
 40
0.0348146882
 41
-4.2101089846
 42
-3.1446329705
  0
ELLIPSE
  5
681
100
AcDbEntity
  8
ASSI
100
AcDbEllipse
 62
7
  6
CONTINUOUS
 10
3.8906837843
 20
-13.7741248201
 30
0.0
 11
-0.0000079608
 21
0.0501900634
 31
0.0
 40
0.0348146882
 41
0.0030403169
 42
0.1368321574
  0
ELLIPSE
  5
682
100
AcDbEntity
  8
ASSI
100
AcDbEllipse
 62
7
  6
CONTINUOUS
 10
-3.8906837843
 20
-16.2258751799
 30
0.0
 11
-0.0000079608
 21
0.0501900634
 31
0.0
 40
0.0348146882
 41
-3.1385523367
 42
-3.0047630651
  0
ELLIPSE
  5
683
100
AcDbEntity
  8
ASSI
100
AcDbEllipse
 62
7
  6
CONTINUOUS
 10
-3.8906837843
 20
-13.7741248201
 30
0.0
 11
0.0000079608
 21
0.0501900634
 31
0.0
 40
0.0348146882
 41
-1.0685165789
 42
-0.0030403169
  0
ELLIPSE
  5
684
100
AcDbEntity
  8
ASSI
100
AcDbEllipse
 62
7
  6
CONTINUOUS
 10
-3.8906837843
 20
16.2258751799
 30
0.0
 11
0.0000079608
 21
0.0501900634
 31
0.0
 40
0.0348146882
 41
-1.0685165789
 42
-0.0030403169
  0
ELLIPSE
  5
685
100
AcDbEntity
  8
ASSI
100
AcDbEllipse
 62
7
  6
CONTINUOUS
 10
-3.8906837843
 20
13.7741248201
 30
0.0
 11
-0.0000079608
 21
0.0501900634
 31
0.0
 40
0.0348146882
 41
-3.1385523367
 42
-3.0047630651
  0
ELLIPSE
  5
686
100
AcDbEntity
  8
ASSI
100
AcDbEllipse
 62
7
  6
CONTINUOUS
 10
-3.9675400392
 20
-12.3462940041
 30
0.0
 11
0.0
 21
0.25
 31
0.0
 40
0.0349207695
 41
0.0174532925
 42
1.5707963268
  0
ELLIPSE
  5
687
100
AcDbEntity
  8
ASSI
100
AcDbEllipse
 62
7
  6
CONTINUOUS
 10
-3.9675400392
 20
-17.6537059959
 30
0.0
 11
0.0
 21
0.25
 31
0.0
 40
0.0349207695
 41
1.5707963268
 42
3.1241393611
  0
ELLIPSE
  5
688
100
AcDbEntity
  8
ASSI
100
AcDbEllipse
 62
7
  6
CONTINUOUS
 10
-3.9675400392
 20
17.6537059959
 30
0.0
 11
0.0
 21
0.25
 31
0.0
 40
0.0349207695
 41
0.0174532925
 42
1.5707963268
  0
ELLIPSE
  5
689
100
AcDbEntity
  8
ASSI
100
AcDbEllipse
 62
7
  6
CONTINUOUS
 10
-3.9675400392
 20
12.3462940041
 30
0.0
 11
0.0
 21
0.25
 31
0.0
 40
0.0349207695
 41
1.5707963268
 42
3.1241393611
  0
ELLIPSE
  5
68A
100
AcDbEntity
  8
RACCORDO
100
AcDbEllipse
 62
7
  6
CONTINUOUS
 10
3.949923836
 20
26.949923836
 30
0.0
 11
0.3536610946
 21
0.3536610946
 31
0.0
 40
0.9996954599
 41
-0.7852458701
 42
0.7852458701
  0
ELLIPSE
  5
68B
100
AcDbEntity
  8
RACCORDO
100
AcDbEllipse
 62
7
  6
CONTINUOUS
 10
-3.949923836
 20
26.949923836
 30
0.0
 11
0.3536610946
 21
-0.3536610946
 31
0.0
 40
0.9996954599
 41
2.3563467834
 42
3.9268385237
  0
ELLIPSE
  5
68C
100
AcDbEntity
  8
RACCORDO
100
AcDbEllipse
 62
7
  6
CONTINUOUS
 10
-3.949923836
 20
-26.949923836
 30
0.0
 11
0.3536610946
 21
0.3536610946
 31
0.0
 40
0.9996954599
 41
2.3563467834
 42
3.9268385237
  0
ELLIPSE
  5
68D
100
AcDbEntity
  8
RACCORDO
100
AcDbEllipse
 62
7
  6
CONTINUOUS
 10
3.949923836
 20
-26.949923836
 30
0.0
 11
0.3536610946
 21
-0.3536610946
 31
0.0
 40
0.9996954599
 41
-0.7852458701
 42
0.7852458701
  0
ELLIPSE
  5
68E
100
AcDbEntity
  8
RACCORDO
100
AcDbEllipse
 62
7
  6
CONTINUOUS
 10
-3.8975586412
 20
26.8975586412
 30
0.0
 11
-0.3536610946
 21
0.3536610946
 31
0.0
 40
0.9996954599
 41
-0.7852458701
 42
0.7852458701
  0
ELLIPSE
  5
68F
100
AcDbEntity
  8
RACCORDO
100
AcDbEllipse
 62
7
  6
CONTINUOUS
 10
3.8975586412
 20
26.8975586412
 30
0.0
 11
-0.3536610946
 21
-0.3536610946
 31
0.0
 40
0.9996954599
 41
2.3563467834
 42
3.9268385237
  0
ELLIPSE
  5
690
100
AcDbEntity
  8
RACCORDO
100
AcDbEllipse
 62
7
  6
CONTINUOUS
 10
-3.8975586412
 20
-26.8975586412
 30
0.0
 11
0.3536610946
 21
0.3536610946
 31
0.0
 40
0.9996954599
 41
2.3563467834
 42
3.9268385237
  0
ELLIPSE
  5
691
100
AcDbEntity
  8
RACCORDO
100
AcDbEllipse
 62
7
  6
CONTINUOUS
 10
3.8975586412
 20
-26.8975586412
 30
0.0
 11
0.3536610946
 21
-0.3536610946
 31
0.0
 40
0.9996954599
 41
-0.7852458701
 42
0.7852458701
  0
ELLIPSE
  5
692
100
AcDbEntity
  8
RACCORDO
100
AcDbEllipse
 62
7
  6
CONTINUOUS
 10
-2.9773014998
 20
0.4771491138
 30
0.0
 11
-0.0
 21
0.25
 31
0.0
 40
0.0349207695
 41
-1.5707963268
 42
-0.034906585
  0
ELLIPSE
  5
693
100
AcDbEntity
  8
RACCORDO
100
AcDbEllipse
 62
7
  6
CONTINUOUS
 10
-2.9773014998
 20
-0.4771491138
 30
0.0
 11
0.0
 21
0.25
 31
0.0
 40
0.0349207695
 41
-3.1066860685
 42
-1.5707963268
  0
ELLIPSE
  5
694
100
AcDbEntity
  8
RACCORDO
100
AcDbEllipse
 62
7
  6
CONTINUOUS
 10
2.9773014998
 20
-0.4771491138
 30
0.0
 11
-0.0
 21
0.25
 31
0.0
 40
0.0349207695
 41
-4.7123889804
 42
-3.1764992386
  0
ELLIPSE
  5
695
100
AcDbEntity
  8
RACCORDO
100
AcDbEllipse
 62
7
  6
CONTINUOUS
 10
2.9773014998
 20
0.4771491138
 30
0.0
 11
0.0
 21
0.25
 31
0.0
 40
0.0349207695
 41
0.034906585
 42
1.5707963268
  0
ELLIPSE
  5
696
100
AcDbEntity
  8
RACCORDO
100
AcDbEllipse
 62
7
  6
CONTINUOUS
 10
-2.4241669751
 20
0.4771491138
 30
0.0
 11
0.0
 21
0.25
 31
0.0
 40
0.2679491924
 41
0.034906585
 42
1.5707963268
  0
ELLIPSE
  5
697
100
AcDbEntity
  8
RACCORDO
100
AcDbEllipse
 62
7
  6
CONTINUOUS
 10
-2.4241669751
 20
-0.4771491138
 30
0.0
 11
0.0
 21
0.25
 31
0.0
 40
0.2679491924
 41
-4.7123889804
 42
-3.1764992386
  0
ELLIPSE
  5
698
100
AcDbEntity
  8
RACCORDO
100
AcDbEllipse
 62
7
  6
CONTINUOUS
 10
2.4241669751
 20
-0.4771491138
 30
0.0
 11
0.0
 21
0.25
 31
0.0
 40
0.2679491924
 41
-3.1066860685
 42
-1.5707963268
  0
ELLIPSE
  5
699
100
AcDbEntity
  8
RACCORDO
100
AcDbEllipse
 62
7
  6
CONTINUOUS
 10
2.4241669751
 20
0.4771491138
 30
0.0
 11
0.0
 21
0.25
 31
0.0
 40
0.2679491924
 41
-1.5707963268
 42
-0.034906585
  0
ELLIPSE
  5
69A
100
AcDbEntity
  8
0
100
AcDbEllipse
 62
7
  6
CONTINUOUS
 10
-3.674980959
 20
26.624980959
 30
0.0
 11
0.0884152736
 21
-0.0884152736
 31
0.0
 40
0.9996954599
 41
2.3563467834
 42
3.9268385237
  0
ELLIPSE
  5
69B
100
AcDbEntity
  8
0
100
AcDbEllipse
 62
7
  6
CONTINUOUS
 10
3.674980959
 20
26.624980959
 30
0.0
 11
0.0884152736
 21
0.0884152736
 31
0.0
 40
0.9996954599
 41
-0.7852458701
 42
0.7852458701
  0
ELLIPSE
  5
69C
100
AcDbEntity
  8
0
100
AcDbEllipse
 62
7
  6
CONTINUOUS
 10
-3.674980959
 20
23.125019041
 30
0.0
 11
0.0884152736
 21
0.0884152736
 31
0.0
 40
0.9996954599
 41
-3.9268385237
 42
-2.3563467834
  0
ELLIPSE
  5
69D
100
AcDbEntity
  8
0
100
AcDbEllipse
 62
7
  6
CONTINUOUS
 10
3.674980959
 20
23.125019041
 30
0.0
 11
-0.0884152736
 21
0.0884152736
 31
0.0
 40
0.9996954599
 41
-3.9268385237
 42
-2.3563467834
  0
ELLIPSE
  5
69E
100
AcDbEntity
  8
0
100
AcDbEllipse
 62
7
  6
CONTINUOUS
 10
3.674980959
 20
-22.625019041
 30
0.0
 11
0.0884152736
 21
0.0884152736
 31
0.0
 40
0.9996954599
 41
-0.7852458701
 42
0.7852458701
  0
ELLIPSE
  5
69F
100
AcDbEntity
  8
0
100
AcDbEllipse
 62
7
  6
CONTINUOUS
 10
2.875019041
 20
-22.625019041
 30
0.0
 11
0.0884152736
 21
-0.0884152736
 31
0.0
 40
0.9996954599
 41
2.3563467834
 42
3.9268385237
  0
ELLIPSE
  5
6A0
100
AcDbEntity
  8
0
100
AcDbEllipse
 62
7
  6
CONTINUOUS
 10
2.875019041
 20
-26.624980959
 30
0.0
 11
0.0884152736
 21
0.0884152736
 31
0.0
 40
0.9996954599
 41
-3.9268385237
 42
-2.3563467834
  0
ELLIPSE
  5
6A1
100
AcDbEntity
  8
0
100
AcDbEllipse
 62
7
  6
CONTINUOUS
 10
3.674980959
 20
-26.624980959
 30
0.0
 11
0.0884152736
 21
-0.0884152736
 31
0.0
 40
0.9996954599
 41
-0.7852458701
 42
0.7852458701
  0
ELLIPSE
  5
6A2
100
AcDbEntity
  8
0
100
AcDbEllipse
 62
7
  6
CONTINUOUS
 10
-3.674980959
 20
-22.625019041
 30
0.0
 11
0.0884152736
 21
-0.0884152736
 31
0.0
 40
0.9996954599
 41
2.3563467834
 42
3.9268385237
  0
ELLIPSE
  5
6A3
100
AcDbEntity
  8
0
100
AcDbEllipse
 62
7
  6
CONTINUOUS
 10
-2.875019041
 20
-22.625019041
 30
0.0
 11
0.0884152736
 21
0.0884152736
 31
0.0
 40
0.9996954599
 41
-0.7852458701
 42
0.7852458701
  0
ELLIPSE
  5
6A4
100
AcDbEntity
  8
0
100
AcDbEllipse
 62
7
  6
CONTINUOUS
 10
-2.875019041
 20
-26.624980959
 30
0.0
 11
0.0884152736
 21
-0.0884152736
 31
0.0
 40
0.9996954599
 41
-0.7852458701
 42
0.7852458701
  0
ELLIPSE
  5
6A5
100
AcDbEntity
  8
0
100
AcDbEllipse
 62
7
  6
CONTINUOUS
 10
-3.674980959
 20
-26.624980959
 30
0.0
 11
0.0884152736
 21
0.0884152736
 31
0.0
 40
0.9996954599
 41
-3.9268385237
 42
-2.3563467834
  0
ENDSEC
  0
SECTION
  2
OBJECTS
  0
DICTIONARY
  5
C
100
AcDbDictionary
280
0
281
1
  3
ACAD_GROUP
350
D
  3
ACAD_MLINESTYLE
350
17
  3
ACAD_LAYOUT
350
1A
  3
ACAD_PLOTSETTINGS
350
19
  3
ACAD_PLOTSTYLENAME
350
E
  0
DICTIONARY
  5
D
102
{ACAD_REACTORS
330
C
102
}
100
AcDbDictionary
280
0
281
1
  0
ACDBDICTIONARYWDFLT
  5
E
102
{ACAD_REACTORS
330
C
102
}
100
AcDbDictionary
281
1
  3
Normal
350
F
100
AcDbDictionaryWithDefault
340
F
  0
DICTIONARY
  5
17
102
{ACAD_REACTORS
330
C
102
}
100
AcDbDictionary
280
0
281
1
  3
Standard
350
18
  0
DICTIONARY
  5
19
102
{ACAD_REACTORS
330
C
102
}
100
AcDbDictionary
281
1
  0
DICTIONARY
  5
1A
102
{ACAD_REACTORS
330
C
102
}
100
AcDbDictionary
281
1
  3
Model
350
6A6
  3
Layout1
350
6A7
  0
ACDBPLACEHOLDER
  5
F
102
{ACAD_REACTORS
330
E
102
}
  0
MLINESTYLE
  5
18
102
{ACAD_REACTORS
330
17
102
}
100
AcDbMlineStyle
  2
STANDARD
 70
0
  3

 62
256
 51
90.0
 52
90.0
 71
2
 49
0.5
 62
256
  6
BYLAYER
 49
-0.5
 62
256
  6
BYLAYER
  0
LAYOUT
  5
6A6
102
{ACAD_REACTORS
330
1A
102
}
100
AcDbPlotSettings
  1

  2
none_device
  4
ISO_A4_(297.00_x_210.00_MM)
  6

 40
0.0
 41
0.0
 42
0.0
 43
0.0
 44
297.0
 45
210.0
 46
0.0
 47
0.0
 48
0.0
 49
0.0
140
0.0
141
0.0
142
1.0
143
1.0
 70
1024
 72
1
 73
0
 74
0
  7

 75
0
147
1.0
148
0.0
149
0.0
100
AcDbLayout
  1
Model
 70
0
 71
0
 10
0.0
 20
0.0
 11
297.0
 21
210.0
 12
0.0
 22
0.0
 32
0.0
 14
0.0
 24
0.0
 34
0.0
 15
0.0
 25
0.0
 35
0.0
146
0.0
 13
0.0
 23
0.0
 33
0.0
 16
1.0
 26
0.0
 36
0.0
 17
0.0
 27
1.0
 37
0.0
 76
0
330
277
345
0
346
0
  0
LAYOUT
  5
6A7
102
{ACAD_REACTORS
330
1A
102
}
100
AcDbPlotSettings
  1

  2
none_device
  4
ISO_A4_(297.00_x_210.00_MM)
  6

 40
0.0
 41
0.0
 42
0.0
 43
0.0
 44
297.0
 45
210.0
 46
0.0
 47
0.0
 48
0.0
 49
0.0
140
0.0
141
0.0
142
1.0
143
1.0
 70
0
 72
1
 73
0
 74
0
  7

 75
0
147
1.0
148
0.0
149
0.0
100
AcDbLayout
  1
Layout1
 70
0
 71
1
 10
0.0
 20
0.0
 11
297.0
 21
210.0
 12
0.0
 22
0.0
 32
0.0
 14
0.0
 24
0.0
 34
0.0
 15
0.0
 25
0.0
 35
0.0
146
0.0
 13
0.0
 23
0.0
 33
0.0
 16
1.0
 26
0.0
 36
0.0
 17
0.0
 27
1.0
 37
0.0
 76
0
330
278
345
0
346
0
  0
ENDSEC
  0
EOF
