  0
SECTION
  2
HEADER
  9
$ACADVER
  1
AC1015
  9
$DWGCODEPAGE
  3
ANSI_1252
  9
$EXTMAX
 10
558.8
 20
431.8
 30
0.0
  9
$EXTMIN
 10
0.0
 20
0.0
 30
0.0
  9
$LIMMIN
 10
0.0
 20
0.0
  9
$LIMMAX
 10
558.8
 20
431.8
  9
$VIEWCTR
 10
279.4
 20
215.9
  9
$VIEWSIZE
 40
431.8
  9
$CLAYER
  8
0
  9
$LTSCALE
 40
30.734
  9
$CELTYPE
  6
BYLAYER
  9
$DIMSCALE
 40
1.0
  9
$DIMASZ
 40
3.0
  9
$DIMEXO
 40
0.5
  9
$DIMDLI
 40
21.2344
  9
$DIMEXE
 40
1.5
  9
$DIMCEN
 40
5.0292
  9
$DIMLFAC
 40
1.0
  9
$DIMBLK
  1
_FILLED
  9
$DIMTXT
 40
3.0
  9
$DIMTOL
 70
1
  9
$DIMLIM
 70
0
  9
$DIMTFAC
 40
1.0
  9
$DIMTP
 40
0.01
  9
$DIMTM
 40
0.01
  9
$DIMGAP
 40
0.625
  9
$DIMDSEP
 70
44
  9
$PDMODE
 70
3
  9
$PDSIZE
 40
3.0
  9
$HANDSEED
  5
80C
  9
$TILEMODE
 70
1
  9
$MEASUREMENT
 70
1
  9
$INSUNITS
 70
4
  0
ENDSEC
  0
SECTION
  2
CLASSES
  0
CLASS
  1
ACDBDICTIONARYWDFLT
  2
AcDbDictionaryWithDefault
  3
AutoCAD 2000
 90
0
280
0
281
0
  0
CLASS
  1
ACDBPLACEHOLDER
  2
AcDbPlaceHolder
  3
AutoCAD 2000
 90
0
280
0
281
0
  0
CLASS
  1
LAYOUT
  2
AcDbLayout
  3
AutoCAD 2000
 90
0
280
0
281
0
  0
ENDSEC
  0
SECTION
  2
TABLES
  0
TABLE
  2
VPORT
  5
8
100
AcDbSymbolTable
 70
2
  0
VPORT
  5
1F4
100
AcDbSymbolTableRecord
100
AcDbViewportTableRecord
  2
*ACTIVE
 70
0
 10
0.0
 20
0.0
 11
1.0
 21
1.0
 12
279.4
 22
215.9
 13
0.0
 23
0.0
 14
1.0
 24
1.0
 15
0.0
 25
0.0
 16
0.0
 26
0.0
 36
1.0
 17
0.0
 27
0.0
 37
0.0
 40
431.8
 41
1.2941176471
 42
50.0
 43
0.0
 44
0.0
 50
0.0
 51
0.0
 71
0
 72
100
 73
1
 74
1
 75
0
 76
0
 77
0
 78
0
  0
ENDTAB
  0
TABLE
  2
LTYPE
  5
5
100
AcDbSymbolTable
 70
6
  0
LTYPE
  5
14
100
AcDbSymbolTableRecord
100
AcDbLinetypeTableRecord
  2
BYBLOCK
 70
0
  3

 72
65
 73
0
 40
0.0
  0
LTYPE
  5
15
100
AcDbSymbolTableRecord
100
AcDbLinetypeTableRecord
  2
BYLAYER
 70
0
  3

 72
65
 73
0
 40
0.0
  0
LTYPE
  5
16
100
AcDbSymbolTableRecord
100
AcDbLinetypeTableRecord
  2
CONTINUOUS
 70
64
  3
Solid line
 72
65
 73
0
 40
0.0
  0
LTYPE
  5
1F5
100
AcDbSymbolTableRecord
100
AcDbLinetypeTableRecord
  2
CENTER
 70
64
  3
____ _ ____ _ ____ _ ____ _ ____ _ ____ _ ____
 72
65
 73
4
 40
0.6
 49
0.375
 74
0
 49
-0.075
 74
0
 49
0.075
 74
0
 49
-0.075
 74
0
  0
LTYPE
  5
1F6
100
AcDbSymbolTableRecord
100
AcDbLinetypeTableRecord
  2
HIDDEN
 70
64
  3
- - - - - - - - - - - - - - - - - - - -
 72
65
 73
2
 40
0.2
 49
0.1
 74
0
 49
-0.1
 74
0
  0
LTYPE
  5
1F7
100
AcDbSymbolTableRecord
100
AcDbLinetypeTableRecord
  2
PHANTOM
 70
64
  3
_____ _ _ _____ _ _ _____ _ _ _____
 72
65
 73
6
 40
0.8
 49
0.45
 74
0
 49
-0.05
 74
0
 49
0.1
 74
0
 49
-0.05
 74
0
 49
0.1
 74
0
 49
-0.05
 74
0
  0
LTYPE
  5
1F8
100
AcDbSymbolTableRecord
100
AcDbLinetypeTableRecord
  2
DOT
 70
64
  3
. . . . . . . . . . . . . . . . . . . .
 72
65
 73
2
 40
0.2
 49
0.1
 74
0
 49
-0.1
 74
0
  0
LTYPE
  5
1F9
100
AcDbSymbolTableRecord
100
AcDbLinetypeTableRecord
  2
DASHED
 70
64
  3
- - - - - - - - - - - - - - - - - - - -
 72
65
 73
2
 40
0.2
 49
0.1
 74
0
 49
-0.1
 74
0
  0
ENDTAB
  0
TABLE
  2
LAYER
  5
2
100
AcDbSymbolTable
 70
36
  0
LAYER
  5
10
100
AcDbSymbolTableRecord
100
AcDbLayerTableRecord
  2
0
 70
0
 62
7
  6
CONTINUOUS
370
-3
390
F
  0
LAYER
  5
1FA
100
AcDbSymbolTableRecord
100
AcDbLayerTableRecord
  2
DEFAULT_1
 70
0
 62
7
  6
CENTER
370
-3
390
F
  0
LAYER
  5
1FB
100
AcDbSymbolTableRecord
100
AcDbLayerTableRecord
  2
DEFAULT_2
 70
0
 62
7
  6
HIDDEN
370
-3
390
F
  0
LAYER
  5
1FC
100
AcDbSymbolTableRecord
100
AcDbLayerTableRecord
  2
DEFAULT_3
 70
0
 62
7
  6
PHANTOM
370
-3
390
F
  0
LAYER
  5
1FD
100
AcDbSymbolTableRecord
100
AcDbLayerTableRecord
  2
1704936
 70
0
 62
7
  6
CONTINUOUS
370
-3
390
F
  0
LAYER
  5
1FE
100
AcDbSymbolTableRecord
100
AcDbLayerTableRecord
  2
2CDG110166_01_ASM
 70
0
 62
7
  6
CONTINUOUS
370
-3
390
F
  0
LAYER
  5
1FF
100
AcDbSymbolTableRecord
100
AcDbLayerTableRecord
  2
2CDG110167_01_ASM
 70
0
 62
7
  6
CONTINUOUS
370
-3
390
F
  0
LAYER
  5
200
100
AcDbSymbolTableRecord
100
AcDbLayerTableRecord
  2
2CDG110171_01_ASM_1
 70
0
 62
7
  6
CONTINUOUS
370
-3
390
F
  0
LAYER
  5
201
100
AcDbSymbolTableRecord
100
AcDbLayerTableRecord
  2
2CDG911001_P0001
 70
0
 62
7
  6
CONTINUOUS
370
-3
390
F
  0
LAYER
  5
202
100
AcDbSymbolTableRecord
100
AcDbLayerTableRecord
  2
2CDG911001_P0001_1
 70
0
 62
7
  6
CONTINUOUS
370
-3
390
F
  0
LAYER
  5
203
100
AcDbSymbolTableRecord
100
AcDbLayerTableRecord
  2
2CDG911025_P0001
 70
0
 62
7
  6
CONTINUOUS
370
-3
390
F
  0
LAYER
  5
204
100
AcDbSymbolTableRecord
100
AcDbLayerTableRecord
  2
2CDG911025_P0001_1
 70
0
 62
7
  6
CONTINUOUS
370
-3
390
F
  0
LAYER
  5
205
100
AcDbSymbolTableRecord
100
AcDbLayerTableRecord
  2
2CDG913044_01_1
 70
0
 62
7
  6
CONTINUOUS
370
-3
390
F
  0
LAYER
  5
206
100
AcDbSymbolTableRecord
100
AcDbLayerTableRecord
  2
2CDG913044_01_1_1
 70
0
 62
7
  6
CONTINUOUS
370
-3
390
F
  0
LAYER
  5
207
100
AcDbSymbolTableRecord
100
AcDbLayerTableRecord
  2
2CDG913044_01_1_2
 70
0
 62
7
  6
CONTINUOUS
370
-3
390
F
  0
LAYER
  5
208
100
AcDbSymbolTableRecord
100
AcDbLayerTableRecord
  2
2CDG913044_01_1_3
 70
0
 62
7
  6
CONTINUOUS
370
-3
390
F
  0
LAYER
  5
209
100
AcDbSymbolTableRecord
100
AcDbLayerTableRecord
  2
2CDG916003_01
 70
0
 62
7
  6
CONTINUOUS
370
-3
390
F
  0
LAYER
  5
20A
100
AcDbSymbolTableRecord
100
AcDbLayerTableRecord
  2
2CDG923140_01_ASM_1
 70
0
 62
7
  6
CONTINUOUS
370
-3
390
F
  0
LAYER
  5
20B
100
AcDbSymbolTableRecord
100
AcDbLayerTableRecord
  2
2CDG923148_01_ASM
 70
0
 62
7
  6
CONTINUOUS
370
-3
390
F
  0
LAYER
  5
20C
100
AcDbSymbolTableRecord
100
AcDbLayerTableRecord
  2
2CDG923149_01_ASM
 70
0
 62
7
  6
CONTINUOUS
370
-3
390
F
  0
LAYER
  5
20D
100
AcDbSymbolTableRecord
100
AcDbLayerTableRecord
  2
2CDG932121_01
 70
0
 62
7
  6
CONTINUOUS
370
-3
390
F
  0
LAYER
  5
20E
100
AcDbSymbolTableRecord
100
AcDbLayerTableRecord
  2
2CDG932123_01
 70
0
 62
7
  6
CONTINUOUS
370
-3
390
F
  0
LAYER
  5
20F
100
AcDbSymbolTableRecord
100
AcDbLayerTableRecord
  2
2CDG932143_01
 70
0
 62
7
  6
CONTINUOUS
370
-3
390
F
  0
LAYER
  5
210
100
AcDbSymbolTableRecord
100
AcDbLayerTableRecord
  2
2CDG933121_01_ASM
 70
0
 62
7
  6
CONTINUOUS
370
-3
390
F
  0
LAYER
  5
211
100
AcDbSymbolTableRecord
100
AcDbLayerTableRecord
  2
2CDG933122_01_ASM
 70
0
 62
7
  6
CONTINUOUS
370
-3
390
F
  0
LAYER
  5
212
100
AcDbSymbolTableRecord
100
AcDbLayerTableRecord
  2
2CDG933124_01_ASM
 70
0
 62
7
  6
CONTINUOUS
370
-3
390
F
  0
LAYER
  5
213
100
AcDbSymbolTableRecord
100
AcDbLayerTableRecord
  2
2CDG933146_01_ASM
 70
0
 62
7
  6
CONTINUOUS
370
-3
390
F
  0
LAYER
  5
214
100
AcDbSymbolTableRecord
100
AcDbLayerTableRecord
  2
2F-OBERT_GHQ630_6618-31_1
 70
0
 62
7
  6
CONTINUOUS
370
-3
390
F
  0
LAYER
  5
215
100
AcDbSymbolTableRecord
100
AcDbLayerTableRecord
  2
ASM0001
 70
0
 62
7
  6
CONTINUOUS
370
-3
390
F
  0
LAYER
  5
216
100
AcDbSymbolTableRecord
100
AcDbLayerTableRecord
  2
ASM0002
 70
0
 62
7
  6
CONTINUOUS
370
-3
390
F
  0
LAYER
  5
217
100
AcDbSymbolTableRecord
100
AcDbLayerTableRecord
  2
ASM0003
 70
0
 62
7
  6
CONTINUOUS
370
-3
390
F
  0
LAYER
  5
218
100
AcDbSymbolTableRecord
100
AcDbLayerTableRecord
  2
ASM0004
 70
0
 62
7
  6
CONTINUOUS
370
-3
390
F
  0
LAYER
  5
219
100
AcDbSymbolTableRecord
100
AcDbLayerTableRecord
  2
ASM0011
 70
0
 62
7
  6
CONTINUOUS
370
-3
390
F
  0
LAYER
  5
21A
100
AcDbSymbolTableRecord
100
AcDbLayerTableRecord
  2
ASM0012
 70
0
 62
7
  6
CONTINUOUS
370
-3
390
F
  0
LAYER
  5
21B
100
AcDbSymbolTableRecord
100
AcDbLayerTableRecord
  2
ASM0013
 70
0
 62
7
  6
CONTINUOUS
370
-3
390
F
  0
LAYER
  5
21C
100
AcDbSymbolTableRecord
100
AcDbLayerTableRecord
  2
ASM0014
 70
0
 62
7
  6
CONTINUOUS
370
-3
390
F
  0
LAYER
  5
21D
100
AcDbSymbolTableRecord
100
AcDbLayerTableRecord
  2
ASM0014_1
 70
0
 62
7
  6
CONTINUOUS
370
-3
390
F
  0
LAYER
  5
21E
100
AcDbSymbolTableRecord
100
AcDbLayerTableRecord
  2
ASM0014_2
 70
0
 62
7
  6
CONTINUOUS
370
-3
390
F
  0
LAYER
  5
21F
100
AcDbSymbolTableRecord
100
AcDbLayerTableRecord
  2
ASM0015
 70
0
 62
7
  6
CONTINUOUS
370
-3
390
F
  0
LAYER
  5
220
100
AcDbSymbolTableRecord
100
AcDbLayerTableRecord
  2
ASSI
 70
0
 62
7
  6
CONTINUOUS
370
-3
390
F
  0
LAYER
  5
221
100
AcDbSymbolTableRecord
100
AcDbLayerTableRecord
  2
BUSKLEMME-KPL_ASM
 70
0
 62
7
  6
CONTINUOUS
370
-3
390
F
  0
LAYER
  5
222
100
AcDbSymbolTableRecord
100
AcDbLayerTableRecord
  2
BUSKLEMME-KPL_ASM_1
 70
0
 62
7
  6
CONTINUOUS
370
-3
390
F
  0
LAYER
  5
223
100
AcDbSymbolTableRecord
100
AcDbLayerTableRecord
  2
BUSKLEMME-KPL_ASM_1_1
 70
0
 62
7
  6
CONTINUOUS
370
-3
390
F
  0
LAYER
  5
224
100
AcDbSymbolTableRecord
100
AcDbLayerTableRecord
  2
BUSKLEMME-ROT
 70
0
 62
7
  6
CONTINUOUS
370
-3
390
F
  0
LAYER
  5
225
100
AcDbSymbolTableRecord
100
AcDbLayerTableRecord
  2
BUSKLEMME-ROT_1
 70
0
 62
7
  6
CONTINUOUS
370
-3
390
F
  0
LAYER
  5
226
100
AcDbSymbolTableRecord
100
AcDbLayerTableRecord
  2
BUSKLEMME-ROT_1_1
 70
0
 62
7
  6
CONTINUOUS
370
-3
390
F
  0
LAYER
  5
227
100
AcDbSymbolTableRecord
100
AcDbLayerTableRecord
  2
BUSKLEMME-SCHWARZ
 70
0
 62
7
  6
CONTINUOUS
370
-3
390
F
  0
LAYER
  5
228
100
AcDbSymbolTableRecord
100
AcDbLayerTableRecord
  2
BUSKLEMME-SCHWARZ_1
 70
0
 62
7
  6
CONTINUOUS
370
-3
390
F
  0
LAYER
  5
229
100
AcDbSymbolTableRecord
100
AcDbLayerTableRecord
  2
BUSKLEMME-SCHWARZ_1_1
 70
0
 62
7
  6
CONTINUOUS
370
-3
390
F
  0
LAYER
  5
22A
100
AcDbSymbolTableRecord
100
AcDbLayerTableRecord
  2
COLOR168
 70
0
 62
7
  6
CONTINUOUS
370
-3
390
F
  0
LAYER
  5
22B
100
AcDbSymbolTableRecord
100
AcDbLayerTableRecord
  2
COLOR17
 70
0
 62
7
  6
CONTINUOUS
370
-3
390
F
  0
LAYER
  5
22C
100
AcDbSymbolTableRecord
100
AcDbLayerTableRecord
  2
COLOR189
 70
0
 62
7
  6
CONTINUOUS
370
-3
390
F
  0
LAYER
  5
22D
100
AcDbSymbolTableRecord
100
AcDbLayerTableRecord
  2
COLOR191
 70
0
 62
7
  6
CONTINUOUS
370
-3
390
F
  0
LAYER
  5
22E
100
AcDbSymbolTableRecord
100
AcDbLayerTableRecord
  2
COLOR197
 70
0
 62
7
  6
CONTINUOUS
370
-3
390
F
  0
LAYER
  5
22F
100
AcDbSymbolTableRecord
100
AcDbLayerTableRecord
  2
COLOR198
 70
0
 62
7
  6
CONTINUOUS
370
-3
390
F
  0
LAYER
  5
230
100
AcDbSymbolTableRecord
100
AcDbLayerTableRecord
  2
COLOR224
 70
0
 62
7
  6
CONTINUOUS
370
-3
390
F
  0
LAYER
  5
231
100
AcDbSymbolTableRecord
100
AcDbLayerTableRecord
  2
COLOR30
 70
0
 62
7
  6
CONTINUOUS
370
-3
390
F
  0
LAYER
  5
232
100
AcDbSymbolTableRecord
100
AcDbLayerTableRecord
  2
COLOR66
 70
0
 62
7
  6
CONTINUOUS
370
-3
390
F
  0
LAYER
  5
233
100
AcDbSymbolTableRecord
100
AcDbLayerTableRecord
  2
COORDINATE
 70
0
 62
7
  6
CONTINUOUS
370
-3
390
F
  0
LAYER
  5
234
100
AcDbSymbolTableRecord
100
AcDbLayerTableRecord
  2
COPY_PUBLISH
 70
0
 62
7
  6
CONTINUOUS
370
-3
390
F
  0
LAYER
  5
235
100
AcDbSymbolTableRecord
100
AcDbLayerTableRecord
  2
COSMETICI
 70
0
 62
7
  6
CONTINUOUS
370
-3
390
F
  0
LAYER
  5
236
100
AcDbSymbolTableRecord
100
AcDbLayerTableRecord
  2
CURVE
 70
0
 62
7
  6
CONTINUOUS
370
-3
390
F
  0
LAYER
  5
237
100
AcDbSymbolTableRecord
100
AcDbLayerTableRecord
  2
DRAFT
 70
0
 62
7
  6
CONTINUOUS
370
-3
390
F
  0
LAYER
  5
238
100
AcDbSymbolTableRecord
100
AcDbLayerTableRecord
  2
E415859801_00
 70
0
 62
7
  6
CONTINUOUS
370
-3
390
F
  0
LAYER
  5
239
100
AcDbSymbolTableRecord
100
AcDbLayerTableRecord
  2
E415859801_00_1
 70
0
 62
7
  6
CONTINUOUS
370
-3
390
F
  0
LAYER
  5
23A
100
AcDbSymbolTableRecord
100
AcDbLayerTableRecord
  2
FEDER-RASTE
 70
0
 62
7
  6
CONTINUOUS
370
-3
390
F
  0
LAYER
  5
23B
100
AcDbSymbolTableRecord
100
AcDbLayerTableRecord
  2
FEDER-RASTE_1
 70
0
 62
7
  6
CONTINUOUS
370
-3
390
F
  0
LAYER
  5
23C
100
AcDbSymbolTableRecord
100
AcDbLayerTableRecord
  2
GHQ6306617_1
 70
0
 62
7
  6
CONTINUOUS
370
-3
390
F
  0
LAYER
  5
23D
100
AcDbSymbolTableRecord
100
AcDbLayerTableRecord
  2
GHQ6306622_14
 70
0
 62
7
  6
CONTINUOUS
370
-3
390
F
  0
LAYER
  5
23E
100
AcDbSymbolTableRecord
100
AcDbLayerTableRecord
  2
GHQ6306622_15
 70
0
 62
7
  6
CONTINUOUS
370
-3
390
F
  0
LAYER
  5
23F
100
AcDbSymbolTableRecord
100
AcDbLayerTableRecord
  2
IMPORT_IGES
 70
0
 62
7
  6
CONTINUOUS
370
-3
390
F
  0
LAYER
  5
240
100
AcDbSymbolTableRecord
100
AcDbLayerTableRecord
  2
INTFCLR_10
 70
0
 62
7
  6
CONTINUOUS
370
-3
390
F
  0
LAYER
  5
241
100
AcDbSymbolTableRecord
100
AcDbLayerTableRecord
  2
INTFCLR_3
 70
0
 62
7
  6
CONTINUOUS
370
-3
390
F
  0
LAYER
  5
242
100
AcDbSymbolTableRecord
100
AcDbLayerTableRecord
  2
INTFCLR_4
 70
0
 62
7
  6
CONTINUOUS
370
-3
390
F
  0
LAYER
  5
243
100
AcDbSymbolTableRecord
100
AcDbLayerTableRecord
  2
INTFCLR_5
 70
0
 62
7
  6
CONTINUOUS
370
-3
390
F
  0
LAYER
  5
244
100
AcDbSymbolTableRecord
100
AcDbLayerTableRecord
  2
INTFCLR_6
 70
0
 62
7
  6
CONTINUOUS
370
-3
390
F
  0
LAYER
  5
245
100
AcDbSymbolTableRecord
100
AcDbLayerTableRecord
  2
INTFCLR_7
 70
0
 62
7
  6
CONTINUOUS
370
-3
390
F
  0
LAYER
  5
246
100
AcDbSymbolTableRecord
100
AcDbLayerTableRecord
  2
INTFCLR_8
 70
0
 62
7
  6
CONTINUOUS
370
-3
390
F
  0
LAYER
  5
247
100
AcDbSymbolTableRecord
100
AcDbLayerTableRecord
  2
INTFCLR_9
 70
0
 62
7
  6
CONTINUOUS
370
-3
390
F
  0
LAYER
  5
248
100
AcDbSymbolTableRecord
100
AcDbLayerTableRecord
  2
INTF_1
 70
0
 62
7
  6
CONTINUOUS
370
-3
390
F
  0
LAYER
  5
249
100
AcDbSymbolTableRecord
100
AcDbLayerTableRecord
  2
INTF_1704936
 70
0
 62
7
  6
CONTINUOUS
370
-3
390
F
  0
LAYER
  5
24A
100
AcDbSymbolTableRecord
100
AcDbLayerTableRecord
  2
INTF_1_1
 70
0
 62
7
  6
CONTINUOUS
370
-3
390
F
  0
LAYER
  5
24B
100
AcDbSymbolTableRecord
100
AcDbLayerTableRecord
  2
INTF_RED
 70
0
 62
7
  6
CONTINUOUS
370
-3
390
F
  0
LAYER
  5
24C
100
AcDbSymbolTableRecord
100
AcDbLayerTableRecord
  2
LICHTLEITER-LANG
 70
0
 62
7
  6
CONTINUOUS
370
-3
390
F
  0
LAYER
  5
24D
100
AcDbSymbolTableRecord
100
AcDbLayerTableRecord
  2
LICHTLEITER-LANG_1
 70
0
 62
7
  6
CONTINUOUS
370
-3
390
F
  0
LAYER
  5
24E
100
AcDbSymbolTableRecord
100
AcDbLayerTableRecord
  2
LICHTLEITER-LANG_1_1
 70
0
 62
7
  6
CONTINUOUS
370
-3
390
F
  0
LAYER
  5
24F
100
AcDbSymbolTableRecord
100
AcDbLayerTableRecord
  2
LICHTLEITER-LANG_1_2
 70
0
 62
7
  6
CONTINUOUS
370
-3
390
F
  0
LAYER
  5
250
100
AcDbSymbolTableRecord
100
AcDbLayerTableRecord
  2
LICHTLEITER_1
 70
0
 62
7
  6
CONTINUOUS
370
-3
390
F
  0
LAYER
  5
251
100
AcDbSymbolTableRecord
100
AcDbLayerTableRecord
  2
LP_LKS-42_1
 70
0
 62
7
  6
CONTINUOUS
370
-3
390
F
  0
LAYER
  5
252
100
AcDbSymbolTableRecord
100
AcDbLayerTableRecord
  2
NOTE
 70
0
 62
7
  6
CONTINUOUS
370
-3
390
F
  0
LAYER
  5
253
100
AcDbSymbolTableRecord
100
AcDbLayerTableRecord
  2
PIANI
 70
0
 62
7
  6
CONTINUOUS
370
-3
390
F
  0
LAYER
  5
254
100
AcDbSymbolTableRecord
100
AcDbLayerTableRecord
  2
PRT0001
 70
0
 62
7
  6
CONTINUOUS
370
-3
390
F
  0
LAYER
  5
255
100
AcDbSymbolTableRecord
100
AcDbLayerTableRecord
  2
PRT0002
 70
0
 62
7
  6
CONTINUOUS
370
-3
390
F
  0
LAYER
  5
256
100
AcDbSymbolTableRecord
100
AcDbLayerTableRecord
  2
PRT0003
 70
0
 62
7
  6
CONTINUOUS
370
-3
390
F
  0
LAYER
  5
257
100
AcDbSymbolTableRecord
100
AcDbLayerTableRecord
  2
PRT0004
 70
0
 62
7
  6
CONTINUOUS
370
-3
390
F
  0
LAYER
  5
258
100
AcDbSymbolTableRecord
100
AcDbLayerTableRecord
  2
PRT0005
 70
0
 62
7
  6
CONTINUOUS
370
-3
390
F
  0
LAYER
  5
259
100
AcDbSymbolTableRecord
100
AcDbLayerTableRecord
  2
PRT0006
 70
0
 62
7
  6
CONTINUOUS
370
-3
390
F
  0
LAYER
  5
25A
100
AcDbSymbolTableRecord
100
AcDbLayerTableRecord
  2
PRT0007
 70
0
 62
7
  6
CONTINUOUS
370
-3
390
F
  0
LAYER
  5
25B
100
AcDbSymbolTableRecord
100
AcDbLayerTableRecord
  2
PRT0008
 70
0
 62
7
  6
CONTINUOUS
370
-3
390
F
  0
LAYER
  5
25C
100
AcDbSymbolTableRecord
100
AcDbLayerTableRecord
  2
PRT0009
 70
0
 62
7
  6
CONTINUOUS
370
-3
390
F
  0
LAYER
  5
25D
100
AcDbSymbolTableRecord
100
AcDbLayerTableRecord
  2
PRT0010
 70
0
 62
7
  6
CONTINUOUS
370
-3
390
F
  0
LAYER
  5
25E
100
AcDbSymbolTableRecord
100
AcDbLayerTableRecord
  2
PRT0011
 70
0
 62
7
  6
CONTINUOUS
370
-3
390
F
  0
LAYER
  5
25F
100
AcDbSymbolTableRecord
100
AcDbLayerTableRecord
  2
PRT0012
 70
0
 62
7
  6
CONTINUOUS
370
-3
390
F
  0
LAYER
  5
260
100
AcDbSymbolTableRecord
100
AcDbLayerTableRecord
  2
PRT0013
 70
0
 62
7
  6
CONTINUOUS
370
-3
390
F
  0
LAYER
  5
261
100
AcDbSymbolTableRecord
100
AcDbLayerTableRecord
  2
PRT0018
 70
0
 62
7
  6
CONTINUOUS
370
-3
390
F
  0
LAYER
  5
262
100
AcDbSymbolTableRecord
100
AcDbLayerTableRecord
  2
PRT0019
 70
0
 62
7
  6
CONTINUOUS
370
-3
390
F
  0
LAYER
  5
263
100
AcDbSymbolTableRecord
100
AcDbLayerTableRecord
  2
PRT0020
 70
0
 62
7
  6
CONTINUOUS
370
-3
390
F
  0
LAYER
  5
264
100
AcDbSymbolTableRecord
100
AcDbLayerTableRecord
  2
PRT0021
 70
0
 62
7
  6
CONTINUOUS
370
-3
390
F
  0
LAYER
  5
265
100
AcDbSymbolTableRecord
100
AcDbLayerTableRecord
  2
PRT0022
 70
0
 62
7
  6
CONTINUOUS
370
-3
390
F
  0
LAYER
  5
266
100
AcDbSymbolTableRecord
100
AcDbLayerTableRecord
  2
PRT0022_1
 70
0
 62
7
  6
CONTINUOUS
370
-3
390
F
  0
LAYER
  5
267
100
AcDbSymbolTableRecord
100
AcDbLayerTableRecord
  2
PRT0022_10
 70
0
 62
7
  6
CONTINUOUS
370
-3
390
F
  0
LAYER
  5
268
100
AcDbSymbolTableRecord
100
AcDbLayerTableRecord
  2
PRT0022_11
 70
0
 62
7
  6
CONTINUOUS
370
-3
390
F
  0
LAYER
  5
269
100
AcDbSymbolTableRecord
100
AcDbLayerTableRecord
  2
PRT0022_2
 70
0
 62
7
  6
CONTINUOUS
370
-3
390
F
  0
LAYER
  5
26A
100
AcDbSymbolTableRecord
100
AcDbLayerTableRecord
  2
PRT0022_3
 70
0
 62
7
  6
CONTINUOUS
370
-3
390
F
  0
LAYER
  5
26B
100
AcDbSymbolTableRecord
100
AcDbLayerTableRecord
  2
PRT0022_4
 70
0
 62
7
  6
CONTINUOUS
370
-3
390
F
  0
LAYER
  5
26C
100
AcDbSymbolTableRecord
100
AcDbLayerTableRecord
  2
PRT0022_5
 70
0
 62
7
  6
CONTINUOUS
370
-3
390
F
  0
LAYER
  5
26D
100
AcDbSymbolTableRecord
100
AcDbLayerTableRecord
  2
PRT0022_6
 70
0
 62
7
  6
CONTINUOUS
370
-3
390
F
  0
LAYER
  5
26E
100
AcDbSymbolTableRecord
100
AcDbLayerTableRecord
  2
PRT0022_7
 70
0
 62
7
  6
CONTINUOUS
370
-3
390
F
  0
LAYER
  5
26F
100
AcDbSymbolTableRecord
100
AcDbLayerTableRecord
  2
PRT0022_8
 70
0
 62
7
  6
CONTINUOUS
370
-3
390
F
  0
LAYER
  5
270
100
AcDbSymbolTableRecord
100
AcDbLayerTableRecord
  2
PRT0022_9
 70
0
 62
7
  6
CONTINUOUS
370
-3
390
F
  0
LAYER
  5
271
100
AcDbSymbolTableRecord
100
AcDbLayerTableRecord
  2
PRT0023
 70
0
 62
7
  6
CONTINUOUS
370
-3
390
F
  0
LAYER
  5
272
100
AcDbSymbolTableRecord
100
AcDbLayerTableRecord
  2
PRT0023_1
 70
0
 62
7
  6
CONTINUOUS
370
-3
390
F
  0
LAYER
  5
273
100
AcDbSymbolTableRecord
100
AcDbLayerTableRecord
  2
PRT0023_10
 70
0
 62
7
  6
CONTINUOUS
370
-3
390
F
  0
LAYER
  5
274
100
AcDbSymbolTableRecord
100
AcDbLayerTableRecord
  2
PRT0023_11
 70
0
 62
7
  6
CONTINUOUS
370
-3
390
F
  0
LAYER
  5
275
100
AcDbSymbolTableRecord
100
AcDbLayerTableRecord
  2
PRT0023_2
 70
0
 62
7
  6
CONTINUOUS
370
-3
390
F
  0
LAYER
  5
276
100
AcDbSymbolTableRecord
100
AcDbLayerTableRecord
  2
PRT0023_3
 70
0
 62
7
  6
CONTINUOUS
370
-3
390
F
  0
LAYER
  5
277
100
AcDbSymbolTableRecord
100
AcDbLayerTableRecord
  2
PRT0023_4
 70
0
 62
7
  6
CONTINUOUS
370
-3
390
F
  0
LAYER
  5
278
100
AcDbSymbolTableRecord
100
AcDbLayerTableRecord
  2
PRT0023_5
 70
0
 62
7
  6
CONTINUOUS
370
-3
390
F
  0
LAYER
  5
279
100
AcDbSymbolTableRecord
100
AcDbLayerTableRecord
  2
PRT0023_6
 70
0
 62
7
  6
CONTINUOUS
370
-3
390
F
  0
LAYER
  5
27A
100
AcDbSymbolTableRecord
100
AcDbLayerTableRecord
  2
PRT0023_7
 70
0
 62
7
  6
CONTINUOUS
370
-3
390
F
  0
LAYER
  5
27B
100
AcDbSymbolTableRecord
100
AcDbLayerTableRecord
  2
PRT0023_8
 70
0
 62
7
  6
CONTINUOUS
370
-3
390
F
  0
LAYER
  5
27C
100
AcDbSymbolTableRecord
100
AcDbLayerTableRecord
  2
PRT0023_9
 70
0
 62
7
  6
CONTINUOUS
370
-3
390
F
  0
LAYER
  5
27D
100
AcDbSymbolTableRecord
100
AcDbLayerTableRecord
  2
PRT0024
 70
0
 62
7
  6
CONTINUOUS
370
-3
390
F
  0
LAYER
  5
27E
100
AcDbSymbolTableRecord
100
AcDbLayerTableRecord
  2
PRT0025
 70
0
 62
7
  6
CONTINUOUS
370
-3
390
F
  0
LAYER
  5
27F
100
AcDbSymbolTableRecord
100
AcDbLayerTableRecord
  2
PRT0026
 70
0
 62
7
  6
CONTINUOUS
370
-3
390
F
  0
LAYER
  5
280
100
AcDbSymbolTableRecord
100
AcDbLayerTableRecord
  2
PRT0027
 70
0
 62
7
  6
CONTINUOUS
370
-3
390
F
  0
LAYER
  5
281
100
AcDbSymbolTableRecord
100
AcDbLayerTableRecord
  2
PRT0028
 70
0
 62
7
  6
CONTINUOUS
370
-3
390
F
  0
LAYER
  5
282
100
AcDbSymbolTableRecord
100
AcDbLayerTableRecord
  2
PUNTI
 70
0
 62
7
  6
CONTINUOUS
370
-3
390
F
  0
LAYER
  5
283
100
AcDbSymbolTableRecord
100
AcDbLayerTableRecord
  2
RACCORDO
 70
0
 62
7
  6
CONTINUOUS
370
-3
390
F
  0
LAYER
  5
284
100
AcDbSymbolTableRecord
100
AcDbLayerTableRecord
  2
RASTE-KPL-SCHEMA_ASM
 70
0
 62
7
  6
CONTINUOUS
370
-3
390
F
  0
LAYER
  5
285
100
AcDbSymbolTableRecord
100
AcDbLayerTableRecord
  2
RASTE-KPL-SCHEMA_ASM_1
 70
0
 62
7
  6
CONTINUOUS
370
-3
390
F
  0
LAYER
  5
286
100
AcDbSymbolTableRecord
100
AcDbLayerTableRecord
  2
RASTE-SCHEMA
 70
0
 62
7
  6
CONTINUOUS
370
-3
390
F
  0
LAYER
  5
287
100
AcDbSymbolTableRecord
100
AcDbLayerTableRecord
  2
RASTE-SCHEMA_1
 70
0
 62
7
  6
CONTINUOUS
370
-3
390
F
  0
LAYER
  5
288
100
AcDbSymbolTableRecord
100
AcDbLayerTableRecord
  2
SIMBOLI
 70
0
 62
7
  6
CONTINUOUS
370
-3
390
F
  0
LAYER
  5
289
100
AcDbSymbolTableRecord
100
AcDbLayerTableRecord
  2
SMUSSO
 70
0
 62
7
  6
CONTINUOUS
370
-3
390
F
  0
LAYER
  5
28A
100
AcDbSymbolTableRecord
100
AcDbLayerTableRecord
  2
SNAPLINE
 70
0
 62
7
  6
CONTINUOUS
370
-3
390
F
  0
LAYER
  5
28B
100
AcDbSymbolTableRecord
100
AcDbLayerTableRecord
  2
SUPERFICI
 70
0
 62
7
  6
CONTINUOUS
370
-3
390
F
  0
LAYER
  5
28C
100
AcDbSymbolTableRecord
100
AcDbLayerTableRecord
  2
TRASH
 70
0
 62
7
  6
CONTINUOUS
370
-3
390
F
  0
LAYER
  5
28D
100
AcDbSymbolTableRecord
100
AcDbLayerTableRecord
  2
WHITE
 70
0
 62
7
  6
CONTINUOUS
370
-3
390
F
  0
LAYER
  5
28E
100
AcDbSymbolTableRecord
100
AcDbLayerTableRecord
  2
___SHELL
 70
0
 62
7
  6
CONTINUOUS
370
-3
390
F
  0
ENDTAB
  0
TABLE
  2
STYLE
  5
3
100
AcDbSymbolTable
 70
1
  0
STYLE
  5
11
100
AcDbSymbolTableRecord
100
AcDbTextStyleTableRecord
  2
STANDARD
 70
0
 40
0.0
 41
0.8
 50
0.0
 71
0
 42
0.2
  3
txt
  4

  0
STYLE
  5
28F
100
AcDbSymbolTableRecord
100
AcDbTextStyleTableRecord
  2
TEXTSTYLE_1
 70
0
 40
0.0
 41
0.8
 50
0.0
 71
0
 42
0.2
  3
gdt
  4

  0
ENDTAB
  0
TABLE
  2
VIEW
  5
6
100
AcDbSymbolTable
 70
0
  0
ENDTAB
  0
TABLE
  2
UCS
  5
7
100
AcDbSymbolTable
 70
0
  0
ENDTAB
  0
TABLE
  2
APPID
  5
9
100
AcDbSymbolTable
 70
1
  0
APPID
  5
290
100
AcDbSymbolTableRecord
100
AcDbRegAppTableRecord
  2
ACAD
 70
0
  0
ENDTAB
  0
TABLE
  2
BLOCK_RECORD
  5
1
100
AcDbSymbolTable
 70
0
  0
BLOCK_RECORD
  5
291
100
AcDbSymbolTableRecord
100
AcDbBlockTableRecord
  2
*Model_Space
  0
BLOCK_RECORD
  5
292
100
AcDbSymbolTableRecord
100
AcDbBlockTableRecord
  2
*Paper_Space
  0
ENDTAB
  0
TABLE
  2
DIMSTYLE
  5
A
100
AcDbSymbolTable
 70
1
100
AcDbDimStyleTable
 71
0
  0
DIMSTYLE
105
293
100
AcDbSymbolTableRecord
100
AcDbDimStyleTableRecord
  2
STANDARD
 70
0
  3

  4

 40
1.0
 41
3.0
 42
0.5
 43
0.38
 44
1.5
 45
0.0
 46
0.0
 47
0.01
 48
0.01
140
3.0
141
0.09
142
0.0
143
25.4
144
1.0
145
0.0
146
1.0
147
0.625
 71
1.0
 72
0.0
 73
0
 74
0
 75
0
 76
0
 77
1
 78
8
170
0
171
2
172
0
173
0
174
0
175
0
176
0
177
0
178
0
270
2
271
2
272
2
273
2
274
2
275
0
280
0
281
0
282
0
283
1
284
8
285
0
286
0
287
3
288
0
340
11
278
44
  0
ENDTAB
  0
ENDSEC
  0
SECTION
  2
BLOCKS
  0
BLOCK
  5
20
100
AcDbEntity
  8
0
100
AcDbBlockBegin
  2
*Model_Space
 70
0
 10
0.0
 20
0.0
 30
0.0
  3
*Model_Space
  1

  0
ENDBLK
  5
21
100
AcDbEntity
  8
0
100
AcDbBlockEnd
  0
BLOCK
  5
1C
100
AcDbEntity
  8
0
100
AcDbBlockBegin
  2
*Paper_Space
 70
0
 10
0.0
 20
0.0
 30
0.0
  3
*Paper_Space
  1

  0
ENDBLK
  5
1D
100
AcDbEntity
  8
0
100
AcDbBlockEnd
  0
ENDSEC
  0
SECTION
  2
ENTITIES
  0
LINE
  5
294
100
AcDbEntity
  8
IMPORT_IGES
100
AcDbLine
 62
7
  6
CONTINUOUS
 10
17.5757516997
 20
-44.9434631751
 11
-17.4242483003
 21
-44.9434631751
  0
LINE
  5
295
100
AcDbEntity
  8
IMPORT_IGES
100
AcDbLine
 62
253
  6
CONTINUOUS
 10
9.3757516997
 20
-44.4434631751
 11
15.8757516997
 21
-44.4434631751
  0
LINE
  5
296
100
AcDbEntity
  8
IMPORT_IGES
100
AcDbLine
 62
253
  6
CONTINUOUS
 10
-9.2242483003
 20
-44.4434631751
 11
-15.7242483003
 21
-44.4434631751
  0
LINE
  5
297
100
AcDbEntity
  8
IMPORT_IGES
100
AcDbLine
 62
253
  6
CONTINUOUS
 10
15.8757516997
 20
-43.9434631755
 11
18.0757516997
 21
-43.9434631439
  0
LINE
  5
298
100
AcDbEntity
  8
IMPORT_IGES
100
AcDbLine
 62
253
  6
CONTINUOUS
 10
-15.7242483003
 20
-43.9434631439
 11
-17.9242483003
 21
-43.9434631751
  0
LINE
  5
299
100
AcDbEntity
  8
IMPORT_IGES
100
AcDbLine
 62
7
  6
CONTINUOUS
 10
-15.7242483003
 20
-43.4434631751
 11
-11.2242483003
 21
-43.4434631751
  0
LINE
  5
29A
100
AcDbEntity
  8
IMPORT_IGES
100
AcDbLine
 62
7
  6
CONTINUOUS
 10
11.3757516997
 20
-43.4434631751
 11
15.8757516997
 21
-43.4434631751
  0
LINE
  5
29B
100
AcDbEntity
  8
IMPORT_IGES
100
AcDbLine
 62
7
  6
CONTINUOUS
 10
3.0757516997
 20
-41.2934631751
 11
-2.9242483003
 21
-41.2934631751
  0
LINE
  5
29C
100
AcDbEntity
  8
IMPORT_IGES
100
AcDbLine
 62
7
  6
CONTINUOUS
 10
3.0757516997
 20
-39.7934631751
 11
-2.9242483003
 21
-39.7934631751
  0
LINE
  5
29D
100
AcDbEntity
  8
IMPORT_IGES
100
AcDbLine
 62
7
  6
CONTINUOUS
 10
-9.2242483003
 20
-39.3431655639
 11
-5.6242483003
 21
-39.3431655639
  0
LINE
  5
29E
100
AcDbEntity
  8
IMPORT_IGES
100
AcDbLine
 62
7
  6
CONTINUOUS
 10
5.7757516997
 20
-39.3431655639
 11
9.3757516997
 21
-39.3431655639
  0
LINE
  5
29F
100
AcDbEntity
  8
IMPORT_IGES
100
AcDbLine
 62
7
  6
CONTINUOUS
 10
-7.8710567577
 20
37.2648698404
 11
-7.7433971984
 21
37.3482038095
  0
LINE
  5
2A0
100
AcDbEntity
  8
IMPORT_IGES
100
AcDbLine
 62
7
  6
CONTINUOUS
 10
-7.4029717071
 20
35.7648698404
 11
-6.4242483003
 21
36.1398698404
  0
LINE
  5
2A1
100
AcDbEntity
  8
IMPORT_IGES
100
AcDbLine
 62
7
  6
CONTINUOUS
 10
-6.4242483003
 20
35.8482038095
 11
-7.3178653342
 21
35.5148698404
  0
LINE
  5
2A2
100
AcDbEntity
  8
IMPORT_IGES
100
AcDbLine
 62
7
  6
CONTINUOUS
 10
-8.083822809
 20
36.0565368249
 11
-7.9561632497
 21
36.0982038095
  0
LINE
  5
2A3
100
AcDbEntity
  8
IMPORT_IGES
100
AcDbLine
 62
7
  6
CONTINUOUS
 10
-7.9561632497
 20
35.8482038095
 11
-8.083822809
 21
35.8065368249
  0
LINE
  5
2A4
100
AcDbEntity
  8
IMPORT_IGES
100
AcDbLine
 62
7
  6
CONTINUOUS
 10
-9.2242483003
 20
-35.9434631751
 11
9.3757516997
 21
-35.9434631751
  0
LINE
  5
2A5
100
AcDbEntity
  8
IMPORT_IGES
100
AcDbLine
 62
7
  6
CONTINUOUS
 10
-4.8627800125
 20
-39.7827994848
 11
-5.6242483003
 21
-39.3431655639
  0
LINE
  5
2A6
100
AcDbEntity
  8
IMPORT_IGES
100
AcDbLine
 62
7
  6
CONTINUOUS
 10
-8.2540355546
 20
35.9315368249
 11
-8.083822809
 21
36.0565368249
  0
LINE
  5
2A7
100
AcDbEntity
  8
IMPORT_IGES
100
AcDbLine
 62
7
  6
CONTINUOUS
 10
-14.2624440168
 20
31.298677573
 11
-13.5651074551
 21
31.7635686142
  0
LINE
  5
2A8
100
AcDbEntity
  8
IMPORT_IGES
100
AcDbLine
 62
7
  6
CONTINUOUS
 10
-12.8688445453
 20
32.2277438873
 11
-11.5365715127
 21
33.1159259091
  0
LINE
  5
2A9
100
AcDbEntity
  8
IMPORT_IGES
100
AcDbLine
 62
7
  6
CONTINUOUS
 10
-11.278696361
 20
32.7291131814
 11
-12.6109693936
 21
31.8409311597
  0
LINE
  5
2AA
100
AcDbEntity
  8
IMPORT_IGES
100
AcDbLine
 62
7
  6
CONTINUOUS
 10
-13.3072323033
 20
31.3767558865
 11
-14.0045688651
 21
30.9118648454
  0
LINE
  5
2AB
100
AcDbEntity
  8
IMPORT_IGES
100
AcDbLine
 62
7
  6
CONTINUOUS
 10
-8.083822809
 20
31.3482038095
 11
-7.9561632497
 21
31.3898698404
  0
LWPOLYLINE
  5
2AC
100
AcDbEntity
  8
IMPORT_IGES
100
AcDbPolyline
 62
253
  6
CONTINUOUS
 90
19
 70
0
 10
-17.9242483003
 20
44.1261233465
 10
-17.9223110882
 20
44.1322429554
 10
-17.916601068
 20
44.138247217
 10
-17.9072894927
 20
44.1440929927
 10
-17.8946537511
 20
44.1497084813
 10
-17.8788608209
 20
44.1550926034
 10
-17.8597721436
 20
44.1603041822
 10
-17.837348177
 20
44.1653268578
 10
-17.8117859857
 20
44.1700929453
 10
-17.7831485092
 20
44.1745729364
 10
-17.7515121176
 20
44.1787334576
 10
-17.7171111153
 20
44.182523929
 10
-17.6802965607
 20
44.1858932061
 10
-17.6414051967
 20
44.188804271
 10
-17.6006475475
 20
44.1912354639
 10
-17.5582368988
 20
44.1931648159
 10
-17.5144581756
 20
44.1945679906
 10
-17.4696766893
 20
44.1954221141
 10
-17.4242483003
 20
44.1957099262
  0
LINE
  5
2AD
100
AcDbEntity
  8
IMPORT_IGES
100
AcDbLine
 62
7
  6
CONTINUOUS
 10
-8.083822809
 20
35.8065368249
 11
-8.1689291818
 21
35.7232038095
  0
LINE
  5
2AE
100
AcDbEntity
  8
IMPORT_IGES
100
AcDbLine
 62
7
  6
CONTINUOUS
 10
-8.2540355546
 20
31.2232038095
 11
-8.083822809
 21
31.3482038095
  0
LINE
  5
2AF
100
AcDbEntity
  8
IMPORT_IGES
100
AcDbLine
 62
7
  6
CONTINUOUS
 10
-9.4593572591
 20
31.0565368249
 11
-10.1566938209
 21
30.5916457838
  0
LINE
  5
2B0
100
AcDbEntity
  8
IMPORT_IGES
100
AcDbLine
 62
7
  6
CONTINUOUS
 10
-7.9561632497
 20
31.1815368249
 11
-8.083822809
 21
31.0982038095
  0
LINE
  5
2B1
100
AcDbEntity
  8
IMPORT_IGES
100
AcDbLine
 62
7
  6
CONTINUOUS
 10
-6.8923334105
 20
30.2648703172
 11
-6.7646738214
 21
30.3482033327
  0
LINE
  5
2B2
100
AcDbEntity
  8
IMPORT_IGES
100
AcDbLine
 62
7
  6
CONTINUOUS
 10
-7.9561632497
 20
29.3482033327
 11
-8.083822809
 21
29.2648703172
  0
LINE
  5
2B3
100
AcDbEntity
  8
IMPORT_IGES
100
AcDbLine
 62
7
  6
CONTINUOUS
 10
-12.4917832263
 20
28.6718234002
 11
-11.718157771
 21
28.9941673399
  0
LINE
  5
2B4
100
AcDbEntity
  8
IMPORT_IGES
100
AcDbLine
 62
7
  6
CONTINUOUS
 10
-7.4029717071
 20
31.3898698404
 11
-7.190205775
 21
31.4732038095
  0
LINE
  5
2B5
100
AcDbEntity
  8
IMPORT_IGES
100
AcDbLine
 62
7
  6
CONTINUOUS
 10
-6.7646738214
 20
30.0982033327
 11
-6.9774397833
 21
30.0148703172
  0
LINE
  5
2B6
100
AcDbEntity
  8
IMPORT_IGES
100
AcDbLine
 62
7
  6
CONTINUOUS
 10
-7.4029717071
 20
29.5565368249
 11
-7.190205775
 21
29.6398703172
  0
LINE
  5
2B7
100
AcDbEntity
  8
IMPORT_IGES
100
AcDbLine
 62
7
  6
CONTINUOUS
 10
-6.7646738214
 20
28.2648703172
 11
-6.9774397833
 21
28.1815368249
  0
LINE
  5
2B8
100
AcDbEntity
  8
IMPORT_IGES
100
AcDbLine
 62
7
  6
CONTINUOUS
 10
-7.147652529
 20
31.2648698404
 11
-7.2753121478
 21
31.2232038095
  0
LINE
  5
2B9
100
AcDbEntity
  8
IMPORT_IGES
100
AcDbLine
 62
7
  6
CONTINUOUS
 10
-7.0199929697
 20
30.2232033327
 11
-6.8923334105
 21
30.2648703172
  0
LINE
  5
2BA
100
AcDbEntity
  8
IMPORT_IGES
100
AcDbLine
 62
7
  6
CONTINUOUS
 10
-8.083822809
 20
29.5148703172
 11
-7.9561632497
 21
29.5565368249
  0
LINE
  5
2BB
100
AcDbEntity
  8
IMPORT_IGES
100
AcDbLine
 62
7
  6
CONTINUOUS
 10
-7.147652529
 20
29.4315368249
 11
-7.2753121478
 21
29.3898703172
  0
LINE
  5
2BC
100
AcDbEntity
  8
IMPORT_IGES
100
AcDbLine
 62
7
  6
CONTINUOUS
 10
-7.0199929697
 20
28.3898703172
 11
-6.8923334105
 21
28.4315368249
  0
LWPOLYLINE
  5
2BD
100
AcDbEntity
  8
IMPORT_IGES
100
AcDbPolyline
 62
7
  6
CONTINUOUS
 90
16
 70
0
 10
-1.7882787379
 20
-30.7434631751
 10
-1.7842784882
 20
-30.7423315115
 10
-1.7775100652
 20
-30.7405250152
 10
-1.7695769601
 20
-30.7385374661
 10
-1.7605134428
 20
-30.7363970118
 10
-1.7502659584
 20
-30.7341083729
 10
-1.7389730662
 20
-30.7317161533
 10
-1.7266481025
 20
-30.7292326545
 10
-1.7132638499
 20
-30.7266609435
 10
-1.6988970464
 20
-30.7240226792
 10
-1.6835524736
 20
-30.7213238699
 10
-1.6672139839
 20
-30.7185663569
 10
-1.6499262032
 20
-30.7157615557
 10
-1.6316900435
 20
-30.7129126429
 10
-1.6124972469
 20
-30.7100208237
 10
-1.5923811542
 20
-30.7070926835
  0
LWPOLYLINE
  5
2BE
100
AcDbEntity
  8
IMPORT_IGES
100
AcDbPolyline
 62
7
  6
CONTINUOUS
 90
17
 70
0
 10
1.6836271105
 20
-30.401873961
 10
1.7162469318
 20
-30.3973655922
 10
1.7477088475
 20
-30.3928589344
 10
1.7780106879
 20
-30.3883530781
 10
1.807161964
 20
-30.3838452979
 10
1.8351675638
 20
-30.3793333809
 10
1.8620277055
 20
-30.3748157914
 10
1.8877634141
 20
-30.3702873031
 10
1.9124246465
 20
-30.3657366251
 10
1.9360133298
 20
-30.3611602255
 10
1.9585615704
 20
-30.3565482039
 10
1.9801779534
 20
-30.3518723073
 10
2.0008587163
 20
-30.3471252953
 10
2.0206570253
 20
-30.3422869297
 10
2.0397794375
 20
-30.3372930029
 10
2.0582043392
 20
-30.3321295407
 10
2.0757516997
 20
-30.3268325911
  0
LINE
  5
2BF
100
AcDbEntity
  8
IMPORT_IGES
100
AcDbLine
 62
7
  6
CONTINUOUS
 10
-1.5951400892
 20
-29.707505005
 11
-1.5533569621
 21
-29.7016776416
  0
LWPOLYLINE
  5
2C0
100
AcDbEntity
  8
IMPORT_IGES
100
AcDbPolyline
 62
7
  6
CONTINUOUS
 90
16
 70
0
 10
-1.6156405723
 20
-29.2072479583
 10
-1.6426144364
 20
-29.2109500091
 10
-1.6684626213
 20
-29.2146269736
 10
-1.6932525847
 20
-29.2182874215
 10
-1.7169982457
 20
-29.2219326971
 10
-1.7397263675
 20
-29.2255662097
 10
-1.7615218536
 20
-29.2292015791
 10
-1.7823920978
 20
-29.2328407633
 10
-1.8023679199
 20
-29.2364900429
 10
-1.8215677789
 20
-29.2401736756
 10
-1.8399818052
 20
-29.2438938581
 10
-1.8576543546
 20
-29.247664261
 10
-1.8747825572
 20
-29.2515362298
 10
-1.8913938541
 20
-29.2555307403
 10
-1.9074798809
 20
-29.2596627195
 10
-1.9242483003
 20
-29.2642966816
  0
LWPOLYLINE
  5
2C1
100
AcDbEntity
  8
IMPORT_IGES
100
AcDbPolyline
 62
253
  6
CONTINUOUS
 90
7
 70
0
 10
-1.9242483003
 20
-30.4724198082
 10
-1.858564098
 20
-30.4634420621
 10
-1.7856193441
 20
-30.4544206497
 10
-1.7056782712
 20
-30.4453534177
 10
-1.6190323743
 20
-30.4362397381
 10
-1.5259496607
 20
-30.4270758992
 10
-1.4266645143
 20
-30.4178550565
  0
LWPOLYLINE
  5
2C2
100
AcDbEntity
  8
IMPORT_IGES
100
AcDbPolyline
 62
253
  6
CONTINUOUS
 90
7
 70
0
 10
-1.9242483003
 20
-29.4724447972
 10
-1.8577980599
 20
-29.4633630671
 10
-1.7842696281
 20
-29.4542713437
 10
-1.7039119512
 20
-29.4451673529
 10
-1.6170928994
 20
-29.4360521894
 10
-1.5241763373
 20
-29.4269211463
 10
-1.4254484518
 20
-29.4177634226
  0
LINE
  5
2C3
100
AcDbEntity
  8
IMPORT_IGES
100
AcDbLine
 62
7
  6
CONTINUOUS
 10
-1.5923811542
 20
-30.7070926835
 11
-1.5493908406
 21
-30.7011332783
  0
LINE
  5
2C4
100
AcDbEntity
  8
IMPORT_IGES
100
AcDbLine
 62
7
  6
CONTINUOUS
 10
1.6599417733
 20
-28.9020861364
 11
1.6070366145
 21
-28.9093937921
  0
LWPOLYLINE
  5
2C5
100
AcDbEntity
  8
IMPORT_IGES
100
AcDbPolyline
 62
7
  6
CONTINUOUS
 90
17
 70
0
 10
-1.6055221718
 20
-30.2058807412
 10
-1.6330336257
 20
-30.209605181
 10
-1.659453957
 20
-30.2133110303
 10
-1.6848223766
 20
-30.2170042471
 10
-1.7091467127
 20
-30.2206865569
 10
-1.7324484642
 20
-30.2243611115
 10
-1.7547902014
 20
-30.228037814
 10
-1.7761661369
 20
-30.2317160349
 10
-1.7966235483
 20
-30.2354044016
 10
-1.816301856
 20
-30.239130683
 10
-1.8352283187
 20
-30.2429050443
 10
-1.8534026891
 20
-30.2467331373
 10
-1.8709294574
 20
-30.2506448687
 10
-1.8878251726
 20
-30.2546547687
 10
-1.9041148135
 20
-30.2587813251
 10
-1.919945387
 20
-30.2630796857
 10
-1.9242483003
 20
-30.2643035646
  0
LWPOLYLINE
  5
2C6
100
AcDbEntity
  8
IMPORT_IGES
100
AcDbPolyline
 62
7
  6
CONTINUOUS
 90
18
 70
0
 10
1.6543186902
 20
-29.4058149795
 10
1.689982754
 20
-29.4010293513
 10
1.7241445325
 20
-29.3962726928
 10
1.7567787889
 20
-29.3915506497
 10
1.7878936616
 20
-29.3868652525
 10
1.8175486951
 20
-29.3822108515
 10
1.8458100766
 20
-29.3775799182
 10
1.8727008763
 20
-29.3729713789
 10
1.8982707125
 20
-29.3683794458
 10
1.922629679
 20
-29.3637859215
 10
1.9457926546
 20
-29.3591886976
 10
1.9678186095
 20
-29.3545764891
 10
1.9888844708
 20
-29.3499094465
 10
2.0090059508
 20
-29.3451781334
 10
2.0282333515
 20
-29.3403635662
 10
2.0467992735
 20
-29.3353934618
 10
2.0647232385
 20
-29.3302407003
 10
2.0757516997
 20
-29.3268691413
  0
LINE
  5
2C7
100
AcDbEntity
  8
IMPORT_IGES
100
AcDbLine
 62
7
  6
CONTINUOUS
 10
1.6465037313
 20
-29.9039643783
 11
1.5906627948
 21
-29.9115540763
  0
LINE
  5
2C8
100
AcDbEntity
  8
IMPORT_IGES
100
AcDbLine
 62
7
  6
CONTINUOUS
 10
-1.5533569621
 20
-29.7016776416
 11
-1.5077610134
 21
-29.6956895862
  0
LINE
  5
2C9
100
AcDbEntity
  8
IMPORT_IGES
100
AcDbLine
 62
7
  6
CONTINUOUS
 10
1.6149913606
 20
-30.4108906812
 11
1.6836271105
 21
-30.401873961
  0
LINE
  5
2CA
100
AcDbEntity
  8
IMPORT_IGES
100
AcDbLine
 62
7
  6
CONTINUOUS
 10
-1.5493908406
 20
-30.7011332783
 11
-1.5028224267
 21
-30.6950545521
  0
LINE
  5
2CB
100
AcDbEntity
  8
IMPORT_IGES
100
AcDbLine
 62
7
  6
CONTINUOUS
 10
1.6070366145
 20
-28.9093937921
 11
1.5500719635
 21
-28.916809685
  0
LINE
  5
2CC
100
AcDbEntity
  8
IMPORT_IGES
100
AcDbLine
 62
7
  6
CONTINUOUS
 10
-1.5582219773
 20
-29.1997611917
 11
-1.6156405723
 21
-29.2072479583
  0
LINE
  5
2CD
100
AcDbEntity
  8
IMPORT_IGES
100
AcDbLine
 62
7
  6
CONTINUOUS
 10
-1.5471818358
 20
-30.1983691561
 11
-1.6055221718
 21
-30.2058807412
  0
LINE
  5
2CE
100
AcDbEntity
  8
IMPORT_IGES
100
AcDbLine
 62
7
  6
CONTINUOUS
 10
1.5906627948
 20
-29.9115540763
 11
1.5301605692
 21
-29.9192996956
  0
LINE
  5
2CF
100
AcDbEntity
  8
IMPORT_IGES
100
AcDbLine
 62
7
  6
CONTINUOUS
 10
1.5784233274
 20
-29.4154796219
 11
1.6543186902
 21
-29.4058149795
  0
LINE
  5
2D0
100
AcDbEntity
  8
IMPORT_IGES
100
AcDbLine
 62
7
  6
CONTINUOUS
 10
-1.5077610134
 20
-29.6956895862
 11
-1.4582653101
 21
-29.6895415021
  0
LINE
  5
2D1
100
AcDbEntity
  8
IMPORT_IGES
100
AcDbLine
 62
7
  6
CONTINUOUS
 10
-1.5028224267
 20
-30.6950545521
 11
-1.4527546657
 21
-30.6888691983
  0
LINE
  5
2D2
100
AcDbEntity
  8
IMPORT_IGES
100
AcDbLine
 62
7
  6
CONTINUOUS
 10
1.5500719635
 20
-28.916809685
 11
1.4891161442
 21
-28.9243248799
  0
LINE
  5
2D3
100
AcDbEntity
  8
IMPORT_IGES
100
AcDbLine
 62
7
  6
CONTINUOUS
 10
1.5418986112
 20
-30.4199081278
 11
1.6149913606
 21
-30.4108906812
  0
LINE
  5
2D4
100
AcDbEntity
  8
IMPORT_IGES
100
AcDbLine
 62
7
  6
CONTINUOUS
 10
-1.495957475
 20
-29.192142426
 11
-1.5582219773
 21
-29.1997611917
  0
LINE
  5
2D5
100
AcDbEntity
  8
IMPORT_IGES
100
AcDbLine
 62
7
  6
CONTINUOUS
 10
1.5301605692
 20
-29.9192996956
 11
1.4649217023
 21
-29.9271985468
  0
LINE
  5
2D6
100
AcDbEntity
  8
IMPORT_IGES
100
AcDbLine
 62
7
  6
CONTINUOUS
 10
-1.4843019914
 20
-30.1907577428
 11
-1.5471818358
 21
-30.1983691561
  0
LINE
  5
2D7
100
AcDbEntity
  8
IMPORT_IGES
100
AcDbLine
 62
7
  6
CONTINUOUS
 10
1.4966695541
 20
-29.425242273
 11
1.5784233274
 21
-29.4154796219
  0
LINE
  5
2D8
100
AcDbEntity
  8
IMPORT_IGES
100
AcDbLine
 62
7
  6
CONTINUOUS
 10
-1.4582653101
 20
-29.6895415021
 11
-1.4048354989
 21
-29.6832372676
  0
LINE
  5
2D9
100
AcDbEntity
  8
IMPORT_IGES
100
AcDbLine
 62
7
  6
CONTINUOUS
 10
-1.4527546657
 20
-30.6888691983
 11
-1.3992962654
 21
-30.6825904835
  0
LINE
  5
2DA
100
AcDbEntity
  8
IMPORT_IGES
100
AcDbLine
 62
7
  6
CONTINUOUS
 10
1.4891161442
 20
-28.9243248799
 11
1.4242327929
 21
-28.9319330094
  0
LINE
  5
2DB
100
AcDbEntity
  8
IMPORT_IGES
100
AcDbLine
 62
7
  6
CONTINUOUS
 10
1.4645693515
 20
-30.4289153181
 11
1.5418986112
 21
-30.4199081278
  0
LINE
  5
2DC
100
AcDbEntity
  8
IMPORT_IGES
100
AcDbLine
 62
7
  6
CONTINUOUS
 10
-1.4287074127
 20
-29.184378008
 11
-1.495957475
 21
-29.192142426
  0
LINE
  5
2DD
100
AcDbEntity
  8
IMPORT_IGES
100
AcDbLine
 62
7
  6
CONTINUOUS
 10
1.4649217023
 20
-29.9271985468
 11
1.3949280894
 21
-29.9352472449
  0
LINE
  5
2DE
100
AcDbEntity
  8
IMPORT_IGES
100
AcDbLine
 62
7
  6
CONTINUOUS
 10
-1.4168019682
 20
-30.1830351985
 11
-1.4843019914
 21
-30.1907577428
  0
LINE
  5
2DF
100
AcDbEntity
  8
IMPORT_IGES
100
AcDbLine
 62
7
  6
CONTINUOUS
 10
-1.4048354989
 20
-29.6832372676
 11
-1.3474675964
 21
-29.6767823193
  0
LINE
  5
2E0
100
AcDbEntity
  8
IMPORT_IGES
100
AcDbLine
 62
7
  6
CONTINUOUS
 10
1.4092688597
 20
-29.4350869789
 11
1.4966695541
 21
-29.425242273
  0
LINE
  5
2E1
100
AcDbEntity
  8
IMPORT_IGES
100
AcDbLine
 62
7
  6
CONTINUOUS
 10
-1.3992962654
 20
-30.6825904835
 11
-1.3425240225
 21
-30.676225322
  0
LINE
  5
2E2
100
AcDbEntity
  8
IMPORT_IGES
100
AcDbLine
 62
7
  6
CONTINUOUS
 10
1.4242327929
 20
-28.9319330094
 11
1.3554818097
 21
-28.9396296821
  0
LINE
  5
2E3
100
AcDbEntity
  8
IMPORT_IGES
100
AcDbLine
 62
7
  6
CONTINUOUS
 10
1.3833373815
 20
-30.4378978616
 11
1.4645693515
 21
-30.4289153181
  0
LINE
  5
2E4
100
AcDbEntity
  8
IMPORT_IGES
100
AcDbLine
 62
7
  6
CONTINUOUS
 10
1.3949280894
 20
-29.9352472449
 11
1.3201630217
 21
-29.9434454199
  0
LINE
  5
2E5
100
AcDbEntity
  8
IMPORT_IGES
100
AcDbLine
 62
7
  6
CONTINUOUS
 10
-1.3563610313
 20
-29.176456957
 11
-1.4287074127
 21
-29.184378008
  0
LINE
  5
2E6
100
AcDbEntity
  8
IMPORT_IGES
100
AcDbLine
 62
7
  6
CONTINUOUS
 10
-1.344623307
 20
-30.1751926463
 11
-1.4168019682
 21
-30.1830351985
  0
LINE
  5
2E7
100
AcDbEntity
  8
IMPORT_IGES
100
AcDbLine
 62
7
  6
CONTINUOUS
 10
1.3166132128
 20
-29.4449844635
 11
1.4092688597
 21
-29.4350869789
  0
LINE
  5
2E8
100
AcDbEntity
  8
IMPORT_IGES
100
AcDbLine
 62
7
  6
CONTINUOUS
 10
-1.3474675964
 20
-29.6767823193
 11
-1.2541906641
 21
-29.666841538
  0
LINE
  5
2E9
100
AcDbEntity
  8
IMPORT_IGES
100
AcDbLine
 62
7
  6
CONTINUOUS
 10
1.2985173525
 20
-30.4468472344
 11
1.3833373815
 21
-30.4378978616
  0
LINE
  5
2EA
100
AcDbEntity
  8
IMPORT_IGES
100
AcDbLine
 62
7
  6
CONTINUOUS
 10
-1.3425240225
 20
-30.676225322
 11
-1.2512707084
 21
-30.6665215286
  0
LINE
  5
2EB
100
AcDbEntity
  8
IMPORT_IGES
100
AcDbLine
 62
7
  6
CONTINUOUS
 10
1.3554818097
 20
-28.9396296821
 11
1.2452188412
 21
-28.951335749
  0
LINE
  5
2EC
100
AcDbEntity
  8
IMPORT_IGES
100
AcDbLine
 62
7
  6
CONTINUOUS
 10
-1.2790628486
 20
-29.1683936587
 11
-1.3563610313
 21
-29.176456957
  0
LINE
  5
2ED
100
AcDbEntity
  8
IMPORT_IGES
100
AcDbLine
 62
7
  6
CONTINUOUS
 10
-1.2678159631
 20
-30.1672317738
 11
-1.344623307
 21
-30.1751926463
  0
LINE
  5
2EE
100
AcDbEntity
  8
IMPORT_IGES
100
AcDbLine
 62
7
  6
CONTINUOUS
 10
1.3201630217
 20
-29.9434454199
 11
1.1990226308
 21
-29.9560264246
  0
LINE
  5
2EF
100
AcDbEntity
  8
IMPORT_IGES
100
AcDbLine
 62
7
  6
CONTINUOUS
 10
1.2191990335
 20
-29.4549022147
 11
1.3166132128
 21
-29.4449844635
  0
LINE
  5
2F0
100
AcDbEntity
  8
IMPORT_IGES
100
AcDbLine
 62
7
  6
CONTINUOUS
 10
-1.2512707084
 20
-30.6665215286
 11
-1.1528126202
 21
-30.6566300075
  0
LINE
  5
2F1
100
AcDbEntity
  8
IMPORT_IGES
100
AcDbLine
 62
7
  6
CONTINUOUS
 10
-1.2541906641
 20
-29.666841538
 11
-1.1524836571
 21
-29.6566156479
  0
LINE
  5
2F2
100
AcDbEntity
  8
IMPORT_IGES
100
AcDbLine
 62
7
  6
CONTINUOUS
 10
1.2452188412
 20
-28.951335749
 11
1.1265564046
 21
-28.9632311424
  0
LINE
  5
2F3
100
AcDbEntity
  8
IMPORT_IGES
100
AcDbLine
 62
7
  6
CONTINUOUS
 10
1.1654286664
 20
-30.460176681
 11
1.2985173525
 21
-30.4468472344
  0
LWPOLYLINE
  5
2F4
100
AcDbEntity
  8
IMPORT_IGES
100
AcDbPolyline
 62
253
  6
CONTINUOUS
 90
8
 70
0
 10
1.4707250819
 20
-29.1955295047
 10
1.5758985959
 20
-29.1853484638
 10
1.6752512859
 20
-29.1751621784
 10
1.7685465481
 20
-29.1649615741
 10
1.8555532471
 20
-29.1547340502
 10
1.9359468545
 20
-29.144476593
 10
2.0094208852
 20
-29.1341962376
 10
2.0757516997
 20
-29.1238953522
  0
LINE
  5
2F5
100
AcDbEntity
  8
IMPORT_IGES
100
AcDbLine
 62
7
  6
CONTINUOUS
 10
-1.1541391909
 20
-29.1560507292
 11
-1.2790628486
 21
-29.1683936587
  0
LWPOLYLINE
  5
2F6
100
AcDbEntity
  8
IMPORT_IGES
100
AcDbPolyline
 62
253
  6
CONTINUOUS
 90
8
 70
0
 10
1.4706532113
 20
-30.1955230772
 10
1.5755567367
 20
-30.185374068
 10
1.6748933942
 20
-30.1751935396
 10
1.7682585553
 20
-30.1649826588
 10
1.8552989294
 20
-30.1547444854
 10
1.9357389263
 20
-30.14448164
 10
2.0093128291
 20
-30.1341959779
 10
2.0757516997
 20
-30.1238897414
  0
LINE
  5
2F7
100
AcDbEntity
  8
IMPORT_IGES
100
AcDbLine
 62
7
  6
CONTINUOUS
 10
-1.1440659127
 20
-30.1550697534
 11
-1.2678159631
 21
-30.1672317738
  0
LINE
  5
2F8
100
AcDbEntity
  8
IMPORT_IGES
100
AcDbLine
 62
7
  6
CONTINUOUS
 10
1.1990226308
 20
-29.9560264246
 11
1.0672763589
 21
-29.9689334169
  0
LINE
  5
2F9
100
AcDbEntity
  8
IMPORT_IGES
100
AcDbLine
 62
7
  6
CONTINUOUS
 10
1.0652344886
 20
-29.469762471
 11
1.2191990335
 21
-29.4549022147
  0
LINE
  5
2FA
100
AcDbEntity
  8
IMPORT_IGES
100
AcDbLine
 62
7
  6
CONTINUOUS
 10
-1.1524836571
 20
-29.6566156479
 11
-1.042697062
 21
-29.6461298873
  0
LINE
  5
2FB
100
AcDbEntity
  8
IMPORT_IGES
100
AcDbLine
 62
7
  6
CONTINUOUS
 10
1.1265564046
 20
-28.9632311424
 11
0.9996998796
 21
-28.9753151027
  0
LINE
  5
2FC
100
AcDbEntity
  8
IMPORT_IGES
100
AcDbLine
 62
7
  6
CONTINUOUS
 10
1.0258873225
 20
-30.4734123125
 11
1.1654286664
 21
-30.460176681
  0
LINE
  5
2FD
100
AcDbEntity
  8
IMPORT_IGES
100
AcDbLine
 62
7
  6
CONTINUOUS
 10
-1.1528126202
 20
-30.6566300075
 11
-1.010606485
 21
-30.6431426714
  0
LINE
  5
2FE
100
AcDbEntity
  8
IMPORT_IGES
100
AcDbLine
 62
7
  6
CONTINUOUS
 10
-1.0191912374
 20
-29.1434526368
 11
-1.1541391909
 21
-29.1560507292
  0
LINE
  5
2FF
100
AcDbEntity
  8
IMPORT_IGES
100
AcDbLine
 62
7
  6
CONTINUOUS
 10
-1.0105207289
 20
-30.1426533877
 11
-1.1440659127
 21
-30.1550697534
  0
LINE
  5
300
100
AcDbEntity
  8
IMPORT_IGES
100
AcDbLine
 62
7
  6
CONTINUOUS
 10
1.0672763589
 20
-29.9689334169
 11
0.8763759164
 21
-29.98656026
  0
LINE
  5
301
100
AcDbEntity
  8
IMPORT_IGES
100
AcDbLine
 62
7
  6
CONTINUOUS
 10
-1.042697062
 20
-29.6461298873
 11
-0.8845291096
 21
-29.6317833175
  0
LINE
  5
302
100
AcDbEntity
  8
IMPORT_IGES
100
AcDbLine
 62
7
  6
CONTINUOUS
 10
0.9996998796
 20
-28.9753151027
 11
0.8184062429
 21
-28.991723941
  0
LINE
  5
303
100
AcDbEntity
  8
IMPORT_IGES
100
AcDbLine
 62
7
  6
CONTINUOUS
 10
0.8488659556
 20
-29.489379755
 11
1.0652344886
 21
-29.469762471
  0
LINE
  5
304
100
AcDbEntity
  8
IMPORT_IGES
100
AcDbLine
 62
7
  6
CONTINUOUS
 10
0.8314860942
 20
-30.4908950839
 11
1.0258873225
 21
-30.4734123125
  0
LINE
  5
305
100
AcDbEntity
  8
IMPORT_IGES
100
AcDbLine
 62
253
  6
CONTINUOUS
 10
1.2458316269
 20
-30.2157166513
 11
1.4706532113
 21
-30.1955230772
  0
LINE
  5
306
100
AcDbEntity
  8
IMPORT_IGES
100
AcDbLine
 62
253
  6
CONTINUOUS
 10
1.2448801102
 20
-29.2158163672
 11
1.4707250819
 21
-29.1955295047
  0
LINE
  5
307
100
AcDbEntity
  8
IMPORT_IGES
100
AcDbLine
 62
7
  6
CONTINUOUS
 10
-1.010606485
 20
-30.6431426714
 11
-0.8161208239
 21
-30.6257822176
  0
LINE
  5
308
100
AcDbEntity
  8
IMPORT_IGES
100
AcDbLine
 62
7
  6
CONTINUOUS
 10
-0.8255965023
 20
-29.1263427669
 11
-1.0191912374
 21
-29.1434526368
  0
LINE
  5
309
100
AcDbEntity
  8
IMPORT_IGES
100
AcDbLine
 62
7
  6
CONTINUOUS
 10
-0.8185695521
 20
-30.1257268554
 11
-1.0105207289
 21
-30.1426533877
  0
LINE
  5
30A
100
AcDbEntity
  8
IMPORT_IGES
100
AcDbLine
 62
7
  6
CONTINUOUS
 10
0.8763759164
 20
-29.98656026
 11
0.6170691778
 21
-30.0090676136
  0
LINE
  5
30B
100
AcDbEntity
  8
IMPORT_IGES
100
AcDbLine
 62
253
  6
CONTINUOUS
 10
-1.4266645143
 20
-30.4178550565
 11
-1.2103752899
 21
-30.3992104224
  0
LINE
  5
30C
100
AcDbEntity
  8
IMPORT_IGES
100
AcDbLine
 62
253
  6
CONTINUOUS
 10
-1.4254484518
 20
-29.4177634226
 11
-1.2120189927
 21
-29.3993598351
  0
LINE
  5
30D
100
AcDbEntity
  8
IMPORT_IGES
100
AcDbLine
 62
7
  6
CONTINUOUS
 10
-0.8845291096
 20
-29.6317833175
 11
-0.6245444675
 21
-29.6095273601
  0
LINE
  5
30E
100
AcDbEntity
  8
IMPORT_IGES
100
AcDbLine
 62
7
  6
CONTINUOUS
 10
0.5695141319
 20
-29.5132276519
 11
0.8488659556
 21
-29.489379755
  0
LINE
  5
30F
100
AcDbEntity
  8
IMPORT_IGES
100
AcDbLine
 62
7
  6
CONTINUOUS
 10
0.8184062429
 20
-28.991723941
 11
0.5226083618
 21
-29.0169907
  0
LINE
  5
310
100
AcDbEntity
  8
IMPORT_IGES
100
AcDbLine
 62
7
  6
CONTINUOUS
 10
0.5278111487
 20
-30.516670726
 11
0.8314860942
 21
-30.4908950839
  0
LINE
  5
311
100
AcDbEntity
  8
IMPORT_IGES
100
AcDbLine
 62
7
  6
CONTINUOUS
 10
-0.8161208239
 20
-30.6257822176
 11
-0.5150570035
 21
-30.6004704516
  0
LINE
  5
312
100
AcDbEntity
  8
IMPORT_IGES
100
AcDbLine
 62
253
  6
CONTINUOUS
 10
1.0038135108
 20
-30.2357548843
 11
1.2458316269
 21
-30.2157166513
  0
LINE
  5
313
100
AcDbEntity
  8
IMPORT_IGES
100
AcDbLine
 62
7
  6
CONTINUOUS
 10
-0.4512365422
 20
-30.0952075452
 11
-0.8185695521
 21
-30.1257268554
  0
LINE
  5
314
100
AcDbEntity
  8
IMPORT_IGES
100
AcDbLine
 62
253
  6
CONTINUOUS
 10
1.0017918459
 20
-29.2359270714
 11
1.2448801102
 21
-29.2158163672
  0
LINE
  5
315
100
AcDbEntity
  8
IMPORT_IGES
100
AcDbLine
 62
7
  6
CONTINUOUS
 10
-0.4587096331
 20
-29.0958279012
 11
-0.8255965023
 21
-29.1263427669
  0
LWPOLYLINE
  5
316
100
AcDbEntity
  8
IMPORT_IGES
100
AcDbPolyline
 62
7
  6
CONTINUOUS
 90
3
 70
0
 10
0.6170691778
 20
-30.0090676136
 10
0.0565886321
 20
-30.0546906768
 10
-0.4512365422
 20
-30.0952075452
  0
LINE
  5
317
100
AcDbEntity
  8
IMPORT_IGES
100
AcDbLine
 62
7
  6
CONTINUOUS
 10
-0.5150570035
 20
-30.6004704516
 11
0.5278111487
 21
-30.516670726
  0
LINE
  5
318
100
AcDbEntity
  8
IMPORT_IGES
100
AcDbLine
 62
7
  6
CONTINUOUS
 10
-0.6245444675
 20
-29.6095273601
 11
0.5695141319
 21
-29.5132276519
  0
LINE
  5
319
100
AcDbEntity
  8
IMPORT_IGES
100
AcDbLine
 62
7
  6
CONTINUOUS
 10
0.5226083618
 20
-29.0169907
 11
-0.4587096331
 21
-29.0958279012
  0
LINE
  5
31A
100
AcDbEntity
  8
IMPORT_IGES
100
AcDbLine
 62
253
  6
CONTINUOUS
 10
-1.2120189927
 20
-29.3993598351
 11
-0.97948463
 21
-29.3808035588
  0
LINE
  5
31B
100
AcDbEntity
  8
IMPORT_IGES
100
AcDbLine
 62
253
  6
CONTINUOUS
 10
-1.2103752899
 20
-30.3992104224
 11
-0.9744998484
 21
-30.3804074309
  0
LINE
  5
31C
100
AcDbEntity
  8
IMPORT_IGES
100
AcDbLine
 62
253
  6
CONTINUOUS
 10
0.6164610898
 20
-30.2654872219
 11
1.0038135108
 21
-30.2357548843
  0
LINE
  5
31D
100
AcDbEntity
  8
IMPORT_IGES
100
AcDbLine
 62
253
  6
CONTINUOUS
 10
0.6121104096
 20
-29.2658241911
 11
1.0017918459
 21
-29.2359270714
  0
LINE
  5
31E
100
AcDbEntity
  8
IMPORT_IGES
100
AcDbLine
 62
253
  6
CONTINUOUS
 10
-0.9744998484
 20
-30.3804074309
 11
-0.4612695379
 21
-30.3424754651
  0
LINE
  5
31F
100
AcDbEntity
  8
IMPORT_IGES
100
AcDbLine
 62
253
  6
CONTINUOUS
 10
-0.97948463
 20
-29.3808035588
 11
-0.4705642477
 21
-29.3431558139
  0
LINE
  5
320
100
AcDbEntity
  8
IMPORT_IGES
100
AcDbLine
 62
253
  6
CONTINUOUS
 10
-0.4612695379
 20
-30.3424754651
 11
0.6164610898
 21
-30.2654872219
  0
LINE
  5
321
100
AcDbEntity
  8
IMPORT_IGES
100
AcDbLine
 62
253
  6
CONTINUOUS
 10
-0.4705642477
 20
-29.3431558139
 11
0.6121104096
 21
-29.2658241911
  0
LINE
  5
322
100
AcDbEntity
  8
IMPORT_IGES
100
AcDbLine
 62
7
  6
CONTINUOUS
 10
2.0757516997
 20
-30.7434631751
 11
-1.9242483003
 21
-30.7434631751
  0
LINE
  5
323
100
AcDbEntity
  8
IMPORT_IGES
100
AcDbLine
 62
7
  6
CONTINUOUS
 10
2.0757516997
 20
-30.6234631751
 11
1.0757516997
 21
-30.6234631751
  0
LINE
  5
324
100
AcDbEntity
  8
IMPORT_IGES
100
AcDbLine
 62
7
  6
CONTINUOUS
 10
-0.6886763583
 20
-28.9709756763
 11
0.2050207953
 21
-29.0428529743
  0
LINE
  5
325
100
AcDbEntity
  8
IMPORT_IGES
100
AcDbLine
 62
7
  6
CONTINUOUS
 10
0.6790569332
 20
-29.5816569902
 11
0.2053321595
 21
-29.5428451342
  0
LINE
  5
326
100
AcDbEntity
  8
IMPORT_IGES
100
AcDbLine
 62
7
  6
CONTINUOUS
 10
-0.9035499217
 20
-29.9525675698
 11
-0.6816003704
 21
-29.9715490345
  0
LINE
  5
327
100
AcDbEntity
  8
IMPORT_IGES
100
AcDbLine
 62
7
  6
CONTINUOUS
 10
-0.9388689824
 20
-28.9494621392
 11
-0.6886763583
 21
-28.9709756763
  0
LINE
  5
328
100
AcDbEntity
  8
IMPORT_IGES
100
AcDbLine
 62
7
  6
CONTINUOUS
 10
0.937870485
 20
-29.6042286899
 11
0.6790569332
 21
-29.5816569902
  0
LINE
  5
329
100
AcDbEntity
  8
IMPORT_IGES
100
AcDbLine
 62
7
  6
CONTINUOUS
 10
-1.0746705229
 20
-29.9371371352
 11
-0.9035499217
 21
-29.9525675698
  0
LINE
  5
32A
100
AcDbEntity
  8
IMPORT_IGES
100
AcDbLine
 62
7
  6
CONTINUOUS
 10
-1.1200894933
 20
-28.9328923299
 11
-0.9388689824
 21
-28.9494621392
  0
LINE
  5
32B
100
AcDbEntity
  8
IMPORT_IGES
100
AcDbLine
 62
253
  6
CONTINUOUS
 10
-0.5348911106
 20
-28.7276562857
 11
0.4917217176
 21
-28.8222717379
  0
LINE
  5
32C
100
AcDbEntity
  8
IMPORT_IGES
100
AcDbLine
 62
7
  6
CONTINUOUS
 10
1.1268895948
 20
-29.6217770346
 11
0.937870485
 21
-29.6042286899
  0
LINE
  5
32D
100
AcDbEntity
  8
IMPORT_IGES
100
AcDbLine
 62
7
  6
CONTINUOUS
 10
-1.1936001593
 20
-29.925825717
 11
-1.0746705229
 21
-29.9371371352
  0
LINE
  5
32E
100
AcDbEntity
  8
IMPORT_IGES
100
AcDbLine
 62
253
  6
CONTINUOUS
 10
-0.6736824253
 20
-29.7142369253
 11
-0.3930275283
 21
-29.740955024
  0
LWPOLYLINE
  5
32F
100
AcDbEntity
  8
IMPORT_IGES
100
AcDbPolyline
 62
253
  6
CONTINUOUS
 90
3
 70
0
 10
0.4917217176
 20
-28.8222717379
 10
0.7136317269
 20
-28.8438187678
 10
0.8203397616
 20
-28.8546251641
  0
LINE
  5
330
100
AcDbEntity
  8
IMPORT_IGES
100
AcDbLine
 62
253
  6
CONTINUOUS
 10
-0.7460051284
 20
-28.707076469
 11
-0.5348911106
 21
-28.7276562857
  0
LINE
  5
331
100
AcDbEntity
  8
IMPORT_IGES
100
AcDbLine
 62
7
  6
CONTINUOUS
 10
-1.2447021183
 20
-28.9207861201
 11
-1.1200894933
 21
-28.9328923299
  0
LINE
  5
332
100
AcDbEntity
  8
IMPORT_IGES
100
AcDbLine
 62
7
  6
CONTINUOUS
 10
1.2578443985
 20
-29.6346714015
 11
1.1268895948
 21
-29.6217770346
  0
LINE
  5
333
100
AcDbEntity
  8
IMPORT_IGES
100
AcDbLine
 62
7
  6
CONTINUOUS
 10
-1.3041835034
 20
-29.9147202954
 11
-1.1936001593
 21
-29.925825717
  0
LINE
  5
334
100
AcDbEntity
  8
IMPORT_IGES
100
AcDbLine
 62
7
  6
CONTINUOUS
 10
-1.3223524821
 20
-28.9128470478
 11
-1.2447021183
 21
-28.9207861201
  0
LWPOLYLINE
  5
335
100
AcDbEntity
  8
IMPORT_IGES
100
AcDbPolyline
 62
253
  6
CONTINUOUS
 90
9
 70
0
 10
0.7002742802
 20
-29.8425032686
 10
0.8878762708
 20
-29.8616419395
 10
0.9879536924
 20
-29.8724006712
 10
1.0836875794
 20
-29.8831450799
 10
1.1749478731
 20
-29.893899237
 10
1.2618070204
 20
-29.9047182327
 10
1.3440184754
 20
-29.9156285547
 10
1.42091185
 20
-29.9266012931
 10
1.4419980455
 20
-29.9298677621
  0
LINE
  5
336
100
AcDbEntity
  8
IMPORT_IGES
100
AcDbLine
 62
7
  6
CONTINUOUS
 10
1.3794709739
 20
-29.647361723
 11
1.2578443985
 21
-29.6346714015
  0
LINE
  5
337
100
AcDbEntity
  8
IMPORT_IGES
100
AcDbLine
 62
7
  6
CONTINUOUS
 10
-1.3732372883
 20
-29.9074209795
 11
-1.3041835034
 21
-29.9147202954
  0
LINE
  5
338
100
AcDbEntity
  8
IMPORT_IGES
100
AcDbLine
 62
7
  6
CONTINUOUS
 10
-1.3956204911
 20
-28.9050026046
 11
-1.3223524821
 21
-28.9128470478
  0
LINE
  5
339
100
AcDbEntity
  8
IMPORT_IGES
100
AcDbLine
 62
7
  6
CONTINUOUS
 10
1.4553866529
 20
-29.6557229113
 11
1.3794709739
 21
-29.647361723
  0
LINE
  5
33A
100
AcDbEntity
  8
IMPORT_IGES
100
AcDbLine
 62
7
  6
CONTINUOUS
 10
-1.4385567327
 20
-29.9001972834
 11
-1.3732372883
 21
-29.9074209795
  0
LINE
  5
33B
100
AcDbEntity
  8
IMPORT_IGES
100
AcDbLine
 62
7
  6
CONTINUOUS
 10
-1.4645123467
 20
-28.8972432304
 11
-1.3956204911
 21
-28.9050026046
  0
LINE
  5
33C
100
AcDbEntity
  8
IMPORT_IGES
100
AcDbLine
 62
7
  6
CONTINUOUS
 10
1.5271737733
 20
-29.6640146272
 11
1.4553866529
 21
-29.6557229113
  0
LINE
  5
33D
100
AcDbEntity
  8
IMPORT_IGES
100
AcDbLine
 62
7
  6
CONTINUOUS
 10
-1.5001625036
 20
-29.8930401946
 11
-1.4385567327
 21
-29.9001972834
  0
LINE
  5
33E
100
AcDbEntity
  8
IMPORT_IGES
100
AcDbLine
 62
7
  6
CONTINUOUS
 10
-1.5290073367
 20
-28.8895657168
 11
-1.4645123467
 21
-28.8972432304
  0
LINE
  5
33F
100
AcDbEntity
  8
IMPORT_IGES
100
AcDbLine
 62
7
  6
CONTINUOUS
 10
1.5948713235
 20
-29.6722492226
 11
1.5271737733
 21
-29.6640146272
  0
LINE
  5
340
100
AcDbEntity
  8
IMPORT_IGES
100
AcDbLine
 62
7
  6
CONTINUOUS
 10
-1.5580954889
 20
-29.8859377001
 11
-1.5001625036
 21
-29.8930401946
  0
LWPOLYLINE
  5
341
100
AcDbEntity
  8
IMPORT_IGES
100
AcDbPolyline
 62
253
  6
CONTINUOUS
 90
6
 70
0
 10
-1.1789075206
 20
-29.6592252401
 10
-1.1449221587
 20
-29.6635037517
 10
-1.06004943
 20
-29.6735542231
 10
-0.9701323769
 20
-29.683647319
 10
-0.8754433048
 20
-29.6937957405
 10
-0.6736824253
 20
-29.7142369253
  0
LINE
  5
342
100
AcDbEntity
  8
IMPORT_IGES
100
AcDbLine
 62
7
  6
CONTINUOUS
 10
1.6585574083
 20
-29.6804407187
 11
1.5948713235
 21
-29.6722492226
  0
LWPOLYLINE
  5
343
100
AcDbEntity
  8
IMPORT_IGES
100
AcDbPolyline
 62
7
  6
CONTINUOUS
 90
18
 70
0
 10
-1.9242483003
 20
-29.8213312667
 10
-1.9171318846
 20
-29.8233827558
 10
-1.9013847201
 20
-29.8276058396
 10
-1.8851934711
 20
-29.8316629976
 10
-1.8684161414
 20
-29.8356071231
 10
-1.8510104746
 20
-29.839459967
 10
-1.8329818928
 20
-29.8432305559
 10
-1.8142964531
 20
-29.8469348751
 10
-1.7949864097
 20
-29.8505745272
 10
-1.7750173082
 20
-29.8541631659
 10
-1.7542707841
 20
-29.8577266321
 10
-1.7327187244
 20
-29.8612723171
 10
-1.7103740933
 20
-29.8648003807
 10
-1.687177648
 20
-29.8683219552
 10
-1.6631178107
 20
-29.8718403177
 10
-1.6381997128
 20
-29.8753566784
 10
-1.612390889
 20
-29.878877319
 10
-1.5580954889
 20
-29.8859377001
  0
LINE
  5
344
100
AcDbEntity
  8
IMPORT_IGES
100
AcDbLine
 62
7
  6
CONTINUOUS
 10
-12.6722958325
 20
29.0715298854
 11
-12.9301709842
 21
28.6847171578
  0
LINE
  5
345
100
AcDbEntity
  8
IMPORT_IGES
100
AcDbLine
 62
7
  6
CONTINUOUS
 10
-11.718157771
 20
28.9941673399
 11
-11.9760329227
 21
28.6073546123
  0
LINE
  5
346
100
AcDbEntity
  8
IMPORT_IGES
100
AcDbLine
 62
7
  6
CONTINUOUS
 10
-12.2339080745
 20
28.2205418846
 11
-12.4917832263
 21
27.833729157
  0
LINE
  5
347
100
AcDbEntity
  8
IMPORT_IGES
100
AcDbLine
 62
7
  6
CONTINUOUS
 10
-8.3816951139
 20
35.7648698404
 11
-8.2540355546
 21
35.9315368249
  0
LINE
  5
348
100
AcDbEntity
  8
IMPORT_IGES
100
AcDbLine
 62
7
  6
CONTINUOUS
 10
-7.5306312663
 20
31.2648698404
 11
-7.4029717071
 21
31.3898698404
  0
LINE
  5
349
100
AcDbEntity
  8
IMPORT_IGES
100
AcDbLine
 62
7
  6
CONTINUOUS
 10
-7.2753121478
 20
31.2232038095
 11
-7.3604185207
 21
31.1398698404
  0
LINE
  5
34A
100
AcDbEntity
  8
IMPORT_IGES
100
AcDbLine
 62
7
  6
CONTINUOUS
 10
-7.5306312663
 20
29.4315368249
 11
-7.4029717071
 21
29.5565368249
  0
LINE
  5
34B
100
AcDbEntity
  8
IMPORT_IGES
100
AcDbLine
 62
7
  6
CONTINUOUS
 10
-7.2753121478
 20
29.3898703172
 11
-7.3604185207
 21
29.3065368249
  0
LINE
  5
34C
100
AcDbEntity
  8
IMPORT_IGES
100
AcDbLine
 62
7
  6
CONTINUOUS
 10
-8.2540355546
 20
29.3898703172
 11
-8.083822809
 21
29.5148703172
  0
LINE
  5
34D
100
AcDbEntity
  8
IMPORT_IGES
100
AcDbLine
 62
7
  6
CONTINUOUS
 10
-6.5944610609
 20
30.2232033327
 11
-6.7646738214
 21
30.0982033327
  0
LINE
  5
34E
100
AcDbEntity
  8
IMPORT_IGES
100
AcDbLine
 62
7
  6
CONTINUOUS
 10
-6.5944610609
 20
28.3898703172
 11
-6.7646738214
 21
28.2648703172
  0
LINE
  5
34F
100
AcDbEntity
  8
IMPORT_IGES
100
AcDbLine
 62
7
  6
CONTINUOUS
 10
-8.2540355546
 20
25.6398700788
 11
-8.083822809
 21
25.7648700788
  0
LINE
  5
350
100
AcDbEntity
  8
IMPORT_IGES
100
AcDbLine
 62
7
  6
CONTINUOUS
 10
-6.8923334105
 20
28.4315368249
 11
-6.7646738214
 21
28.5148703172
  0
LINE
  5
351
100
AcDbEntity
  8
IMPORT_IGES
100
AcDbLine
 62
7
  6
CONTINUOUS
 10
-8.4242483003
 20
27.1398703172
 11
-6.4242483003
 21
27.8065368249
  0
LINE
  5
352
100
AcDbEntity
  8
IMPORT_IGES
100
AcDbLine
 62
7
  6
CONTINUOUS
 10
-7.1050993426
 20
27.3482033327
 11
-8.2540355546
 21
26.9732035711
  0
LINE
  5
353
100
AcDbEntity
  8
IMPORT_IGES
100
AcDbLine
 62
7
  6
CONTINUOUS
 10
-6.4242483003
 20
27.5565368249
 11
-6.9348865969
 21
27.3898703172
  0
LINE
  5
354
100
AcDbEntity
  8
IMPORT_IGES
100
AcDbLine
 62
7
  6
CONTINUOUS
 10
-8.083822809
 20
25.7648700788
 11
-7.9561632497
 21
25.8065368249
  0
LINE
  5
355
100
AcDbEntity
  8
IMPORT_IGES
100
AcDbLine
 62
7
  6
CONTINUOUS
 10
-7.9561632497
 20
25.5565368249
 11
-8.083822809
 21
25.5148700788
  0
LWPOLYLINE
  5
356
100
AcDbEntity
  8
IMPORT_IGES
100
AcDbPolyline
 62
253
  6
CONTINUOUS
 90
8
 70
0
 10
2.0757516997
 20
-26.1239521771
 10
2.0099633718
 20
-26.134160639
 10
1.9370286552
 20
-26.1443638909
 10
1.8572079056
 20
-26.1545597434
 10
1.7708033155
 20
-26.1647415511
 10
1.6780470137
 20
-26.1749115452
 10
1.579075628
 20
-26.1850807118
 10
1.4740300446
 20
-26.1952620678
  0
LINE
  5
357
100
AcDbEntity
  8
IMPORT_IGES
100
AcDbLine
 62
7
  6
CONTINUOUS
 10
1.6874497645
 20
-25.8981229453
 11
1.6385550463
 21
-25.9051233278
  0
LWPOLYLINE
  5
358
100
AcDbEntity
  8
IMPORT_IGES
100
AcDbPolyline
 62
7
  6
CONTINUOUS
 90
17
 70
0
 10
1.6978292783
 20
-26.3999804744
 10
1.7293060153
 20
-26.3955671705
 10
1.7596689603
 20
-26.3911557421
 10
1.7889155088
 20
-26.3867452034
 10
1.8170543924
 20
-26.3823327825
 10
1.8441047634
 20
-26.3779137287
 10
1.8700684183
 20
-26.3734857514
 10
1.8949606922
 20
-26.369044019
 10
1.9188318398
 20
-26.3645765054
 10
1.9416838485
 20
-26.3600792038
 10
1.9635496244
 20
-26.3555426994
 10
1.984536825
 20
-26.3509399512
 10
2.0046378577
 20
-26.3462660585
 10
2.0239111196
 20
-26.34149968
 10
2.042573304
 20
-26.3365726102
 10
2.060629134
 20
-26.3314617595
 10
2.0757516997
 20
-26.3268761132
  0
LINE
  5
359
100
AcDbEntity
  8
IMPORT_IGES
100
AcDbLine
 62
7
  6
CONTINUOUS
 10
-1.5959724415
 20
-28.7076457064
 11
-1.5534898647
 21
-28.701716909
  0
LWPOLYLINE
  5
35A
100
AcDbEntity
  8
IMPORT_IGES
100
AcDbPolyline
 62
7
  6
CONTINUOUS
 90
16
 70
0
 10
-1.6140710575
 20
-28.2070580142
 10
-1.6410219301
 20
-28.2107486643
 10
-1.6669141343
 20
-28.2144219857
 10
-1.6917885751
 20
-28.2180838042
 10
-1.7156534369
 20
-28.2217355413
 10
-1.7385294171
 20
-28.2253806258
 10
-1.760479481
 20
-28.2290299567
 10
-1.7814944502
 20
-28.232683251
 10
-1.8016165455
 20
-28.2363492946
 10
-1.8209846877
 20
-28.2400570935
 10
-1.8396275106
 20
-28.24381844
 10
-1.8575372576
 20
-28.247638907
 10
-1.8748073749
 20
-28.2515473047
 10
-1.8914552801
 20
-28.2555582818
 10
-1.9075125763
 20
-28.2596917801
 10
-1.9242483003
 20
-28.2643256962
  0
LINE
  5
35B
100
AcDbEntity
  8
IMPORT_IGES
100
AcDbLine
 62
7
  6
CONTINUOUS
 10
-1.5945912974
 20
-27.7074558552
 11
-1.5526495084
 21
-27.7016173767
  0
LINE
  5
35C
100
AcDbEntity
  8
IMPORT_IGES
100
AcDbLine
 62
7
  6
CONTINUOUS
 10
1.6654995065
 20
-27.9012988189
 11
1.6107903709
 21
-27.9088939978
  0
LWPOLYLINE
  5
35D
100
AcDbEntity
  8
IMPORT_IGES
100
AcDbPolyline
 62
7
  6
CONTINUOUS
 90
18
 70
0
 10
1.6721463677
 20
-28.4034491526
 10
1.705475321
 20
-28.3989016077
 10
1.7376373094
 20
-28.3943541467
 10
1.7686263949
 20
-28.3898054006
 10
1.7984435918
 20
-28.3852528914
 10
1.8270783531
 20
-28.3806958844
 10
1.8545324589
 20
-28.3761326549
 10
1.8808304588
 20
-28.3715583174
 10
1.9060134453
 20
-28.3669643412
 10
1.9300855883
 20
-28.3623481721
 10
1.953086298
 20
-28.3577000419
 10
1.9751234837
 20
-28.3529937392
 10
1.9961927471
 20
-28.3482239704
 10
2.0163506606
 20
-28.343370548
 10
2.0358101838
 20
-28.3383683401
 10
2.0545469935
 20
-28.3332037497
 10
2.0726379186
 20
-28.3278322648
 10
2.0757516997
 20
-28.3268644916
  0
LWPOLYLINE
  5
35E
100
AcDbEntity
  8
IMPORT_IGES
100
AcDbPolyline
 62
253
  6
CONTINUOUS
 90
7
 70
0
 10
-1.9242483003
 20
-28.4724554742
 10
-1.8572390508
 20
-28.4633095831
 10
-1.7831596307
 20
-28.4541615007
 10
-1.70231902
 20
-28.4450090616
 10
-1.6149953141
 20
-28.4358473594
 10
-1.521542799
 20
-28.4266771713
 10
-1.4224762356
 20
-28.4175053424
  0
LWPOLYLINE
  5
35F
100
AcDbEntity
  8
IMPORT_IGES
100
AcDbPolyline
 62
253
  6
CONTINUOUS
 90
7
 70
0
 10
-1.9242483003
 20
-27.4724573028
 10
-1.8584599723
 20
-27.4634740053
 10
-1.7855252557
 20
-27.4544547415
 10
-1.705704506
 20
-27.4453973219
 10
-1.619299916
 20
-27.4363035098
 10
-1.5265436141
 20
-27.4271671276
 10
-1.4275722285
 20
-27.4179739354
  0
LWPOLYLINE
  5
360
100
AcDbEntity
  8
IMPORT_IGES
100
AcDbPolyline
 62
7
  6
CONTINUOUS
 90
17
 70
0
 10
-1.6111180683
 20
-27.2066736646
 10
-1.638423843
 20
-27.2103966375
 10
-1.6645927345
 20
-27.2140936226
 10
-1.6896904888
 20
-27.2177734879
 10
-1.713729032
 20
-27.2214378962
 10
-1.7367304145
 20
-27.2250901331
 10
-1.7587743939
 20
-27.2287434957
 10
-1.7798694226
 20
-27.2324006437
 10
-1.8000450589
 20
-27.2360674031
 10
-1.8194120165
 20
-27.239765645
 10
-1.8379626745
 20
-27.2434968906
 10
-1.855748277
 20
-27.2472749777
 10
-1.8729639895
 20
-27.2511493021
 10
-1.8896354226
 20
-27.2551386262
 10
-1.9057629233
 20
-27.2592579551
 10
-1.9215179327
 20
-27.2635720881
 10
-1.9242483003
 20
-27.2643524787
  0
LINE
  5
361
100
AcDbEntity
  8
IMPORT_IGES
100
AcDbLine
 62
7
  6
CONTINUOUS
 10
-1.5919169192
 20
-26.7070864583
 11
-1.5484324361
 21
-26.7010635984
  0
LINE
  5
362
100
AcDbEntity
  8
IMPORT_IGES
100
AcDbLine
 62
7
  6
CONTINUOUS
 10
1.6604881734
 20
-26.9020218492
 11
1.6078326571
 21
-26.9093029143
  0
LWPOLYLINE
  5
363
100
AcDbEntity
  8
IMPORT_IGES
100
AcDbPolyline
 62
7
  6
CONTINUOUS
 90
18
 70
0
 10
1.665143032
 20
-25.4044308783
 10
1.6992845086
 20
-25.3997991563
 10
1.7319578692
 20
-25.3952047314
 10
1.76322718
 20
-25.3906409885
 10
1.7931117834
 20
-25.3861073589
 10
1.8216464685
 20
-25.3816009067
 10
1.8489183149
 20
-25.3771096416
 10
1.8749434314
 20
-25.3726321792
 10
1.8997599626
 20
-25.3681631873
 10
1.9234868618
 20
-25.3636810897
 10
1.9461271325
 20
-25.3591839884
 10
1.9677298412
 20
-25.3546604317
 10
1.9884793249
 20
-25.3500664754
 10
2.0084152108
 20
-25.3453835924
 10
2.0275357571
 20
-25.3406010913
 10
2.045979344
 20
-25.335670563
 10
2.0637354116
 20
-25.3305775201
 10
2.0757516997
 20
-25.326907429
  0
LWPOLYLINE
  5
364
100
AcDbEntity
  8
IMPORT_IGES
100
AcDbPolyline
 62
7
  6
CONTINUOUS
 90
17
 70
0
 10
-1.602416459
 20
-26.2055277396
 10
-1.6306850054
 20
-26.2093422784
 10
-1.6578091386
 20
-26.2131362106
 10
-1.6838212509
 20
-26.2169141769
 10
-1.7087323928
 20
-26.2206780124
 10
-1.7325630477
 20
-26.2244310679
 10
-1.7553657724
 20
-26.2281823249
 10
-1.7771511342
 20
-26.2319345321
 10
-1.7979525781
 20
-26.2356937945
 10
-1.8178628827
 20
-26.2394780161
 10
-1.8368779243
 20
-26.2432884104
 10
-1.8550582226
 20
-26.2471396173
 10
-1.8725944078
 20
-26.2510787879
 10
-1.8895195918
 20
-26.2551249557
 10
-1.9058418788
 20
-26.2592934934
 10
-1.9217307917
 20
-26.263646905
 10
-1.9242483003
 20
-26.2643667663
  0
LWPOLYLINE
  5
365
100
AcDbEntity
  8
IMPORT_IGES
100
AcDbPolyline
 62
7
  6
CONTINUOUS
 90
18
 70
0
 10
1.6548531117
 20
-27.4057597205
 10
1.6903759135
 20
-27.4009891142
 10
1.7244101976
 20
-27.396249514
 10
1.7569405105
 20
-27.3915447111
 10
1.7879699541
 20
-27.3868765176
 10
1.8175513977
 20
-27.3822393729
 10
1.8457553981
 20
-27.3776240907
 10
1.8726042735
 20
-27.3730285947
 10
1.8981381041
 20
-27.3684476017
 10
1.9224578375
 20
-27.3638635394
 10
1.9455783351
 20
-27.3592738734
 10
1.9675615608
 20
-27.354667515
 10
1.9885789967
 20
-27.3500068395
 10
2.0086513334
 20
-27.345282592
 10
2.0278305258
 20
-27.3404767606
 10
2.046337546
 20
-27.3355218507
 10
2.0641849741
 20
-27.3303955005
 10
2.0757516997
 20
-27.3268616247
  0
LINE
  5
366
100
AcDbEntity
  8
IMPORT_IGES
100
AcDbLine
 62
7
  6
CONTINUOUS
 10
1.6385550463
 20
-25.9051233278
 11
1.5854824288
 21
-25.9122827625
  0
LINE
  5
367
100
AcDbEntity
  8
IMPORT_IGES
100
AcDbLine
 62
7
  6
CONTINUOUS
 10
1.631557935
 20
-26.4088149449
 11
1.6978292783
 21
-26.3999804744
  0
LINE
  5
368
100
AcDbEntity
  8
IMPORT_IGES
100
AcDbLine
 62
7
  6
CONTINUOUS
 10
-1.5534898647
 20
-28.701716909
 11
-1.5074588149
 21
-28.6956685571
  0
LINE
  5
369
100
AcDbEntity
  8
IMPORT_IGES
100
AcDbLine
 62
7
  6
CONTINUOUS
 10
-1.5526495084
 20
-27.7016173767
 11
-1.5069165576
 21
-27.6956176229
  0
LINE
  5
36A
100
AcDbEntity
  8
IMPORT_IGES
100
AcDbLine
 62
7
  6
CONTINUOUS
 10
1.6107903709
 20
-27.9088939978
 11
1.551358773
 21
-27.9166525588
  0
LINE
  5
36B
100
AcDbEntity
  8
IMPORT_IGES
100
AcDbLine
 62
7
  6
CONTINUOUS
 10
1.6078326571
 20
-26.9093029143
 11
1.551200083
 21
-26.9166893768
  0
LINE
  5
36C
100
AcDbEntity
  8
IMPORT_IGES
100
AcDbLine
 62
7
  6
CONTINUOUS
 10
-1.5484324361
 20
-26.7010635984
 11
-1.501351093
 21
-26.6949243202
  0
LINE
  5
36D
100
AcDbEntity
  8
IMPORT_IGES
100
AcDbLine
 62
7
  6
CONTINUOUS
 10
-1.5569352677
 20
-28.1996176104
 11
-1.6140710575
 21
-28.2070580142
  0
LINE
  5
36E
100
AcDbEntity
  8
IMPORT_IGES
100
AcDbLine
 62
7
  6
CONTINUOUS
 10
1.6021017504
 20
-28.4125383665
 11
1.6721463677
 21
-28.4034491526
  0
LINE
  5
36F
100
AcDbEntity
  8
IMPORT_IGES
100
AcDbLine
 62
7
  6
CONTINUOUS
 10
-1.5530195376
 20
-27.1991423858
 11
-1.6111180683
 21
-27.2066736646
  0
LINE
  5
370
100
AcDbEntity
  8
IMPORT_IGES
100
AcDbLine
 62
7
  6
CONTINUOUS
 10
1.5922989119
 20
-25.4138166825
 11
1.665143032
 21
-25.4044308783
  0
LINE
  5
371
100
AcDbEntity
  8
IMPORT_IGES
100
AcDbLine
 62
7
  6
CONTINUOUS
 10
-1.5423847885
 20
-26.1978287407
 11
-1.602416459
 21
-26.2055277396
  0
LINE
  5
372
100
AcDbEntity
  8
IMPORT_IGES
100
AcDbLine
 62
7
  6
CONTINUOUS
 10
1.5854824288
 20
-25.9122827625
 11
1.5281792149
 21
-25.9195948507
  0
LINE
  5
373
100
AcDbEntity
  8
IMPORT_IGES
100
AcDbLine
 62
7
  6
CONTINUOUS
 10
1.5792494314
 20
-27.4154012036
 11
1.6548531117
 21
-27.4057597205
  0
LINE
  5
374
100
AcDbEntity
  8
IMPORT_IGES
100
AcDbLine
 62
7
  6
CONTINUOUS
 10
1.5609052005
 20
-26.4176634993
 11
1.631557935
 21
-26.4088149449
  0
LINE
  5
375
100
AcDbEntity
  8
IMPORT_IGES
100
AcDbLine
 62
7
  6
CONTINUOUS
 10
-1.5074588149
 20
-28.6956685571
 11
-1.4579322204
 21
-28.6895128454
  0
LINE
  5
376
100
AcDbEntity
  8
IMPORT_IGES
100
AcDbLine
 62
7
  6
CONTINUOUS
 10
-1.5069165576
 20
-27.6956176229
 11
-1.457318493
 21
-27.6894587599
  0
LINE
  5
377
100
AcDbEntity
  8
IMPORT_IGES
100
AcDbLine
 62
7
  6
CONTINUOUS
 10
1.551200083
 20
-26.9166893768
 11
1.4906258882
 21
-26.9241731843
  0
LINE
  5
378
100
AcDbEntity
  8
IMPORT_IGES
100
AcDbLine
 62
7
  6
CONTINUOUS
 10
-1.501351093
 20
-26.6949243202
 11
-1.4507402704
 21
-26.6886800954
  0
LINE
  5
379
100
AcDbEntity
  8
IMPORT_IGES
100
AcDbLine
 62
7
  6
CONTINUOUS
 10
1.551358773
 20
-27.9166525588
 11
1.4871846451
 21
-27.9245669981
  0
LINE
  5
37A
100
AcDbEntity
  8
IMPORT_IGES
100
AcDbLine
 62
7
  6
CONTINUOUS
 10
-1.4953691649
 20
-28.1920846498
 11
-1.5569352677
 21
-28.1996176104
  0
LINE
  5
37B
100
AcDbEntity
  8
IMPORT_IGES
100
AcDbLine
 62
7
  6
CONTINUOUS
 10
1.5276616934
 20
-28.4216205481
 11
1.6021017504
 21
-28.4125383665
  0
LINE
  5
37C
100
AcDbEntity
  8
IMPORT_IGES
100
AcDbLine
 62
7
  6
CONTINUOUS
 10
-1.4900500393
 20
-27.1914743005
 11
-1.5530195376
 21
-27.1991423858
  0
LINE
  5
37D
100
AcDbEntity
  8
IMPORT_IGES
100
AcDbLine
 62
7
  6
CONTINUOUS
 10
1.5281792149
 20
-25.9195948507
 11
1.4666004951
 21
-25.9270537113
  0
LINE
  5
37E
100
AcDbEntity
  8
IMPORT_IGES
100
AcDbLine
 62
7
  6
CONTINUOUS
 10
1.5134249768
 20
-25.4233472317
 11
1.5922989119
 21
-25.4138166825
  0
LINE
  5
37F
100
AcDbEntity
  8
IMPORT_IGES
100
AcDbLine
 62
7
  6
CONTINUOUS
 10
-1.4776494079
 20
-26.19003047
 11
-1.5423847885
 21
-26.1978287407
  0
LINE
  5
380
100
AcDbEntity
  8
IMPORT_IGES
100
AcDbLine
 62
7
  6
CONTINUOUS
 10
1.497766466
 20
-27.4251469253
 11
1.5792494314
 21
-27.4154012036
  0
LINE
  5
381
100
AcDbEntity
  8
IMPORT_IGES
100
AcDbLine
 62
7
  6
CONTINUOUS
 10
-1.4579322204
 20
-28.6895128454
 11
-1.4049929253
 21
-28.6832627611
  0
LINE
  5
382
100
AcDbEntity
  8
IMPORT_IGES
100
AcDbLine
 62
7
  6
CONTINUOUS
 10
-1.457318493
 20
-27.6894587599
 11
-1.4038095601
 21
-27.6831451187
  0
LINE
  5
383
100
AcDbEntity
  8
IMPORT_IGES
100
AcDbLine
 62
7
  6
CONTINUOUS
 10
1.4859855798
 20
-26.4265232928
 11
1.5609052005
 21
-26.4176634993
  0
LINE
  5
384
100
AcDbEntity
  8
IMPORT_IGES
100
AcDbLine
 62
7
  6
CONTINUOUS
 10
1.4906258882
 20
-26.9241731843
 11
1.4261414932
 21
-26.9317483379
  0
LINE
  5
385
100
AcDbEntity
  8
IMPORT_IGES
100
AcDbLine
 62
7
  6
CONTINUOUS
 10
-1.4507402704
 20
-26.6886800954
 11
-1.3966554363
 21
-26.6823384562
  0
LINE
  5
386
100
AcDbEntity
  8
IMPORT_IGES
100
AcDbLine
 62
7
  6
CONTINUOUS
 10
1.4871846451
 20
-27.9245669981
 11
1.4182271246
 21
-27.9326342305
  0
LINE
  5
387
100
AcDbEntity
  8
IMPORT_IGES
100
AcDbLine
 62
7
  6
CONTINUOUS
 10
-1.4292739912
 20
-28.1844488639
 11
-1.4953691649
 21
-28.1920846498
  0
LINE
  5
388
100
AcDbEntity
  8
IMPORT_IGES
100
AcDbLine
 62
7
  6
CONTINUOUS
 10
1.4666004951
 20
-25.9270537113
 11
1.4007108258
 21
-25.9346539008
  0
LINE
  5
389
100
AcDbEntity
  8
IMPORT_IGES
100
AcDbLine
 62
7
  6
CONTINUOUS
 10
1.4490870002
 20
-28.4306842666
 11
1.5276616934
 21
-28.4216205481
  0
LINE
  5
38A
100
AcDbEntity
  8
IMPORT_IGES
100
AcDbLine
 62
7
  6
CONTINUOUS
 10
-1.4220543549
 20
-27.1836571986
 11
-1.4900500393
 21
-27.1914743005
  0
LINE
  5
38B
100
AcDbEntity
  8
IMPORT_IGES
100
AcDbLine
 62
7
  6
CONTINUOUS
 10
1.4286052679
 20
-25.4330113589
 11
1.5134249768
 21
-25.4233472317
  0
LINE
  5
38C
100
AcDbEntity
  8
IMPORT_IGES
100
AcDbLine
 62
7
  6
CONTINUOUS
 10
-1.4081723436
 20
-26.18212664
 11
-1.4776494079
 21
-26.19003047
  0
LINE
  5
38D
100
AcDbEntity
  8
IMPORT_IGES
100
AcDbLine
 62
7
  6
CONTINUOUS
 10
-1.4049929253
 20
-28.6832627611
 11
-1.348698789
 21
-28.6769244577
  0
LINE
  5
38E
100
AcDbEntity
  8
IMPORT_IGES
100
AcDbLine
 62
7
  6
CONTINUOUS
 10
-1.4038095601
 20
-27.6831451187
 11
-1.3463775094
 21
-27.6766831059
  0
LINE
  5
38F
100
AcDbEntity
  8
IMPORT_IGES
100
AcDbLine
 62
7
  6
CONTINUOUS
 10
1.4105586334
 20
-27.4349795752
 11
1.497766466
 21
-27.4251469253
  0
LINE
  5
390
100
AcDbEntity
  8
IMPORT_IGES
100
AcDbLine
 62
7
  6
CONTINUOUS
 10
1.4261414932
 20
-26.9317483379
 11
1.3577777619
 21
-26.9394110403
  0
LINE
  5
391
100
AcDbEntity
  8
IMPORT_IGES
100
AcDbLine
 62
7
  6
CONTINUOUS
 10
1.4069825467
 20
-26.4353856987
 11
1.4859855798
 21
-26.4265232928
  0
LINE
  5
392
100
AcDbEntity
  8
IMPORT_IGES
100
AcDbLine
 62
7
  6
CONTINUOUS
 10
-1.3966554363
 20
-26.6823384562
 11
-1.3391303776
 21
-26.6759027552
  0
LINE
  5
393
100
AcDbEntity
  8
IMPORT_IGES
100
AcDbLine
 62
7
  6
CONTINUOUS
 10
1.4182271246
 20
-27.9326342305
 11
1.344427539
 21
-27.9408544022
  0
LINE
  5
394
100
AcDbEntity
  8
IMPORT_IGES
100
AcDbLine
 62
7
  6
CONTINUOUS
 10
1.4007108258
 20
-25.9346539008
 11
1.3304852557
 21
-25.9423929322
  0
LINE
  5
395
100
AcDbEntity
  8
IMPORT_IGES
100
AcDbLine
 62
7
  6
CONTINUOUS
 10
1.3667132783
 20
-28.4397129798
 11
1.4490870002
 21
-28.4306842666
  0
LINE
  5
396
100
AcDbEntity
  8
IMPORT_IGES
100
AcDbLine
 62
7
  6
CONTINUOUS
 10
-1.3586006376
 20
-28.1767032061
 11
-1.4292739912
 21
-28.1844488639
  0
LINE
  5
397
100
AcDbEntity
  8
IMPORT_IGES
100
AcDbLine
 62
7
  6
CONTINUOUS
 10
-1.348937227
 20
-27.1756852706
 11
-1.4220543549
 21
-27.1836571986
  0
LINE
  5
398
100
AcDbEntity
  8
IMPORT_IGES
100
AcDbLine
 62
7
  6
CONTINUOUS
 10
-1.3463775094
 20
-27.6766831059
 11
-1.2850790197
 21
-27.6700843863
  0
LINE
  5
399
100
AcDbEntity
  8
IMPORT_IGES
100
AcDbLine
 62
7
  6
CONTINUOUS
 10
-1.3339735995
 20
-26.1741162051
 11
-1.4081723436
 21
-26.18212664
  0
LINE
  5
39A
100
AcDbEntity
  8
IMPORT_IGES
100
AcDbLine
 62
7
  6
CONTINUOUS
 10
1.3381591014
 20
-25.4427794534
 11
1.4286052679
 21
-25.4330113589
  0
LINE
  5
39B
100
AcDbEntity
  8
IMPORT_IGES
100
AcDbLine
 62
7
  6
CONTINUOUS
 10
1.3241136777
 20
-26.4442453389
 11
1.4069825467
 21
-26.4353856987
  0
LINE
  5
39C
100
AcDbEntity
  8
IMPORT_IGES
100
AcDbLine
 62
7
  6
CONTINUOUS
 10
1.318011292
 20
-27.4448681144
 11
1.4105586334
 21
-27.4349795752
  0
LINE
  5
39D
100
AcDbEntity
  8
IMPORT_IGES
100
AcDbLine
 62
7
  6
CONTINUOUS
 10
1.344427539
 20
-27.9408544022
 11
1.2657452662
 21
-27.9492266122
  0
LINE
  5
39E
100
AcDbEntity
  8
IMPORT_IGES
100
AcDbLine
 62
7
  6
CONTINUOUS
 10
-1.348698789
 20
-28.6769244577
 11
-1.2581238323
 21
-28.6672584468
  0
LINE
  5
39F
100
AcDbEntity
  8
IMPORT_IGES
100
AcDbLine
 62
7
  6
CONTINUOUS
 10
1.3577777619
 20
-26.9394110403
 11
1.2480979925
 21
-26.9510646589
  0
LINE
  5
3A0
100
AcDbEntity
  8
IMPORT_IGES
100
AcDbLine
 62
7
  6
CONTINUOUS
 10
-1.3391303776
 20
-26.6759027552
 11
-1.2464587368
 21
-26.6660767138
  0
LINE
  5
3A1
100
AcDbEntity
  8
IMPORT_IGES
100
AcDbLine
 62
7
  6
CONTINUOUS
 10
1.2808449224
 20
-28.4486965921
 11
1.3667132783
 21
-28.4397129798
  0
LINE
  5
3A2
100
AcDbEntity
  8
IMPORT_IGES
100
AcDbLine
 62
7
  6
CONTINUOUS
 10
-1.2834053018
 20
-28.1688465393
 11
-1.3586006376
 21
-28.1767032061
  0
LINE
  5
3A3
100
AcDbEntity
  8
IMPORT_IGES
100
AcDbLine
 62
7
  6
CONTINUOUS
 10
-1.2708369908
 20
-27.1675750701
 11
-1.348937227
 21
-27.1756852706
  0
LINE
  5
3A4
100
AcDbEntity
  8
IMPORT_IGES
100
AcDbLine
 62
7
  6
CONTINUOUS
 10
1.3304852557
 20
-25.9423929322
 11
1.2170603843
 21
-25.9542561445
  0
LINE
  5
3A5
100
AcDbEntity
  8
IMPORT_IGES
100
AcDbLine
 62
7
  6
CONTINUOUS
 10
-1.3214229949
 20
-25.6739965387
 11
-1.2216133302
 21
-25.6635541735
  0
LINE
  5
3A6
100
AcDbEntity
  8
IMPORT_IGES
100
AcDbLine
 62
7
  6
CONTINUOUS
 10
-1.2551268976
 20
-26.1660016399
 11
-1.3339735995
 21
-26.1741162051
  0
LINE
  5
3A7
100
AcDbEntity
  8
IMPORT_IGES
100
AcDbLine
 62
7
  6
CONTINUOUS
 10
1.2424982193
 20
-25.4526206502
 11
1.3381591014
 21
-25.4427794534
  0
LINE
  5
3A8
100
AcDbEntity
  8
IMPORT_IGES
100
AcDbLine
 62
7
  6
CONTINUOUS
 10
1.220654592
 20
-27.4547802893
 11
1.318011292
 21
-27.4448681144
  0
LINE
  5
3A9
100
AcDbEntity
  8
IMPORT_IGES
100
AcDbLine
 62
7
  6
CONTINUOUS
 10
-1.2850790197
 20
-27.6700843863
 11
-1.1859982691
 21
-27.6599458041
  0
LINE
  5
3AA
100
AcDbEntity
  8
IMPORT_IGES
100
AcDbLine
 62
7
  6
CONTINUOUS
 10
1.1932715549
 20
-26.4575051485
 11
1.3241136777
 21
-26.4442453389
  0
LINE
  5
3AB
100
AcDbEntity
  8
IMPORT_IGES
100
AcDbLine
 62
7
  6
CONTINUOUS
 10
-1.2581238323
 20
-28.6672584468
 11
-1.1603782128
 21
-28.6574042542
  0
LINE
  5
3AC
100
AcDbEntity
  8
IMPORT_IGES
100
AcDbLine
 62
7
  6
CONTINUOUS
 10
1.2657452662
 20
-27.9492266122
 11
1.1384789497
 21
-27.9620752385
  0
LINE
  5
3AD
100
AcDbEntity
  8
IMPORT_IGES
100
AcDbLine
 62
7
  6
CONTINUOUS
 10
1.2480979925
 20
-26.9510646589
 11
1.1300943715
 21
-26.9629054444
  0
LINE
  5
3AE
100
AcDbEntity
  8
IMPORT_IGES
100
AcDbLine
 62
7
  6
CONTINUOUS
 10
-1.2464587368
 20
-26.6660767138
 11
-1.1462527405
 21
-26.6560446374
  0
LINE
  5
3AF
100
AcDbEntity
  8
IMPORT_IGES
100
AcDbLine
 62
7
  6
CONTINUOUS
 10
1.1463993275
 20
-28.4620509824
 11
1.2808449224
 21
-28.4486965921
  0
LINE
  5
3B0
100
AcDbEntity
  8
IMPORT_IGES
100
AcDbLine
 62
7
  6
CONTINUOUS
 10
-1.1623073505
 20
-28.1568503561
 11
-1.2834053018
 21
-28.1688465393
  0
LINE
  5
3B1
100
AcDbEntity
  8
IMPORT_IGES
100
AcDbLine
 62
7
  6
CONTINUOUS
 10
1.2170603843
 20
-25.9542561445
 11
1.0940219829
 21
-25.9664206829
  0
LWPOLYLINE
  5
3B2
100
AcDbEntity
  8
IMPORT_IGES
100
AcDbPolyline
 62
253
  6
CONTINUOUS
 90
8
 70
0
 10
1.4721818016
 20
-27.1954221768
 10
1.5769843072
 20
-27.1852746783
 10
1.6761106474
 20
-27.1751019007
 10
1.7692292317
 20
-27.1649052928
 10
1.8560390144
 20
-27.1546883119
 10
1.9362504852
 20
-27.1444535634
 10
2.0095825451
 20
-27.1342027848
 10
2.0757516997
 20
-27.1239381318
  0
LINE
  5
3B3
100
AcDbEntity
  8
IMPORT_IGES
100
AcDbLine
 62
7
  6
CONTINUOUS
 10
-1.2216133302
 20
-25.6635541735
 11
-1.1131671392
 21
-25.6528523665
  0
LWPOLYLINE
  5
3B4
100
AcDbEntity
  8
IMPORT_IGES
100
AcDbPolyline
 62
253
  6
CONTINUOUS
 90
8
 70
0
 10
1.4693867825
 20
-28.1956740306
 10
1.5741758962
 20
-28.1855360346
 10
1.6736085324
 20
-28.1753464484
 10
1.767239176
 20
-28.1651148477
 10
1.8546190742
 20
-28.1548532142
 10
1.9353745438
 20
-28.1445668852
 10
2.0091871252
 20
-28.1342544581
 10
2.0757516997
 20
-28.1239180303
  0
LINE
  5
3B5
100
AcDbEntity
  8
IMPORT_IGES
100
AcDbLine
 62
7
  6
CONTINUOUS
 10
-1.1447018111
 20
-27.1551722932
 11
-1.2708369908
 21
-27.1675750701
  0
LINE
  5
3B6
100
AcDbEntity
  8
IMPORT_IGES
100
AcDbLine
 62
7
  6
CONTINUOUS
 10
-1.1284264642
 20
-26.1536380925
 11
-1.2551268976
 21
-26.1660016399
  0
LINE
  5
3B7
100
AcDbEntity
  8
IMPORT_IGES
100
AcDbLine
 62
7
  6
CONTINUOUS
 10
-1.1859982691
 20
-27.6599458041
 11
-1.0787189943
 21
-27.6495434075
  0
LINE
  5
3B8
100
AcDbEntity
  8
IMPORT_IGES
100
AcDbLine
 62
7
  6
CONTINUOUS
 10
1.0901471161
 20
-25.4674676947
 11
1.2424982193
 21
-25.4526206502
  0
LINE
  5
3B9
100
AcDbEntity
  8
IMPORT_IGES
100
AcDbLine
 62
7
  6
CONTINUOUS
 10
1.06676385
 20
-27.4696392355
 11
1.220654592
 21
-27.4547802893
  0
LINE
  5
3BA
100
AcDbEntity
  8
IMPORT_IGES
100
AcDbLine
 62
7
  6
CONTINUOUS
 10
1.0556167529
 20
-26.4706977184
 11
1.1932715549
 21
-26.4575051485
  0
LINE
  5
3BB
100
AcDbEntity
  8
IMPORT_IGES
100
AcDbLine
 62
7
  6
CONTINUOUS
 10
1.1384789497
 20
-27.9620752385
 11
1.0005852678
 21
-27.9752412995
  0
LINE
  5
3BC
100
AcDbEntity
  8
IMPORT_IGES
100
AcDbLine
 62
7
  6
CONTINUOUS
 10
-1.1603782128
 20
-28.6574042542
 11
-1.0192638592
 21
-28.6439699717
  0
LWPOLYLINE
  5
3BD
100
AcDbEntity
  8
IMPORT_IGES
100
AcDbPolyline
 62
253
  6
CONTINUOUS
 90
7
 70
0
 10
-1.4254809072
 20
-26.417799367
 10
-1.5246072475
 20
-26.4269969945
 10
-1.6177258319
 20
-26.43615832
 10
-1.7045356146
 20
-26.4452843685
 10
-1.7847470856
 20
-26.4543769347
 10
-1.8580791455
 20
-26.463438567
 10
-1.9242483003
 20
-26.4724714208
  0
LINE
  5
3BE
100
AcDbEntity
  8
IMPORT_IGES
100
AcDbLine
 62
7
  6
CONTINUOUS
 10
1.0059106871
 20
-28.4752777506
 11
1.1463993275
 21
-28.4620509824
  0
LINE
  5
3BF
100
AcDbEntity
  8
IMPORT_IGES
100
AcDbLine
 62
7
  6
CONTINUOUS
 10
1.1300943715
 20
-26.9629054444
 11
0.9602988981
 21
-26.9789819802
  0
LINE
  5
3C0
100
AcDbEntity
  8
IMPORT_IGES
100
AcDbLine
 62
7
  6
CONTINUOUS
 10
-1.1462527405
 20
-26.6560446374
 11
-1.0013256527
 21
-26.6423450181
  0
LINE
  5
3C1
100
AcDbEntity
  8
IMPORT_IGES
100
AcDbLine
 62
7
  6
CONTINUOUS
 10
-1.0316232435
 20
-28.1446032862
 11
-1.1623073505
 21
-28.1568503561
  0
LINE
  5
3C2
100
AcDbEntity
  8
IMPORT_IGES
100
AcDbLine
 62
7
  6
CONTINUOUS
 10
-1.0087154332
 20
-27.1425311382
 11
-1.1447018111
 21
-27.1551722932
  0
LINE
  5
3C3
100
AcDbEntity
  8
IMPORT_IGES
100
AcDbLine
 62
7
  6
CONTINUOUS
 10
1.0940219829
 20
-25.9664206829
 11
0.915319145
 21
-25.983102303
  0
LINE
  5
3C4
100
AcDbEntity
  8
IMPORT_IGES
100
AcDbLine
 62
7
  6
CONTINUOUS
 10
-1.1131671392
 20
-25.6528523665
 11
-0.9558251892
 21
-25.6382100754
  0
LINE
  5
3C5
100
AcDbEntity
  8
IMPORT_IGES
100
AcDbLine
 62
7
  6
CONTINUOUS
 10
-0.992273246
 20
-26.1410584394
 11
-1.1284264642
 21
-26.1536380925
  0
LINE
  5
3C6
100
AcDbEntity
  8
IMPORT_IGES
100
AcDbLine
 62
7
  6
CONTINUOUS
 10
0.9288795282
 20
-25.482323505
 11
1.0901471161
 21
-25.4674676947
  0
LINE
  5
3C7
100
AcDbEntity
  8
IMPORT_IGES
100
AcDbLine
 62
7
  6
CONTINUOUS
 10
-1.0787189943
 20
-27.6495434075
 11
-0.9238145411
 21
-27.6353063436
  0
LINE
  5
3C8
100
AcDbEntity
  8
IMPORT_IGES
100
AcDbLine
 62
7
  6
CONTINUOUS
 10
0.8632870428
 20
-26.4881516023
 11
1.0556167529
 21
-26.4706977184
  0
LINE
  5
3C9
100
AcDbEntity
  8
IMPORT_IGES
100
AcDbLine
 62
7
  6
CONTINUOUS
 10
0.8504665426
 20
-27.4892673046
 11
1.06676385
 21
-27.4696392355
  0
LINE
  5
3CA
100
AcDbEntity
  8
IMPORT_IGES
100
AcDbLine
 62
7
  6
CONTINUOUS
 10
1.0005852678
 20
-27.9752412995
 11
0.8020868825
 21
-27.9931734352
  0
LINE
  5
3CB
100
AcDbEntity
  8
IMPORT_IGES
100
AcDbLine
 62
253
  6
CONTINUOUS
 10
1.2472620753
 20
-27.2156311914
 11
1.4721818016
 21
-27.1954221768
  0
LINE
  5
3CC
100
AcDbEntity
  8
IMPORT_IGES
100
AcDbLine
 62
7
  6
CONTINUOUS
 10
0.9602988981
 20
-26.9789819802
 11
0.7769625535
 21
-26.9953908736
  0
LINE
  5
3CD
100
AcDbEntity
  8
IMPORT_IGES
100
AcDbLine
 62
253
  6
CONTINUOUS
 10
1.4740300446
 20
-26.1952620678
 11
1.2480639451
 21
-26.2155766947
  0
LINE
  5
3CE
100
AcDbEntity
  8
IMPORT_IGES
100
AcDbLine
 62
7
  6
CONTINUOUS
 10
0.8110394101
 20
-28.4927045151
 11
1.0059106871
 21
-28.4752777506
  0
LINE
  5
3CF
100
AcDbEntity
  8
IMPORT_IGES
100
AcDbLine
 62
253
  6
CONTINUOUS
 10
1.2448944083
 20
-28.2158248936
 11
1.4693867825
 21
-28.1956740306
  0
LINE
  5
3D0
100
AcDbEntity
  8
IMPORT_IGES
100
AcDbLine
 62
7
  6
CONTINUOUS
 10
-1.0192638592
 20
-28.6439699717
 11
-0.8262485104
 21
-28.6266842571
  0
LINE
  5
3D1
100
AcDbEntity
  8
IMPORT_IGES
100
AcDbLine
 62
7
  6
CONTINUOUS
 10
-0.8434495603
 20
-28.1278939594
 11
-1.0316232435
 21
-28.1446032862
  0
LINE
  5
3D2
100
AcDbEntity
  8
IMPORT_IGES
100
AcDbLine
 62
7
  6
CONTINUOUS
 10
-1.0013256527
 20
-26.6423450181
 11
-0.8028370784
 21
-26.6246838597
  0
LINE
  5
3D3
100
AcDbEntity
  8
IMPORT_IGES
100
AcDbLine
 62
7
  6
CONTINUOUS
 10
-0.8142566195
 20
-27.1253941589
 11
-1.0087154332
 21
-27.1425311382
  0
LINE
  5
3D4
100
AcDbEntity
  8
IMPORT_IGES
100
AcDbLine
 62
7
  6
CONTINUOUS
 10
-0.797592099
 20
-26.1239802857
 11
-0.992273246
 21
-26.1410584394
  0
LINE
  5
3D5
100
AcDbEntity
  8
IMPORT_IGES
100
AcDbLine
 62
7
  6
CONTINUOUS
 10
0.915319145
 20
-25.983102303
 11
0.6704196374
 21
-26.0045968772
  0
LINE
  5
3D6
100
AcDbEntity
  8
IMPORT_IGES
100
AcDbLine
 62
7
  6
CONTINUOUS
 10
0.7039269355
 20
-25.5019724286
 11
0.9288795282
 21
-25.482323505
  0
LINE
  5
3D7
100
AcDbEntity
  8
IMPORT_IGES
100
AcDbLine
 62
7
  6
CONTINUOUS
 10
-0.9558251892
 20
-25.6382100754
 11
-0.7399705084
 21
-25.6193017761
  0
LINE
  5
3D8
100
AcDbEntity
  8
IMPORT_IGES
100
AcDbLine
 62
7
  6
CONTINUOUS
 10
-0.9238145411
 20
-27.6353063436
 11
-0.7128786599
 21
-27.6169694572
  0
LINE
  5
3D9
100
AcDbEntity
  8
IMPORT_IGES
100
AcDbLine
 62
253
  6
CONTINUOUS
 10
-1.4275722285
 20
-27.4179739354
 11
-1.2119334274
 21
-27.3993812952
  0
LINE
  5
3DA
100
AcDbEntity
  8
IMPORT_IGES
100
AcDbLine
 62
253
  6
CONTINUOUS
 10
-1.2106192005
 20
-26.3992870283
 11
-1.4254809072
 21
-26.417799367
  0
LINE
  5
3DB
100
AcDbEntity
  8
IMPORT_IGES
100
AcDbLine
 62
253
  6
CONTINUOUS
 10
-1.4224762356
 20
-28.4175053424
 11
-1.2097125886
 21
-28.399185853
  0
LINE
  5
3DC
100
AcDbEntity
  8
IMPORT_IGES
100
AcDbLine
 62
7
  6
CONTINUOUS
 10
0.8020868825
 20
-27.9931734352
 11
0.5349266348
 21
-28.0159806156
  0
LINE
  5
3DD
100
AcDbEntity
  8
IMPORT_IGES
100
AcDbLine
 62
7
  6
CONTINUOUS
 10
0.5708653177
 20
-27.5131417106
 11
0.8504665426
 21
-27.4892673046
  0
LINE
  5
3DE
100
AcDbEntity
  8
IMPORT_IGES
100
AcDbLine
 62
7
  6
CONTINUOUS
 10
0.5610115641
 20
-26.5139750432
 11
0.8632870428
 21
-26.4881516023
  0
LINE
  5
3DF
100
AcDbEntity
  8
IMPORT_IGES
100
AcDbLine
 62
7
  6
CONTINUOUS
 10
0.5080918733
 20
-28.5183270976
 11
0.8110394101
 21
-28.4927045151
  0
LINE
  5
3E0
100
AcDbEntity
  8
IMPORT_IGES
100
AcDbLine
 62
7
  6
CONTINUOUS
 10
0.7769625535
 20
-26.9953908736
 11
0.4787861955
 21
-27.0206439656
  0
LINE
  5
3E1
100
AcDbEntity
  8
IMPORT_IGES
100
AcDbLine
 62
7
  6
CONTINUOUS
 10
-0.8262485104
 20
-28.6266842571
 11
-0.5272751518
 21
-28.6014999569
  0
LINE
  5
3E2
100
AcDbEntity
  8
IMPORT_IGES
100
AcDbLine
 62
7
  6
CONTINUOUS
 10
-0.5352711741
 20
-28.1020671188
 11
-0.8434495603
 21
-28.1278939594
  0
LINE
  5
3E3
100
AcDbEntity
  8
IMPORT_IGES
100
AcDbLine
 62
7
  6
CONTINUOUS
 10
-0.8028370784
 20
-26.6246838597
 11
-0.4951027214
 21
-26.598891931
  0
LINE
  5
3E4
100
AcDbEntity
  8
IMPORT_IGES
100
AcDbLine
 62
253
  6
CONTINUOUS
 10
1.0029736619
 20
-28.2358429796
 11
1.2448944083
 21
-28.2158248936
  0
LINE
  5
3E5
100
AcDbEntity
  8
IMPORT_IGES
100
AcDbLine
 62
253
  6
CONTINUOUS
 10
1.004834002
 20
-27.2357102627
 11
1.2472620753
 21
-27.2156311914
  0
LINE
  5
3E6
100
AcDbEntity
  8
IMPORT_IGES
100
AcDbLine
 62
253
  6
CONTINUOUS
 10
1.2480639451
 20
-26.2155766947
 11
1.0049749871
 21
-26.2357137012
  0
LINE
  5
3E7
100
AcDbEntity
  8
IMPORT_IGES
100
AcDbLine
 62
7
  6
CONTINUOUS
 10
-0.4468992742
 20
-27.0948964782
 11
-0.8142566195
 21
-27.1253941589
  0
LINE
  5
3E8
100
AcDbEntity
  8
IMPORT_IGES
100
AcDbLine
 62
7
  6
CONTINUOUS
 10
-0.4283246756
 20
-26.0934101363
 11
-0.797592099
 21
-26.1239802857
  0
LINE
  5
3E9
100
AcDbEntity
  8
IMPORT_IGES
100
AcDbLine
 62
7
  6
CONTINUOUS
 10
0.6704196374
 20
-26.0045968772
 11
0.2418222297
 21
-26.0399370045
  0
LINE
  5
3EA
100
AcDbEntity
  8
IMPORT_IGES
100
AcDbLine
 62
7
  6
CONTINUOUS
 10
-0.7399705084
 20
-25.6193017761
 11
-0.3538387118
 21
-25.587457628
  0
LINE
  5
3EB
100
AcDbEntity
  8
IMPORT_IGES
100
AcDbLine
 62
7
  6
CONTINUOUS
 10
0.2437177104
 20
-25.5398263126
 11
0.7039269355
 21
-25.5019724286
  0
LINE
  5
3EC
100
AcDbEntity
  8
IMPORT_IGES
100
AcDbLine
 62
7
  6
CONTINUOUS
 10
-0.7128786599
 20
-27.6169694572
 11
-0.2889981968
 21
-27.5822275702
  0
LINE
  5
3ED
100
AcDbEntity
  8
IMPORT_IGES
100
AcDbLine
 62
7
  6
CONTINUOUS
 10
-0.5272751518
 20
-28.6014999569
 11
0.5080918733
 21
-28.5183270976
  0
LINE
  5
3EE
100
AcDbEntity
  8
IMPORT_IGES
100
AcDbLine
 62
7
  6
CONTINUOUS
 10
0.5349266348
 20
-28.0159806156
 11
-0.5352711741
 21
-28.1020671188
  0
LINE
  5
3EF
100
AcDbEntity
  8
IMPORT_IGES
100
AcDbLine
 62
7
  6
CONTINUOUS
 10
-0.2889981968
 20
-27.5822275702
 11
0.5708653177
 21
-27.5131417106
  0
LINE
  5
3F0
100
AcDbEntity
  8
IMPORT_IGES
100
AcDbLine
 62
7
  6
CONTINUOUS
 10
0.4787861955
 20
-27.0206439656
 11
-0.4468992742
 21
-27.0948964782
  0
LINE
  5
3F1
100
AcDbEntity
  8
IMPORT_IGES
100
AcDbLine
 62
7
  6
CONTINUOUS
 10
-0.4951027214
 20
-26.598891931
 11
0.5610115641
 21
-26.5139750432
  0
LINE
  5
3F2
100
AcDbEntity
  8
IMPORT_IGES
100
AcDbLine
 62
7
  6
CONTINUOUS
 10
0.2418222297
 20
-26.0399370045
 11
-0.4283246756
 21
-26.0934101363
  0
LINE
  5
3F3
100
AcDbEntity
  8
IMPORT_IGES
100
AcDbLine
 62
7
  6
CONTINUOUS
 10
-0.3538387118
 20
-25.587457628
 11
0.2437177104
 21
-25.5398263126
  0
LINE
  5
3F4
100
AcDbEntity
  8
IMPORT_IGES
100
AcDbLine
 62
253
  6
CONTINUOUS
 10
-1.2097125886
 20
-28.399185853
 11
-0.9779957275
 21
-28.3807000426
  0
LINE
  5
3F5
100
AcDbEntity
  8
IMPORT_IGES
100
AcDbLine
 62
253
  6
CONTINUOUS
 10
-1.2119334274
 20
-27.3993812952
 11
-0.9769598648
 21
-27.3806362748
  0
LINE
  5
3F6
100
AcDbEntity
  8
IMPORT_IGES
100
AcDbLine
 62
253
  6
CONTINUOUS
 10
-0.9765160873
 20
-26.3806165797
 11
-1.2106192005
 21
-26.3992870283
  0
LINE
  5
3F7
100
AcDbEntity
  8
IMPORT_IGES
100
AcDbLine
 62
253
  6
CONTINUOUS
 10
0.6153056015
 20
-28.2656020227
 11
1.0029736619
 21
-28.2358429796
  0
LINE
  5
3F8
100
AcDbEntity
  8
IMPORT_IGES
100
AcDbLine
 62
253
  6
CONTINUOUS
 10
0.6163459008
 20
-27.2655362792
 11
1.004834002
 21
-27.2357102627
  0
LINE
  5
3F9
100
AcDbEntity
  8
IMPORT_IGES
100
AcDbLine
 62
253
  6
CONTINUOUS
 10
1.0049749871
 20
-26.2357137012
 11
0.6159552235
 21
-26.2655796298
  0
LINE
  5
3FA
100
AcDbEntity
  8
IMPORT_IGES
100
AcDbLine
 62
253
  6
CONTINUOUS
 10
-0.9779957275
 20
-28.3807000426
 11
-0.4689786746
 21
-28.3430558338
  0
LINE
  5
3FB
100
AcDbEntity
  8
IMPORT_IGES
100
AcDbLine
 62
253
  6
CONTINUOUS
 10
-0.9769598648
 20
-27.3806362748
 11
-0.4644518249
 21
-27.3427432786
  0
LINE
  5
3FC
100
AcDbEntity
  8
IMPORT_IGES
100
AcDbLine
 62
253
  6
CONTINUOUS
 10
-0.4648425012
 20
-26.342785668
 11
-0.9765160873
 21
-26.3806165797
  0
LINE
  5
3FD
100
AcDbEntity
  8
IMPORT_IGES
100
AcDbLine
 62
253
  6
CONTINUOUS
 10
-0.4689786746
 20
-28.3430558338
 11
0.6153056015
 21
-28.2656020227
  0
LINE
  5
3FE
100
AcDbEntity
  8
IMPORT_IGES
100
AcDbLine
 62
253
  6
CONTINUOUS
 10
-0.4644518249
 20
-27.3427432786
 11
0.6163459008
 21
-27.2655362792
  0
LINE
  5
3FF
100
AcDbEntity
  8
IMPORT_IGES
100
AcDbLine
 62
253
  6
CONTINUOUS
 10
0.6159552235
 20
-26.2655796298
 11
-0.4648425012
 21
-26.342785668
  0
LINE
  5
400
100
AcDbEntity
  8
IMPORT_IGES
100
AcDbLine
 62
7
  6
CONTINUOUS
 10
2.0757516997
 20
-28.5434631751
 11
0.2128732954
 21
-28.5434631751
  0
LINE
  5
401
100
AcDbEntity
  8
IMPORT_IGES
100
AcDbLine
 62
7
  6
CONTINUOUS
 10
2.0757516997
 20
-27.7434631751
 11
2.0207243225
 21
-27.7434631751
  0
LINE
  5
402
100
AcDbEntity
  8
IMPORT_IGES
100
AcDbLine
 62
7
  6
CONTINUOUS
 10
-0.6736254499
 20
-25.9722703521
 11
0.2050160402
 21
-26.0428903087
  0
LINE
  5
403
100
AcDbEntity
  8
IMPORT_IGES
100
AcDbLine
 62
7
  6
CONTINUOUS
 10
-0.6915315672
 20
-27.9707478512
 11
0.2050129924
 21
-28.0428635269
  0
LINE
  5
404
100
AcDbEntity
  8
IMPORT_IGES
100
AcDbLine
 62
7
  6
CONTINUOUS
 10
0.6254564257
 20
-26.5771769596
 11
0.2053449735
 21
-26.5428838533
  0
LINE
  5
405
100
AcDbEntity
  8
IMPORT_IGES
100
AcDbLine
 62
7
  6
CONTINUOUS
 10
-0.7166064236
 20
-26.9686580593
 11
0.2050127617
 21
-27.0428769576
  0
LINE
  5
406
100
AcDbEntity
  8
IMPORT_IGES
100
AcDbLine
 62
7
  6
CONTINUOUS
 10
0.6450903084
 20
-28.5787977269
 11
0.2053179879
 21
-28.5428584061
  0
LINE
  5
407
100
AcDbEntity
  8
IMPORT_IGES
100
AcDbLine
 62
7
  6
CONTINUOUS
 10
0.6546696605
 20
-27.5796194319
 11
0.2053194216
 21
-27.5428702581
  0
LINE
  5
408
100
AcDbEntity
  8
IMPORT_IGES
100
AcDbLine
 62
7
  6
CONTINUOUS
 10
0.6674164643
 20
-25.5807261408
 11
0.2053436846
 21
-25.5428976708
  0
LINE
  5
409
100
AcDbEntity
  8
IMPORT_IGES
100
AcDbLine
 62
7
  6
CONTINUOUS
 10
0.8684615008
 20
-28.5980502667
 11
0.6450903084
 21
-28.5787977269
  0
LINE
  5
40A
100
AcDbEntity
  8
IMPORT_IGES
100
AcDbLine
 62
7
  6
CONTINUOUS
 10
-0.9206322646
 20
-27.9510925668
 11
-0.6915315672
 21
-27.9707478512
  0
LINE
  5
40B
100
AcDbEntity
  8
IMPORT_IGES
100
AcDbLine
 62
7
  6
CONTINUOUS
 10
-0.9303573558
 20
-26.9502471581
 11
-0.7166064236
 21
-26.9686580593
  0
LINE
  5
40C
100
AcDbEntity
  8
IMPORT_IGES
100
AcDbLine
 62
7
  6
CONTINUOUS
 10
-0.9285383672
 20
-25.9504207142
 11
-0.6736254499
 21
-25.9722703521
  0
LINE
  5
40D
100
AcDbEntity
  8
IMPORT_IGES
100
AcDbLine
 62
7
  6
CONTINUOUS
 10
0.8793814624
 20
-26.5990431913
 11
0.6254564257
 21
-26.5771769596
  0
LINE
  5
40E
100
AcDbEntity
  8
IMPORT_IGES
100
AcDbLine
 62
7
  6
CONTINUOUS
 10
0.916167439
 20
-25.60233383
 11
0.6674164643
 21
-25.5807261408
  0
LINE
  5
40F
100
AcDbEntity
  8
IMPORT_IGES
100
AcDbLine
 62
7
  6
CONTINUOUS
 10
0.9182399268
 20
-27.602494971
 11
0.6546696605
 21
-27.5796194319
  0
LINE
  5
410
100
AcDbEntity
  8
IMPORT_IGES
100
AcDbLine
 62
7
  6
CONTINUOUS
 10
1.0303023858
 20
-28.6126898951
 11
0.8684615008
 21
-28.5980502667
  0
LINE
  5
411
100
AcDbEntity
  8
IMPORT_IGES
100
AcDbLine
 62
7
  6
CONTINUOUS
 10
-1.071309683
 20
-25.937503595
 11
-0.9285383672
 21
-25.9504207142
  0
LINE
  5
412
100
AcDbEntity
  8
IMPORT_IGES
100
AcDbLine
 62
7
  6
CONTINUOUS
 10
-1.0782028881
 20
-26.9368457641
 11
-0.9303573558
 21
-26.9502471581
  0
LINE
  5
413
100
AcDbEntity
  8
IMPORT_IGES
100
AcDbLine
 62
7
  6
CONTINUOUS
 10
1.0561642719
 20
-26.6151176272
 11
0.8793814624
 21
-26.5990431913
  0
LINE
  5
414
100
AcDbEntity
  8
IMPORT_IGES
100
AcDbLine
 62
7
  6
CONTINUOUS
 10
-1.0889641582
 20
-27.9358285309
 11
-0.9206322646
 21
-27.9510925668
  0
LINE
  5
415
100
AcDbEntity
  8
IMPORT_IGES
100
AcDbLine
 62
253
  6
CONTINUOUS
 10
-0.5018044557
 20
-27.7308039381
 11
0.5132544114
 21
-27.8243311474
  0
LINE
  5
416
100
AcDbEntity
  8
IMPORT_IGES
100
AcDbLine
 62
7
  6
CONTINUOUS
 10
1.1050190741
 20
-25.6197381946
 11
0.916167439
 21
-25.60233383
  0
LINE
  5
417
100
AcDbEntity
  8
IMPORT_IGES
100
AcDbLine
 62
7
  6
CONTINUOUS
 10
1.1107241742
 20
-27.6202539449
 11
0.9182399268
 21
-27.602494971
  0
LINE
  5
418
100
AcDbEntity
  8
IMPORT_IGES
100
AcDbLine
 62
253
  6
CONTINUOUS
 10
0.4621073989
 20
-25.8195108353
 11
-0.5467044037
 21
-25.7265687152
  0
LINE
  5
419
100
AcDbEntity
  8
IMPORT_IGES
100
AcDbLine
 62
253
  6
CONTINUOUS
 10
-0.4876852706
 20
-26.7321506977
 11
0.530672269
 21
-26.8260100404
  0
LINE
  5
41A
100
AcDbEntity
  8
IMPORT_IGES
100
AcDbLine
 62
7
  6
CONTINUOUS
 10
1.1854151252
 20
-28.6274646449
 11
1.0303023858
 21
-28.6126898951
  0
LINE
  5
41B
100
AcDbEntity
  8
IMPORT_IGES
100
AcDbLine
 62
7
  6
CONTINUOUS
 10
-1.2049642567
 20
-25.9247632424
 11
-1.071309683
 21
-25.937503595
  0
LINE
  5
41C
100
AcDbEntity
  8
IMPORT_IGES
100
AcDbLine
 62
7
  6
CONTINUOUS
 10
-1.2060237387
 20
-27.9246283065
 11
-1.0889641582
 21
-27.9358285309
  0
LINE
  5
41D
100
AcDbEntity
  8
IMPORT_IGES
100
AcDbLine
 62
253
  6
CONTINUOUS
 10
-0.4876852706
 20
-26.7321506977
 11
-0.6996108277
 21
-26.7117249225
  0
LINE
  5
41E
100
AcDbEntity
  8
IMPORT_IGES
100
AcDbLine
 62
7
  6
CONTINUOUS
 10
-1.2148639579
 20
-26.9237726108
 11
-1.0782028881
 21
-26.9368457641
  0
LINE
  5
41F
100
AcDbEntity
  8
IMPORT_IGES
100
AcDbLine
 62
253
  6
CONTINUOUS
 10
0.6831950187
 20
-25.8408395521
 11
0.4621073989
 21
-25.8195108353
  0
LINE
  5
420
100
AcDbEntity
  8
IMPORT_IGES
100
AcDbLine
 62
7
  6
CONTINUOUS
 10
1.1951887305
 20
-25.6284651781
 11
1.1050190741
 21
-25.6197381946
  0
LINE
  5
421
100
AcDbEntity
  8
IMPORT_IGES
100
AcDbLine
 62
253
  6
CONTINUOUS
 10
-0.7146973477
 20
-27.7102159489
 11
-0.5018044557
 21
-27.7308039381
  0
LINE
  5
422
100
AcDbEntity
  8
IMPORT_IGES
100
AcDbLine
 62
7
  6
CONTINUOUS
 10
1.2201037421
 20
-26.6309188899
 11
1.0561642719
 21
-26.6151176272
  0
LINE
  5
423
100
AcDbEntity
  8
IMPORT_IGES
100
AcDbLine
 62
253
  6
CONTINUOUS
 10
0.5132544114
 20
-27.8243311474
 11
0.7311350825
 21
-27.8455836252
  0
LINE
  5
424
100
AcDbEntity
  8
IMPORT_IGES
100
AcDbLine
 62
253
  6
CONTINUOUS
 10
-0.5467044037
 20
-25.7265687152
 11
-0.7549107849
 21
-25.7062233919
  0
LINE
  5
425
100
AcDbEntity
  8
IMPORT_IGES
100
AcDbLine
 62
253
  6
CONTINUOUS
 10
0.530672269
 20
-26.8260100404
 11
0.7485537396
 21
-26.8473448558
  0
LINE
  5
426
100
AcDbEntity
  8
IMPORT_IGES
100
AcDbLine
 62
7
  6
CONTINUOUS
 10
1.2439711098
 20
-27.6332896385
 11
1.1107241742
 21
-27.6202539449
  0
LINE
  5
427
100
AcDbEntity
  8
IMPORT_IGES
100
AcDbLine
 62
7
  6
CONTINUOUS
 10
1.2843105548
 20
-28.6373758235
 11
1.1854151252
 21
-28.6274646449
  0
LINE
  5
428
100
AcDbEntity
  8
IMPORT_IGES
100
AcDbLine
 62
7
  6
CONTINUOUS
 10
-1.2885624957
 20
-25.9163791505
 11
-1.2049642567
 21
-25.9247632424
  0
LINE
  5
429
100
AcDbEntity
  8
IMPORT_IGES
100
AcDbLine
 62
7
  6
CONTINUOUS
 10
-1.2996331725
 20
-26.9152278966
 11
-1.2148639579
 21
-26.9237726108
  0
LINE
  5
42A
100
AcDbEntity
  8
IMPORT_IGES
100
AcDbLine
 62
7
  6
CONTINUOUS
 10
-1.3149912175
 20
-27.9136227162
 11
-1.2060237387
 21
-27.9246283065
  0
LINE
  5
42B
100
AcDbEntity
  8
IMPORT_IGES
100
AcDbLine
 62
7
  6
CONTINUOUS
 10
1.3219738059
 20
-26.6413050379
 11
1.2201037421
 21
-26.6309188899
  0
LWPOLYLINE
  5
42C
100
AcDbEntity
  8
IMPORT_IGES
100
AcDbPolyline
 62
253
  6
CONTINUOUS
 90
6
 70
0
 10
-0.6996108277
 20
-26.7117249225
 10
-0.8979084291
 20
-26.6914648648
 10
-0.9905457351
 20
-26.6814328549
 10
-1.0785472728
 20
-26.671446096
 10
-1.1621129836
 20
-26.6614350502
 10
-1.1790631931
 20
-26.6592723723
  0
LWPOLYLINE
  5
42D
100
AcDbEntity
  8
IMPORT_IGES
100
AcDbPolyline
 62
253
  6
CONTINUOUS
 90
8
 70
0
 10
0.7311350825
 20
-27.8455836252
 10
0.938025393
 20
-27.8670035373
 10
1.0361348716
 20
-27.8777661603
 10
1.1300043042
 20
-27.8885532175
 10
1.2192083711
 20
-27.8993590194
 10
1.3034481466
 20
-27.910185825
 10
1.3824078588
 20
-27.9210339879
 10
1.4420915749
 20
-27.9298772606
  0
LINE
  5
42E
100
AcDbEntity
  8
IMPORT_IGES
100
AcDbLine
 62
7
  6
CONTINUOUS
 10
1.3675658461
 20
-27.6461084336
 11
1.2439711098
 21
-27.6332896385
  0
LWPOLYLINE
  5
42F
100
AcDbEntity
  8
IMPORT_IGES
100
AcDbPolyline
 62
253
  6
CONTINUOUS
 90
8
 70
0
 10
0.7485537396
 20
-26.8473448558
 10
0.9546548387
 20
-26.8688079001
 10
1.0520283697
 20
-26.8795731711
 10
1.1448268995
 20
-26.890326922
 10
1.2329527564
 20
-26.9010953535
 10
1.3166008939
 20
-26.9119501753
 10
1.395598805
 20
-26.9229319304
 10
1.4419762862
 20
-26.929910482
  0
LWPOLYLINE
  5
430
100
AcDbEntity
  8
IMPORT_IGES
100
AcDbPolyline
 62
253
  6
CONTINUOUS
 90
5
 70
0
 10
-0.7549107849
 20
-25.7062233919
 10
-0.9489233089
 20
-25.6860127397
 10
-1.0393753406
 20
-25.6759703311
 10
-1.1250044484
 20
-25.665964948
 10
-1.1789624362
 20
-25.6592800486
  0
LINE
  5
431
100
AcDbEntity
  8
IMPORT_IGES
100
AcDbLine
 62
7
  6
CONTINUOUS
 10
1.3790634564
 20
-28.647325835
 11
1.2843105548
 21
-28.6373758235
  0
LINE
  5
432
100
AcDbEntity
  8
IMPORT_IGES
100
AcDbLine
 62
7
  6
CONTINUOUS
 10
-1.3675486928
 20
-25.9080862869
 11
-1.2885624957
 21
-25.9163791505
  0
LINE
  5
433
100
AcDbEntity
  8
IMPORT_IGES
100
AcDbLine
 62
7
  6
CONTINUOUS
 10
-1.3792779327
 20
-26.9068104884
 11
-1.2996331725
 21
-26.9152278966
  0
LINE
  5
434
100
AcDbEntity
  8
IMPORT_IGES
100
AcDbLine
 62
7
  6
CONTINUOUS
 10
-1.3830797536
 20
-27.906383791
 11
-1.3149912175
 21
-27.9136227162
  0
LINE
  5
435
100
AcDbEntity
  8
IMPORT_IGES
100
AcDbLine
 62
7
  6
CONTINUOUS
 10
1.4177920364
 20
-26.6515780033
 11
1.3219738059
 21
-26.6413050379
  0
LWPOLYLINE
  5
436
100
AcDbEntity
  8
IMPORT_IGES
100
AcDbPolyline
 62
253
  6
CONTINUOUS
 90
7
 70
0
 10
0.8203397616
 20
-28.8546251641
 10
1.0233378237
 20
-28.8763270891
 10
1.1187518399
 20
-28.8872198255
 10
1.2092709975
 20
-28.898106803
 10
1.2943527708
 20
-28.908964586
 10
1.3738924936
 20
-28.9198126484
 10
1.4422021784
 20
-28.929850947
  0
LINE
  5
437
100
AcDbEntity
  8
IMPORT_IGES
100
AcDbLine
 62
7
  6
CONTINUOUS
 10
1.4446527599
 20
-27.6545479204
 11
1.3675658461
 21
-27.6461084336
  0
LINE
  5
438
100
AcDbEntity
  8
IMPORT_IGES
100
AcDbLine
 62
7
  6
CONTINUOUS
 10
-1.4417617018
 20
-25.8998888435
 11
-1.3675486928
 21
-25.9080862869
  0
LINE
  5
439
100
AcDbEntity
  8
IMPORT_IGES
100
AcDbLine
 62
7
  6
CONTINUOUS
 10
1.4692458009
 20
-28.6573060236
 11
1.3790634564
 21
-28.647325835
  0
LINE
  5
43A
100
AcDbEntity
  8
IMPORT_IGES
100
AcDbLine
 62
7
  6
CONTINUOUS
 10
-1.447491692
 20
-27.8992156621
 11
-1.3830797536
 21
-27.906383791
  0
LINE
  5
43B
100
AcDbEntity
  8
IMPORT_IGES
100
AcDbLine
 62
7
  6
CONTINUOUS
 10
-1.4537673862
 20
-26.8985122581
 11
-1.3792779327
 21
-26.9068104884
  0
LINE
  5
43C
100
AcDbEntity
  8
IMPORT_IGES
100
AcDbLine
 62
7
  6
CONTINUOUS
 10
1.5075068518
 20
-26.6617453146
 11
1.4177920364
 21
-26.6515780033
  0
LINE
  5
43D
100
AcDbEntity
  8
IMPORT_IGES
100
AcDbLine
 62
7
  6
CONTINUOUS
 10
1.5175355169
 20
-27.6629118368
 11
1.4446527599
 21
-27.6545479204
  0
LINE
  5
43E
100
AcDbEntity
  8
IMPORT_IGES
100
AcDbLine
 62
7
  6
CONTINUOUS
 10
-1.5082231118
 20
-27.8921092161
 11
-1.447491692
 21
-27.8992156621
  0
LINE
  5
43F
100
AcDbEntity
  8
IMPORT_IGES
100
AcDbLine
 62
7
  6
CONTINUOUS
 10
-1.5110972495
 20
-25.8917875728
 11
-1.4417617018
 21
-25.8998888435
  0
LINE
  5
440
100
AcDbEntity
  8
IMPORT_IGES
100
AcDbLine
 62
7
  6
CONTINUOUS
 10
1.5544203316
 20
-28.6672960235
 11
1.4692458009
 21
-28.6573060236
  0
LINE
  5
441
100
AcDbEntity
  8
IMPORT_IGES
100
AcDbLine
 62
7
  6
CONTINUOUS
 10
-1.5231019856
 20
-26.8903227047
 11
-1.4537673862
 21
-26.8985122581
  0
LWPOLYLINE
  5
442
100
AcDbEntity
  8
IMPORT_IGES
100
AcDbPolyline
 62
253
  6
CONTINUOUS
 90
5
 70
0
 10
-1.179283349
 20
-27.6592835077
 10
-1.0969277517
 20
-27.6692788919
 10
-1.0081338184
 20
-27.6794617066
 10
-0.9143637807
 20
-27.6896995196
 10
-0.7146973477
 20
-27.7102159489
  0
LINE
  5
443
100
AcDbEntity
  8
IMPORT_IGES
100
AcDbLine
 62
7
  6
CONTINUOUS
 10
1.5862815648
 20
-27.671212526
 11
1.5175355169
 21
-27.6629118368
  0
LWPOLYLINE
  5
444
100
AcDbEntity
  8
IMPORT_IGES
100
AcDbPolyline
 62
253
  6
CONTINUOUS
 90
5
 70
0
 10
-1.1789737991
 20
-28.6592465889
 10
-1.1216068636
 20
-28.6663390405
 10
-1.0345544513
 20
-28.6764780343
 10
-0.9426603269
 20
-28.6866456554
 10
-0.7460051284
 20
-28.707076469
  0
LINE
  5
445
100
AcDbEntity
  8
IMPORT_IGES
100
AcDbLine
 62
7
  6
CONTINUOUS
 10
-1.5652977298
 20
-27.8850538414
 11
-1.5082231118
 21
-27.8921092161
  0
LINE
  5
446
100
AcDbEntity
  8
IMPORT_IGES
100
AcDbLine
 62
7
  6
CONTINUOUS
 10
1.6509724206
 20
-27.6794656272
 11
1.5862815648
 21
-27.671212526
  0
LWPOLYLINE
  5
447
100
AcDbEntity
  8
IMPORT_IGES
100
AcDbPolyline
 62
253
  6
CONTINUOUS
 90
9
 70
0
 10
1.4421187703
 20
-25.929911609
 10
1.4279007026
 20
-25.9276917276
 10
1.3519688226
 20
-25.9167810596
 10
1.270309082
 20
-25.9058713459
 10
1.1830935945
 20
-25.8949430642
 10
1.0908333254
 20
-25.8840196243
 10
0.9942466028
 20
-25.8731422791
 10
0.8938783598
 20
-25.8623269319
 10
0.6831950187
 20
-25.8408395521
  0
LWPOLYLINE
  5
448
100
AcDbEntity
  8
IMPORT_IGES
100
AcDbPolyline
 62
7
  6
CONTINUOUS
 90
17
 70
0
 10
-1.9242483003
 20
-26.8213879999
 10
-1.912299602
 20
-26.8247697313
 10
-1.8950780677
 20
-26.8292814995
 10
-1.8772480704
 20
-26.8336251739
 10
-1.8585905241
 20
-26.8378702852
 10
-1.8390334672
 20
-26.8420429711
 10
-1.818574765
 20
-26.8461519141
 10
-1.7971339034
 20
-26.8502198914
 10
-1.7746846883
 20
-26.854256629
 10
-1.7512116483
 20
-26.8582690146
 10
-1.726680383
 20
-26.8622663074
 10
-1.7011074994
 20
-26.8662488668
 10
-1.6744584757
 20
-26.8702248342
 10
-1.6466315904
 20
-26.8742108012
 10
-1.6175921462
 20
-26.878212068
 10
-1.5873469684
 20
-26.8822279927
 10
-1.5231019856
 20
-26.8903227047
  0
LWPOLYLINE
  5
449
100
AcDbEntity
  8
IMPORT_IGES
100
AcDbPolyline
 62
7
  6
CONTINUOUS
 90
18
 70
0
 10
-1.9242483003
 20
-28.8213351746
 10
-1.9154002599
 20
-28.8238707235
 10
-1.8992006423
 20
-28.8281839946
 10
-1.8824697919
 20
-28.8323404926
 10
-1.8650431731
 20
-28.8363959356
 10
-1.8468600725
 20
-28.8403735044
 10
-1.8279182302
 20
-28.8442813053
 10
-1.8081751851
 20
-28.8481346855
 10
-1.7876496569
 20
-28.851935877
 10
-1.7662980471
 20
-28.8556986799
 10
-1.7440036389
 20
-28.8594477294
 10
-1.7207360483
 20
-28.8631903762
 10
-1.6965016295
 20
-28.8669276029
 10
-1.6712386326
 20
-28.870670436
 10
-1.6449258023
 20
-28.8744228596
 10
-1.6175640484
 20
-28.8781855236
 10
-1.5891293772
 20
-28.8819624331
 10
-1.5290073367
 20
-28.8895657168
  0
LWPOLYLINE
  5
44A
100
AcDbEntity
  8
IMPORT_IGES
100
AcDbPolyline
 62
7
  6
CONTINUOUS
 90
18
 70
0
 10
-1.9242483003
 20
-27.8213762773
 10
-1.9197751104
 20
-27.8226845899
 10
-1.9041932712
 20
-27.8269206029
 10
-1.8881725706
 20
-27.8309856912
 10
-1.8715714771
 20
-27.8349327857
 10
-1.854345363
 20
-27.8387847629
 10
-1.8364995189
 20
-27.8425516724
 10
-1.8180045842
 20
-27.8462495684
 10
-1.7988921283
 20
-27.8498810244
 10
-1.7791314712
 20
-27.8534598206
 10
-1.7586190646
 20
-27.8570101459
 10
-1.7373407444
 20
-27.8605380511
 10
-1.715304844
 20
-27.8640454252
 10
-1.6924409866
 20
-27.8675459309
 10
-1.6687333779
 20
-27.8710435566
 10
-1.6441890434
 20
-27.8745387167
 10
-1.6187718518
 20
-27.8780377536
 10
-1.5652977298
 20
-27.8850538414
  0
LWPOLYLINE
  5
44B
100
AcDbEntity
  8
IMPORT_IGES
100
AcDbPolyline
 62
7
  6
CONTINUOUS
 90
18
 70
0
 10
2.0757516997
 20
-28.7588689684
 10
2.0571726044
 20
-28.7532755664
 10
2.037467826
 20
-28.7477932674
 10
2.0167952158
 20
-28.7424542597
 10
1.9951645623
 20
-28.7372463203
 10
1.9723873498
 20
-28.7321137383
 10
1.948381191
 20
-28.7270333418
 10
1.9231308945
 20
-28.7219984965
 10
1.8965869191
 20
-28.7169964613
 10
1.8687397299
 20
-28.712023043
 10
1.8395468474
 20
-28.7070674724
 10
1.8089377185
 20
-28.7021150162
 10
1.7768779213
 20
-28.6971584751
 10
1.7433743877
 20
-28.6921974556
 10
1.708434592
 20
-28.6872313956
 10
1.6720466843
 20
-28.6822569785
 10
1.634218419
 20
-28.677273698
 10
1.5544203316
 20
-28.6672960235
  0
LWPOLYLINE
  5
44C
100
AcDbEntity
  8
IMPORT_IGES
100
AcDbPolyline
 62
7
  6
CONTINUOUS
 90
19
 70
0
 10
2.0757516997
 20
-27.75889453
 10
2.0711416959
 20
-27.7574269493
 10
2.0542092669
 20
-27.7524202457
 10
2.0366956982
 20
-27.74758959
 10
2.0186320755
 20
-27.7429226155
 10
1.9998549647
 20
-27.7383611367
 10
1.9803112245
 20
-27.7338822707
 10
1.9600126662
 20
-27.7294801398
 10
1.9389217113
 20
-27.7251390269
 10
1.9170311162
 20
-27.7208511692
 10
1.8943349469
 20
-27.7166098358
 10
1.8708237322
 20
-27.7124083873
 10
1.8465373469
 20
-27.7082492145
 10
1.8214425314
 20
-27.7041222978
 10
1.7954239461
 20
-27.700006192
 10
1.7684513797
 20
-27.6958951176
 10
1.740545395
 20
-27.6917909199
 10
1.7116632428
 20
-27.6876855212
 10
1.6509724206
 20
-27.6794656272
  0
LWPOLYLINE
  5
44D
100
AcDbEntity
  8
IMPORT_IGES
100
AcDbPolyline
 62
7
  6
CONTINUOUS
 90
19
 70
0
 10
2.0757516997
 20
-29.7588698638
 10
2.0733509289
 20
-29.7580964301
 10
2.0566368666
 20
-29.7530942823
 10
2.0393472412
 20
-29.748268207
 10
2.0215086883
 20
-29.7436061271
 10
2.0029624293
 20
-29.7390517305
 10
1.983651437
 20
-29.7345819929
 10
1.9635819945
 20
-29.7301905246
 10
1.9427208535
 20
-29.725862003
 10
1.9210594539
 20
-29.7215875326
 10
1.8985953726
 20
-29.7173602983
 10
1.8753338793
 20
-29.7131755341
 10
1.851322852
 20
-29.7090360973
 10
1.8265291039
 20
-29.7049309915
 10
1.8008435372
 20
-29.7008388074
 10
1.7742454187
 20
-29.6967543522
 10
1.7467536458
 20
-29.6926787783
 10
1.7183120157
 20
-29.688602388
 10
1.6585574083
 20
-29.6804407187
  0
LINE
  5
44E
100
AcDbEntity
  8
IMPORT_IGES
100
AcDbLine
 62
7
  6
CONTINUOUS
 10
-15.7254851985
 20
-21.6422190404
 11
-16.2242483003
 21
-21.1434631751
  0
LINE
  5
44F
100
AcDbEntity
  8
IMPORT_IGES
100
AcDbLine
 62
7
  6
CONTINUOUS
 10
-15.7242483003
 20
-21.6434631751
 11
-15.7245487851
 21
-21.6431533095
  0
LINE
  5
450
100
AcDbEntity
  8
IMPORT_IGES
100
AcDbLine
 62
7
  6
CONTINUOUS
 10
-7.4455248935
 20
36.7648698404
 11
-7.147652529
 21
37.3482038095
  0
LINE
  5
451
100
AcDbEntity
  8
IMPORT_IGES
100
AcDbLine
 62
7
  6
CONTINUOUS
 10
-7.0199929697
 20
37.2648698404
 11
-7.4455248935
 21
36.4732038095
  0
LINE
  5
452
100
AcDbEntity
  8
IMPORT_IGES
100
AcDbLine
 62
7
  6
CONTINUOUS
 10
-8.3816951139
 20
31.0148703172
 11
-8.2540355546
 21
31.2232038095
  0
LINE
  5
453
100
AcDbEntity
  8
IMPORT_IGES
100
AcDbLine
 62
7
  6
CONTINUOUS
 10
-7.6582908256
 20
31.0565368249
 11
-7.5306312663
 21
31.2648698404
  0
LINE
  5
454
100
AcDbEntity
  8
IMPORT_IGES
100
AcDbLine
 62
7
  6
CONTINUOUS
 10
-8.3816951139
 20
29.1815368249
 11
-8.2540355546
 21
29.3898703172
  0
LINE
  5
455
100
AcDbEntity
  8
IMPORT_IGES
100
AcDbLine
 62
7
  6
CONTINUOUS
 10
-8.083822809
 20
31.0982038095
 11
-8.1689291818
 21
30.9732033327
  0
LINE
  5
456
100
AcDbEntity
  8
IMPORT_IGES
100
AcDbLine
 62
7
  6
CONTINUOUS
 10
-7.3604185207
 20
31.1398698404
 11
-7.4455248935
 21
31.0148703172
  0
LINE
  5
457
100
AcDbEntity
  8
IMPORT_IGES
100
AcDbLine
 62
7
  6
CONTINUOUS
 10
-8.083822809
 20
29.2648703172
 11
-8.1689291818
 21
29.1398703172
  0
LINE
  5
458
100
AcDbEntity
  8
IMPORT_IGES
100
AcDbLine
 62
7
  6
CONTINUOUS
 10
-6.7646738214
 20
30.3482033327
 11
-6.6795674486
 21
30.4732033327
  0
LINE
  5
459
100
AcDbEntity
  8
IMPORT_IGES
100
AcDbLine
 62
7
  6
CONTINUOUS
 10
-7.3604185207
 20
29.3065368249
 11
-7.4455248935
 21
29.1815368249
  0
LINE
  5
45A
100
AcDbEntity
  8
IMPORT_IGES
100
AcDbLine
 62
7
  6
CONTINUOUS
 10
-8.083822809
 20
25.5148700788
 11
-8.1689291818
 21
25.4315368249
  0
LINE
  5
45B
100
AcDbEntity
  8
IMPORT_IGES
100
AcDbLine
 62
7
  6
CONTINUOUS
 10
-7.0199929697
 20
23.1398701608
 11
-7.147652529
 21
23.0565368249
  0
LWPOLYLINE
  5
45C
100
AcDbEntity
  8
IMPORT_IGES
100
AcDbPolyline
 62
253
  6
CONTINUOUS
 90
3
 70
0
 10
2.2442830117
 20
-24.0889725742
 10
2.2053161892
 20
-24.0989637793
 10
2.1590520444
 20
-24.1089357099
  0
LWPOLYLINE
  5
45D
100
AcDbEntity
  8
IMPORT_IGES
100
AcDbPolyline
 62
253
  6
CONTINUOUS
 90
8
 70
0
 10
2.2443959191
 20
-23.0889299696
 10
2.2043263242
 20
-23.0991948409
 10
2.1565794198
 20
-23.1094432959
 10
2.1013074637
 20
-23.1196752462
 10
2.0386859665
 20
-23.129885948
 10
1.9689511724
 20
-23.1400661078
 10
1.8925880075
 20
-23.1501910252
 10
1.8097837314
 20
-23.1602816644
  0
LWPOLYLINE
  5
45E
100
AcDbEntity
  8
IMPORT_IGES
100
AcDbPolyline
 62
253
  6
CONTINUOUS
 90
3
 70
0
 10
2.1590520444
 20
-24.1089357099
 10
2.1056807993
 20
-24.1188885746
 10
2.045415349
 20
-24.1288179287
  0
LWPOLYLINE
  5
45F
100
AcDbEntity
  8
IMPORT_IGES
100
AcDbPolyline
 62
253
  6
CONTINUOUS
 90
8
 70
0
 10
2.0757516997
 20
-25.1239519993
 10
2.0087424503
 20
-25.1343452089
 10
1.9346630303
 20
-25.1446934751
 10
1.8538224196
 20
-25.1549946323
 10
1.7664987138
 20
-25.165249638
 10
1.6730461987
 20
-25.1754534055
 10
1.5739796353
 20
-25.1855951892
 10
1.4699487713
 20
-25.1956549275
  0
LWPOLYLINE
  5
460
100
AcDbEntity
  8
IMPORT_IGES
100
AcDbPolyline
 62
253
  6
CONTINUOUS
 90
8
 70
0
 10
2.045415349
 20
-24.1288179287
 10
1.978507255
 20
-24.138714716
 10
1.9052013151
 20
-24.1485730583
 10
1.8257156349
 20
-24.1583948828
 10
1.7403402815
 20
-24.1681831468
 10
1.6494274351
 20
-24.1779348307
 10
1.5533006039
 20
-24.1876498976
 10
1.4521987409
 20
-24.1973357406
  0
LWPOLYLINE
  5
461
100
AcDbEntity
  8
IMPORT_IGES
100
AcDbPolyline
 62
7
  6
CONTINUOUS
 90
17
 70
0
 10
1.6992293883
 20
-24.3998248748
 10
1.7306489006
 20
-24.3954135278
 10
1.7609379468
 20
-24.3910040401
 10
1.7900981915
 20
-24.3865954243
 10
1.8181439664
 20
-24.382184957
 10
1.8450952159
 20
-24.3777687067
 10
1.8709563939
 20
-24.373344994
 10
1.8957500644
 20
-24.3689088249
 10
1.9195335687
 20
-24.3644479452
 10
1.9423083804
 20
-24.3599593753
 10
1.9641087224
 20
-24.3554331977
 10
1.9850519149
 20
-24.3508393766
 10
2.0051276529
 20
-24.3461723088
 10
2.0243879572
 20
-24.341410753
 10
2.043055058
 20
-24.3364834731
 10
2.0611355448
 20
-24.3313645621
 10
2.0757516997
 20
-24.3269337774
  0
LWPOLYLINE
  5
462
100
AcDbEntity
  8
IMPORT_IGES
100
AcDbPolyline
 62
7
  6
CONTINUOUS
 90
16
 70
0
 10
-1.631684064
 20
-24.2095031065
 10
-1.6563721943
 20
-24.2129594143
 10
-1.6802220061
 20
-24.216414774
 10
-1.7032862724
 20
-24.2198782896
 10
-1.7255500773
 20
-24.2233495562
 10
-1.7470332354
 20
-24.2268336532
 10
-1.7678357626
 20
-24.2303501357
 10
-1.7879945062
 20
-24.2339104193
 10
-1.807463075
 20
-24.2375119939
 10
-1.8262280372
 20
-24.2411578963
 10
-1.8442872856
 20
-24.2448535067
 10
-1.8616651284
 20
-24.2486103646
 10
-1.8784199561
 20
-24.252449593
 10
-1.8945494467
 20
-24.2563808118
 10
-1.9101067849
 20
-24.2604288269
 10
-1.9242483003
 20
-24.2643635721
  0
LINE
  5
463
100
AcDbEntity
  8
IMPORT_IGES
100
AcDbLine
 62
7
  6
CONTINUOUS
 10
1.6739136397
 20
-24.9001225326
 11
1.6239696666
 21
-24.9071536449
  0
LINE
  5
464
100
AcDbEntity
  8
IMPORT_IGES
100
AcDbLine
 62
7
  6
CONTINUOUS
 10
-1.5927351963
 20
-24.707228483
 11
-1.549318244
 21
-24.7012007348
  0
LWPOLYLINE
  5
465
100
AcDbEntity
  8
IMPORT_IGES
100
AcDbPolyline
 62
7
  6
CONTINUOUS
 90
29
 70
0
 10
-1.6052478636
 20
-23.2059445128
 10
-1.6326849008
 20
-23.2096601685
 10
-1.6590657029
 20
-23.213360253
 10
-1.6844332454
 20
-23.217051219
 10
-1.7087868386
 20
-23.2207335866
 10
-1.7321501738
 20
-23.2244116182
 10
-1.7546035226
 20
-23.2280995116
 10
-1.7761404129
 20
-23.2317984937
 10
-1.796789187
 20
-23.2355159937
 10
-1.8166795363
 20
-23.2392800789
 10
-1.8358554769
 20
-23.2431067235
 10
-1.8542855479
 20
-23.2469975891
 10
-1.8720058243
 20
-23.2509680876
 10
-1.8890152004
 20
-23.2550267489
 10
-1.9053763395
 20
-23.2591989216
 10
-1.9212572817
 20
-23.2635442144
 10
-1.9366358427
 20
-23.2680785569
 10
-1.9516139144
 20
-23.2728581508
 10
-1.9665646341
 20
-23.2780494007
 10
-1.9814403042
 20
-23.283704127
 10
-1.9963319565
 20
-23.2899383565
 10
-2.0117978831
 20
-23.297124851
 10
-2.0278789542
 20
-23.3055014005
 10
-2.0443937036
 20
-23.3152400302
 10
-2.0614857926
 20
-23.3267754859
 10
-2.0790974129
 20
-23.3405706334
 10
-2.0967048876
 20
-23.3568479095
 10
-2.1136809865
 20
-23.3757021225
 10
-2.1242483003
 20
-23.389513555
  0
LWPOLYLINE
  5
466
100
AcDbEntity
  8
IMPORT_IGES
100
AcDbPolyline
 62
7
  6
CONTINUOUS
 90
30
 70
0
 10
1.656725967
 20
-23.4055665126
 10
1.6914065719
 20
-23.4009046583
 10
1.724595986
 20
-23.3962818936
 10
1.7563602029
 20
-23.3916907066
 10
1.7867163693
 20
-23.387130121
 10
1.8156932853
 20
-23.3825974204
 10
1.8433740632
 20
-23.3780806806
 10
1.8697746632
 20
-23.3735780712
 10
1.8949350752
 20
-23.3690846648
 10
1.9189721272
 20
-23.364580667
 10
1.9418917331
 20
-23.3600650352
 10
1.9637502258
 20
-23.3555264161
 10
1.9847341649
 20
-23.3509223019
 10
2.0048823781
 20
-23.3462363171
 10
2.024200016
 20
-23.3414581114
 10
2.0428339462
 20
-23.3365381065
 10
2.0607703402
 20
-23.3314623764
 10
2.0780892122
 20
-23.3261874875
 10
2.0951029293
 20
-23.3205819261
 10
2.111755423
 20
-23.3146132088
 10
2.1281592778
 20
-23.3081803296
 10
2.1448756398
 20
-23.3009542454
 10
2.1619233627
 20
-23.2927551883
 10
2.1792088106
 20
-23.2834195381
 10
2.1970629536
 20
-23.2724745269
 10
2.2153903932
 20
-23.2595555258
 10
2.2338460685
 20
-23.2443758532
 10
2.2522272771
 20
-23.2264054451
 10
2.2703499625
 20
-23.2048528877
 10
2.2757516997
 20
-23.1974640505
  0
LWPOLYLINE
  5
467
100
AcDbEntity
  8
IMPORT_IGES
100
AcDbPolyline
 62
7
  6
CONTINUOUS
 90
16
 70
0
 10
-1.5929990293
 20
-25.2042907652
 10
-1.6231893712
 20
-25.2083223726
 10
-1.6521256311
 20
-25.2123355509
 10
-1.6798087077
 20
-25.216331054
 10
-1.7062701278
 20
-25.2203131333
 10
-1.7315672413
 20
-25.2242902229
 10
-1.7557293916
 20
-25.2282672725
 10
-1.7787743242
 20
-25.2322477074
 10
-1.8007542514
 20
-25.2362415185
 10
-1.8216804968
 20
-25.2402521401
 10
-1.841606933
 20
-25.2442917296
 10
-1.8606674368
 20
-25.2483919736
 10
-1.8788563033
 20
-25.2525582988
 10
-1.8962546125
 20
-25.2568173186
 10
-1.9131392909
 20
-25.2612538772
 10
-1.9242483003
 20
-25.264362713
  0
LINE
  5
468
100
AcDbEntity
  8
IMPORT_IGES
100
AcDbLine
 62
7
  6
CONTINUOUS
 10
-1.5703394292
 20
-23.7040917878
 11
-1.5237756611
 21
-23.6978417795
  0
LINE
  5
469
100
AcDbEntity
  8
IMPORT_IGES
100
AcDbLine
 62
7
  6
CONTINUOUS
 10
1.6364123976
 20
-23.905456628
 11
1.5760511025
 21
-23.9135426263
  0
LINE
  5
46A
100
AcDbEntity
  8
IMPORT_IGES
100
AcDbLine
 62
7
  6
CONTINUOUS
 10
-1.5662646079
 20
-25.7034925402
 11
-1.5191233652
 21
-25.6972073098
  0
LINE
  5
46B
100
AcDbEntity
  8
IMPORT_IGES
100
AcDbLine
 62
7
  6
CONTINUOUS
 10
-1.5797599141
 20
-24.2025793163
 11
-1.631684064
 21
-24.2095031065
  0
LINE
  5
46C
100
AcDbEntity
  8
IMPORT_IGES
100
AcDbLine
 62
7
  6
CONTINUOUS
 10
1.6330470733
 20
-24.4086537707
 11
1.6992293883
 21
-24.3998248748
  0
LINE
  5
46D
100
AcDbEntity
  8
IMPORT_IGES
100
AcDbLine
 62
7
  6
CONTINUOUS
 10
1.6239696666
 20
-24.9071536449
 11
1.5702518295
 21
-24.9142858623
  0
LINE
  5
46E
100
AcDbEntity
  8
IMPORT_IGES
100
AcDbLine
 62
7
  6
CONTINUOUS
 10
-1.549318244
 20
-24.7012007348
 11
-1.5022694942
 21
-24.6950561095
  0
LINE
  5
46F
100
AcDbEntity
  8
IMPORT_IGES
100
AcDbLine
 62
7
  6
CONTINUOUS
 10
-1.5471582246
 20
-23.1984595358
 11
-1.6052478636
 21
-23.2059445128
  0
LINE
  5
470
100
AcDbEntity
  8
IMPORT_IGES
100
AcDbLine
 62
7
  6
CONTINUOUS
 10
1.5827528743
 20
-23.4150181493
 11
1.656725967
 21
-23.4055665126
  0
LINE
  5
471
100
AcDbEntity
  8
IMPORT_IGES
100
AcDbLine
 62
7
  6
CONTINUOUS
 10
-1.5237756611
 20
-23.6978417795
 11
-1.473065186
 21
-23.691428354
  0
LINE
  5
472
100
AcDbEntity
  8
IMPORT_IGES
100
AcDbLine
 62
7
  6
CONTINUOUS
 10
-1.5288346264
 20
-25.196165819
 11
-1.5929990293
 21
-25.2042907652
  0
LINE
  5
473
100
AcDbEntity
  8
IMPORT_IGES
100
AcDbLine
 62
7
  6
CONTINUOUS
 10
1.5702518295
 20
-24.9142858623
 11
1.512824444
 21
-24.9215062693
  0
LINE
  5
474
100
AcDbEntity
  8
IMPORT_IGES
100
AcDbLine
 62
7
  6
CONTINUOUS
 10
1.5760511025
 20
-23.9135426263
 11
1.5099490054
 21
-23.9218635618
  0
LINE
  5
475
100
AcDbEntity
  8
IMPORT_IGES
100
AcDbLine
 62
7
  6
CONTINUOUS
 10
-1.5191233652
 20
-25.6972073098
 11
-1.4677773073
 21
-25.690756443
  0
LINE
  5
476
100
AcDbEntity
  8
IMPORT_IGES
100
AcDbLine
 62
7
  6
CONTINUOUS
 10
-1.5243753136
 20
-24.1956271604
 11
-1.5797599141
 21
-24.2025793163
  0
LINE
  5
477
100
AcDbEntity
  8
IMPORT_IGES
100
AcDbLine
 62
7
  6
CONTINUOUS
 10
1.5624729073
 20
-24.4174956178
 11
1.6330470733
 21
-24.4086537707
  0
LINE
  5
478
100
AcDbEntity
  8
IMPORT_IGES
100
AcDbLine
 62
7
  6
CONTINUOUS
 10
-1.5022694942
 20
-24.6950561095
 11
-1.4516342068
 21
-24.6888054183
  0
LINE
  5
479
100
AcDbEntity
  8
IMPORT_IGES
100
AcDbLine
 62
7
  6
CONTINUOUS
 10
-1.4846647574
 20
-23.190887533
 11
-1.5471582246
 21
-23.1984595358
  0
LINE
  5
47A
100
AcDbEntity
  8
IMPORT_IGES
100
AcDbLine
 62
7
  6
CONTINUOUS
 10
1.512824444
 20
-24.9215062693
 11
1.4517816582
 21
-24.9288048506
  0
LINE
  5
47B
100
AcDbEntity
  8
IMPORT_IGES
100
AcDbLine
 62
7
  6
CONTINUOUS
 10
1.5026819385
 20
-23.4246238792
 11
1.5827528743
 21
-23.4150181493
  0
LINE
  5
47C
100
AcDbEntity
  8
IMPORT_IGES
100
AcDbLine
 62
7
  6
CONTINUOUS
 10
-1.473065186
 20
-23.691428354
 11
-1.4182552815
 21
-23.6848678011
  0
LINE
  5
47D
100
AcDbEntity
  8
IMPORT_IGES
100
AcDbLine
 62
7
  6
CONTINUOUS
 10
-1.4677773073
 20
-25.690756443
 11
-1.4122932334
 21
-25.6841559592
  0
LINE
  5
47E
100
AcDbEntity
  8
IMPORT_IGES
100
AcDbLine
 62
7
  6
CONTINUOUS
 10
1.5099490054
 20
-23.9218635618
 11
1.4379562287
 21
-23.9304187747
  0
LINE
  5
47F
100
AcDbEntity
  8
IMPORT_IGES
100
AcDbLine
 62
7
  6
CONTINUOUS
 10
-1.4654861987
 20
-24.1886342611
 11
-1.5243753136
 21
-24.1956271604
  0
LINE
  5
480
100
AcDbEntity
  8
IMPORT_IGES
100
AcDbLine
 62
7
  6
CONTINUOUS
 10
-1.4596296328
 20
-25.1879523731
 11
-1.5288346264
 21
-25.196165819
  0
LINE
  5
481
100
AcDbEntity
  8
IMPORT_IGES
100
AcDbLine
 62
7
  6
CONTINUOUS
 10
1.487647301
 20
-24.4263491065
 11
1.5624729073
 21
-24.4174956178
  0
LINE
  5
482
100
AcDbEntity
  8
IMPORT_IGES
100
AcDbLine
 62
7
  6
CONTINUOUS
 10
-1.4516342068
 20
-24.6888054183
 11
-1.3974697921
 21
-24.6824550587
  0
LINE
  5
483
100
AcDbEntity
  8
IMPORT_IGES
100
AcDbLine
 62
253
  6
CONTINUOUS
 10
1.8097837314
 20
-23.1602816644
 11
1.7203144361
 21
-23.1703970859
  0
LINE
  5
484
100
AcDbEntity
  8
IMPORT_IGES
100
AcDbLine
 62
7
  6
CONTINUOUS
 10
1.4517816582
 20
-24.9288048506
 11
1.3872667132
 21
-24.9361693827
  0
LINE
  5
485
100
AcDbEntity
  8
IMPORT_IGES
100
AcDbLine
 62
7
  6
CONTINUOUS
 10
-1.4176690815
 20
-23.1832163232
 11
-1.4846647574
 21
-23.190887533
  0
LINE
  5
486
100
AcDbEntity
  8
IMPORT_IGES
100
AcDbLine
 62
7
  6
CONTINUOUS
 10
-1.4182552815
 20
-23.6848678011
 11
-1.3593694959
 21
-23.6781698721
  0
LINE
  5
487
100
AcDbEntity
  8
IMPORT_IGES
100
AcDbLine
 62
7
  6
CONTINUOUS
 10
1.4677443577
 20
-22.9269521495
 11
1.3639736393
 21
-22.9387835708
  0
LWPOLYLINE
  5
488
100
AcDbEntity
  8
IMPORT_IGES
100
AcDbPolyline
 62
7
  6
CONTINUOUS
 90
3
 70
0
 10
-1.4122932334
 20
-25.6841559592
 10
-1.3527166491
 20
-25.6774154477
 10
-1.3214229949
 20
-25.6739965387
  0
LINE
  5
489
100
AcDbEntity
  8
IMPORT_IGES
100
AcDbLine
 62
7
  6
CONTINUOUS
 10
1.4165632171
 20
-23.4343712122
 11
1.5026819385
 21
-23.4246238792
  0
LINE
  5
48A
100
AcDbEntity
  8
IMPORT_IGES
100
AcDbLine
 62
7
  6
CONTINUOUS
 10
-1.4030782769
 20
-24.1815891454
 11
-1.4654861987
 21
-24.1886342611
  0
LINE
  5
48B
100
AcDbEntity
  8
IMPORT_IGES
100
AcDbLine
 62
7
  6
CONTINUOUS
 10
1.4379562287
 20
-23.9304187747
 11
1.3600191963
 21
-23.9391985731
  0
LINE
  5
48C
100
AcDbEntity
  8
IMPORT_IGES
100
AcDbLine
 62
7
  6
CONTINUOUS
 10
1.4087746219
 20
-24.435207233
 11
1.487647301
 21
-24.4263491065
  0
LINE
  5
48D
100
AcDbEntity
  8
IMPORT_IGES
100
AcDbLine
 62
7
  6
CONTINUOUS
 10
-1.3974697921
 20
-24.6824550587
 11
-1.3398384624
 21
-24.6760093283
  0
LINE
  5
48E
100
AcDbEntity
  8
IMPORT_IGES
100
AcDbLine
 62
7
  6
CONTINUOUS
 10
-1.3854864492
 20
-25.1796526086
 11
-1.4596296328
 21
-25.1879523731
  0
LINE
  5
48F
100
AcDbEntity
  8
IMPORT_IGES
100
AcDbLine
 62
7
  6
CONTINUOUS
 10
-1.3460803702
 20
-23.1754345751
 11
-1.4176690815
 21
-23.1832163232
  0
LINE
  5
490
100
AcDbEntity
  8
IMPORT_IGES
100
AcDbLine
 62
7
  6
CONTINUOUS
 10
-1.3593694959
 20
-23.6781698721
 11
-1.2964823714
 21
-23.6713454306
  0
LINE
  5
491
100
AcDbEntity
  8
IMPORT_IGES
100
AcDbLine
 62
7
  6
CONTINUOUS
 10
-1.3371491664
 20
-24.1744820643
 11
-1.4030782769
 21
-24.1815891454
  0
LINE
  5
492
100
AcDbEntity
  8
IMPORT_IGES
100
AcDbLine
 62
7
  6
CONTINUOUS
 10
1.3872667132
 20
-24.9361693827
 11
1.284133979
 21
-24.9473360141
  0
LINE
  5
493
100
AcDbEntity
  8
IMPORT_IGES
100
AcDbLine
 62
7
  6
CONTINUOUS
 10
1.3600191963
 20
-23.9391985731
 11
1.2761517002
 21
-23.9481897074
  0
LINE
  5
494
100
AcDbEntity
  8
IMPORT_IGES
100
AcDbLine
 62
7
  6
CONTINUOUS
 10
1.3260597764
 20
-24.4440649813
 11
1.4087746219
 21
-24.435207233
  0
LINE
  5
495
100
AcDbEntity
  8
IMPORT_IGES
100
AcDbLine
 62
7
  6
CONTINUOUS
 10
1.3246963443
 20
-23.4442263431
 11
1.4165632171
 21
-23.4343712122
  0
LWPOLYLINE
  5
496
100
AcDbEntity
  8
IMPORT_IGES
100
AcDbPolyline
 62
253
  6
CONTINUOUS
 90
4
 70
0
 10
1.7203144361
 20
-23.1703970859
 10
1.6240463528
 20
-23.1805719167
 10
1.5215367807
 20
-23.1907664906
 10
1.4135866466
 20
-23.2009283961
  0
LINE
  5
497
100
AcDbEntity
  8
IMPORT_IGES
100
AcDbLine
 62
7
  6
CONTINUOUS
 10
-1.3065862688
 20
-25.1712740926
 11
-1.3854864492
 21
-25.1796526086
  0
LINE
  5
498
100
AcDbEntity
  8
IMPORT_IGES
100
AcDbLine
 62
7
  6
CONTINUOUS
 10
1.3639736393
 20
-22.9387835708
 11
1.2550398155
 21
-22.9504044627
  0
LINE
  5
499
100
AcDbEntity
  8
IMPORT_IGES
100
AcDbLine
 62
7
  6
CONTINUOUS
 10
-1.3398384624
 20
-24.6760093283
 11
-1.2470175171
 21
-24.666167013
  0
LINE
  5
49A
100
AcDbEntity
  8
IMPORT_IGES
100
AcDbLine
 62
7
  6
CONTINUOUS
 10
-1.2699024663
 20
-23.1675365089
 11
-1.3460803702
 21
-23.1754345751
  0
LINE
  5
49B
100
AcDbEntity
  8
IMPORT_IGES
100
AcDbLine
 62
7
  6
CONTINUOUS
 10
1.2275066205
 20
-23.4541542154
 11
1.3246963443
 21
-23.4442263431
  0
LINE
  5
49C
100
AcDbEntity
  8
IMPORT_IGES
100
AcDbLine
 62
7
  6
CONTINUOUS
 10
-1.2964823714
 20
-23.6713454306
 11
-1.1949078908
 21
-23.6608913663
  0
LINE
  5
49D
100
AcDbEntity
  8
IMPORT_IGES
100
AcDbLine
 62
7
  6
CONTINUOUS
 10
1.284133979
 20
-24.9473360141
 11
1.1735620416
 21
-24.9586449311
  0
LINE
  5
49E
100
AcDbEntity
  8
IMPORT_IGES
100
AcDbLine
 62
7
  6
CONTINUOUS
 10
-1.2316977863
 20
-24.1636900755
 11
-1.3371491664
 21
-24.1744820643
  0
LINE
  5
49F
100
AcDbEntity
  8
IMPORT_IGES
100
AcDbLine
 62
7
  6
CONTINUOUS
 10
1.1954010795
 20
-24.4573265082
 11
1.3260597764
 21
-24.4440649813
  0
LINE
  5
4A0
100
AcDbEntity
  8
IMPORT_IGES
100
AcDbLine
 62
7
  6
CONTINUOUS
 10
1.2550398155
 20
-22.9504044627
 11
1.1422421819
 21
-22.9617711076
  0
LINE
  5
4A1
100
AcDbEntity
  8
IMPORT_IGES
100
AcDbLine
 62
7
  6
CONTINUOUS
 10
1.2761517002
 20
-23.9481897074
 11
1.1403093747
 21
-23.9619508163
  0
LINE
  5
4A2
100
AcDbEntity
  8
IMPORT_IGES
100
AcDbLine
 62
7
  6
CONTINUOUS
 10
-1.2470175171
 20
-24.666167013
 11
-1.1467123194
 21
-24.6561184458
  0
LINE
  5
4A3
100
AcDbEntity
  8
IMPORT_IGES
100
AcDbLine
 62
7
  6
CONTINUOUS
 10
-1.1797584587
 20
-25.158571742
 11
-1.3065862688
 21
-25.1712740926
  0
LINE
  5
4A4
100
AcDbEntity
  8
IMPORT_IGES
100
AcDbLine
 62
7
  6
CONTINUOUS
 10
-1.1471592098
 20
-23.1554633551
 11
-1.2699024663
 21
-23.1675365089
  0
LINE
  5
4A5
100
AcDbEntity
  8
IMPORT_IGES
100
AcDbLine
 62
7
  6
CONTINUOUS
 10
1.1735620416
 20
-24.9586449311
 11
1.0557481421
 21
-24.9700988584
  0
LINE
  5
4A6
100
AcDbEntity
  8
IMPORT_IGES
100
AcDbLine
 62
7
  6
CONTINUOUS
 10
-1.1949078908
 20
-23.6608913663
 11
-1.0850624574
 21
-23.6501999829
  0
LINE
  5
4A7
100
AcDbEntity
  8
IMPORT_IGES
100
AcDbLine
 62
7
  6
CONTINUOUS
 10
-1.1184593386
 20
-24.1527215013
 11
-1.2316977863
 21
-24.1636900755
  0
LINE
  5
4A8
100
AcDbEntity
  8
IMPORT_IGES
100
AcDbLine
 62
7
  6
CONTINUOUS
 10
1.0728038791
 20
-23.4691262349
 11
1.2275066205
 21
-23.4541542154
  0
LWPOLYLINE
  5
4A9
100
AcDbEntity
  8
IMPORT_IGES
100
AcDbPolyline
 62
253
  6
CONTINUOUS
 90
10
 70
0
 10
-1.4658869317
 20
-23.4215282753
 10
-1.5622964649
 20
-23.4306721147
 10
-1.652635051
 20
-23.4397852935
 10
-1.7366099219
 20
-23.4488702892
 10
-1.8139520062
 20
-23.4579289063
 10
-1.8843868476
 20
-23.4669620354
 10
-1.9476618577
 20
-23.4759732052
 10
-2.0035333722
 20
-23.4849681554
 10
-2.0517434416
 20
-23.4939502654
 10
-2.0921221047
 20
-23.5029207673
  0
LINE
  5
4AA
100
AcDbEntity
  8
IMPORT_IGES
100
AcDbLine
 62
7
  6
CONTINUOUS
 10
1.0577794473
 20
-24.4705252174
 11
1.1954010795
 21
-24.4573265082
  0
LWPOLYLINE
  5
4AB
100
AcDbEntity
  8
IMPORT_IGES
100
AcDbPolyline
 62
253
  6
CONTINUOUS
 90
7
 70
0
 10
-1.4486331921
 20
-24.4199358606
 10
-1.5428056679
 20
-24.428771851
 10
-1.6313183845
 20
-24.4375663538
 10
-1.7139859073
 20
-24.4463344726
 10
-1.7905312748
 20
-24.4550823072
 10
-1.8606851823
 20
-24.4638073649
 10
-1.9242483003
 20
-24.4725117386
  0
LINE
  5
4AC
100
AcDbEntity
  8
IMPORT_IGES
100
AcDbLine
 62
7
  6
CONTINUOUS
 10
1.1403093747
 20
-23.9619508163
 11
0.9941273688
 21
-23.9758976814
  0
LINE
  5
4AD
100
AcDbEntity
  8
IMPORT_IGES
100
AcDbLine
 62
7
  6
CONTINUOUS
 10
1.1422421819
 20
-22.9617711076
 11
0.9679632172
 21
-22.9783287894
  0
LWPOLYLINE
  5
4AE
100
AcDbEntity
  8
IMPORT_IGES
100
AcDbPolyline
 62
253
  6
CONTINUOUS
 90
7
 70
0
 10
-1.4226724968
 20
-25.4175632479
 10
-1.5221051328
 20
-25.4267772812
 10
-1.6157357765
 20
-25.4359715716
 10
-1.7031156746
 20
-25.4451389808
 10
-1.7838711443
 20
-25.4542784727
 10
-1.8576837257
 20
-25.4633950181
 10
-1.9242483003
 20
-25.4724907143
  0
LINE
  5
4AF
100
AcDbEntity
  8
IMPORT_IGES
100
AcDbLine
 62
7
  6
CONTINUOUS
 10
-1.0436129393
 20
-25.1457385558
 11
-1.1797584587
 21
-25.158571742
  0
LINE
  5
4B0
100
AcDbEntity
  8
IMPORT_IGES
100
AcDbLine
 62
7
  6
CONTINUOUS
 10
-1.1467123194
 20
-24.6561184458
 11
-1.0016442127
 21
-24.6423960691
  0
LINE
  5
4B1
100
AcDbEntity
  8
IMPORT_IGES
100
AcDbLine
 62
7
  6
CONTINUOUS
 10
-1.0145645927
 20
-23.1431155981
 11
-1.1471592098
 21
-23.1554633551
  0
LINE
  5
4B2
100
AcDbEntity
  8
IMPORT_IGES
100
AcDbLine
 62
7
  6
CONTINUOUS
 10
1.0557481421
 20
-24.9700988584
 11
0.8877521045
 21
-24.9856052251
  0
LINE
  5
4B3
100
AcDbEntity
  8
IMPORT_IGES
100
AcDbLine
 62
7
  6
CONTINUOUS
 10
0.9093602786
 20
-23.4840945066
 11
1.0728038791
 21
-23.4691262349
  0
LINE
  5
4B4
100
AcDbEntity
  8
IMPORT_IGES
100
AcDbLine
 62
7
  6
CONTINUOUS
 10
-1.0850624574
 20
-23.6501999829
 11
-0.9265502997
 21
-23.6356031597
  0
LINE
  5
4B5
100
AcDbEntity
  8
IMPORT_IGES
100
AcDbLine
 62
7
  6
CONTINUOUS
 10
-0.9556260888
 20
-24.1377927049
 11
-1.1184593386
 21
-24.1527215013
  0
LINE
  5
4B6
100
AcDbEntity
  8
IMPORT_IGES
100
AcDbLine
 62
7
  6
CONTINUOUS
 10
0.865408051
 20
-24.4879864412
 11
1.0577794473
 21
-24.4705252174
  0
LINE
  5
4B7
100
AcDbEntity
  8
IMPORT_IGES
100
AcDbLine
 62
7
  6
CONTINUOUS
 10
0.9941273688
 20
-23.9758976814
 11
0.7875369852
 21
-23.9945020264
  0
LINE
  5
4B8
100
AcDbEntity
  8
IMPORT_IGES
100
AcDbLine
 62
253
  6
CONTINUOUS
 10
1.4699487713
 20
-25.1956549275
 11
1.2476720708
 21
-25.2156264144
  0
LINE
  5
4B9
100
AcDbEntity
  8
IMPORT_IGES
100
AcDbLine
 62
253
  6
CONTINUOUS
 10
1.4521987409
 20
-24.1973357406
 11
1.2363290361
 21
-24.2166155903
  0
LINE
  5
4BA
100
AcDbEntity
  8
IMPORT_IGES
100
AcDbLine
 62
7
  6
CONTINUOUS
 10
-0.8496349319
 20
-25.1284733993
 11
-1.0436129393
 21
-25.1457385558
  0
LINE
  5
4BB
100
AcDbEntity
  8
IMPORT_IGES
100
AcDbLine
 62
7
  6
CONTINUOUS
 10
-1.0016442127
 20
-24.6423960691
 11
-0.8027754555
 21
-24.6247024306
  0
LINE
  5
4BC
100
AcDbEntity
  8
IMPORT_IGES
100
AcDbLine
 62
7
  6
CONTINUOUS
 10
0.9679632172
 20
-22.9783287894
 11
0.7294890561
 21
-22.9995661139
  0
LINE
  5
4BD
100
AcDbEntity
  8
IMPORT_IGES
100
AcDbLine
 62
7
  6
CONTINUOUS
 10
-0.8233099777
 20
-23.1262236968
 11
-1.0145645927
 21
-23.1431155981
  0
LINE
  5
4BE
100
AcDbEntity
  8
IMPORT_IGES
100
AcDbLine
 62
253
  6
CONTINUOUS
 10
1.4135866466
 20
-23.2009283961
 11
1.1834047457
 21
-23.2211186104
  0
LINE
  5
4BF
100
AcDbEntity
  8
IMPORT_IGES
100
AcDbLine
 62
253
  6
CONTINUOUS
 10
-1.2564539632
 20
-23.4031451282
 11
-1.4658869317
 21
-23.4215282753
  0
LINE
  5
4C0
100
AcDbEntity
  8
IMPORT_IGES
100
AcDbLine
 62
7
  6
CONTINUOUS
 10
0.8877521045
 20
-24.9856052251
 11
0.6612528276
 21
-25.0053883207
  0
LINE
  5
4C1
100
AcDbEntity
  8
IMPORT_IGES
100
AcDbLine
 62
253
  6
CONTINUOUS
 10
-1.2443155393
 20
-24.4021125931
 11
-1.4486331921
 21
-24.4199358606
  0
LINE
  5
4C2
100
AcDbEntity
  8
IMPORT_IGES
100
AcDbLine
 62
7
  6
CONTINUOUS
 10
-0.9265502997
 20
-23.6356031597
 11
-0.7098482177
 21
-23.6167653982
  0
LINE
  5
4C3
100
AcDbEntity
  8
IMPORT_IGES
100
AcDbLine
 62
7
  6
CONTINUOUS
 10
-0.7339204502
 20
-24.1185963873
 11
-0.9556260888
 21
-24.1377927049
  0
LINE
  5
4C4
100
AcDbEntity
  8
IMPORT_IGES
100
AcDbLine
 62
7
  6
CONTINUOUS
 10
0.6242430892
 20
-23.508737348
 11
0.9093602786
 21
-23.4840945066
  0
LINE
  5
4C5
100
AcDbEntity
  8
IMPORT_IGES
100
AcDbLine
 62
253
  6
CONTINUOUS
 10
-1.2080304418
 20
-25.3990827346
 11
-1.4226724968
 21
-25.4175632479
  0
LINE
  5
4C6
100
AcDbEntity
  8
IMPORT_IGES
100
AcDbLine
 62
7
  6
CONTINUOUS
 10
0.5631247415
 20
-24.5138254611
 11
0.865408051
 21
-24.4879864412
  0
LINE
  5
4C7
100
AcDbEntity
  8
IMPORT_IGES
100
AcDbLine
 62
7
  6
CONTINUOUS
 10
0.7875369852
 20
-23.9945020264
 11
0.4643968011
 21
-24.0218724489
  0
LINE
  5
4C8
100
AcDbEntity
  8
IMPORT_IGES
100
AcDbLine
 62
7
  6
CONTINUOUS
 10
-0.5387966615
 20
-25.1023950208
 11
-0.8496349319
 21
-25.1284733993
  0
LINE
  5
4C9
100
AcDbEntity
  8
IMPORT_IGES
100
AcDbLine
 62
7
  6
CONTINUOUS
 10
-0.8027754555
 20
-24.6247024306
 11
-0.4943568907
 21
-24.5988590342
  0
LINE
  5
4CA
100
AcDbEntity
  8
IMPORT_IGES
100
AcDbLine
 62
7
  6
CONTINUOUS
 10
0.7294890561
 20
-22.9995661139
 11
0.3668761403
 21
-23.0298657996
  0
LINE
  5
4CB
100
AcDbEntity
  8
IMPORT_IGES
100
AcDbLine
 62
7
  6
CONTINUOUS
 10
-0.5089177709
 20
-23.0999836333
 11
-0.8233099777
 21
-23.1262236968
  0
LINE
  5
4CC
100
AcDbEntity
  8
IMPORT_IGES
100
AcDbLine
 62
253
  6
CONTINUOUS
 10
1.2476720708
 20
-25.2156264144
 11
1.0072541509
 21
-25.2355456787
  0
LINE
  5
4CD
100
AcDbEntity
  8
IMPORT_IGES
100
AcDbLine
 62
253
  6
CONTINUOUS
 10
1.2363290361
 20
-24.2166155903
 11
1.0044335409
 21
-24.2357804045
  0
LINE
  5
4CE
100
AcDbEntity
  8
IMPORT_IGES
100
AcDbLine
 62
7
  6
CONTINUOUS
 10
0.6612528276
 20
-25.0053883207
 11
0.2133461792
 21
-25.0422389282
  0
LINE
  5
4CF
100
AcDbEntity
  8
IMPORT_IGES
100
AcDbLine
 62
7
  6
CONTINUOUS
 10
-0.7098482177
 20
-23.6167653982
 11
-0.2711872521
 21
-23.5808562745
  0
LINE
  5
4D0
100
AcDbEntity
  8
IMPORT_IGES
100
AcDbLine
 62
253
  6
CONTINUOUS
 10
1.1834047457
 20
-23.2211186104
 11
0.9368535474
 21
-23.241156333
  0
LINE
  5
4D1
100
AcDbEntity
  8
IMPORT_IGES
100
AcDbLine
 62
7
  6
CONTINUOUS
 10
0.2133461792
 20
-25.0422389282
 11
-0.5387966615
 21
-25.1023950208
  0
LINE
  5
4D2
100
AcDbEntity
  8
IMPORT_IGES
100
AcDbLine
 62
7
  6
CONTINUOUS
 10
-0.4943568907
 20
-24.5988590342
 11
0.5631247415
 21
-24.5138254611
  0
LWPOLYLINE
  5
4D3
100
AcDbEntity
  8
IMPORT_IGES
100
AcDbPolyline
 62
7
  6
CONTINUOUS
 90
3
 70
0
 10
0.4643968011
 20
-24.0218724489
 10
-0.1861492301
 20
-24.074055213
 10
-0.7339204502
 20
-24.1185963873
  0
LINE
  5
4D4
100
AcDbEntity
  8
IMPORT_IGES
100
AcDbLine
 62
7
  6
CONTINUOUS
 10
-0.2711872521
 20
-23.5808562745
 11
0.6242430892
 21
-23.508737348
  0
LINE
  5
4D5
100
AcDbEntity
  8
IMPORT_IGES
100
AcDbLine
 62
253
  6
CONTINUOUS
 10
-1.0276171827
 20
-23.3846282267
 11
-1.2564539632
 21
-23.4031451282
  0
LINE
  5
4D6
100
AcDbEntity
  8
IMPORT_IGES
100
AcDbLine
 62
7
  6
CONTINUOUS
 10
0.3668761403
 20
-23.0298657996
 11
-0.5089177709
 21
-23.0999836333
  0
LINE
  5
4D7
100
AcDbEntity
  8
IMPORT_IGES
100
AcDbLine
 62
253
  6
CONTINUOUS
 10
-1.0218199602
 20
-24.3841591883
 11
-1.2443155393
 21
-24.4021125931
  0
LINE
  5
4D8
100
AcDbEntity
  8
IMPORT_IGES
100
AcDbLine
 62
253
  6
CONTINUOUS
 10
-0.9743720992
 20
-25.380463748
 11
-1.2080304418
 21
-25.3990827346
  0
LINE
  5
4D9
100
AcDbEntity
  8
IMPORT_IGES
100
AcDbLine
 62
253
  6
CONTINUOUS
 10
1.0044335409
 20
-24.2357804045
 11
0.6335237456
 21
-24.2643012391
  0
LINE
  5
4DA
100
AcDbEntity
  8
IMPORT_IGES
100
AcDbLine
 62
253
  6
CONTINUOUS
 10
1.0072541509
 20
-25.2355456787
 11
0.6204820735
 21
-25.2652554176
  0
LINE
  5
4DB
100
AcDbEntity
  8
IMPORT_IGES
100
AcDbLine
 62
253
  6
CONTINUOUS
 10
0.9368535474
 20
-23.241156333
 11
0.5459870913
 21
-23.2707823071
  0
LINE
  5
4DC
100
AcDbEntity
  8
IMPORT_IGES
100
AcDbLine
 62
253
  6
CONTINUOUS
 10
-0.6606572833
 20
-24.356964814
 11
-1.0218199602
 21
-24.3841591883
  0
LINE
  5
4DD
100
AcDbEntity
  8
IMPORT_IGES
100
AcDbLine
 62
253
  6
CONTINUOUS
 10
-0.6554020945
 20
-23.3565924832
 11
-1.0276171827
 21
-23.3846282267
  0
LINE
  5
4DE
100
AcDbEntity
  8
IMPORT_IGES
100
AcDbLine
 62
253
  6
CONTINUOUS
 10
-0.4638022026
 20
-25.3427235243
 11
-0.9743720992
 21
-25.380463748
  0
LINE
  5
4DF
100
AcDbEntity
  8
IMPORT_IGES
100
AcDbLine
 62
253
  6
CONTINUOUS
 10
0.6204820735
 20
-25.2652554176
 11
-0.4638022026
 21
-25.3427235243
  0
LINE
  5
4E0
100
AcDbEntity
  8
IMPORT_IGES
100
AcDbLine
 62
253
  6
CONTINUOUS
 10
0.6335237456
 20
-24.2643012391
 11
-0.6606572833
 21
-24.356964814
  0
LINE
  5
4E1
100
AcDbEntity
  8
IMPORT_IGES
100
AcDbLine
 62
253
  6
CONTINUOUS
 10
0.5459870913
 20
-23.2707823071
 11
-0.6554020945
 21
-23.3565924832
  0
LINE
  5
4E2
100
AcDbEntity
  8
IMPORT_IGES
100
AcDbLine
 62
7
  6
CONTINUOUS
 10
5.2257516997
 20
-24.1434631751
 11
2.0757516997
 21
-24.1434631751
  0
LINE
  5
4E3
100
AcDbEntity
  8
IMPORT_IGES
100
AcDbLine
 62
7
  6
CONTINUOUS
 10
-1.9242483003
 20
-24.1434631751
 11
-5.0742483003
 21
-24.1434631751
  0
LINE
  5
4E4
100
AcDbEntity
  8
IMPORT_IGES
100
AcDbLine
 62
7
  6
CONTINUOUS
 10
-2.1242483003
 20
-23.1234631751
 11
-0.9242483003
 21
-23.1234631751
  0
LINE
  5
4E5
100
AcDbEntity
  8
IMPORT_IGES
100
AcDbLine
 62
7
  6
CONTINUOUS
 10
-5.0742483003
 20
-22.4496909556
 11
-4.9242483003
 21
-22.4496909556
  0
LINE
  5
4E6
100
AcDbEntity
  8
IMPORT_IGES
100
AcDbLine
 62
7
  6
CONTINUOUS
 10
5.0757516997
 20
-22.4496909556
 11
5.2257516997
 21
-22.4496909556
  0
LINE
  5
4E7
100
AcDbEntity
  8
IMPORT_IGES
100
AcDbLine
 62
7
  6
CONTINUOUS
 10
-0.7208016117
 20
-24.9683308413
 11
0.2050216298
 21
-25.0429056001
  0
LINE
  5
4E8
100
AcDbEntity
  8
IMPORT_IGES
100
AcDbLine
 62
7
  6
CONTINUOUS
 10
0.671722785
 20
-24.581100879
 11
0.2053327532
 21
-24.5429115307
  0
LINE
  5
4E9
100
AcDbEntity
  8
IMPORT_IGES
100
AcDbLine
 62
7
  6
CONTINUOUS
 10
-0.7538551307
 20
-23.9655545504
 11
-0.4168865673
 21
-23.9933180191
  0
LINE
  5
4EA
100
AcDbEntity
  8
IMPORT_IGES
100
AcDbLine
 62
7
  6
CONTINUOUS
 10
0.8924900486
 20
-24.600232345
 11
0.671722785
 21
-24.581100879
  0
LINE
  5
4EB
100
AcDbEntity
  8
IMPORT_IGES
100
AcDbLine
 62
7
  6
CONTINUOUS
 10
-0.9532517143
 20
-23.9482498618
 11
-0.7538551307
 21
-23.9655545504
  0
LINE
  5
4EC
100
AcDbEntity
  8
IMPORT_IGES
100
AcDbLine
 62
7
  6
CONTINUOUS
 10
-0.9705987937
 20
-24.9466864609
 11
-0.7208016117
 21
-24.9683308413
  0
LINE
  5
4ED
100
AcDbEntity
  8
IMPORT_IGES
100
AcDbLine
 62
7
  6
CONTINUOUS
 10
1.0516133311
 20
-24.6147235412
 11
0.8924900486
 21
-24.600232345
  0
LINE
  5
4EE
100
AcDbEntity
  8
IMPORT_IGES
100
AcDbLine
 62
7
  6
CONTINUOUS
 10
-1.0933098515
 20
-23.9354748532
 11
-0.9532517143
 21
-23.9482498618
  0
LINE
  5
4EF
100
AcDbEntity
  8
IMPORT_IGES
100
AcDbLine
 62
7
  6
CONTINUOUS
 10
-1.1119259922
 20
-24.9337185692
 11
-0.9705987937
 21
-24.9466864609
  0
LINE
  5
4F0
100
AcDbEntity
  8
IMPORT_IGES
100
AcDbLine
 62
7
  6
CONTINUOUS
 10
1.1111972056
 20
-23.620355415
 11
0.9512161241
 21
-23.6055240335
  0
LINE
  5
4F1
100
AcDbEntity
  8
IMPORT_IGES
100
AcDbLine
 62
253
  6
CONTINUOUS
 10
0.5286279586
 20
-24.825839999
 11
-0.4967953521
 21
-24.7313201244
  0
LINE
  5
4F2
100
AcDbEntity
  8
IMPORT_IGES
100
AcDbLine
 62
253
  6
CONTINUOUS
 10
-0.4967953521
 20
-24.7313201244
 11
-0.7101794779
 21
-24.7107009929
  0
LINE
  5
4F3
100
AcDbEntity
  8
IMPORT_IGES
100
AcDbLine
 62
7
  6
CONTINUOUS
 10
1.2028179999
 20
-24.6292333014
 11
1.0516133311
 21
-24.6147235412
  0
LINE
  5
4F4
100
AcDbEntity
  8
IMPORT_IGES
100
AcDbLine
 62
7
  6
CONTINUOUS
 10
-1.2241694753
 20
-23.9228946181
 11
-1.0933098515
 21
-23.9354748532
  0
LINE
  5
4F5
100
AcDbEntity
  8
IMPORT_IGES
100
AcDbLine
 62
7
  6
CONTINUOUS
 10
-1.2453038182
 20
-24.9207805695
 11
-1.1119259922
 21
-24.9337185692
  0
LINE
  5
4F6
100
AcDbEntity
  8
IMPORT_IGES
100
AcDbLine
 62
253
  6
CONTINUOUS
 10
0.7472327697
 20
-24.8472360017
 11
0.5286279586
 21
-24.825839999
  0
LINE
  5
4F7
100
AcDbEntity
  8
IMPORT_IGES
100
AcDbLine
 62
7
  6
CONTINUOUS
 10
1.2449911439
 20
-23.6334468708
 11
1.1111972056
 21
-23.620355415
  0
LINE
  5
4F8
100
AcDbEntity
  8
IMPORT_IGES
100
AcDbLine
 62
7
  6
CONTINUOUS
 10
1.2983120223
 20
-24.6388728357
 11
1.2028179999
 21
-24.6292333014
  0
LWPOLYLINE
  5
4F9
100
AcDbEntity
  8
IMPORT_IGES
100
AcDbPolyline
 62
253
  6
CONTINUOUS
 90
6
 70
0
 10
-0.7346110187
 20
-23.7082683904
 10
-0.8459424422
 20
-23.696952148
 10
-0.9409258917
 20
-23.6868985064
 10
-1.031785772
 20
-23.6768561329
 10
-1.1182139989
 20
-23.666809867
 10
-1.1790097772
 20
-23.6593164697
  0
LINE
  5
4FA
100
AcDbEntity
  8
IMPORT_IGES
100
AcDbLine
 62
7
  6
CONTINUOUS
 10
-1.3058999745
 20
-23.9146235728
 11
-1.2241694753
 21
-23.9228946181
  0
LINE
  5
4FB
100
AcDbEntity
  8
IMPORT_IGES
100
AcDbLine
 62
7
  6
CONTINUOUS
 10
1.3242909411
 20
-25.6415616267
 11
1.1951887305
 21
-25.6284651781
  0
LINE
  5
4FC
100
AcDbEntity
  8
IMPORT_IGES
100
AcDbLine
 62
7
  6
CONTINUOUS
 10
-1.3291345394
 20
-24.9121868716
 11
-1.2453038182
 21
-24.9207805695
  0
LINE
  5
4FD
100
AcDbEntity
  8
IMPORT_IGES
100
AcDbLine
 62
7
  6
CONTINUOUS
 10
1.3305672988
 20
-23.6422368513
 11
1.2449911439
 21
-23.6334468708
  0
LWPOLYLINE
  5
4FE
100
AcDbEntity
  8
IMPORT_IGES
100
AcDbPolyline
 62
253
  6
CONTINUOUS
 90
6
 70
0
 10
-0.7101794779
 20
-24.7107009929
 10
-0.9096885767
 20
-24.6902393569
 10
-1.002873329
 20
-24.6800949143
 10
-1.0909282216
 20
-24.6700306978
 10
-1.1736602135
 20
-24.6600284692
 10
-1.1791893029
 20
-24.6593158222
  0
LINE
  5
4FF
100
AcDbEntity
  8
IMPORT_IGES
100
AcDbLine
 62
7
  6
CONTINUOUS
 10
1.3889647673
 20
-24.6484509256
 11
1.2983120223
 21
-24.6388728357
  0
LINE
  5
500
100
AcDbEntity
  8
IMPORT_IGES
100
AcDbLine
 62
7
  6
CONTINUOUS
 10
-1.3830141052
 20
-23.9064469292
 11
-1.3058999745
 21
-23.9146235728
  0
LINE
  5
501
100
AcDbEntity
  8
IMPORT_IGES
100
AcDbLine
 62
7
  6
CONTINUOUS
 10
1.4058812604
 20
-25.650284813
 11
1.3242909411
 21
-25.6415616267
  0
LINE
  5
502
100
AcDbEntity
  8
IMPORT_IGES
100
AcDbLine
 62
7
  6
CONTINUOUS
 10
1.4128439577
 20
-23.651067459
 11
1.3305672988
 21
-23.6422368513
  0
LINE
  5
503
100
AcDbEntity
  8
IMPORT_IGES
100
AcDbLine
 62
7
  6
CONTINUOUS
 10
-1.4085106773
 20
-24.9036296993
 11
-1.3291345394
 21
-24.9121868716
  0
LINE
  5
504
100
AcDbEntity
  8
IMPORT_IGES
100
AcDbLine
 62
7
  6
CONTINUOUS
 10
1.4744431582
 20
-24.6579493179
 11
1.3889647673
 21
-24.6484509256
  0
LINE
  5
505
100
AcDbEntity
  8
IMPORT_IGES
100
AcDbLine
 62
7
  6
CONTINUOUS
 10
-1.4553599489
 20
-23.8983668736
 11
-1.3830141052
 21
-23.9064469292
  0
LINE
  5
506
100
AcDbEntity
  8
IMPORT_IGES
100
AcDbLine
 62
7
  6
CONTINUOUS
 10
1.4836411674
 20
-25.6589957273
 11
1.4058812604
 21
-25.650284813
  0
LINE
  5
507
100
AcDbEntity
  8
IMPORT_IGES
100
AcDbLine
 62
7
  6
CONTINUOUS
 10
1.4914577436
 20
-23.6599218473
 11
1.4128439577
 21
-23.651067459
  0
LINE
  5
508
100
AcDbEntity
  8
IMPORT_IGES
100
AcDbLine
 62
7
  6
CONTINUOUS
 10
-1.4830909294
 20
-24.8951264762
 11
-1.4085106773
 21
-24.9036296993
  0
LINE
  5
509
100
AcDbEntity
  8
IMPORT_IGES
100
AcDbLine
 62
7
  6
CONTINUOUS
 10
1.5543986757
 20
-24.667340909
 11
1.4744431582
 21
-24.6579493179
  0
LINE
  5
50A
100
AcDbEntity
  8
IMPORT_IGES
100
AcDbLine
 62
7
  6
CONTINUOUS
 10
1.5573683976
 20
-25.6676883664
 11
1.4836411674
 21
-25.6589957273
  0
LINE
  5
50B
100
AcDbEntity
  8
IMPORT_IGES
100
AcDbLine
 62
7
  6
CONTINUOUS
 10
-1.5228791535
 20
-23.8903831176
 11
-1.4553599489
 21
-23.8983668736
  0
LINE
  5
50C
100
AcDbEntity
  8
IMPORT_IGES
100
AcDbLine
 62
7
  6
CONTINUOUS
 10
1.566172454
 20
-23.6687920184
 11
1.4914577436
 21
-23.6599218473
  0
LINE
  5
50D
100
AcDbEntity
  8
IMPORT_IGES
100
AcDbLine
 62
7
  6
CONTINUOUS
 10
1.6269065563
 20
-25.6763601617
 11
1.5573683976
 21
-25.6676883664
  0
LINE
  5
50E
100
AcDbEntity
  8
IMPORT_IGES
100
AcDbLine
 62
7
  6
CONTINUOUS
 10
1.6367439771
 20
-23.6776665114
 11
1.566172454
 21
-23.6687920184
  0
LWPOLYLINE
  5
50F
100
AcDbEntity
  8
IMPORT_IGES
100
AcDbPolyline
 62
253
  6
CONTINUOUS
 90
8
 70
0
 10
1.4419475346
 20
-24.9299400895
 10
1.3969978729
 20
-24.9231652121
 10
1.3184625342
 20
-24.9122223018
 10
1.2344919654
 20
-24.9013099097
 10
1.14548624
 20
-24.890430215
 10
1.0518622482
 20
-24.8795840716
 10
0.9540050188
 20
-24.8687690646
 10
0.7472327697
 20
-24.8472360017
  0
LWPOLYLINE
  5
510
100
AcDbEntity
  8
IMPORT_IGES
100
AcDbPolyline
 62
253
  6
CONTINUOUS
 90
9
 70
0
 10
1.4422555452
 20
-23.9299148076
 10
1.4387385376
 20
-23.929358702
 10
1.3637002816
 20
-23.9184461097
 10
1.2832997858
 20
-23.9075825486
 10
1.1976863043
 20
-23.8967447731
 10
1.1071702947
 20
-23.8859327129
 10
1.0121704867
 20
-23.8751498085
 10
0.9129442646
 20
-23.864378413
 10
0.7634526499
 20
-23.8489297904
  0
LWPOLYLINE
  5
511
100
AcDbEntity
  8
IMPORT_IGES
100
AcDbPolyline
 62
7
  6
CONTINUOUS
 90
18
 70
0
 10
-1.9242483003
 20
-25.821398005
 10
-1.9151393073
 20
-25.824002412
 10
-1.8987131934
 20
-25.8283599379
 10
-1.8818099994
 20
-25.8325410064
 10
-1.8641719567
 20
-25.83662651
 10
-1.8457323681
 20
-25.8406406755
 10
-1.826490633
 20
-25.8445910006
 10
-1.8062992846
 20
-25.8485125238
 10
-1.7851052552
 20
-25.8524173415
 10
-1.7628981893
 20
-25.8563087143
 10
-1.7396065819
 20
-25.8601998968
 10
-1.7151966494
 20
-25.8640964301
 10
-1.689649791
 20
-25.8680010523
 10
-1.662929395
 20
-25.8719189746
 10
-1.6350101385
 20
-25.8758533226
 10
-1.6058753456
 20
-25.8798058689
 10
-1.5755161089
 20
-25.8837779493
 10
-1.5110972495
 20
-25.8917875728
  0
LWPOLYLINE
  5
512
100
AcDbEntity
  8
IMPORT_IGES
100
AcDbPolyline
 62
7
  6
CONTINUOUS
 90
18
 70
0
 10
-1.9242483003
 20
-24.821386931
 10
-1.9183772701
 20
-24.8230964548
 10
-1.9011069574
 20
-24.8277407421
 10
-1.8830928146
 20
-24.832235668
 10
-1.8643637138
 20
-24.8365916971
 10
-1.8446901744
 20
-24.8408744123
 10
-1.8239864478
 20
-24.8451078386
 10
-1.8022481268
 20
-24.8492970873
 10
-1.7793941241
 20
-24.8534610336
 10
-1.7553919051
 20
-24.8576075204
 10
-1.7302112702
 20
-24.8617432323
 10
-1.7038002372
 20
-24.8658777742
 10
-1.6761461034
 20
-24.8700148937
 10
-1.6472325914
 20
-24.874158931
 10
-1.6170218417
 20
-24.8783168037
 10
-1.5854847315
 20
-24.8824935615
 10
-1.552632465
 20
-24.8866887453
 10
-1.4830909294
 20
-24.8951264762
  0
LWPOLYLINE
  5
513
100
AcDbEntity
  8
IMPORT_IGES
100
AcDbPolyline
 62
7
  6
CONTINUOUS
 90
19
 70
0
 10
2.0757516997
 20
-25.7589291701
 10
2.0694515359
 20
-25.7569327104
 10
2.0519604138
 20
-25.751795193
 10
2.0338685726
 20
-25.7468485165
 10
2.0151914926
 20
-25.7420743262
 10
1.9957933114
 20
-25.737419193
 10
1.9756759267
 20
-25.7328696083
 10
1.954813857
 20
-25.7284076314
 10
1.9330478376
 20
-25.7239913292
 10
1.9103341414
 20
-25.7196076747
 10
1.886685528
 20
-25.7152555254
 10
1.8620329596
 20
-25.7109193779
 10
1.8363548386
 20
-25.706593747
 10
1.8096493108
 20
-25.7022768495
 10
1.7818854697
 20
-25.6979625128
 10
1.7530501453
 20
-25.6936478831
 10
1.7231409449
 20
-25.6893318824
 10
1.6921510745
 20
-25.6850128518
 10
1.6269065563
 20
-25.6763601617
  0
LWPOLYLINE
  5
514
100
AcDbEntity
  8
IMPORT_IGES
100
AcDbPolyline
 62
7
  6
CONTINUOUS
 90
21
 70
0
 10
2.0757516997
 20
-24.7589326924
 10
2.0744164418
 20
-24.7585001848
 10
2.0573619432
 20
-24.7533773857
 10
2.0397085403
 20
-24.7484393782
 10
2.0214723437
 20
-24.7436699058
 10
2.0025002514
 20
-24.7390131697
 10
1.9827798783
 20
-24.7344552851
 10
1.9622769515
 20
-24.7299790358
 10
1.9408183896
 20
-24.7255415012
 10
1.9183613022
 20
-24.7211313431
 10
1.8948995403
 20
-24.7167445672
 10
1.8703140392
 20
-24.7123575751
 10
1.8445691629
 20
-24.7079642662
 10
1.8176523563
 20
-24.7035628587
 10
1.7894781627
 20
-24.6991403265
 10
1.7600164186
 20
-24.6946935414
 10
1.7292504381
 20
-24.6902215338
 10
1.6971152869
 20
-24.6857166351
 10
1.6635702664
 20
-24.6811752682
 10
1.6286112389
 20
-24.6765988777
 10
1.5543986757
 20
-24.667340909
  0
LWPOLYLINE
  5
515
100
AcDbEntity
  8
IMPORT_IGES
100
AcDbPolyline
 62
7
  6
CONTINUOUS
 90
20
 70
0
 10
2.0757516997
 20
-26.7588745199
 10
2.0750545152
 20
-26.7586467609
 10
2.0558518963
 20
-26.7528910293
 10
2.035793963
 20
-26.7473447517
 10
2.0147611638
 20
-26.7419542176
 10
1.9927595294
 20
-26.7367026097
 10
1.9696329791
 20
-26.73153865
 10
1.9453235214
 20
-26.7264406078
 10
1.9198187434
 20
-26.7213985775
 10
1.8930786963
 20
-26.7163984643
 10
1.8651273774
 20
-26.7114391211
 10
1.8359162213
 20
-26.7065069844
 10
1.8053187678
 20
-26.7015781752
 10
1.7732971996
 20
-26.6966458832
 10
1.7398553841
 20
-26.6917101302
 10
1.7049304026
 20
-26.6867614116
 10
1.6684995966
 20
-26.6817968337
 10
1.6305570726
 20
-26.676815867
 10
1.5910757539
 20
-26.67181435
 10
1.5075068518
 20
-26.6617453146
  0
LINE
  5
516
100
AcDbEntity
  8
IMPORT_IGES
100
AcDbLine
 62
7
  6
CONTINUOUS
 10
-8.1689291818
 20
35.7232038095
 11
-8.2114823682
 21
35.5982038095
  0
LINE
  5
517
100
AcDbEntity
  8
IMPORT_IGES
100
AcDbLine
 62
7
  6
CONTINUOUS
 10
-7.6582908256
 20
29.2232033327
 11
-7.5306312663
 21
29.4315368249
  0
LINE
  5
518
100
AcDbEntity
  8
IMPORT_IGES
100
AcDbLine
 62
7
  6
CONTINUOUS
 10
-6.4668014904
 20
30.4315368249
 11
-6.5944610609
 21
30.2232033327
  0
LINE
  5
519
100
AcDbEntity
  8
IMPORT_IGES
100
AcDbLine
 62
7
  6
CONTINUOUS
 10
-6.4668014904
 20
28.5982033327
 11
-6.5944610609
 21
28.3898703172
  0
LINE
  5
51A
100
AcDbEntity
  8
IMPORT_IGES
100
AcDbLine
 62
7
  6
CONTINUOUS
 10
-6.7646738214
 20
28.5148703172
 11
-6.6795674486
 21
28.6398703172
  0
LINE
  5
51B
100
AcDbEntity
  8
IMPORT_IGES
100
AcDbLine
 62
7
  6
CONTINUOUS
 10
-8.3816951139
 20
25.4732035711
 11
-8.2540355546
 21
25.6398700788
  0
LINE
  5
51C
100
AcDbEntity
  8
IMPORT_IGES
100
AcDbLine
 62
253
  6
CONTINUOUS
 10
-2.0921221047
 20
-23.5029207673
 11
-2.1245694851
 21
-23.5118822045
  0
LINE
  5
51D
100
AcDbEntity
  8
IMPORT_IGES
100
AcDbLine
 62
7
  6
CONTINUOUS
 10
-15.7242483003
 20
-21.6434631751
 11
-7.4242483003
 21
-21.6434631751
  0
LINE
  5
51E
100
AcDbEntity
  8
IMPORT_IGES
100
AcDbLine
 62
7
  6
CONTINUOUS
 10
7.5757516997
 20
-21.6434631751
 11
15.8757516997
 21
-21.6434631751
  0
LINE
  5
51F
100
AcDbEntity
  8
IMPORT_IGES
100
AcDbLine
 62
253
  6
CONTINUOUS
 10
-16.2242483003
 20
-21.1434631751
 11
-7.4242483003
 21
-21.1434631751
  0
LINE
  5
520
100
AcDbEntity
  8
IMPORT_IGES
100
AcDbLine
 62
253
  6
CONTINUOUS
 10
7.5757516997
 20
-21.1434631751
 11
16.3757516997
 21
-21.1434631751
  0
LINE
  5
521
100
AcDbEntity
  8
IMPORT_IGES
100
AcDbLine
 62
253
  6
CONTINUOUS
 10
-4.9242483003
 20
-21.0834631751
 11
5.0757516997
 21
-21.0834631751
  0
LINE
  5
522
100
AcDbEntity
  8
IMPORT_IGES
100
AcDbLine
 62
253
  6
CONTINUOUS
 10
-4.9242483003
 20
-20.1720346036
 11
5.0757516997
 21
-20.1720346036
  0
LINE
  5
523
100
AcDbEntity
  8
IMPORT_IGES
100
AcDbLine
 62
253
  6
CONTINUOUS
 10
13.5757516997
 20
-19.9434631751
 11
5.2257516997
 21
-19.9434631751
  0
LINE
  5
524
100
AcDbEntity
  8
IMPORT_IGES
100
AcDbLine
 62
253
  6
CONTINUOUS
 10
-5.0742483003
 20
-19.9434631751
 11
-13.4242483003
 21
-19.9434631751
  0
LINE
  5
525
100
AcDbEntity
  8
IMPORT_IGES
100
AcDbLine
 62
7
  6
CONTINUOUS
 10
13.0757516997
 20
-19.4434631751
 11
5.2257516997
 21
-19.4434631751
  0
LINE
  5
526
100
AcDbEntity
  8
IMPORT_IGES
100
AcDbLine
 62
7
  6
CONTINUOUS
 10
-5.0742483003
 20
-19.4434631751
 11
-12.9242483003
 21
-19.4434631751
  0
LINE
  5
527
100
AcDbEntity
  8
IMPORT_IGES
100
AcDbLine
 62
253
  6
CONTINUOUS
 10
13.0757516997
 20
-19.3838601305
 11
18.0757516997
 21
-19.3838601305
  0
LINE
  5
528
100
AcDbEntity
  8
IMPORT_IGES
100
AcDbLine
 62
253
  6
CONTINUOUS
 10
-12.9242483003
 20
-19.3838601305
 11
-17.9242483003
 21
-19.3838601305
  0
LINE
  5
529
100
AcDbEntity
  8
IMPORT_IGES
100
AcDbLine
 62
7
  6
CONTINUOUS
 10
6.4757516997
 20
-19.0496909556
 11
5.0757516997
 21
-19.0496909556
  0
LINE
  5
52A
100
AcDbEntity
  8
IMPORT_IGES
100
AcDbLine
 62
7
  6
CONTINUOUS
 10
-4.9242483003
 20
-19.0496909556
 11
-6.3242483003
 21
-19.0496909556
  0
LWPOLYLINE
  5
52B
100
AcDbEntity
  8
IMPORT_IGES
100
AcDbPolyline
 62
253
  6
CONTINUOUS
 90
19
 70
0
 10
-13.4242483003
 20
-18.8878611747
 10
-13.3806716358
 20
-18.8897484957
 10
-13.3374265416
 20
-18.8953961057
 10
-13.2948421236
 20
-18.9047610399
 10
-13.2532426037
 20
-18.9177719922
 10
-13.2129444179
 20
-18.9343299867
 10
-13.1742538565
 20
-18.9543092524
 10
-13.1374652055
 20
-18.9775580132
 10
-13.1028587722
 20
-19.0038993267
 10
-13.0706982852
 20
-19.0331325569
 10
-13.0412285421
 20
-19.0650352351
 10
-13.0146738574
 20
-19.0993645797
 10
-12.9912365451
 20
-19.135859026
 10
-12.9710950184
 20
-19.1742406129
 10
-12.9544024072
 20
-19.2142173593
 10
-12.9412856419
 20
-19.2554852111
 10
-12.9318445392
 20
-19.2977301664
 10
-12.9261509806
 20
-19.3406306406
 10
-12.9242483003
 20
-19.3838601305
  0
LINE
  5
52C
100
AcDbEntity
  8
IMPORT_IGES
100
AcDbLine
 62
7
  6
CONTINUOUS
 10
-18.0742483003
 20
14.0565368249
 11
-18.0742483003
 21
8.0565368249
  0
LINE
  5
52D
100
AcDbEntity
  8
IMPORT_IGES
100
AcDbLine
 62
7
  6
CONTINUOUS
 10
-18.0242483003
 20
15.5565368249
 11
-18.0242483003
 21
-15.4434631751
  0
LINE
  5
52E
100
AcDbEntity
  8
IMPORT_IGES
100
AcDbLine
 62
7
  6
CONTINUOUS
 10
-17.9242483003
 20
-44.4434631714
 11
-17.9242483003
 21
44.5565368221
  0
LINE
  5
52F
100
AcDbEntity
  8
IMPORT_IGES
100
AcDbLine
 62
253
  6
CONTINUOUS
 10
-17.4242483003
 20
-44.9434631751
 11
-17.4242483003
 21
45.0565368249
  0
LINE
  5
530
100
AcDbEntity
  8
IMPORT_IGES
100
AcDbLine
 62
253
  6
CONTINUOUS
 10
-16.2242483003
 20
45.0565368249
 11
-16.2242483003
 21
20.1565368249
  0
LINE
  5
531
100
AcDbEntity
  8
IMPORT_IGES
100
AcDbLine
 62
253
  6
CONTINUOUS
 10
-16.2242483003
 20
-21.1434631751
 11
-16.2242483003
 21
-44.9434631751
  0
LINE
  5
532
100
AcDbEntity
  8
IMPORT_IGES
100
AcDbLine
 62
7
  6
CONTINUOUS
 10
-8.1689291818
 20
30.9732033327
 11
-8.2114823682
 21
30.8482033327
  0
LINE
  5
533
100
AcDbEntity
  8
IMPORT_IGES
100
AcDbLine
 62
7
  6
CONTINUOUS
 10
-8.1689291818
 20
29.1398703172
 11
-8.2114823682
 21
29.0148703172
  0
LINE
  5
534
100
AcDbEntity
  8
IMPORT_IGES
100
AcDbLine
 62
7
  6
CONTINUOUS
 10
-7.4455248935
 20
31.0148703172
 11
-7.4880780799
 21
30.8898703172
  0
LINE
  5
535
100
AcDbEntity
  8
IMPORT_IGES
100
AcDbLine
 62
7
  6
CONTINUOUS
 10
-7.4455248935
 20
29.1815368249
 11
-7.4880780799
 21
29.0565368249
  0
LINE
  5
536
100
AcDbEntity
  8
IMPORT_IGES
100
AcDbLine
 62
7
  6
CONTINUOUS
 10
-6.6795674486
 20
30.4732033327
 11
-6.6370142622
 21
30.5982033327
  0
LINE
  5
537
100
AcDbEntity
  8
IMPORT_IGES
100
AcDbLine
 62
7
  6
CONTINUOUS
 10
-8.1689291818
 20
25.4315368249
 11
-8.2114823682
 21
25.3065368249
  0
LINE
  5
538
100
AcDbEntity
  8
IMPORT_IGES
100
AcDbLine
 62
7
  6
CONTINUOUS
 10
-7.4455248935
 20
23.6398701384
 11
-7.7433971984
 21
23.0565368249
  0
LINE
  5
539
100
AcDbEntity
  8
IMPORT_IGES
100
AcDbLine
 62
7
  6
CONTINUOUS
 10
-7.8710567577
 20
23.1398701608
 11
-7.4455248935
 21
23.9315368249
  0
LWPOLYLINE
  5
53A
100
AcDbEntity
  8
IMPORT_IGES
100
AcDbPolyline
 62
253
  6
CONTINUOUS
 90
19
 70
0
 10
-17.4242483003
 20
-18.8878611747
 10
-17.4678227837
 20
-18.8897483064
 10
-17.5110657284
 20
-18.8953953483
 10
-17.553648079
 20
-18.9047593394
 10
-17.5952447311
 20
-18.9177686469
 10
-17.635540296
 20
-18.9343244885
 10
-17.6742311273
 20
-18.9543025994
 10
-17.7110243195
 20
-18.9775530986
 10
-17.7456371353
 20
-19.0038987499
 10
-17.7778028452
 20
-19.0331370505
 10
-17.8072764154
 20
-19.0650451148
 10
-17.8338337407
 20
-19.0993801605
 10
-17.8572712693
 20
-19.1358782942
 10
-17.8774104698
 20
-19.1742595209
 10
-17.8940999099
 20
-19.2142329403
 10
-17.9072141118
 20
-19.255496885
 10
-17.9166535091
 20
-19.2977383115
 10
-17.9223459927
 20
-19.3406348666
 10
-17.9242483003
 20
-19.3838601305
  0
LINE
  5
53B
100
AcDbEntity
  8
IMPORT_IGES
100
AcDbLine
 62
253
  6
CONTINUOUS
 10
-17.4242483003
 20
-18.8878611747
 11
-13.4242483003
 21
-18.8878611747
  0
LINE
  5
53C
100
AcDbEntity
  8
IMPORT_IGES
100
AcDbLine
 62
253
  6
CONTINUOUS
 10
17.5757516997
 20
-18.8878611747
 11
13.5757516997
 21
-18.8878611747
  0
LINE
  5
53D
100
AcDbEntity
  8
IMPORT_IGES
100
AcDbLine
 62
7
  6
CONTINUOUS
 10
13.5757516997
 20
-18.243463174
 11
17.5757516997
 21
-18.243463174
  0
LINE
  5
53E
100
AcDbEntity
  8
IMPORT_IGES
100
AcDbLine
 62
7
  6
CONTINUOUS
 10
-13.4242483003
 20
-18.2434631751
 11
-17.4242483003
 21
-18.2434631751
  0
LINE
  5
53F
100
AcDbEntity
  8
IMPORT_IGES
100
AcDbLine
 62
7
  6
CONTINUOUS
 10
-5.6242483003
 20
-16.4434631751
 11
-4.9242483003
 21
-16.4434631751
  0
LINE
  5
540
100
AcDbEntity
  8
IMPORT_IGES
100
AcDbLine
 62
7
  6
CONTINUOUS
 10
5.0757516997
 20
-16.4434631751
 11
5.7757516997
 21
-16.4434631751
  0
LINE
  5
541
100
AcDbEntity
  8
IMPORT_IGES
100
AcDbLine
 62
253
  6
CONTINUOUS
 10
-4.9242483003
 20
-15.8455830643
 11
5.0757516997
 21
-15.8455830643
  0
LWPOLYLINE
  5
542
100
AcDbEntity
  8
IMPORT_IGES
100
AcDbPolyline
 62
7
  6
CONTINUOUS
 90
30
 70
0
 10
-2.1242483003
 20
-23.6963399141
 10
-2.110084352
 20
-23.7144554769
 10
-2.0932933629
 20
-23.7323879098
 10
-2.0760603878
 20
-23.7478187221
 10
-2.0588308543
 20
-23.7609767368
 10
-2.0420100786
 20
-23.7720950475
 10
-2.0256804644
 20
-23.7815536529
 10
-2.0096985209
 20
-23.7897466332
 10
-1.9942015663
 20
-23.7968407679
 10
-1.979148875
 20
-23.803050023
 10
-1.9640623243
 20
-23.8086993337
 10
-1.948856868
 20
-23.8138985715
 10
-1.9335600077
 20
-23.8187036691
 10
-1.9178602736
 20
-23.8232590444
 10
-1.9017069443
 20
-23.8276086988
 10
-1.8850848544
 20
-23.8317815185
 10
-1.8677560405
 20
-23.835853555
 10
-1.8496565267
 20
-23.8398483475
 10
-1.8307790524
 20
-23.8437745673
 10
-1.8109815978
 20
-23.8476662676
 10
-1.7902153953
 20
-23.8515355466
 10
-1.7684710633
 20
-23.8553867656
 10
-1.7456795271
 20
-23.8592340145
 10
-1.7218132225
 20
-23.863082905
 10
-1.6968572268
 20
-23.8669366347
 10
-1.6707738
 20
-23.8708015592
 10
-1.6435446219
 20
-23.8746806527
 10
-1.615157108
 20
-23.8785759404
 10
-1.5855920417
 20
-23.8824902507
 10
-1.5228791535
 20
-23.8903831176
  0
LINE
  5
543
100
AcDbEntity
  8
IMPORT_IGES
100
AcDbLine
 62
7
  6
CONTINUOUS
 10
-15.7242483003
 20
44.5565368249
 11
-15.7242483003
 21
19.8565368246
  0
LINE
  5
544
100
AcDbEntity
  8
IMPORT_IGES
100
AcDbLine
 62
7
  6
CONTINUOUS
 10
-15.7242483003
 20
-21.6434631751
 11
-15.7242483003
 21
-44.4434631714
  0
LINE
  5
545
100
AcDbEntity
  8
IMPORT_IGES
100
AcDbLine
 62
7
  6
CONTINUOUS
 10
-15.2042483003
 20
1.0565368249
 11
-15.2042483003
 21
3.5565368249
  0
LINE
  5
546
100
AcDbEntity
  8
IMPORT_IGES
100
AcDbLine
 62
7
  6
CONTINUOUS
 10
-14.8917483003
 20
3.0246219947
 11
-14.8917483003
 21
1.0565368249
  0
LINE
  5
547
100
AcDbEntity
  8
IMPORT_IGES
100
AcDbLine
 62
253
  6
CONTINUOUS
 10
-13.4242483003
 20
-19.9434631751
 11
-13.4242483003
 21
-18.243463174
  0
LINE
  5
548
100
AcDbEntity
  8
IMPORT_IGES
100
AcDbLine
 62
7
  6
CONTINUOUS
 10
-13.0493571516
 20
31.8280374021
 11
-13.0493571516
 21
30.9899431589
  0
LINE
  5
549
100
AcDbEntity
  8
IMPORT_IGES
100
AcDbLine
 62
7
  6
CONTINUOUS
 10
-13.0167483003
 20
1.0565368249
 11
-13.0167483003
 21
3.0246219947
  0
LINE
  5
54A
100
AcDbEntity
  8
IMPORT_IGES
100
AcDbLine
 62
7
  6
CONTINUOUS
 10
-12.9242483003
 20
-19.4434631751
 11
-12.9242483003
 21
-18.7434631751
  0
LINE
  5
54B
100
AcDbEntity
  8
IMPORT_IGES
100
AcDbLine
 62
7
  6
CONTINUOUS
 10
-12.9242483003
 20
15.1565368249
 11
-12.9242483003
 21
17.6565368249
  0
LINE
  5
54C
100
AcDbEntity
  8
IMPORT_IGES
100
AcDbLine
 62
7
  6
CONTINUOUS
 10
-12.7042483003
 20
3.5565368249
 11
-12.7042483003
 21
1.0565368249
  0
LINE
  5
54D
100
AcDbEntity
  8
IMPORT_IGES
100
AcDbLine
 62
7
  6
CONTINUOUS
 10
-8.4242483003
 20
35.5565368249
 11
-8.3816951139
 21
35.7648698404
  0
LINE
  5
54E
100
AcDbEntity
  8
IMPORT_IGES
100
AcDbLine
 62
7
  6
CONTINUOUS
 10
-8.4242483003
 20
30.8065368249
 11
-8.3816951139
 21
31.0148703172
  0
LINE
  5
54F
100
AcDbEntity
  8
IMPORT_IGES
100
AcDbLine
 62
7
  6
CONTINUOUS
 10
-8.4242483003
 20
28.9732033327
 11
-8.3816951139
 21
29.1815368249
  0
LINE
  5
550
100
AcDbEntity
  8
IMPORT_IGES
100
AcDbLine
 62
7
  6
CONTINUOUS
 10
-7.700844012
 20
30.8482033327
 11
-7.6582908256
 21
31.0565368249
  0
LINE
  5
551
100
AcDbEntity
  8
IMPORT_IGES
100
AcDbLine
 62
7
  6
CONTINUOUS
 10
-7.700844012
 20
29.0148703172
 11
-7.6582908256
 21
29.2232033327
  0
LINE
  5
552
100
AcDbEntity
  8
IMPORT_IGES
100
AcDbLine
 62
7
  6
CONTINUOUS
 10
-8.4242483003
 20
25.2648700788
 11
-8.3816951139
 21
25.4732035711
  0
LINE
  5
553
100
AcDbEntity
  8
IMPORT_IGES
100
AcDbLine
 62
7
  6
CONTINUOUS
 10
-6.6795674486
 20
28.6398703172
 11
-6.6370142622
 21
28.7648703172
  0
LINE
  5
554
100
AcDbEntity
  8
IMPORT_IGES
100
AcDbLine
 62
7
  6
CONTINUOUS
 10
-13.9542483003
 20
1.3224942773
 11
-13.1729983003
 21
3.5565368249
  0
LINE
  5
555
100
AcDbEntity
  8
IMPORT_IGES
100
AcDbLine
 62
7
  6
CONTINUOUS
 10
-13.0167483003
 20
3.0246219947
 11
-13.7459150166
 21
1.0565368249
  0
LINE
  5
556
100
AcDbEntity
  8
IMPORT_IGES
100
AcDbLine
 62
7
  6
CONTINUOUS
 10
-18.0242483003
 20
-15.4434631751
 11
-17.9242483003
 21
-15.4434631751
  0
LINE
  5
557
100
AcDbEntity
  8
IMPORT_IGES
100
AcDbLine
 62
7
  6
CONTINUOUS
 10
-4.9242483003
 20
-15.1496909556
 11
5.0757516997
 21
-15.1496909556
  0
LINE
  5
558
100
AcDbEntity
  8
IMPORT_IGES
100
AcDbLine
 62
253
  6
CONTINUOUS
 10
-4.9242483003
 20
-14.7011700843
 11
5.0757516997
 21
-14.7011700843
  0
LINE
  5
559
100
AcDbEntity
  8
IMPORT_IGES
100
AcDbLine
 62
7
  6
CONTINUOUS
 10
5.0757516997
 20
-14.4234631751
 11
-4.9242483003
 21
-14.4234631751
  0
LINE
  5
55A
100
AcDbEntity
  8
IMPORT_IGES
100
AcDbLine
 62
253
  6
CONTINUOUS
 10
-18.0242483003
 20
-13.8434631751
 11
-17.9242483003
 21
-13.8434631751
  0
LWPOLYLINE
  5
55B
100
AcDbEntity
  8
IMPORT_IGES
100
AcDbPolyline
 62
7
  6
CONTINUOUS
 90
29
 70
0
 10
2.2757516997
 20
-23.8883796954
 10
2.2602489514
 20
-23.8684298957
 10
2.242050514
 20
-23.8490844424
 10
2.2234073629
 20
-23.8325836215
 10
2.2047118485
 20
-23.8185352459
 10
2.1863762348
 20
-23.8066488294
 10
2.1685027828
 20
-23.7965156708
 10
2.1508810607
 20
-23.787680332
 10
2.1336389405
 20
-23.7799578189
 10
2.1167432944
 20
-23.773130025
 10
2.0996930454
 20
-23.7668616425
 10
2.0824338496
 20
-23.7610503476
 10
2.0649934394
 20
-23.75563644
 10
2.0470028405
 20
-23.7504583
 10
2.0283953864
 20
-23.7454693166
 10
2.0091910444
 20
-23.7406514546
 10
1.9891660351
 20
-23.7359323097
 10
1.9682649567
 20
-23.7312898828
 10
1.9464938696
 20
-23.7267179126
 10
1.9237333431
 20
-23.7221859551
 10
1.8999433273
 20
-23.7176832705
 10
1.8751205862
 20
-23.7132069705
 10
1.849212734
 20
-23.708745936
 10
1.8221972525
 20
-23.7042950045
 10
1.7940735134
 20
-23.6998518882
 10
1.7648340923
 20
-23.6954131915
 10
1.7344736734
 20
-23.6909761038
 10
1.7029958041
 20
-23.6865392603
 10
1.6367439771
 20
-23.6776665114
  0
LINE
  5
55C
100
AcDbEntity
  8
IMPORT_IGES
100
AcDbLine
 62
7
  6
CONTINUOUS
 10
-14.1625816585
 20
1.0565368249
 11
-14.8917483003
 21
3.0246219947
  0
LINE
  5
55D
100
AcDbEntity
  8
IMPORT_IGES
100
AcDbLine
 62
7
  6
CONTINUOUS
 10
-14.7354983003
 20
3.5565368249
 11
-13.9542483003
 21
1.3224942773
  0
LINE
  5
55E
100
AcDbEntity
  8
IMPORT_IGES
100
AcDbLine
 62
7
  6
CONTINUOUS
 10
-12.4917832263
 20
27.833729157
 11
-12.4917832263
 21
28.6718234002
  0
LINE
  5
55F
100
AcDbEntity
  8
IMPORT_IGES
100
AcDbLine
 62
7
  6
CONTINUOUS
 10
-12.287581733
 20
1.5352602466
 11
-12.287581733
 21
1.6948346957
  0
LINE
  5
560
100
AcDbEntity
  8
IMPORT_IGES
100
AcDbLine
 62
7
  6
CONTINUOUS
 10
-12.287581733
 20
2.3331325665
 11
-12.287581733
 21
2.4395155325
  0
LINE
  5
561
100
AcDbEntity
  8
IMPORT_IGES
100
AcDbLine
 62
7
  6
CONTINUOUS
 10
-12.0271648676
 20
1.4820687264
 11
-12.0271648676
 21
1.5884517297
  0
LINE
  5
562
100
AcDbEntity
  8
IMPORT_IGES
100
AcDbLine
 62
7
  6
CONTINUOUS
 10
-11.7242483003
 20
-43.4434631751
 11
-11.7242483003
 21
-44.4434631751
  0
LINE
  5
563
100
AcDbEntity
  8
IMPORT_IGES
100
AcDbLine
 62
253
  6
CONTINUOUS
 10
-11.2242483003
 20
-43.4434631751
 11
-11.2242483003
 21
-44.9434631751
  0
LINE
  5
564
100
AcDbEntity
  8
IMPORT_IGES
100
AcDbLine
 62
7
  6
CONTINUOUS
 10
-10.9854983003
 20
1.9607921108
 11
-10.9854983003
 21
1.6416432127
  0
LINE
  5
565
100
AcDbEntity
  8
IMPORT_IGES
100
AcDbLine
 62
7
  6
CONTINUOUS
 10
-10.9854983003
 20
2.1735581174
 11
-10.9854983003
 21
2.3331325665
  0
LINE
  5
566
100
AcDbEntity
  8
IMPORT_IGES
100
AcDbLine
 62
7
  6
CONTINUOUS
 10
-10.725081733
 20
2.3331325665
 11
-10.725081733
 21
1.4820687264
  0
LINE
  5
567
100
AcDbEntity
  8
IMPORT_IGES
100
AcDbLine
 62
7
  6
CONTINUOUS
 10
-10.3891393415
 20
28.6185400403
 11
-10.3891393415
 21
30.2197329509
  0
LINE
  5
568
100
AcDbEntity
  8
IMPORT_IGES
100
AcDbLine
 62
7
  6
CONTINUOUS
 10
-10.3891393415
 20
31.0565368249
 11
-10.3891393415
 21
32.2530367123
  0
LINE
  5
569
100
AcDbEntity
  8
IMPORT_IGES
100
AcDbLine
 62
7
  6
CONTINUOUS
 10
-10.2042483003
 20
1.6948346957
 11
-10.2042483003
 21
2.1203666344
  0
LINE
  5
56A
100
AcDbEntity
  8
IMPORT_IGES
100
AcDbLine
 62
7
  6
CONTINUOUS
 10
-9.9438314349
 20
1.7480261787
 11
-9.9438314349
 21
2.0671751514
  0
LINE
  5
56B
100
AcDbEntity
  8
IMPORT_IGES
100
AcDbLine
 62
7
  6
CONTINUOUS
 10
-9.9242483003
 20
32.2530367123
 11
-9.9242483003
 21
31.0565368249
  0
LINE
  5
56C
100
AcDbEntity
  8
IMPORT_IGES
100
AcDbLine
 62
7
  6
CONTINUOUS
 10
-9.9242483003
 20
30.2197329509
 11
-9.9242483003
 21
28.6185400402
  0
LINE
  5
56D
100
AcDbEntity
  8
IMPORT_IGES
100
AcDbLine
 62
7
  6
CONTINUOUS
 10
-6.4242483003
 20
30.6398703172
 11
-6.4668014904
 21
30.4315368249
  0
LINE
  5
56E
100
AcDbEntity
  8
IMPORT_IGES
100
AcDbLine
 62
7
  6
CONTINUOUS
 10
-6.4242483003
 20
28.8065368249
 11
-6.4668014904
 21
28.5982033327
  0
LINE
  5
56F
100
AcDbEntity
  8
IMPORT_IGES
100
AcDbLine
 62
7
  6
CONTINUOUS
 10
-10.2042483003
 20
2.1203666344
 11
-10.1521651656
 21
2.3331325665
  0
LINE
  5
570
100
AcDbEntity
  8
IMPORT_IGES
100
AcDbLine
 62
7
  6
CONTINUOUS
 10
-11.975081733
 20
1.7480261787
 11
-12.0271648676
 21
1.5884517297
  0
LINE
  5
571
100
AcDbEntity
  8
IMPORT_IGES
100
AcDbLine
 62
7
  6
CONTINUOUS
 10
-9.8917483003
 20
2.2267496004
 11
-9.9438314349
 21
2.0671751514
  0
LINE
  5
572
100
AcDbEntity
  8
IMPORT_IGES
100
AcDbLine
 62
7
  6
CONTINUOUS
 10
-12.287581733
 20
2.4395155325
 11
-12.2354983003
 21
2.5458984985
  0
LINE
  5
573
100
AcDbEntity
  8
IMPORT_IGES
100
AcDbLine
 62
7
  6
CONTINUOUS
 10
-11.975081733
 20
2.4395155325
 11
-12.0271648676
 21
2.3331325665
  0
LINE
  5
574
100
AcDbEntity
  8
IMPORT_IGES
100
AcDbLine
 62
7
  6
CONTINUOUS
 10
-12.287581733
 20
1.6948346957
 11
-12.1834148676
 21
1.9076006278
  0
LINE
  5
575
100
AcDbEntity
  8
IMPORT_IGES
100
AcDbLine
 62
7
  6
CONTINUOUS
 10
-11.037581733
 20
1.5352602466
 11
-10.9854983003
 21
1.6416432127
  0
LINE
  5
576
100
AcDbEntity
  8
IMPORT_IGES
100
AcDbLine
 62
7
  6
CONTINUOUS
 10
-10.9854983003
 20
1.3224942773
 11
-11.037581733
 21
1.2161112926
  0
LINE
  5
577
100
AcDbEntity
  8
IMPORT_IGES
100
AcDbLine
 62
7
  6
CONTINUOUS
 10
-10.1521651656
 20
2.3331325665
 11
-10.1000814349
 21
2.4395155325
  0
LINE
  5
578
100
AcDbEntity
  8
IMPORT_IGES
100
AcDbLine
 62
7
  6
CONTINUOUS
 10
-9.7875814349
 20
2.3863240495
 11
-9.8917483003
 21
2.2267496004
  0
LINE
  5
579
100
AcDbEntity
  8
IMPORT_IGES
100
AcDbLine
 62
7
  6
CONTINUOUS
 10
-12.2354983003
 20
2.5458984985
 11
-12.131331733
 21
2.6522814646
  0
LINE
  5
57A
100
AcDbEntity
  8
IMPORT_IGES
100
AcDbLine
 62
7
  6
CONTINUOUS
 10
-12.1834148676
 20
1.9076006278
 11
-12.0792483003
 21
2.0139836683
  0
LINE
  5
57B
100
AcDbEntity
  8
IMPORT_IGES
100
AcDbLine
 62
7
  6
CONTINUOUS
 10
-11.8709148676
 20
1.8544091448
 11
-11.975081733
 21
1.7480261787
  0
LINE
  5
57C
100
AcDbEntity
  8
IMPORT_IGES
100
AcDbLine
 62
7
  6
CONTINUOUS
 10
-12.0271648676
 20
1.4820687264
 11
-11.975081733
 21
1.3756857603
  0
LINE
  5
57D
100
AcDbEntity
  8
IMPORT_IGES
100
AcDbLine
 62
7
  6
CONTINUOUS
 10
-10.881331733
 20
1.0565368249
 11
-10.9334148676
 21
1.1629198003
  0
LINE
  5
57E
100
AcDbEntity
  8
IMPORT_IGES
100
AcDbLine
 62
7
  6
CONTINUOUS
 10
-10.9334148676
 20
1.1629198003
 11
-10.9854983003
 21
1.3224942773
  0
LINE
  5
57F
100
AcDbEntity
  8
IMPORT_IGES
100
AcDbLine
 62
7
  6
CONTINUOUS
 10
-10.6729983003
 20
1.2161112926
 11
-10.6209148676
 21
1.0565368249
  0
LINE
  5
580
100
AcDbEntity
  8
IMPORT_IGES
100
AcDbLine
 62
7
  6
CONTINUOUS
 10
-10.7771648676
 20
2.4927070155
 11
-10.725081733
 21
2.3331325665
  0
LINE
  5
581
100
AcDbEntity
  8
IMPORT_IGES
100
AcDbLine
 62
7
  6
CONTINUOUS
 10
-12.2354983003
 20
1.3224942773
 11
-12.287581733
 21
1.5352602466
  0
LINE
  5
582
100
AcDbEntity
  8
IMPORT_IGES
100
AcDbLine
 62
7
  6
CONTINUOUS
 10
-10.1521651656
 20
1.4820687264
 11
-10.2042483003
 21
1.6948346957
  0
LINE
  5
583
100
AcDbEntity
  8
IMPORT_IGES
100
AcDbLine
 62
7
  6
CONTINUOUS
 10
-10.725081733
 20
1.4820687264
 11
-10.6729983003
 21
1.2161112926
  0
LINE
  5
584
100
AcDbEntity
  8
IMPORT_IGES
100
AcDbLine
 62
7
  6
CONTINUOUS
 10
-9.2242483003
 20
-44.9434631751
 11
-9.2242483003
 21
-39.3431655639
  0
LINE
  5
585
100
AcDbEntity
  8
IMPORT_IGES
100
AcDbLine
 62
7
  6
CONTINUOUS
 10
-9.2242483003
 20
-35.9434631751
 11
-9.2242483003
 21
-21.6434631751
  0
LINE
  5
586
100
AcDbEntity
  8
IMPORT_IGES
100
AcDbLine
 62
7
  6
CONTINUOUS
 10
-8.7979983003
 20
2.1735581174
 11
-8.7979983003
 21
1.6416432127
  0
LINE
  5
587
100
AcDbEntity
  8
IMPORT_IGES
100
AcDbLine
 62
7
  6
CONTINUOUS
 10
-8.7979983003
 20
1.0565368249
 11
-8.7979983003
 21
1.3756857603
  0
LINE
  5
588
100
AcDbEntity
  8
IMPORT_IGES
100
AcDbLine
 62
7
  6
CONTINUOUS
 10
-8.7979983003
 20
2.4395155325
 11
-8.7979983003
 21
3.5565368249
  0
LINE
  5
589
100
AcDbEntity
  8
IMPORT_IGES
100
AcDbLine
 62
7
  6
CONTINUOUS
 10
-8.5375814349
 20
3.5565368249
 11
-8.5375814349
 21
1.0565368249
  0
LINE
  5
58A
100
AcDbEntity
  8
IMPORT_IGES
100
AcDbLine
 62
7
  6
CONTINUOUS
 10
-8.4242483003
 20
24.264870198
 11
-8.4242483003
 21
25.2648700788
  0
LINE
  5
58B
100
AcDbEntity
  8
IMPORT_IGES
100
AcDbLine
 62
7
  6
CONTINUOUS
 10
-8.4242483003
 20
26.8065368249
 11
-8.4242483003
 21
27.1398703172
  0
LINE
  5
58C
100
AcDbEntity
  8
IMPORT_IGES
100
AcDbLine
 62
7
  6
CONTINUOUS
 10
-8.4242483003
 20
28.8065368249
 11
-8.4242483003
 21
28.9732033327
  0
LINE
  5
58D
100
AcDbEntity
  8
IMPORT_IGES
100
AcDbLine
 62
7
  6
CONTINUOUS
 10
-8.4242483003
 20
30.6398703172
 11
-8.4242483003
 21
30.8065368249
  0
LINE
  5
58E
100
AcDbEntity
  8
IMPORT_IGES
100
AcDbLine
 62
7
  6
CONTINUOUS
 10
-8.4242483003
 20
32.7232038095
 11
-8.4242483003
 21
34.2232038095
  0
LINE
  5
58F
100
AcDbEntity
  8
IMPORT_IGES
100
AcDbLine
 62
7
  6
CONTINUOUS
 10
-8.4242483003
 20
34.5565368249
 11
-8.4242483003
 21
35.5565368249
  0
LINE
  5
590
100
AcDbEntity
  8
IMPORT_IGES
100
AcDbLine
 62
7
  6
CONTINUOUS
 10
-8.2114823682
 20
30.8482033327
 11
-8.2114823682
 21
30.5982033327
  0
LINE
  5
591
100
AcDbEntity
  8
IMPORT_IGES
100
AcDbLine
 62
7
  6
CONTINUOUS
 10
-8.2114823682
 20
29.0148703172
 11
-8.2114823682
 21
28.7648703172
  0
LINE
  5
592
100
AcDbEntity
  8
IMPORT_IGES
100
AcDbLine
 62
7
  6
CONTINUOUS
 10
-8.2114823682
 20
24.514870198
 11
-8.2114823682
 21
25.3065368249
  0
LINE
  5
593
100
AcDbEntity
  8
IMPORT_IGES
100
AcDbLine
 62
7
  6
CONTINUOUS
 10
-8.2114823682
 20
34.8065368249
 11
-8.2114823682
 21
35.5982038095
  0
LINE
  5
594
100
AcDbEntity
  8
IMPORT_IGES
100
AcDbLine
 62
7
  6
CONTINUOUS
 10
-8.1689291818
 20
34.2232038095
 11
-8.1689291818
 21
32.9732038095
  0
LINE
  5
595
100
AcDbEntity
  8
IMPORT_IGES
100
AcDbLine
 62
7
  6
CONTINUOUS
 10
-7.9561632497
 20
31.3898698404
 11
-7.9561632497
 21
31.1815368249
  0
LINE
  5
596
100
AcDbEntity
  8
IMPORT_IGES
100
AcDbLine
 62
7
  6
CONTINUOUS
 10
-7.9561632497
 20
29.5565368249
 11
-7.9561632497
 21
29.3482033327
  0
LINE
  5
597
100
AcDbEntity
  8
IMPORT_IGES
100
AcDbLine
 62
7
  6
CONTINUOUS
 10
-7.8604983003
 20
1.9076006278
 11
-7.8604983003
 21
1.8012176617
  0
LINE
  5
598
100
AcDbEntity
  8
IMPORT_IGES
100
AcDbLine
 62
7
  6
CONTINUOUS
 10
-7.8084151656
 20
2.1203666344
 11
-7.8084151656
 21
2.1735581174
  0
LINE
  5
599
100
AcDbEntity
  8
IMPORT_IGES
100
AcDbLine
 62
7
  6
CONTINUOUS
 10
-7.700844012
 20
28.8065368249
 11
-7.700844012
 21
29.0148703172
  0
LINE
  5
59A
100
AcDbEntity
  8
IMPORT_IGES
100
AcDbLine
 62
7
  6
CONTINUOUS
 10
-7.700844012
 20
30.6398703172
 11
-7.700844012
 21
30.8482033327
  0
LINE
  5
59B
100
AcDbEntity
  8
IMPORT_IGES
100
AcDbLine
 62
7
  6
CONTINUOUS
 10
-7.6157376392
 20
32.9732038095
 11
-7.6157376392
 21
34.0565368249
  0
LINE
  5
59C
100
AcDbEntity
  8
IMPORT_IGES
100
AcDbLine
 62
7
  6
CONTINUOUS
 10
-7.5731844527
 20
35.5982038095
 11
-7.5731844527
 21
34.8065368249
  0
LINE
  5
59D
100
AcDbEntity
  8
IMPORT_IGES
100
AcDbLine
 62
7
  6
CONTINUOUS
 10
-7.5731844527
 20
25.3065368249
 11
-7.5731844527
 21
24.514870198
  0
LINE
  5
59E
100
AcDbEntity
  8
IMPORT_IGES
100
AcDbLine
 62
7
  6
CONTINUOUS
 10
-7.4880780799
 20
28.7648703172
 11
-7.4880780799
 21
29.0565368249
  0
LINE
  5
59F
100
AcDbEntity
  8
IMPORT_IGES
100
AcDbLine
 62
7
  6
CONTINUOUS
 10
-7.4880780799
 20
30.5982033327
 11
-7.4880780799
 21
30.8898703172
  0
LINE
  5
5A0
100
AcDbEntity
  8
IMPORT_IGES
100
AcDbLine
 62
7
  6
CONTINUOUS
 10
-7.4242483003
 20
-21.1434631751
 11
-7.4242483003
 21
-35.9434631751
  0
LINE
  5
5A1
100
AcDbEntity
  8
IMPORT_IGES
100
AcDbLine
 62
7
  6
CONTINUOUS
 10
-7.3604185207
 20
34.0565368249
 11
-7.3604185207
 21
32.9732038095
  0
LINE
  5
5A2
100
AcDbEntity
  8
IMPORT_IGES
100
AcDbLine
 62
7
  6
CONTINUOUS
 10
-7.3604185207
 20
31.8065368249
 11
-7.3604185207
 21
32.3898698404
  0
LINE
  5
5A3
100
AcDbEntity
  8
IMPORT_IGES
100
AcDbLine
 62
7
  6
CONTINUOUS
 10
-7.3178653342
 20
35.5148698404
 11
-7.3178653342
 21
34.8065368249
  0
LINE
  5
5A4
100
AcDbEntity
  8
IMPORT_IGES
100
AcDbLine
 62
7
  6
CONTINUOUS
 10
-7.3178653342
 20
25.2648700788
 11
-7.3178653342
 21
24.514870198
  0
LINE
  5
5A5
100
AcDbEntity
  8
IMPORT_IGES
100
AcDbLine
 62
7
  6
CONTINUOUS
 10
-7.147652529
 20
32.3898698404
 11
-7.147652529
 21
31.8065368249
  0
LINE
  5
5A6
100
AcDbEntity
  8
IMPORT_IGES
100
AcDbLine
 62
7
  6
CONTINUOUS
 10
-7.1050993426
 20
27.3482033327
 11
-7.1050993426
 21
26.5982035711
  0
LINE
  5
5A7
100
AcDbEntity
  8
IMPORT_IGES
100
AcDbLine
 62
7
  6
CONTINUOUS
 10
-6.9348865969
 20
27.3898703172
 11
-6.9348865969
 21
26.5565368249
  0
LINE
  5
5A8
100
AcDbEntity
  8
IMPORT_IGES
100
AcDbLine
 62
7
  6
CONTINUOUS
 10
-6.7146651656
 20
2.2267496004
 11
-6.7146651656
 21
2.1203666344
  0
LINE
  5
5A9
100
AcDbEntity
  8
IMPORT_IGES
100
AcDbLine
 62
7
  6
CONTINUOUS
 10
-6.6370142622
 20
30.8898703172
 11
-6.6370142622
 21
30.5982033327
  0
LINE
  5
5AA
100
AcDbEntity
  8
IMPORT_IGES
100
AcDbLine
 62
7
  6
CONTINUOUS
 10
-6.6370142622
 20
29.0565368249
 11
-6.6370142622
 21
28.7648703172
  0
LINE
  5
5AB
100
AcDbEntity
  8
IMPORT_IGES
100
AcDbLine
 62
7
  6
CONTINUOUS
 10
-6.4542483003
 20
2.1203666344
 11
-6.4542483003
 21
1.9076006278
  0
LINE
  5
5AC
100
AcDbEntity
  8
IMPORT_IGES
100
AcDbLine
 62
7
  6
CONTINUOUS
 10
-6.4242483003
 20
36.1398698404
 11
-6.4242483003
 21
35.8482038095
  0
LINE
  5
5AD
100
AcDbEntity
  8
IMPORT_IGES
100
AcDbLine
 62
7
  6
CONTINUOUS
 10
-6.4242483003
 20
34.8065368249
 11
-6.4242483003
 21
34.5565368249
  0
LINE
  5
5AE
100
AcDbEntity
  8
IMPORT_IGES
100
AcDbLine
 62
7
  6
CONTINUOUS
 10
-6.4242483003
 20
32.9732038095
 11
-6.4242483003
 21
32.7232038095
  0
LINE
  5
5AF
100
AcDbEntity
  8
IMPORT_IGES
100
AcDbLine
 62
7
  6
CONTINUOUS
 10
-6.4242483003
 20
30.8482033327
 11
-6.4242483003
 21
30.6398703172
  0
LINE
  5
5B0
100
AcDbEntity
  8
IMPORT_IGES
100
AcDbLine
 62
7
  6
CONTINUOUS
 10
-6.4242483003
 20
29.0148703172
 11
-6.4242483003
 21
28.8065368249
  0
LINE
  5
5B1
100
AcDbEntity
  8
IMPORT_IGES
100
AcDbLine
 62
7
  6
CONTINUOUS
 10
-6.4242483003
 20
27.8065368249
 11
-6.4242483003
 21
27.5565368249
  0
LINE
  5
5B2
100
AcDbEntity
  8
IMPORT_IGES
100
AcDbLine
 62
7
  6
CONTINUOUS
 10
-6.4242483003
 20
26.3898700788
 11
-6.4242483003
 21
26.1398700788
  0
LINE
  5
5B3
100
AcDbEntity
  8
IMPORT_IGES
100
AcDbLine
 62
7
  6
CONTINUOUS
 10
-6.4242483003
 20
24.514870198
 11
-6.4242483003
 21
24.264870198
  0
LINE
  5
5B4
100
AcDbEntity
  8
IMPORT_IGES
100
AcDbLine
 62
7
  6
CONTINUOUS
 10
-6.3242483003
 20
-19.0496909556
 11
-6.3242483003
 21
-19.4434631751
  0
LINE
  5
5B5
100
AcDbEntity
  8
IMPORT_IGES
100
AcDbLine
 62
7
  6
CONTINUOUS
 10
-8.1209151656
 20
1.9076006278
 11
-8.0688314349
 21
2.2267496004
  0
LINE
  5
5B6
100
AcDbEntity
  8
IMPORT_IGES
100
AcDbLine
 62
7
  6
CONTINUOUS
 10
-6.4542483003
 20
1.5884517297
 11
-6.5063314349
 21
1.3756857603
  0
LINE
  5
5B7
100
AcDbEntity
  8
IMPORT_IGES
100
AcDbLine
 62
7
  6
CONTINUOUS
 10
-6.7667483003
 20
1.4288772433
 11
-6.7146651656
 21
1.5884517297
  0
LINE
  5
5B8
100
AcDbEntity
  8
IMPORT_IGES
100
AcDbLine
 62
7
  6
CONTINUOUS
 10
-8.7979983003
 20
1.3756857603
 11
-8.8500814349
 21
1.2693027757
  0
LINE
  5
5B9
100
AcDbEntity
  8
IMPORT_IGES
100
AcDbLine
 62
7
  6
CONTINUOUS
 10
-8.0688314349
 20
2.2267496004
 11
-7.9646651656
 21
2.4395155325
  0
LINE
  5
5BA
100
AcDbEntity
  8
IMPORT_IGES
100
AcDbLine
 62
7
  6
CONTINUOUS
 10
-7.7563314349
 20
2.2799410834
 11
-7.8084151656
 21
2.1735581174
  0
LINE
  5
5BB
100
AcDbEntity
  8
IMPORT_IGES
100
AcDbLine
 62
7
  6
CONTINUOUS
 10
-8.9021651656
 20
1.4820687264
 11
-8.7979983003
 21
1.6416432127
  0
LINE
  5
5BC
100
AcDbEntity
  8
IMPORT_IGES
100
AcDbLine
 62
7
  6
CONTINUOUS
 10
-11.193831733
 20
1.3756857603
 11
-11.037581733
 21
1.5352602466
  0
LINE
  5
5BD
100
AcDbEntity
  8
IMPORT_IGES
100
AcDbLine
 62
7
  6
CONTINUOUS
 10
-10.1000814349
 20
2.4395155325
 11
-9.9438314349
 21
2.5990899816
  0
LINE
  5
5BE
100
AcDbEntity
  8
IMPORT_IGES
100
AcDbLine
 62
7
  6
CONTINUOUS
 10
-7.9646651656
 20
2.4395155325
 11
-7.8604983003
 21
2.5458984985
  0
LINE
  5
5BF
100
AcDbEntity
  8
IMPORT_IGES
100
AcDbLine
 62
7
  6
CONTINUOUS
 10
-8.8500814349
 20
1.2693027757
 11
-8.9542483003
 21
1.1629198003
  0
LINE
  5
5C0
100
AcDbEntity
  8
IMPORT_IGES
100
AcDbLine
 62
7
  6
CONTINUOUS
 10
-7.6000814349
 20
2.4395155325
 11
-7.7563314349
 21
2.2799410834
  0
LINE
  5
5C1
100
AcDbEntity
  8
IMPORT_IGES
100
AcDbLine
 62
7
  6
CONTINUOUS
 10
-9.9438314349
 20
2.5990899816
 11
-9.7875814349
 21
2.7054729476
  0
LINE
  5
5C2
100
AcDbEntity
  8
IMPORT_IGES
100
AcDbLine
 62
7
  6
CONTINUOUS
 10
-11.037581733
 20
1.2161112926
 11
-11.193831733
 21
1.1097283126
  0
LINE
  5
5C3
100
AcDbEntity
  8
IMPORT_IGES
100
AcDbLine
 62
7
  6
CONTINUOUS
 10
-7.8604983003
 20
2.5458984985
 11
-7.7042483003
 21
2.6522814646
  0
LINE
  5
5C4
100
AcDbEntity
  8
IMPORT_IGES
100
AcDbLine
 62
7
  6
CONTINUOUS
 10
-9.0584151656
 20
1.3756857603
 11
-8.9021651656
 21
1.4820687264
  0
LINE
  5
5C5
100
AcDbEntity
  8
IMPORT_IGES
100
AcDbLine
 62
7
  6
CONTINUOUS
 10
-12.131331733
 20
2.6522814646
 11
-12.0271648676
 21
2.7054729476
  0
LINE
  5
5C6
100
AcDbEntity
  8
IMPORT_IGES
100
AcDbLine
 62
7
  6
CONTINUOUS
 10
-11.8709148676
 20
2.4927070155
 11
-11.975081733
 21
2.4395155325
  0
LINE
  5
5C7
100
AcDbEntity
  8
IMPORT_IGES
100
AcDbLine
 62
7
  6
CONTINUOUS
 10
-12.0792483003
 20
2.0139836683
 11
-11.8709148676
 21
2.1203666344
  0
LINE
  5
5C8
100
AcDbEntity
  8
IMPORT_IGES
100
AcDbLine
 62
7
  6
CONTINUOUS
 10
-11.7667483003
 20
1.9076006278
 11
-11.8709148676
 21
1.8544091448
  0
LINE
  5
5C9
100
AcDbEntity
  8
IMPORT_IGES
100
AcDbLine
 62
7
  6
CONTINUOUS
 10
-9.5792483003
 20
2.4927070155
 11
-9.7875814349
 21
2.3863240495
  0
LINE
  5
5CA
100
AcDbEntity
  8
IMPORT_IGES
100
AcDbLine
 62
7
  6
CONTINUOUS
 10
-12.0792483003
 20
1.1629198003
 11
-12.2354983003
 21
1.3224942773
  0
LINE
  5
5CB
100
AcDbEntity
  8
IMPORT_IGES
100
AcDbLine
 62
7
  6
CONTINUOUS
 10
-9.9438314349
 20
1.2161112926
 11
-10.1000814349
 21
1.3756857603
  0
LINE
  5
5CC
100
AcDbEntity
  8
IMPORT_IGES
100
AcDbLine
 62
7
  6
CONTINUOUS
 10
-8.7979983003
 20
2.1735581174
 11
-8.9021651656
 21
2.3331325665
  0
LINE
  5
5CD
100
AcDbEntity
  8
IMPORT_IGES
100
AcDbLine
 62
7
  6
CONTINUOUS
 10
-10.9854983003
 20
2.3331325665
 11
-11.037581733
 21
2.4395155325
  0
LINE
  5
5CE
100
AcDbEntity
  8
IMPORT_IGES
100
AcDbLine
 62
7
  6
CONTINUOUS
 10
-10.1000814349
 20
1.3756857603
 11
-10.1521651656
 21
1.4820687264
  0
LINE
  5
5CF
100
AcDbEntity
  8
IMPORT_IGES
100
AcDbLine
 62
7
  6
CONTINUOUS
 10
-8.8500814349
 20
2.5458984985
 11
-8.7979983003
 21
2.4395155325
  0
LINE
  5
5D0
100
AcDbEntity
  8
IMPORT_IGES
100
AcDbLine
 62
7
  6
CONTINUOUS
 10
-7.9646651656
 20
1.3756857603
 11
-8.0688314349
 21
1.5884517297
  0
LINE
  5
5D1
100
AcDbEntity
  8
IMPORT_IGES
100
AcDbLine
 62
7
  6
CONTINUOUS
 10
-7.8084151656
 20
1.6416432127
 11
-7.7563314349
 21
1.5352602466
  0
LINE
  5
5D2
100
AcDbEntity
  8
IMPORT_IGES
100
AcDbLine
 62
7
  6
CONTINUOUS
 10
-9.9438314349
 20
1.7480261787
 11
-9.8396651656
 21
1.4820687264
  0
LINE
  5
5D3
100
AcDbEntity
  8
IMPORT_IGES
100
AcDbLine
 62
7
  6
CONTINUOUS
 10
-7.8604983003
 20
1.8012176617
 11
-7.8084151656
 21
1.6416432127
  0
LWPOLYLINE
  5
5D4
100
AcDbEntity
  8
IMPORT_IGES
100
AcDbPolyline
 62
7
  6
CONTINUOUS
 90
28
 70
0
 10
-16.024226535
 20
19.856536825
 10
-16.030587753
 20
19.8762117516
 10
-16.0369252313
 20
19.8951106068
 10
-16.04323897
 20
19.9132333906
 10
-16.0495200328
 20
19.9305611751
 10
-16.0557773559
 20
19.9471128881
 10
-16.0620377481
 20
19.9629453137
 10
-16.0683039625
 20
19.9780534092
 10
-16.0745732459
 20
19.9924422172
 10
-16.0808641479
 20
20.0061836493
 10
-16.087177427
 20
20.0192765745
 10
-16.0935123246
 20
20.0317221238
 10
-16.099885115
 20
20.0435956022
 10
-16.1062533533
 20
20.0548460927
 10
-16.1126594843
 20
20.0655245124
 10
-16.1192471163
 20
20.0758589172
 10
-16.1260208485
 20
20.0859115987
 10
-16.1329760817
 20
20.0956202653
 10
-16.1402426265
 20
20.1050260983
 10
-16.1478393007
 20
20.114337278
 10
-16.1557472865
 20
20.1233456242
 10
-16.1640399417
 20
20.1314677768
 10
-16.1726592131
 20
20.1386532483
 10
-16.1816631538
 20
20.1449525262
 10
-16.1912992811
 20
20.1499337133
 10
-16.2016501009
 20
20.1534528437
 10
-16.2126331073
 20
20.1556538833
 10
-16.2242483003
 20
20.156536832
  0
LINE
  5
5D5
100
AcDbEntity
  8
IMPORT_IGES
100
AcDbLine
 62
7
  6
CONTINUOUS
 10
-8.0688314349
 20
1.5884517297
 11
-8.1209151656
 21
1.9076006278
  0
LINE
  5
5D6
100
AcDbEntity
  8
IMPORT_IGES
100
AcDbLine
 62
7
  6
CONTINUOUS
 10
-5.6242483003
 20
-39.3431655639
 11
-5.6242483003
 21
-35.9434631751
  0
LINE
  5
5D7
100
AcDbEntity
  8
IMPORT_IGES
100
AcDbLine
 62
7
  6
CONTINUOUS
 10
-5.6242483003
 20
-19.0496909556
 11
-5.6242483003
 21
-16.4434631751
  0
LINE
  5
5D8
100
AcDbEntity
  8
IMPORT_IGES
100
AcDbLine
 62
7
  6
CONTINUOUS
 10
-5.0742483003
 20
-24.1434631751
 11
-5.0742483003
 21
-19.4434631751
  0
LINE
  5
5D9
100
AcDbEntity
  8
IMPORT_IGES
100
AcDbLine
 62
7
  6
CONTINUOUS
 10
-4.9242483003
 20
-39.2934631751
 11
-4.9242483003
 21
-35.9434631751
  0
LINE
  5
5DA
100
AcDbEntity
  8
IMPORT_IGES
100
AcDbLine
 62
7
  6
CONTINUOUS
 10
-4.9242483003
 20
-14.4234631751
 11
-4.9242483003
 21
-24.1434631751
  0
LINE
  5
5DB
100
AcDbEntity
  8
IMPORT_IGES
100
AcDbLine
 62
7
  6
CONTINUOUS
 10
-3.537582031
 20
1.0565368249
 11
-3.537582031
 21
2.7586644306
  0
LINE
  5
5DC
100
AcDbEntity
  8
IMPORT_IGES
100
AcDbLine
 62
7
  6
CONTINUOUS
 10
-3.537582031
 20
3.2905794098
 11
-3.537582031
 21
3.5565368249
  0
LINE
  5
5DD
100
AcDbEntity
  8
IMPORT_IGES
100
AcDbLine
 62
7
  6
CONTINUOUS
 10
-3.2771645696
 20
3.5565368249
 11
-3.2771645696
 21
3.2905794098
  0
LINE
  5
5DE
100
AcDbEntity
  8
IMPORT_IGES
100
AcDbLine
 62
7
  6
CONTINUOUS
 10
-3.2771645696
 20
2.7586644306
 11
-3.2771645696
 21
1.0565368249
  0
LINE
  5
5DF
100
AcDbEntity
  8
IMPORT_IGES
100
AcDbLine
 62
7
  6
CONTINUOUS
 10
-2.9242483003
 20
-39.7934631751
 11
-2.9242483003
 21
-35.9434631751
  0
LINE
  5
5E0
100
AcDbEntity
  8
IMPORT_IGES
100
AcDbLine
 62
7
  6
CONTINUOUS
 10
-2.8604983003
 20
1.0565368249
 11
-2.8604983003
 21
2.7586644306
  0
LINE
  5
5E1
100
AcDbEntity
  8
IMPORT_IGES
100
AcDbLine
 62
7
  6
CONTINUOUS
 10
-6.5063314349
 20
1.3756857603
 11
-6.6625814349
 21
1.2161112926
  0
LINE
  5
5E2
100
AcDbEntity
  8
IMPORT_IGES
100
AcDbLine
 62
7
  6
CONTINUOUS
 10
-2.600082031
 20
2.4927070155
 11
-2.4959145696
 21
2.5990899816
  0
LINE
  5
5E3
100
AcDbEntity
  8
IMPORT_IGES
100
AcDbLine
 62
7
  6
CONTINUOUS
 10
-2.4959145696
 20
2.3863240495
 11
-2.600082031
 21
2.2799410834
  0
LINE
  5
5E4
100
AcDbEntity
  8
IMPORT_IGES
100
AcDbLine
 62
7
  6
CONTINUOUS
 10
-6.9229983003
 20
1.3224942773
 11
-6.7667483003
 21
1.4288772433
  0
LINE
  5
5E5
100
AcDbEntity
  8
IMPORT_IGES
100
AcDbLine
 62
7
  6
CONTINUOUS
 10
-2.4959145696
 20
2.5990899816
 11
-2.3396645696
 21
2.7054729476
  0
LINE
  5
5E6
100
AcDbEntity
  8
IMPORT_IGES
100
AcDbLine
 62
7
  6
CONTINUOUS
 10
-2.3396645696
 20
2.4927070155
 11
-2.4959145696
 21
2.3863240495
  0
LINE
  5
5E7
100
AcDbEntity
  8
IMPORT_IGES
100
AcDbLine
 62
7
  6
CONTINUOUS
 10
-7.4959151656
 20
2.4927070155
 11
-7.6000814349
 21
2.4395155325
  0
LINE
  5
5E8
100
AcDbEntity
  8
IMPORT_IGES
100
AcDbLine
 62
7
  6
CONTINUOUS
 10
-8.9542483003
 20
1.1629198003
 11
-9.0584151656
 21
1.1097283126
  0
LINE
  5
5E9
100
AcDbEntity
  8
IMPORT_IGES
100
AcDbLine
 62
7
  6
CONTINUOUS
 10
-6.6625814349
 20
1.2161112926
 11
-6.8709151656
 21
1.1097283126
  0
LINE
  5
5EA
100
AcDbEntity
  8
IMPORT_IGES
100
AcDbLine
 62
7
  6
CONTINUOUS
 10
-11.4542483003
 20
1.2693027757
 11
-11.193831733
 21
1.3756857603
  0
LINE
  5
5EB
100
AcDbEntity
  8
IMPORT_IGES
100
AcDbLine
 62
7
  6
CONTINUOUS
 10
-7.7042483003
 20
2.6522814646
 11
-7.5479983003
 21
2.7054729476
  0
LINE
  5
5EC
100
AcDbEntity
  8
IMPORT_IGES
100
AcDbLine
 62
7
  6
CONTINUOUS
 10
-2.4242483003
 20
-2.9434631751
 11
2.5757516997
 21
-2.9434631751
  0
LINE
  5
5ED
100
AcDbEntity
  8
IMPORT_IGES
100
AcDbLine
 62
7
  6
CONTINUOUS
 10
-11.975081733
 20
1.1097283126
 11
-12.0792483003
 21
1.1629198003
  0
LINE
  5
5EE
100
AcDbEntity
  8
IMPORT_IGES
100
AcDbLine
 62
7
  6
CONTINUOUS
 10
-11.975081733
 20
1.3756857603
 11
-11.7667483003
 21
1.2693027757
  0
LINE
  5
5EF
100
AcDbEntity
  8
IMPORT_IGES
100
AcDbLine
 62
7
  6
CONTINUOUS
 10
-11.037581733
 20
2.4395155325
 11
-11.1417483003
 21
2.4927070155
  0
LINE
  5
5F0
100
AcDbEntity
  8
IMPORT_IGES
100
AcDbLine
 62
7
  6
CONTINUOUS
 10
-9.7875814349
 20
1.1097283126
 11
-9.9438314349
 21
1.2161112926
  0
LINE
  5
5F1
100
AcDbEntity
  8
IMPORT_IGES
100
AcDbLine
 62
7
  6
CONTINUOUS
 10
-9.8396651656
 20
1.4820687264
 11
-9.6834151656
 21
1.3756857603
  0
LINE
  5
5F2
100
AcDbEntity
  8
IMPORT_IGES
100
AcDbLine
 62
7
  6
CONTINUOUS
 10
-11.037581733
 20
2.7054729476
 11
-10.881331733
 21
2.5990899816
  0
LINE
  5
5F3
100
AcDbEntity
  8
IMPORT_IGES
100
AcDbLine
 62
7
  6
CONTINUOUS
 10
-7.7042483003
 20
1.1629198003
 11
-7.8604983003
 21
1.2693027757
  0
LINE
  5
5F4
100
AcDbEntity
  8
IMPORT_IGES
100
AcDbLine
 62
7
  6
CONTINUOUS
 10
-8.9021651656
 20
2.3331325665
 11
-9.0584151656
 21
2.4395155325
  0
LINE
  5
5F5
100
AcDbEntity
  8
IMPORT_IGES
100
AcDbLine
 62
7
  6
CONTINUOUS
 10
13.0760604552
 20
-19.4437619434
 11
13.0757516997
 21
-19.4434631751
  0
LINE
  5
5F6
100
AcDbEntity
  8
IMPORT_IGES
100
AcDbLine
 62
7
  6
CONTINUOUS
 10
13.5757516997
 20
-19.9434631751
 11
13.0769916295
 21
-19.4446953815
  0
LINE
  5
5F7
100
AcDbEntity
  8
IMPORT_IGES
100
AcDbLine
 62
7
  6
CONTINUOUS
 10
-10.881331733
 20
2.5990899816
 11
-10.7771648676
 21
2.4927070155
  0
LINE
  5
5F8
100
AcDbEntity
  8
IMPORT_IGES
100
AcDbLine
 62
7
  6
CONTINUOUS
 10
-7.8604983003
 20
1.2693027757
 11
-7.9646651656
 21
1.3756857603
  0
LINE
  5
5F9
100
AcDbEntity
  8
IMPORT_IGES
100
AcDbLine
 62
7
  6
CONTINUOUS
 10
-8.9542483003
 20
2.6522814646
 11
-8.8500814349
 21
2.5458984985
  0
LINE
  5
5FA
100
AcDbEntity
  8
IMPORT_IGES
100
AcDbLine
 62
7
  6
CONTINUOUS
 10
-7.7563314349
 20
1.5352602466
 11
-7.6000814349
 21
1.3756857603
  0
LINE
  5
5FB
100
AcDbEntity
  8
IMPORT_IGES
100
AcDbLine
 62
7
  6
CONTINUOUS
 10
-6.6625814349
 20
2.5458984985
 11
-6.5063314349
 21
2.3331325665
  0
LINE
  5
5FC
100
AcDbEntity
  8
IMPORT_IGES
100
AcDbLine
 62
7
  6
CONTINUOUS
 10
-6.7146651656
 20
2.2267496004
 11
-6.8188314349
 21
2.3863240495
  0
LINE
  5
5FD
100
AcDbEntity
  8
IMPORT_IGES
100
AcDbLine
 62
7
  6
CONTINUOUS
 10
-6.5063314349
 20
2.3331325665
 11
-6.4542483003
 21
2.1203666344
  0
LWPOLYLINE
  5
5FE
100
AcDbEntity
  8
IMPORT_IGES
100
AcDbPolyline
 62
7
  6
CONTINUOUS
 90
7
 70
0
 10
-2.1245694851
 20
-23.5118822045
 10
-2.1245584631
 20
-23.5138821154
 10
-2.1245304375
 20
-23.5158793193
 10
-2.1244854085
 20
-23.5178738161
 10
-2.1244233759
 20
-23.5198656058
 10
-2.1243443399
 20
-23.5218546885
 10
-2.1242483003
 20
-23.5238410641
  0
LINE
  5
5FF
100
AcDbEntity
  8
IMPORT_IGES
100
AcDbLine
 62
7
  6
CONTINUOUS
 10
-2.600082031
 20
2.7586644306
 11
-2.600082031
 21
2.4927070155
  0
LINE
  5
600
100
AcDbEntity
  8
IMPORT_IGES
100
AcDbLine
 62
7
  6
CONTINUOUS
 10
-2.600082031
 20
2.2799410834
 11
-2.600082031
 21
1.0565368249
  0
LINE
  5
601
100
AcDbEntity
  8
IMPORT_IGES
100
AcDbLine
 62
7
  6
CONTINUOUS
 10
-2.4242483003
 20
-14.4234631751
 11
-2.4242483003
 21
-2.9434631751
  0
LINE
  5
602
100
AcDbEntity
  8
IMPORT_IGES
100
AcDbLine
 62
7
  6
CONTINUOUS
 10
-2.1242483003
 20
-24.1434631751
 11
-2.1242483003
 21
-23.5238410641
  0
LINE
  5
603
100
AcDbEntity
  8
IMPORT_IGES
100
AcDbLine
 62
7
  6
CONTINUOUS
 10
-2.1242483003
 20
-23.4994006678
 11
-2.1242483003
 21
-23.1234631751
  0
LINE
  5
604
100
AcDbEntity
  8
IMPORT_IGES
100
AcDbLine
 62
7
  6
CONTINUOUS
 10
-1.9242483003
 20
-30.7434631751
 11
-1.9242483003
 21
-24.1434631751
  0
LINE
  5
605
100
AcDbEntity
  8
IMPORT_IGES
100
AcDbLine
 62
7
  6
CONTINUOUS
 10
-1.662582031
 20
1.0565368249
 11
-1.662582031
 21
2.0671751514
  0
LINE
  5
606
100
AcDbEntity
  8
IMPORT_IGES
100
AcDbLine
 62
7
  6
CONTINUOUS
 10
-1.4021645696
 20
2.0671751514
 11
-1.4021645696
 21
1.0565368249
  0
LINE
  5
607
100
AcDbEntity
  8
IMPORT_IGES
100
AcDbLine
 62
253
  6
CONTINUOUS
 10
0.0757525069
 20
-27.0325504636
 11
0.0757335674
 21
-26.553218589
  0
LWPOLYLINE
  5
608
100
AcDbEntity
  8
IMPORT_IGES
100
AcDbPolyline
 62
7
  6
CONTINUOUS
 90
7
 70
0
 10
-2.1242483003
 20
-23.4994006678
 10
-2.1243485903
 20
-23.5014955835
 10
-2.1244301767
 20
-23.5035846354
 10
-2.1244930593
 20
-23.5056678234
 10
-2.1245372383
 20
-23.5077451476
 10
-2.1245627136
 20
-23.509816608
 10
-2.1245694851
 20
-23.5118822045
  0
LINE
  5
609
100
AcDbEntity
  8
IMPORT_IGES
100
AcDbLine
 62
7
  6
CONTINUOUS
 10
1.5665854304
 20
2.9714305117
 11
1.6707516997
 21
3.1841964438
  0
LINE
  5
60A
100
AcDbEntity
  8
IMPORT_IGES
100
AcDbLine
 62
7
  6
CONTINUOUS
 10
1.9832516997
 20
3.0778134778
 11
1.8790854304
 21
2.9182388797
  0
LINE
  5
60B
100
AcDbEntity
  8
IMPORT_IGES
100
AcDbLine
 62
7
  6
CONTINUOUS
 10
1.6707516997
 20
3.1841964438
 11
1.8790854304
 21
3.3969623759
  0
LINE
  5
60C
100
AcDbEntity
  8
IMPORT_IGES
100
AcDbLine
 62
7
  6
CONTINUOUS
 10
2.1395016997
 20
3.1841964438
 11
1.9832516997
 21
3.0778134778
  0
LINE
  5
60D
100
AcDbEntity
  8
IMPORT_IGES
100
AcDbLine
 62
7
  6
CONTINUOUS
 10
4.2228354304
 20
2.5458984985
 11
4.3790854304
 21
2.6522814646
  0
LINE
  5
60E
100
AcDbEntity
  8
IMPORT_IGES
100
AcDbLine
 62
7
  6
CONTINUOUS
 10
1.8790854304
 20
3.3969623759
 11
2.087417969
 21
3.5033453419
  0
LINE
  5
60F
100
AcDbEntity
  8
IMPORT_IGES
100
AcDbLine
 62
7
  6
CONTINUOUS
 10
4.587417969
 20
2.4927070155
 11
4.4832516997
 21
2.4395155325
  0
LINE
  5
610
100
AcDbEntity
  8
IMPORT_IGES
100
AcDbLine
 62
7
  6
CONTINUOUS
 10
4.3790854304
 20
2.6522814646
 11
4.5353354304
 21
2.7054729476
  0
LINE
  5
611
100
AcDbEntity
  8
IMPORT_IGES
100
AcDbLine
 62
7
  6
CONTINUOUS
 10
6.5665842383
 20
2.6522814646
 11
6.7228342383
 21
2.7054729476
  0
LINE
  5
612
100
AcDbEntity
  8
IMPORT_IGES
100
AcDbLine
 62
7
  6
CONTINUOUS
 10
7.7645016997
 20
2.7054729476
 11
7.9207516997
 21
2.7586644306
  0
LINE
  5
613
100
AcDbEntity
  8
IMPORT_IGES
100
AcDbLine
 62
7
  6
CONTINUOUS
 10
7.9207516997
 20
2.5458984985
 11
7.7645016997
 21
2.4927070155
  0
LINE
  5
614
100
AcDbEntity
  8
IMPORT_IGES
100
AcDbLine
 62
7
  6
CONTINUOUS
 10
8.5978342383
 20
2.7054729476
 11
8.7540842383
 21
2.7586644306
  0
LINE
  5
615
100
AcDbEntity
  8
IMPORT_IGES
100
AcDbLine
 62
7
  6
CONTINUOUS
 10
10.4728342383
 20
1.9607921108
 11
10.2645016997
 21
1.9076006278
  0
LINE
  5
616
100
AcDbEntity
  8
IMPORT_IGES
100
AcDbLine
 62
7
  6
CONTINUOUS
 10
12.5561691611
 20
2.5458984985
 11
12.3478342383
 21
2.4927070155
  0
LINE
  5
617
100
AcDbEntity
  8
IMPORT_IGES
100
AcDbLine
 62
7
  6
CONTINUOUS
 10
12.3478342383
 20
2.7054729476
 11
12.5561691611
 21
2.7586644306
  0
LINE
  5
618
100
AcDbEntity
  8
IMPORT_IGES
100
AcDbLine
 62
7
  6
CONTINUOUS
 10
10.3686691611
 20
2.5458984985
 11
10.1603342383
 21
2.4927070155
  0
LINE
  5
619
100
AcDbEntity
  8
IMPORT_IGES
100
AcDbLine
 62
7
  6
CONTINUOUS
 10
10.8374191611
 20
1.1097283126
 11
10.5770016997
 21
1.0565368249
  0
LINE
  5
61A
100
AcDbEntity
  8
IMPORT_IGES
100
AcDbLine
 62
7
  6
CONTINUOUS
 10
3.0770016997
 20
1.1097283126
 11
2.8165854304
 21
1.0565368249
  0
LINE
  5
61B
100
AcDbEntity
  8
IMPORT_IGES
100
AcDbLine
 62
7
  6
CONTINUOUS
 10
10.1603342383
 20
2.1203666344
 11
10.4728342383
 21
2.1735581174
  0
LINE
  5
61C
100
AcDbEntity
  8
IMPORT_IGES
100
AcDbLine
 62
7
  6
CONTINUOUS
 10
5.2124191611
 20
1.1097283126
 11
4.8478342383
 21
1.0565368249
  0
LINE
  5
61D
100
AcDbEntity
  8
IMPORT_IGES
100
AcDbLine
 62
7
  6
CONTINUOUS
 10
14.3270016997
 20
0.2054730221
 11
14.0145016997
 21
0.2054730221
  0
LINE
  5
61E
100
AcDbEntity
  8
IMPORT_IGES
100
AcDbLine
 62
7
  6
CONTINUOUS
 10
-7.2354983003
 20
1.0565368249
 11
-7.5479983003
 21
1.1097283126
  0
LINE
  5
61F
100
AcDbEntity
  8
IMPORT_IGES
100
AcDbLine
 62
7
  6
CONTINUOUS
 10
-11.7667483003
 20
1.0565368249
 11
-11.975081733
 21
1.1097283126
  0
LINE
  5
620
100
AcDbEntity
  8
IMPORT_IGES
100
AcDbLine
 62
7
  6
CONTINUOUS
 10
-9.5792483003
 20
1.0565368249
 11
-9.7875814349
 21
1.1097283126
  0
LINE
  5
621
100
AcDbEntity
  8
IMPORT_IGES
100
AcDbLine
 62
7
  6
CONTINUOUS
 10
-9.6834151656
 20
1.3756857603
 11
-9.4750814349
 21
1.3224942773
  0
LINE
  5
622
100
AcDbEntity
  8
IMPORT_IGES
100
AcDbLine
 62
7
  6
CONTINUOUS
 10
-7.4959151656
 20
1.3224942773
 11
-7.2875814349
 21
1.2693027757
  0
LINE
  5
623
100
AcDbEntity
  8
IMPORT_IGES
100
AcDbLine
 62
7
  6
CONTINUOUS
 10
-11.1417483003
 20
2.4927070155
 11
-11.350081733
 21
2.5458984985
  0
LINE
  5
624
100
AcDbEntity
  8
IMPORT_IGES
100
AcDbLine
 62
7
  6
CONTINUOUS
 10
-9.0584151656
 20
2.4395155325
 11
-9.2667483003
 21
2.4927070155
  0
LINE
  5
625
100
AcDbEntity
  8
IMPORT_IGES
100
AcDbLine
 62
7
  6
CONTINUOUS
 10
-9.2667483003
 20
2.7586644306
 11
-9.0584151656
 21
2.7054729476
  0
LINE
  5
626
100
AcDbEntity
  8
IMPORT_IGES
100
AcDbLine
 62
7
  6
CONTINUOUS
 10
-7.5479983003
 20
1.1097283126
 11
-7.7042483003
 21
1.1629198003
  0
LINE
  5
627
100
AcDbEntity
  8
IMPORT_IGES
100
AcDbLine
 62
7
  6
CONTINUOUS
 10
-7.6000814349
 20
1.3756857603
 11
-7.4959151656
 21
1.3224942773
  0
LINE
  5
628
100
AcDbEntity
  8
IMPORT_IGES
100
AcDbLine
 62
7
  6
CONTINUOUS
 10
-9.0584151656
 20
2.7054729476
 11
-8.9542483003
 21
2.6522814646
  0
LINE
  5
629
100
AcDbEntity
  8
IMPORT_IGES
100
AcDbLine
 62
7
  6
CONTINUOUS
 10
-6.9229983003
 20
2.7054729476
 11
-6.6625814349
 21
2.5458984985
  0
LINE
  5
62A
100
AcDbEntity
  8
IMPORT_IGES
100
AcDbLine
 62
7
  6
CONTINUOUS
 10
-6.8188314349
 20
2.3863240495
 11
-6.9750814349
 21
2.4927070155
  0
LINE
  5
62B
100
AcDbEntity
  8
IMPORT_IGES
100
AcDbLine
 62
7
  6
CONTINUOUS
 10
-1.7146645696
 20
2.3331325665
 11
-1.818832031
 21
2.4395155325
  0
LINE
  5
62C
100
AcDbEntity
  8
IMPORT_IGES
100
AcDbLine
 62
7
  6
CONTINUOUS
 10
-1.506332031
 20
2.4927070155
 11
-1.4542483003
 21
2.3331325665
  0
LINE
  5
62D
100
AcDbEntity
  8
IMPORT_IGES
100
AcDbLine
 62
7
  6
CONTINUOUS
 10
-8.3816951139
 20
28.5982033327
 11
-8.4242483003
 21
28.8065368249
  0
LINE
  5
62E
100
AcDbEntity
  8
IMPORT_IGES
100
AcDbLine
 62
7
  6
CONTINUOUS
 10
-8.3816951139
 20
30.4315368249
 11
-8.4242483003
 21
30.6398703172
  0
LINE
  5
62F
100
AcDbEntity
  8
IMPORT_IGES
100
AcDbLine
 62
7
  6
CONTINUOUS
 10
-7.3604185207
 20
25.4732035711
 11
-7.3178653342
 21
25.2648700788
  0
LINE
  5
630
100
AcDbEntity
  8
IMPORT_IGES
100
AcDbLine
 62
7
  6
CONTINUOUS
 10
-7.6582908256
 20
28.5982033327
 11
-7.700844012
 21
28.8065368249
  0
LINE
  5
631
100
AcDbEntity
  8
IMPORT_IGES
100
AcDbLine
 62
7
  6
CONTINUOUS
 10
-7.6582908256
 20
30.4315368249
 11
-7.700844012
 21
30.6398703172
  0
LINE
  5
632
100
AcDbEntity
  8
IMPORT_IGES
100
AcDbLine
 62
7
  6
CONTINUOUS
 10
-6.4668014904
 20
29.2232033327
 11
-6.4242483003
 21
29.0148703172
  0
LINE
  5
633
100
AcDbEntity
  8
IMPORT_IGES
100
AcDbLine
 62
7
  6
CONTINUOUS
 10
-6.4668014904
 20
31.0565368249
 11
-6.4242483003
 21
30.8482033327
  0
LINE
  5
634
100
AcDbEntity
  8
IMPORT_IGES
100
AcDbLine
 62
7
  6
CONTINUOUS
 10
-1.662582031
 20
2.0671751514
 11
-1.7146645696
 21
2.3331325665
  0
LINE
  5
635
100
AcDbEntity
  8
IMPORT_IGES
100
AcDbLine
 62
7
  6
CONTINUOUS
 10
-1.4542483003
 20
2.3331325665
 11
-1.4021645696
 21
2.0671751514
  0
LWPOLYLINE
  5
636
100
AcDbEntity
  8
IMPORT_IGES
100
AcDbPolyline
 62
7
  6
CONTINUOUS
 90
23
 70
0
 10
2.2766222658
 20
-23.0786510995
 10
2.2756211732
 20
-23.0576368609
 10
2.2729220216
 20
-23.0370631038
 10
2.2685248108
 20
-23.0169298283
 10
2.2623569015
 20
-22.9970847713
 10
2.254490933
 20
-22.9776801958
 10
2.2451448238
 20
-22.9591728909
 10
2.2343840761
 20
-22.9416418047
 10
2.2221431876
 20
-22.925007989
 10
2.208443569
 20
-22.9094913879
 10
2.1932448333
 20
-22.8950654275
 10
2.1765873676
 20
-22.8817566817
 10
2.1586137434
 20
-22.8698648167
 10
2.1392202696
 20
-22.8593459539
 10
2.1185106375
 20
-22.8502439719
 10
2.0969384924
 20
-22.8429901729
 10
2.0745313423
 20
-22.8375885487
 10
2.0512616793
 20
-22.8340351075
 10
2.0275006243
 20
-22.8327491754
 10
2.0032387498
 20
-22.8337418611
 10
1.9784854833
 20
-22.8370020559
 10
1.953640229
 20
-22.8429157602
 10
1.9353861131
 20
-22.8489770345
  0
LINE
  5
637
100
AcDbEntity
  8
IMPORT_IGES
100
AcDbLine
 62
7
  6
CONTINUOUS
 10
1.5145016997
 20
1.9076006278
 11
1.5145016997
 21
2.7054729476
  0
LINE
  5
638
100
AcDbEntity
  8
IMPORT_IGES
100
AcDbLine
 62
7
  6
CONTINUOUS
 10
1.8270016997
 20
2.7054729476
 11
1.8270016997
 21
1.9076006278
  0
LINE
  5
639
100
AcDbEntity
  8
IMPORT_IGES
100
AcDbLine
 62
7
  6
CONTINUOUS
 10
2.0757516997
 20
-24.1434631751
 11
2.0757516997
 21
-30.7434631751
  0
LINE
  5
63A
100
AcDbEntity
  8
IMPORT_IGES
100
AcDbLine
 62
7
  6
CONTINUOUS
 10
2.2757516997
 20
-23.1234631751
 11
2.2757516997
 21
-24.1434631751
  0
LINE
  5
63B
100
AcDbEntity
  8
IMPORT_IGES
100
AcDbLine
 62
7
  6
CONTINUOUS
 10
2.5757516997
 20
-2.9434631751
 11
2.5757516997
 21
-14.4234631751
  0
LINE
  5
63C
100
AcDbEntity
  8
IMPORT_IGES
100
AcDbLine
 62
7
  6
CONTINUOUS
 10
2.7645016997
 20
2.1203666344
 11
2.7645016997
 21
2.4395155325
  0
LINE
  5
63D
100
AcDbEntity
  8
IMPORT_IGES
100
AcDbLine
 62
7
  6
CONTINUOUS
 10
3.0757516997
 20
-35.9434631751
 11
3.0757516997
 21
-39.7934631751
  0
LINE
  5
63E
100
AcDbEntity
  8
IMPORT_IGES
100
AcDbLine
 62
7
  6
CONTINUOUS
 10
3.2332516997
 20
1.6948346957
 11
3.2332516997
 21
2.1203666344
  0
LINE
  5
63F
100
AcDbEntity
  8
IMPORT_IGES
100
AcDbLine
 62
7
  6
CONTINUOUS
 10
3.5457516997
 20
2.4395155325
 11
3.5457516997
 21
1.6416432127
  0
LINE
  5
640
100
AcDbEntity
  8
IMPORT_IGES
100
AcDbLine
 62
7
  6
CONTINUOUS
 10
3.962417969
 20
1.9076006278
 11
4.0145016997
 21
2.2267496004
  0
LINE
  5
641
100
AcDbEntity
  8
IMPORT_IGES
100
AcDbLine
 62
7
  6
CONTINUOUS
 10
1.5145016997
 20
2.7054729476
 11
1.5665854304
 21
2.9714305117
  0
LINE
  5
642
100
AcDbEntity
  8
IMPORT_IGES
100
AcDbLine
 62
7
  6
CONTINUOUS
 10
1.8790854304
 20
2.9182388797
 11
1.8270016997
 21
2.7054729476
  0
LINE
  5
643
100
AcDbEntity
  8
IMPORT_IGES
100
AcDbLine
 62
7
  6
CONTINUOUS
 10
3.5457516997
 20
1.6416432127
 11
3.493667969
 21
1.4288772433
  0
LINE
  5
644
100
AcDbEntity
  8
IMPORT_IGES
100
AcDbLine
 62
7
  6
CONTINUOUS
 10
3.181167969
 20
1.5352602466
 11
3.2332516997
 21
1.6948346957
  0
LINE
  5
645
100
AcDbEntity
  8
IMPORT_IGES
100
AcDbLine
 62
7
  6
CONTINUOUS
 10
4.0145016997
 20
2.2267496004
 11
4.118667969
 21
2.4395155325
  0
LINE
  5
646
100
AcDbEntity
  8
IMPORT_IGES
100
AcDbLine
 62
7
  6
CONTINUOUS
 10
4.3270016997
 20
2.2799410834
 11
4.274917969
 21
2.1735581174
  0
LINE
  5
647
100
AcDbEntity
  8
IMPORT_IGES
100
AcDbLine
 62
7
  6
CONTINUOUS
 10
4.118667969
 20
2.4395155325
 11
4.2228354304
 21
2.5458984985
  0
LINE
  5
648
100
AcDbEntity
  8
IMPORT_IGES
100
AcDbLine
 62
7
  6
CONTINUOUS
 10
4.4832516997
 20
2.4395155325
 11
4.3270016997
 21
2.2799410834
  0
LINE
  5
649
100
AcDbEntity
  8
IMPORT_IGES
100
AcDbLine
 62
7
  6
CONTINUOUS
 10
3.493667969
 20
1.4288772433
 11
3.2853354304
 21
1.2161112926
  0
LINE
  5
64A
100
AcDbEntity
  8
IMPORT_IGES
100
AcDbLine
 62
7
  6
CONTINUOUS
 10
6.3061691611
 20
2.4395155325
 11
6.4103342383
 21
2.5458984985
  0
LINE
  5
64B
100
AcDbEntity
  8
IMPORT_IGES
100
AcDbLine
 62
7
  6
CONTINUOUS
 10
5.5770016997
 20
1.3756857603
 11
5.4207516997
 21
1.2161112926
  0
LINE
  5
64C
100
AcDbEntity
  8
IMPORT_IGES
100
AcDbLine
 62
7
  6
CONTINUOUS
 10
3.024917969
 20
1.4288772433
 11
3.181167969
 21
1.5352602466
  0
LINE
  5
64D
100
AcDbEntity
  8
IMPORT_IGES
100
AcDbLine
 62
7
  6
CONTINUOUS
 10
6.4103342383
 20
2.5458984985
 11
6.5665842383
 21
2.6522814646
  0
LINE
  5
64E
100
AcDbEntity
  8
IMPORT_IGES
100
AcDbLine
 62
7
  6
CONTINUOUS
 10
5.1603342383
 20
1.3224942773
 11
5.3165842383
 21
1.4288772433
  0
LINE
  5
64F
100
AcDbEntity
  8
IMPORT_IGES
100
AcDbLine
 62
7
  6
CONTINUOUS
 10
3.2853354304
 20
1.2161112926
 11
3.0770016997
 21
1.1097283126
  0
LINE
  5
650
100
AcDbEntity
  8
IMPORT_IGES
100
AcDbLine
 62
7
  6
CONTINUOUS
 10
6.6707516997
 20
2.4395155325
 11
6.4624191611
 21
2.3331325665
  0
LINE
  5
651
100
AcDbEntity
  8
IMPORT_IGES
100
AcDbLine
 62
7
  6
CONTINUOUS
 10
5.4207516997
 20
1.2161112926
 11
5.2124191611
 21
1.1097283126
  0
LINE
  5
652
100
AcDbEntity
  8
IMPORT_IGES
100
AcDbLine
 62
7
  6
CONTINUOUS
 10
8.7020016997
 20
2.5458984985
 11
8.5978342383
 21
2.4927070155
  0
LINE
  5
653
100
AcDbEntity
  8
IMPORT_IGES
100
AcDbLine
 62
7
  6
CONTINUOUS
 10
9.8999191611
 20
2.6522814646
 11
10.0040842383
 21
2.7054729476
  0
LINE
  5
654
100
AcDbEntity
  8
IMPORT_IGES
100
AcDbLine
 62
7
  6
CONTINUOUS
 10
10.1603342383
 20
2.4927070155
 11
10.0561691611
 21
2.4395155325
  0
LINE
  5
655
100
AcDbEntity
  8
IMPORT_IGES
100
AcDbLine
 62
7
  6
CONTINUOUS
 10
9.9520016997
 20
2.0139836683
 11
10.1603342383
 21
2.1203666344
  0
LINE
  5
656
100
AcDbEntity
  8
IMPORT_IGES
100
AcDbLine
 62
7
  6
CONTINUOUS
 10
10.2645016997
 20
1.9076006278
 11
10.1603342383
 21
1.8544091448
  0
LINE
  5
657
100
AcDbEntity
  8
IMPORT_IGES
100
AcDbLine
 62
7
  6
CONTINUOUS
 10
10.5770016997
 20
1.2693027757
 11
10.8374191611
 21
1.3756857603
  0
LINE
  5
658
100
AcDbEntity
  8
IMPORT_IGES
100
AcDbLine
 62
7
  6
CONTINUOUS
 10
2.8165854304
 20
1.3756857603
 11
3.024917969
 21
1.4288772433
  0
LINE
  5
659
100
AcDbEntity
  8
IMPORT_IGES
100
AcDbLine
 62
7
  6
CONTINUOUS
 10
4.7957516997
 20
2.5458984985
 11
4.587417969
 21
2.4927070155
  0
LINE
  5
65A
100
AcDbEntity
  8
IMPORT_IGES
100
AcDbLine
 62
7
  6
CONTINUOUS
 10
2.3478354304
 20
3.2373879268
 11
2.1395016997
 21
3.1841964438
  0
LINE
  5
65B
100
AcDbEntity
  8
IMPORT_IGES
100
AcDbLine
 62
7
  6
CONTINUOUS
 10
-2.131332031
 20
2.5458984985
 11
-2.3396645696
 21
2.4927070155
  0
LINE
  5
65C
100
AcDbEntity
  8
IMPORT_IGES
100
AcDbLine
 62
7
  6
CONTINUOUS
 10
-2.3396645696
 20
2.7054729476
 11
-2.131332031
 21
2.7586644306
  0
LINE
  5
65D
100
AcDbEntity
  8
IMPORT_IGES
100
AcDbLine
 62
7
  6
CONTINUOUS
 10
-9.0584151656
 20
1.1097283126
 11
-9.2667483003
 21
1.0565368249
  0
LINE
  5
65E
100
AcDbEntity
  8
IMPORT_IGES
100
AcDbLine
 62
7
  6
CONTINUOUS
 10
-9.2667483003
 20
1.3224942773
 11
-9.0584151656
 21
1.3756857603
  0
LINE
  5
65F
100
AcDbEntity
  8
IMPORT_IGES
100
AcDbLine
 62
7
  6
CONTINUOUS
 10
6.7228342383
 20
2.7054729476
 11
6.9832516997
 21
2.7586644306
  0
LINE
  5
660
100
AcDbEntity
  8
IMPORT_IGES
100
AcDbLine
 62
7
  6
CONTINUOUS
 10
2.087417969
 20
3.5033453419
 11
2.3478354304
 21
3.5565368249
  0
LINE
  5
661
100
AcDbEntity
  8
IMPORT_IGES
100
AcDbLine
 62
7
  6
CONTINUOUS
 10
-11.193831733
 20
1.1097283126
 11
-11.4542483003
 21
1.0565368249
  0
LINE
  5
662
100
AcDbEntity
  8
IMPORT_IGES
100
AcDbLine
 62
7
  6
CONTINUOUS
 10
6.9832516997
 20
2.4927070155
 11
6.6707516997
 21
2.4395155325
  0
LINE
  5
663
100
AcDbEntity
  8
IMPORT_IGES
100
AcDbLine
 62
7
  6
CONTINUOUS
 10
4.5353354304
 20
2.7054729476
 11
4.8478342383
 21
2.7586644306
  0
LINE
  5
664
100
AcDbEntity
  8
IMPORT_IGES
100
AcDbLine
 62
7
  6
CONTINUOUS
 10
4.7957516997
 20
1.2693027757
 11
5.1603342383
 21
1.3224942773
  0
LINE
  5
665
100
AcDbEntity
  8
IMPORT_IGES
100
AcDbLine
 62
7
  6
CONTINUOUS
 10
10.0040842383
 20
2.7054729476
 11
10.3686691611
 21
2.7586644306
  0
LINE
  5
666
100
AcDbEntity
  8
IMPORT_IGES
100
AcDbLine
 62
7
  6
CONTINUOUS
 10
-6.8709151656
 20
1.1097283126
 11
-7.2354983003
 21
1.0565368249
  0
LINE
  5
667
100
AcDbEntity
  8
IMPORT_IGES
100
AcDbLine
 62
7
  6
CONTINUOUS
 10
-7.2875814349
 20
1.2693027757
 11
-6.9229983003
 21
1.3224942773
  0
LINE
  5
668
100
AcDbEntity
  8
IMPORT_IGES
100
AcDbLine
 62
7
  6
CONTINUOUS
 10
13.2853342383
 20
1.0565368249
 11
13.0249191611
 21
1.0565368249
  0
LINE
  5
669
100
AcDbEntity
  8
IMPORT_IGES
100
AcDbLine
 62
7
  6
CONTINUOUS
 10
12.0874191611
 20
1.0565368249
 11
11.8270016997
 21
1.0565368249
  0
LINE
  5
66A
100
AcDbEntity
  8
IMPORT_IGES
100
AcDbLine
 62
7
  6
CONTINUOUS
 10
11.4103342383
 20
1.0565368249
 11
11.1499191611
 21
1.0565368249
  0
LINE
  5
66B
100
AcDbEntity
  8
IMPORT_IGES
100
AcDbLine
 62
7
  6
CONTINUOUS
 10
10.5770016997
 20
1.0565368249
 11
10.2645016997
 21
1.0565368249
  0
LINE
  5
66C
100
AcDbEntity
  8
IMPORT_IGES
100
AcDbLine
 62
7
  6
CONTINUOUS
 10
9.3270016997
 20
1.0565368249
 11
9.0665842383
 21
1.0565368249
  0
LINE
  5
66D
100
AcDbEntity
  8
IMPORT_IGES
100
AcDbLine
 62
7
  6
CONTINUOUS
 10
8.4936691611
 20
1.0565368249
 11
8.2332516997
 21
1.0565368249
  0
LINE
  5
66E
100
AcDbEntity
  8
IMPORT_IGES
100
AcDbLine
 62
7
  6
CONTINUOUS
 10
7.6603342383
 20
1.0565368249
 11
7.3999191611
 21
1.0565368249
  0
LINE
  5
66F
100
AcDbEntity
  8
IMPORT_IGES
100
AcDbLine
 62
7
  6
CONTINUOUS
 10
6.3061691611
 20
1.0565368249
 11
6.0457516997
 21
1.0565368249
  0
LINE
  5
670
100
AcDbEntity
  8
IMPORT_IGES
100
AcDbLine
 62
7
  6
CONTINUOUS
 10
2.8165854304
 20
1.0565368249
 11
2.3478354304
 21
1.0565368249
  0
LINE
  5
671
100
AcDbEntity
  8
IMPORT_IGES
100
AcDbLine
 62
7
  6
CONTINUOUS
 10
-1.4021645696
 20
1.0565368249
 11
-1.662582031
 21
1.0565368249
  0
LINE
  5
672
100
AcDbEntity
  8
IMPORT_IGES
100
AcDbLine
 62
7
  6
CONTINUOUS
 10
-2.600082031
 20
1.0565368249
 11
-2.8604983003
 21
1.0565368249
  0
LINE
  5
673
100
AcDbEntity
  8
IMPORT_IGES
100
AcDbLine
 62
7
  6
CONTINUOUS
 10
-3.2771645696
 20
1.0565368249
 11
-3.537582031
 21
1.0565368249
  0
LINE
  5
674
100
AcDbEntity
  8
IMPORT_IGES
100
AcDbLine
 62
7
  6
CONTINUOUS
 10
-8.5375814349
 20
1.0565368249
 11
-8.7979983003
 21
1.0565368249
  0
LINE
  5
675
100
AcDbEntity
  8
IMPORT_IGES
100
AcDbLine
 62
7
  6
CONTINUOUS
 10
-9.2667483003
 20
1.0565368249
 11
-9.5792483003
 21
1.0565368249
  0
LINE
  5
676
100
AcDbEntity
  8
IMPORT_IGES
100
AcDbLine
 62
7
  6
CONTINUOUS
 10
-10.6209148676
 20
1.0565368249
 11
-10.881331733
 21
1.0565368249
  0
LINE
  5
677
100
AcDbEntity
  8
IMPORT_IGES
100
AcDbLine
 62
7
  6
CONTINUOUS
 10
-11.4542483003
 20
1.0565368249
 11
-11.7667483003
 21
1.0565368249
  0
LINE
  5
678
100
AcDbEntity
  8
IMPORT_IGES
100
AcDbLine
 62
7
  6
CONTINUOUS
 10
-12.7042483003
 20
1.0565368249
 11
-13.0167483003
 21
1.0565368249
  0
LINE
  5
679
100
AcDbEntity
  8
IMPORT_IGES
100
AcDbLine
 62
7
  6
CONTINUOUS
 10
-13.7459150166
 20
1.0565368249
 11
-14.1625816585
 21
1.0565368249
  0
LINE
  5
67A
100
AcDbEntity
  8
IMPORT_IGES
100
AcDbLine
 62
7
  6
CONTINUOUS
 10
-14.8917483003
 20
1.0565368249
 11
-15.2042483003
 21
1.0565368249
  0
LINE
  5
67B
100
AcDbEntity
  8
IMPORT_IGES
100
AcDbLine
 62
7
  6
CONTINUOUS
 10
10.5770016997
 20
1.2693027757
 11
10.2645016997
 21
1.2693027757
  0
LINE
  5
67C
100
AcDbEntity
  8
IMPORT_IGES
100
AcDbLine
 62
7
  6
CONTINUOUS
 10
-11.4542483003
 20
1.2693027757
 11
-11.7667483003
 21
1.2693027757
  0
LINE
  5
67D
100
AcDbEntity
  8
IMPORT_IGES
100
AcDbLine
 62
7
  6
CONTINUOUS
 10
-9.2667483003
 20
1.3224942773
 11
-9.4750814349
 21
1.3224942773
  0
LINE
  5
67E
100
AcDbEntity
  8
IMPORT_IGES
100
AcDbLine
 62
7
  6
CONTINUOUS
 10
2.3478354304
 20
1.3756857603
 11
2.8165854304
 21
1.3756857603
  0
LINE
  5
67F
100
AcDbEntity
  8
IMPORT_IGES
100
AcDbLine
 62
7
  6
CONTINUOUS
 10
-6.7146651656
 20
1.5884517297
 11
-6.4542483003
 21
1.5884517297
  0
LINE
  5
680
100
AcDbEntity
  8
IMPORT_IGES
100
AcDbLine
 62
7
  6
CONTINUOUS
 10
5.3686691611
 20
1.5884517297
 11
5.6290842383
 21
1.5884517297
  0
LINE
  5
681
100
AcDbEntity
  8
IMPORT_IGES
100
AcDbLine
 62
7
  6
CONTINUOUS
 10
5.6290842383
 20
1.9076006278
 11
4.2228354304
 21
1.9076006278
  0
LINE
  5
682
100
AcDbEntity
  8
IMPORT_IGES
100
AcDbLine
 62
7
  6
CONTINUOUS
 10
-6.4542483003
 20
1.9076006278
 11
-7.8604983003
 21
1.9076006278
  0
LINE
  5
683
100
AcDbEntity
  8
IMPORT_IGES
100
AcDbLine
 62
7
  6
CONTINUOUS
 10
-11.5584148676
 20
1.9607921108
 11
-10.9854983003
 21
1.9607921108
  0
LINE
  5
684
100
AcDbEntity
  8
IMPORT_IGES
100
AcDbLine
 62
7
  6
CONTINUOUS
 10
10.4728342383
 20
1.9607921108
 11
11.0457516997
 21
1.9607921108
  0
LINE
  5
685
100
AcDbEntity
  8
IMPORT_IGES
100
AcDbLine
 62
7
  6
CONTINUOUS
 10
5.3686691611
 20
2.1203666344
 11
4.274917969
 21
2.1203666344
  0
LINE
  5
686
100
AcDbEntity
  8
IMPORT_IGES
100
AcDbLine
 62
7
  6
CONTINUOUS
 10
3.2332516997
 20
2.1203666344
 11
2.7645016997
 21
2.1203666344
  0
LINE
  5
687
100
AcDbEntity
  8
IMPORT_IGES
100
AcDbLine
 62
7
  6
CONTINUOUS
 10
-6.7146651656
 20
2.1203666344
 11
-7.8084151656
 21
2.1203666344
  0
LINE
  5
688
100
AcDbEntity
  8
IMPORT_IGES
100
AcDbLine
 62
7
  6
CONTINUOUS
 10
-11.5584148676
 20
2.1735581174
 11
-10.9854983003
 21
2.1735581174
  0
LINE
  5
689
100
AcDbEntity
  8
IMPORT_IGES
100
AcDbLine
 62
7
  6
CONTINUOUS
 10
10.4728342383
 20
2.1735581174
 11
11.0457516997
 21
2.1735581174
  0
LINE
  5
68A
100
AcDbEntity
  8
IMPORT_IGES
100
AcDbLine
 62
7
  6
CONTINUOUS
 10
10.0040842383
 20
2.3331325665
 11
9.7436691611
 21
2.3331325665
  0
LINE
  5
68B
100
AcDbEntity
  8
IMPORT_IGES
100
AcDbLine
 62
7
  6
CONTINUOUS
 10
-12.0271648676
 20
2.3331325665
 11
-12.287581733
 21
2.3331325665
  0
LINE
  5
68C
100
AcDbEntity
  8
IMPORT_IGES
100
AcDbLine
 62
7
  6
CONTINUOUS
 10
2.7645016997
 20
2.4395155325
 11
3.5457516997
 21
2.4395155325
  0
LINE
  5
68D
100
AcDbEntity
  8
IMPORT_IGES
100
AcDbLine
 62
7
  6
CONTINUOUS
 10
-9.5792483003
 20
2.4927070155
 11
-9.2667483003
 21
2.4927070155
  0
LINE
  5
68E
100
AcDbEntity
  8
IMPORT_IGES
100
AcDbLine
 62
7
  6
CONTINUOUS
 10
10.6811691611
 20
2.5458984985
 11
10.3686691611
 21
2.5458984985
  0
LINE
  5
68F
100
AcDbEntity
  8
IMPORT_IGES
100
AcDbLine
 62
7
  6
CONTINUOUS
 10
8.8582516997
 20
2.5458984985
 11
8.7020016997
 21
2.5458984985
  0
LINE
  5
690
100
AcDbEntity
  8
IMPORT_IGES
100
AcDbLine
 62
7
  6
CONTINUOUS
 10
8.0249191611
 20
2.5458984985
 11
7.9207516997
 21
2.5458984985
  0
LINE
  5
691
100
AcDbEntity
  8
IMPORT_IGES
100
AcDbLine
 62
7
  6
CONTINUOUS
 10
-11.350081733
 20
2.5458984985
 11
-11.662581733
 21
2.5458984985
  0
LINE
  5
692
100
AcDbEntity
  8
IMPORT_IGES
100
AcDbLine
 62
7
  6
CONTINUOUS
 10
-11.662581733
 20
2.7586644306
 11
-11.350081733
 21
2.7586644306
  0
LINE
  5
693
100
AcDbEntity
  8
IMPORT_IGES
100
AcDbLine
 62
7
  6
CONTINUOUS
 10
-9.5792483003
 20
2.7586644306
 11
-9.2667483003
 21
2.7586644306
  0
LINE
  5
694
100
AcDbEntity
  8
IMPORT_IGES
100
AcDbLine
 62
7
  6
CONTINUOUS
 10
-3.537582031
 20
2.7586644306
 11
-3.2771645696
 21
2.7586644306
  0
LINE
  5
695
100
AcDbEntity
  8
IMPORT_IGES
100
AcDbLine
 62
7
  6
CONTINUOUS
 10
-2.8604983003
 20
2.7586644306
 11
-2.600082031
 21
2.7586644306
  0
LINE
  5
696
100
AcDbEntity
  8
IMPORT_IGES
100
AcDbLine
 62
7
  6
CONTINUOUS
 10
-2.131332031
 20
2.7586644306
 11
-1.9229983003
 21
2.7586644306
  0
LINE
  5
697
100
AcDbEntity
  8
IMPORT_IGES
100
AcDbLine
 62
7
  6
CONTINUOUS
 10
6.0457516997
 20
2.7586644306
 11
6.3061691611
 21
2.7586644306
  0
LINE
  5
698
100
AcDbEntity
  8
IMPORT_IGES
100
AcDbLine
 62
7
  6
CONTINUOUS
 10
7.3999191611
 20
2.7586644306
 11
7.6603342383
 21
2.7586644306
  0
LINE
  5
699
100
AcDbEntity
  8
IMPORT_IGES
100
AcDbLine
 62
7
  6
CONTINUOUS
 10
7.9207516997
 20
2.7586644306
 11
8.1290842383
 21
2.7586644306
  0
LINE
  5
69A
100
AcDbEntity
  8
IMPORT_IGES
100
AcDbLine
 62
7
  6
CONTINUOUS
 10
8.7540842383
 20
2.7586644306
 11
8.9624191611
 21
2.7586644306
  0
LINE
  5
69B
100
AcDbEntity
  8
IMPORT_IGES
100
AcDbLine
 62
7
  6
CONTINUOUS
 10
10.3686691611
 20
2.7586644306
 11
10.6811691611
 21
2.7586644306
  0
LINE
  5
69C
100
AcDbEntity
  8
IMPORT_IGES
100
AcDbLine
 62
7
  6
CONTINUOUS
 10
11.8270016997
 20
2.7586644306
 11
12.0874191611
 21
2.7586644306
  0
LINE
  5
69D
100
AcDbEntity
  8
IMPORT_IGES
100
AcDbLine
 62
7
  6
CONTINUOUS
 10
12.5561691611
 20
2.7586644306
 11
12.7645016997
 21
2.7586644306
  0
LINE
  5
69E
100
AcDbEntity
  8
IMPORT_IGES
100
AcDbLine
 62
7
  6
CONTINUOUS
 10
13.7020016997
 20
2.7586644306
 11
14.0145016997
 21
2.7586644306
  0
LINE
  5
69F
100
AcDbEntity
  8
IMPORT_IGES
100
AcDbLine
 62
7
  6
CONTINUOUS
 10
15.0561691611
 20
2.7586644306
 11
15.3686691611
 21
2.7586644306
  0
LINE
  5
6A0
100
AcDbEntity
  8
IMPORT_IGES
100
AcDbLine
 62
7
  6
CONTINUOUS
 10
3.5457516997
 20
2.9182388797
 11
3.2332516997
 21
2.9182388797
  0
LINE
  5
6A1
100
AcDbEntity
  8
IMPORT_IGES
100
AcDbLine
 62
7
  6
CONTINUOUS
 10
2.8165854304
 20
3.2373879268
 11
2.3478354304
 21
3.2373879268
  0
LINE
  5
6A2
100
AcDbEntity
  8
IMPORT_IGES
100
AcDbLine
 62
7
  6
CONTINUOUS
 10
-3.2771645696
 20
3.2905794098
 11
-3.537582031
 21
3.2905794098
  0
LINE
  5
6A3
100
AcDbEntity
  8
IMPORT_IGES
100
AcDbLine
 62
7
  6
CONTINUOUS
 10
-15.2042483003
 20
3.5565368249
 11
-14.7354983003
 21
3.5565368249
  0
LINE
  5
6A4
100
AcDbEntity
  8
IMPORT_IGES
100
AcDbLine
 62
7
  6
CONTINUOUS
 10
-13.1729983003
 20
3.5565368249
 11
-12.7042483003
 21
3.5565368249
  0
LINE
  5
6A5
100
AcDbEntity
  8
IMPORT_IGES
100
AcDbLine
 62
7
  6
CONTINUOUS
 10
-8.7979983003
 20
3.5565368249
 11
-8.5375814349
 21
3.5565368249
  0
LINE
  5
6A6
100
AcDbEntity
  8
IMPORT_IGES
100
AcDbLine
 62
7
  6
CONTINUOUS
 10
-3.537582031
 20
3.5565368249
 11
-3.2771645696
 21
3.5565368249
  0
LINE
  5
6A7
100
AcDbEntity
  8
IMPORT_IGES
100
AcDbLine
 62
7
  6
CONTINUOUS
 10
2.3478354304
 20
3.5565368249
 11
2.8165854304
 21
3.5565368249
  0
LINE
  5
6A8
100
AcDbEntity
  8
IMPORT_IGES
100
AcDbLine
 62
7
  6
CONTINUOUS
 10
-11.350081733
 20
2.7586644306
 11
-11.037581733
 21
2.7054729476
  0
LINE
  5
6A9
100
AcDbEntity
  8
IMPORT_IGES
100
AcDbLine
 62
7
  6
CONTINUOUS
 10
-6.9750814349
 20
2.4927070155
 11
-7.2875814349
 21
2.5458984985
  0
LINE
  5
6AA
100
AcDbEntity
  8
IMPORT_IGES
100
AcDbLine
 62
7
  6
CONTINUOUS
 10
-7.2354983003
 20
2.7586644306
 11
-6.9229983003
 21
2.7054729476
  0
LINE
  5
6AB
100
AcDbEntity
  8
IMPORT_IGES
100
AcDbLine
 62
7
  6
CONTINUOUS
 10
4.8478342383
 20
1.0565368249
 11
4.5353354304
 21
1.1097283126
  0
LINE
  5
6AC
100
AcDbEntity
  8
IMPORT_IGES
100
AcDbLine
 62
7
  6
CONTINUOUS
 10
5.1082516997
 20
2.4927070155
 11
4.7957516997
 21
2.5458984985
  0
LINE
  5
6AD
100
AcDbEntity
  8
IMPORT_IGES
100
AcDbLine
 62
7
  6
CONTINUOUS
 10
4.8478342383
 20
2.7586644306
 11
5.1603342383
 21
2.7054729476
  0
LINE
  5
6AE
100
AcDbEntity
  8
IMPORT_IGES
100
AcDbLine
 62
7
  6
CONTINUOUS
 10
2.3478354304
 20
1.0565368249
 11
2.087417969
 21
1.1097283126
  0
LINE
  5
6AF
100
AcDbEntity
  8
IMPORT_IGES
100
AcDbLine
 62
7
  6
CONTINUOUS
 10
2.1395016997
 20
1.4288772433
 11
2.3478354304
 21
1.3756857603
  0
LINE
  5
6B0
100
AcDbEntity
  8
IMPORT_IGES
100
AcDbLine
 62
7
  6
CONTINUOUS
 10
-1.9229983003
 20
2.4927070155
 11
-2.131332031
 21
2.5458984985
  0
LINE
  5
6B1
100
AcDbEntity
  8
IMPORT_IGES
100
AcDbLine
 62
7
  6
CONTINUOUS
 10
4.587417969
 20
1.3224942773
 11
4.7957516997
 21
1.2693027757
  0
LINE
  5
6B2
100
AcDbEntity
  8
IMPORT_IGES
100
AcDbLine
 62
7
  6
CONTINUOUS
 10
10.2645016997
 20
1.0565368249
 11
10.0561691611
 21
1.1097283126
  0
LINE
  5
6B3
100
AcDbEntity
  8
IMPORT_IGES
100
AcDbLine
 62
7
  6
CONTINUOUS
 10
-1.9229983003
 20
2.7586644306
 11
-1.7667483003
 21
2.7054729476
  0
LINE
  5
6B4
100
AcDbEntity
  8
IMPORT_IGES
100
AcDbLine
 62
7
  6
CONTINUOUS
 10
4.5353354304
 20
1.1097283126
 11
4.3790854304
 21
1.1629198003
  0
LINE
  5
6B5
100
AcDbEntity
  8
IMPORT_IGES
100
AcDbLine
 62
7
  6
CONTINUOUS
 10
-1.818832031
 20
2.4395155325
 11
-1.9229983003
 21
2.4927070155
  0
LINE
  5
6B6
100
AcDbEntity
  8
IMPORT_IGES
100
AcDbLine
 62
7
  6
CONTINUOUS
 10
2.087417969
 20
1.1097283126
 11
1.8790854304
 21
1.2161112926
  0
LINE
  5
6B7
100
AcDbEntity
  8
IMPORT_IGES
100
AcDbLine
 62
7
  6
CONTINUOUS
 10
4.4832516997
 20
1.3756857603
 11
4.587417969
 21
1.3224942773
  0
LINE
  5
6B8
100
AcDbEntity
  8
IMPORT_IGES
100
AcDbLine
 62
7
  6
CONTINUOUS
 10
-1.7667483003
 20
2.7054729476
 11
-1.6104983003
 21
2.5990899816
  0
LINE
  5
6B9
100
AcDbEntity
  8
IMPORT_IGES
100
AcDbLine
 62
7
  6
CONTINUOUS
 10
1.9832516997
 20
1.5352602466
 11
2.1395016997
 21
1.4288772433
  0
LINE
  5
6BA
100
AcDbEntity
  8
IMPORT_IGES
100
AcDbLine
 62
7
  6
CONTINUOUS
 10
4.3790854304
 20
1.1629198003
 11
4.2228354304
 21
1.2693027757
  0
LINE
  5
6BB
100
AcDbEntity
  8
IMPORT_IGES
100
AcDbLine
 62
7
  6
CONTINUOUS
 10
-1.6104983003
 20
2.5990899816
 11
-1.506332031
 21
2.4927070155
  0
LINE
  5
6BC
100
AcDbEntity
  8
IMPORT_IGES
100
AcDbLine
 62
7
  6
CONTINUOUS
 10
1.8790854304
 20
1.2161112926
 11
1.6707516997
 21
1.4288772433
  0
LINE
  5
6BD
100
AcDbEntity
  8
IMPORT_IGES
100
AcDbLine
 62
7
  6
CONTINUOUS
 10
1.8790854304
 20
1.6948346957
 11
1.9832516997
 21
1.5352602466
  0
LINE
  5
6BE
100
AcDbEntity
  8
IMPORT_IGES
100
AcDbLine
 62
7
  6
CONTINUOUS
 10
1.6707516997
 20
1.4288772433
 11
1.5665854304
 21
1.6416432127
  0
LINE
  5
6BF
100
AcDbEntity
  8
IMPORT_IGES
100
AcDbLine
 62
7
  6
CONTINUOUS
 10
-7.5731844527
 20
25.3065368249
 11
-7.6157376392
 21
25.4315368249
  0
LINE
  5
6C0
100
AcDbEntity
  8
IMPORT_IGES
100
AcDbLine
 62
7
  6
CONTINUOUS
 10
-8.2114823682
 20
28.7648703172
 11
-8.1689291818
 21
28.6398703172
  0
LINE
  5
6C1
100
AcDbEntity
  8
IMPORT_IGES
100
AcDbLine
 62
7
  6
CONTINUOUS
 10
-8.2114823682
 20
30.5982033327
 11
-8.1689291818
 21
30.4732033327
  0
LINE
  5
6C2
100
AcDbEntity
  8
IMPORT_IGES
100
AcDbLine
 62
7
  6
CONTINUOUS
 10
-7.4880780799
 20
28.7648703172
 11
-7.4455248935
 21
28.6398703172
  0
LINE
  5
6C3
100
AcDbEntity
  8
IMPORT_IGES
100
AcDbLine
 62
7
  6
CONTINUOUS
 10
-7.4880780799
 20
30.5982033327
 11
-7.4455248935
 21
30.4732033327
  0
LINE
  5
6C4
100
AcDbEntity
  8
IMPORT_IGES
100
AcDbLine
 62
7
  6
CONTINUOUS
 10
-6.6370142622
 20
29.0565368249
 11
-6.6795674486
 21
29.1815368249
  0
LINE
  5
6C5
100
AcDbEntity
  8
IMPORT_IGES
100
AcDbLine
 62
7
  6
CONTINUOUS
 10
-6.6370142622
 20
30.8898703172
 11
-6.6795674486
 21
31.0148703172
  0
LINE
  5
6C6
100
AcDbEntity
  8
IMPORT_IGES
100
AcDbLine
 62
7
  6
CONTINUOUS
 10
1.8270016997
 20
1.9076006278
 11
1.8790854304
 21
1.6948346957
  0
LINE
  5
6C7
100
AcDbEntity
  8
IMPORT_IGES
100
AcDbLine
 62
7
  6
CONTINUOUS
 10
1.5665854304
 20
1.6416432127
 11
1.5145016997
 21
1.9076006278
  0
LINE
  5
6C8
100
AcDbEntity
  8
IMPORT_IGES
100
AcDbLine
 62
7
  6
CONTINUOUS
 10
4.2228354304
 20
1.9076006278
 11
4.2228354304
 21
1.8012176617
  0
LINE
  5
6C9
100
AcDbEntity
  8
IMPORT_IGES
100
AcDbLine
 62
7
  6
CONTINUOUS
 10
4.274917969
 20
2.1203666344
 11
4.274917969
 21
2.1735581174
  0
LINE
  5
6CA
100
AcDbEntity
  8
IMPORT_IGES
100
AcDbLine
 62
7
  6
CONTINUOUS
 10
5.0757516997
 20
-24.1434631751
 11
5.0757516997
 21
-14.4234631751
  0
LINE
  5
6CB
100
AcDbEntity
  8
IMPORT_IGES
100
AcDbLine
 62
7
  6
CONTINUOUS
 10
5.0757516997
 20
-35.9434631751
 11
5.0757516997
 21
-39.2934631751
  0
LINE
  5
6CC
100
AcDbEntity
  8
IMPORT_IGES
100
AcDbLine
 62
7
  6
CONTINUOUS
 10
5.2257516997
 20
-19.4434631751
 11
5.2257516997
 21
-24.1434631751
  0
LINE
  5
6CD
100
AcDbEntity
  8
IMPORT_IGES
100
AcDbLine
 62
7
  6
CONTINUOUS
 10
5.3686691611
 20
2.2267496004
 11
5.3686691611
 21
2.1203666344
  0
LINE
  5
6CE
100
AcDbEntity
  8
IMPORT_IGES
100
AcDbLine
 62
7
  6
CONTINUOUS
 10
5.6290842383
 20
2.1203666344
 11
5.6290842383
 21
1.9076006278
  0
LINE
  5
6CF
100
AcDbEntity
  8
IMPORT_IGES
100
AcDbLine
 62
7
  6
CONTINUOUS
 10
5.7757516997
 20
-16.4434631751
 11
5.7757516997
 21
-19.0496909556
  0
LINE
  5
6D0
100
AcDbEntity
  8
IMPORT_IGES
100
AcDbLine
 62
7
  6
CONTINUOUS
 10
5.7757516997
 20
-35.9434631751
 11
5.7757516997
 21
-39.3431655639
  0
LINE
  5
6D1
100
AcDbEntity
  8
IMPORT_IGES
100
AcDbLine
 62
7
  6
CONTINUOUS
 10
6.0457516997
 20
1.0565368249
 11
6.0457516997
 21
2.7586644306
  0
LINE
  5
6D2
100
AcDbEntity
  8
IMPORT_IGES
100
AcDbLine
 62
7
  6
CONTINUOUS
 10
6.3061691611
 20
2.7586644306
 11
6.3061691611
 21
2.4395155325
  0
LINE
  5
6D3
100
AcDbEntity
  8
IMPORT_IGES
100
AcDbLine
 62
7
  6
CONTINUOUS
 10
6.3061691611
 20
2.1203666344
 11
6.3061691611
 21
1.0565368249
  0
LINE
  5
6D4
100
AcDbEntity
  8
IMPORT_IGES
100
AcDbLine
 62
7
  6
CONTINUOUS
 10
6.4757516997
 20
-19.4434631751
 11
6.4757516997
 21
-19.0496909556
  0
LWPOLYLINE
  5
6D5
100
AcDbEntity
  8
IMPORT_IGES
100
AcDbPolyline
 62
7
  6
CONTINUOUS
 90
7
 70
0
 10
2.2740260488
 20
-23.1234631751
 10
2.2745593483
 20
-23.1161025498
 10
2.2750524091
 20
-23.108698703
 10
2.2755052313
 20
-23.1012516345
 10
2.2759178148
 20
-23.0937613445
 10
2.2762901596
 20
-23.0862278328
 10
2.2766222658
 20
-23.0786510995
  0
LINE
  5
6D6
100
AcDbEntity
  8
IMPORT_IGES
100
AcDbLine
 62
7
  6
CONTINUOUS
 10
5.6290842383
 20
1.5884517297
 11
5.5770016997
 21
1.3756857603
  0
LINE
  5
6D7
100
AcDbEntity
  8
IMPORT_IGES
100
AcDbLine
 62
7
  6
CONTINUOUS
 10
5.3165842383
 20
1.4288772433
 11
5.3686691611
 21
1.5884517297
  0
LINE
  5
6D8
100
AcDbEntity
  8
IMPORT_IGES
100
AcDbLine
 62
7
  6
CONTINUOUS
 10
8.5457516997
 20
2.4395155325
 11
8.4936691611
 21
2.3331325665
  0
LINE
  5
6D9
100
AcDbEntity
  8
IMPORT_IGES
100
AcDbLine
 62
7
  6
CONTINUOUS
 10
6.4624191611
 20
2.3331325665
 11
6.3061691611
 21
2.1203666344
  0
LINE
  5
6DA
100
AcDbEntity
  8
IMPORT_IGES
100
AcDbLine
 62
7
  6
CONTINUOUS
 10
7.6603342383
 20
2.5990899816
 11
7.7645016997
 21
2.7054729476
  0
LINE
  5
6DB
100
AcDbEntity
  8
IMPORT_IGES
100
AcDbLine
 62
7
  6
CONTINUOUS
 10
7.7645016997
 20
2.4927070155
 11
7.6603342383
 21
2.3863240495
  0
LINE
  5
6DC
100
AcDbEntity
  8
IMPORT_IGES
100
AcDbLine
 62
7
  6
CONTINUOUS
 10
8.4415842383
 20
2.5458984985
 11
8.5978342383
 21
2.7054729476
  0
LINE
  5
6DD
100
AcDbEntity
  8
IMPORT_IGES
100
AcDbLine
 62
7
  6
CONTINUOUS
 10
8.5978342383
 20
2.4927070155
 11
8.5457516997
 21
2.4395155325
  0
LINE
  5
6DE
100
AcDbEntity
  8
IMPORT_IGES
100
AcDbLine
 62
7
  6
CONTINUOUS
 10
9.7957516997
 20
2.5458984985
 11
9.8999191611
 21
2.6522814646
  0
LINE
  5
6DF
100
AcDbEntity
  8
IMPORT_IGES
100
AcDbLine
 62
7
  6
CONTINUOUS
 10
9.8478342383
 20
1.9076006278
 11
9.9520016997
 21
2.0139836683
  0
LINE
  5
6E0
100
AcDbEntity
  8
IMPORT_IGES
100
AcDbLine
 62
7
  6
CONTINUOUS
 10
10.1603342383
 20
1.8544091448
 11
10.0561691611
 21
1.7480261787
  0
LINE
  5
6E1
100
AcDbEntity
  8
IMPORT_IGES
100
AcDbLine
 62
7
  6
CONTINUOUS
 10
10.8374191611
 20
1.3756857603
 11
10.9936691611
 21
1.5352602466
  0
LINE
  5
6E2
100
AcDbEntity
  8
IMPORT_IGES
100
AcDbLine
 62
7
  6
CONTINUOUS
 10
-12.9254924351
 20
-19.4447000734
 11
-13.4242483003
 21
-19.9434631751
  0
LINE
  5
6E3
100
AcDbEntity
  8
IMPORT_IGES
100
AcDbLine
 62
7
  6
CONTINUOUS
 10
-12.9242483003
 20
-19.4434631751
 11
-12.9245581658
 21
-19.4437636599
  0
LINE
  5
6E4
100
AcDbEntity
  8
IMPORT_IGES
100
AcDbLine
 62
7
  6
CONTINUOUS
 10
12.1915842383
 20
2.5990899816
 11
12.3478342383
 21
2.7054729476
  0
LINE
  5
6E5
100
AcDbEntity
  8
IMPORT_IGES
100
AcDbLine
 62
7
  6
CONTINUOUS
 10
12.3478342383
 20
2.4927070155
 11
12.1915842383
 21
2.3863240495
  0
LINE
  5
6E6
100
AcDbEntity
  8
IMPORT_IGES
100
AcDbLine
 62
7
  6
CONTINUOUS
 10
10.9936691611
 20
1.2161112926
 11
10.8374191611
 21
1.1097283126
  0
LINE
  5
6E7
100
AcDbEntity
  8
IMPORT_IGES
100
AcDbLine
 62
7
  6
CONTINUOUS
 10
-7.2875814349
 20
2.5458984985
 11
-7.4959151656
 21
2.4927070155
  0
LINE
  5
6E8
100
AcDbEntity
  8
IMPORT_IGES
100
AcDbLine
 62
7
  6
CONTINUOUS
 10
-11.5584148676
 20
1.9607921108
 11
-11.7667483003
 21
1.9076006278
  0
LINE
  5
6E9
100
AcDbEntity
  8
IMPORT_IGES
100
AcDbLine
 62
7
  6
CONTINUOUS
 10
-9.7875814349
 20
2.7054729476
 11
-9.5792483003
 21
2.7586644306
  0
LINE
  5
6EA
100
AcDbEntity
  8
IMPORT_IGES
100
AcDbLine
 62
7
  6
CONTINUOUS
 10
-11.662581733
 20
2.5458984985
 11
-11.8709148676
 21
2.4927070155
  0
LINE
  5
6EB
100
AcDbEntity
  8
IMPORT_IGES
100
AcDbLine
 62
7
  6
CONTINUOUS
 10
-7.5479983003
 20
2.7054729476
 11
-7.2354983003
 21
2.7586644306
  0
LINE
  5
6EC
100
AcDbEntity
  8
IMPORT_IGES
100
AcDbLine
 62
7
  6
CONTINUOUS
 10
-11.8709148676
 20
2.1203666344
 11
-11.5584148676
 21
2.1735581174
  0
LINE
  5
6ED
100
AcDbEntity
  8
IMPORT_IGES
100
AcDbLine
 62
7
  6
CONTINUOUS
 10
-12.0271648676
 20
2.7054729476
 11
-11.662581733
 21
2.7586644306
  0
LINE
  5
6EE
100
AcDbEntity
  8
IMPORT_IGES
100
AcDbLine
 62
7
  6
CONTINUOUS
 10
10.6811691611
 20
2.7586644306
 11
10.9936691611
 21
2.7054729476
  0
LINE
  5
6EF
100
AcDbEntity
  8
IMPORT_IGES
100
AcDbLine
 62
7
  6
CONTINUOUS
 10
2.8165854304
 20
3.5565368249
 11
3.0770016997
 21
3.5033453419
  0
LINE
  5
6F0
100
AcDbEntity
  8
IMPORT_IGES
100
AcDbLine
 62
7
  6
CONTINUOUS
 10
3.024917969
 20
3.1841964438
 11
2.8165854304
 21
3.2373879268
  0
LINE
  5
6F1
100
AcDbEntity
  8
IMPORT_IGES
100
AcDbLine
 62
7
  6
CONTINUOUS
 10
10.8895016997
 20
2.4927070155
 11
10.6811691611
 21
2.5458984985
  0
LINE
  5
6F2
100
AcDbEntity
  8
IMPORT_IGES
100
AcDbLine
 62
7
  6
CONTINUOUS
 10
12.7645016997
 20
2.4927070155
 11
12.5561691611
 21
2.5458984985
  0
LINE
  5
6F3
100
AcDbEntity
  8
IMPORT_IGES
100
AcDbLine
 62
7
  6
CONTINUOUS
 10
8.1290842383
 20
2.7586644306
 11
8.2853342383
 21
2.7054729476
  0
LINE
  5
6F4
100
AcDbEntity
  8
IMPORT_IGES
100
AcDbLine
 62
7
  6
CONTINUOUS
 10
8.9624191611
 20
2.7586644306
 11
9.1186691611
 21
2.7054729476
  0
LINE
  5
6F5
100
AcDbEntity
  8
IMPORT_IGES
100
AcDbLine
 62
7
  6
CONTINUOUS
 10
12.7645016997
 20
2.7586644306
 11
12.9207516997
 21
2.7054729476
  0
LINE
  5
6F6
100
AcDbEntity
  8
IMPORT_IGES
100
AcDbLine
 62
7
  6
CONTINUOUS
 10
3.0770016997
 20
3.5033453419
 11
3.2853354304
 21
3.3969623759
  0
LINE
  5
6F7
100
AcDbEntity
  8
IMPORT_IGES
100
AcDbLine
 62
7
  6
CONTINUOUS
 10
10.0561691611
 20
1.1097283126
 11
9.9520016997
 21
1.1629198003
  0
LINE
  5
6F8
100
AcDbEntity
  8
IMPORT_IGES
100
AcDbLine
 62
7
  6
CONTINUOUS
 10
10.0561691611
 20
1.3756857603
 11
10.2645016997
 21
1.2693027757
  0
LINE
  5
6F9
100
AcDbEntity
  8
IMPORT_IGES
100
AcDbLine
 62
7
  6
CONTINUOUS
 10
8.1290842383
 20
2.4927070155
 11
8.0249191611
 21
2.5458984985
  0
LINE
  5
6FA
100
AcDbEntity
  8
IMPORT_IGES
100
AcDbLine
 62
7
  6
CONTINUOUS
 10
8.9624191611
 20
2.4927070155
 11
8.8582516997
 21
2.5458984985
  0
LINE
  5
6FB
100
AcDbEntity
  8
IMPORT_IGES
100
AcDbLine
 62
7
  6
CONTINUOUS
 10
5.1603342383
 20
2.7054729476
 11
5.4207516997
 21
2.5458984985
  0
LINE
  5
6FC
100
AcDbEntity
  8
IMPORT_IGES
100
AcDbLine
 62
7
  6
CONTINUOUS
 10
3.181167969
 20
3.0778134778
 11
3.024917969
 21
3.1841964438
  0
LINE
  5
6FD
100
AcDbEntity
  8
IMPORT_IGES
100
AcDbLine
 62
7
  6
CONTINUOUS
 10
5.2645016997
 20
2.3863240495
 11
5.1082516997
 21
2.4927070155
  0
LINE
  5
6FE
100
AcDbEntity
  8
IMPORT_IGES
100
AcDbLine
 62
7
  6
CONTINUOUS
 10
4.2228354304
 20
1.2693027757
 11
4.118667969
 21
1.3756857603
  0
LINE
  5
6FF
100
AcDbEntity
  8
IMPORT_IGES
100
AcDbLine
 62
7
  6
CONTINUOUS
 10
4.3270016997
 20
1.5352602466
 11
4.4832516997
 21
1.3756857603
  0
LINE
  5
700
100
AcDbEntity
  8
IMPORT_IGES
100
AcDbLine
 62
7
  6
CONTINUOUS
 10
3.2853354304
 20
3.3969623759
 11
3.493667969
 21
3.1841964438
  0
LINE
  5
701
100
AcDbEntity
  8
IMPORT_IGES
100
AcDbLine
 62
7
  6
CONTINUOUS
 10
5.4207516997
 20
2.5458984985
 11
5.5770016997
 21
2.3331325665
  0
LINE
  5
702
100
AcDbEntity
  8
IMPORT_IGES
100
AcDbLine
 62
7
  6
CONTINUOUS
 10
-13.0493571516
 20
30.9899431589
 11
-13.3072323033
 21
31.3767558865
  0
LINE
  5
703
100
AcDbEntity
  8
IMPORT_IGES
100
AcDbLine
 62
7
  6
CONTINUOUS
 10
-13.5651074551
 20
31.7635686142
 11
-13.8229826068
 21
32.1503813418
  0
LINE
  5
704
100
AcDbEntity
  8
IMPORT_IGES
100
AcDbLine
 62
7
  6
CONTINUOUS
 10
5.3686691611
 20
2.2267496004
 11
5.2645016997
 21
2.3863240495
  0
LINE
  5
705
100
AcDbEntity
  8
IMPORT_IGES
100
AcDbLine
 62
7
  6
CONTINUOUS
 10
-7.4455248935
 20
23.9315368249
 11
-7.0199929697
 21
23.1398701608
  0
LINE
  5
706
100
AcDbEntity
  8
IMPORT_IGES
100
AcDbLine
 62
7
  6
CONTINUOUS
 10
-7.147652529
 20
23.0565368249
 11
-7.4455248935
 21
23.6398701384
  0
LINE
  5
707
100
AcDbEntity
  8
IMPORT_IGES
100
AcDbLine
 62
7
  6
CONTINUOUS
 10
4.118667969
 20
1.3756857603
 11
4.0145016997
 21
1.5884517297
  0
LINE
  5
708
100
AcDbEntity
  8
IMPORT_IGES
100
AcDbLine
 62
7
  6
CONTINUOUS
 10
4.274917969
 20
1.6416432127
 11
4.3270016997
 21
1.5352602466
  0
LINE
  5
709
100
AcDbEntity
  8
IMPORT_IGES
100
AcDbLine
 62
7
  6
CONTINUOUS
 10
-7.5731844527
 20
35.5982038095
 11
-7.6157376392
 21
35.7232038095
  0
LINE
  5
70A
100
AcDbEntity
  8
IMPORT_IGES
100
AcDbLine
 62
7
  6
CONTINUOUS
 10
3.2332516997
 20
2.9182388797
 11
3.181167969
 21
3.0778134778
  0
LINE
  5
70B
100
AcDbEntity
  8
IMPORT_IGES
100
AcDbLine
 62
7
  6
CONTINUOUS
 10
4.2228354304
 20
1.8012176617
 11
4.274917969
 21
1.6416432127
  0
LINE
  5
70C
100
AcDbEntity
  8
IMPORT_IGES
100
AcDbLine
 62
7
  6
CONTINUOUS
 10
5.5770016997
 20
2.3331325665
 11
5.6290842383
 21
2.1203666344
  0
LINE
  5
70D
100
AcDbEntity
  8
IMPORT_IGES
100
AcDbLine
 62
7
  6
CONTINUOUS
 10
3.493667969
 20
3.1841964438
 11
3.5457516997
 21
2.9182388797
  0
LINE
  5
70E
100
AcDbEntity
  8
IMPORT_IGES
100
AcDbLine
 62
7
  6
CONTINUOUS
 10
4.0145016997
 20
1.5884517297
 11
3.962417969
 21
1.9076006278
  0
LINE
  5
70F
100
AcDbEntity
  8
IMPORT_IGES
100
AcDbLine
 62
7
  6
CONTINUOUS
 10
6.9832516997
 20
2.7586644306
 11
6.9832516997
 21
2.4927070155
  0
LINE
  5
710
100
AcDbEntity
  8
IMPORT_IGES
100
AcDbLine
 62
7
  6
CONTINUOUS
 10
7.3999191611
 20
1.0565368249
 11
7.3999191611
 21
2.7586644306
  0
LINE
  5
711
100
AcDbEntity
  8
IMPORT_IGES
100
AcDbLine
 62
7
  6
CONTINUOUS
 10
7.5757516997
 20
-35.9434631751
 11
7.5757516997
 21
-21.1434631751
  0
LINE
  5
712
100
AcDbEntity
  8
IMPORT_IGES
100
AcDbLine
 62
7
  6
CONTINUOUS
 10
7.6603342383
 20
2.7586644306
 11
7.6603342383
 21
2.5990899816
  0
LINE
  5
713
100
AcDbEntity
  8
IMPORT_IGES
100
AcDbLine
 62
7
  6
CONTINUOUS
 10
7.6603342383
 20
2.3863240495
 11
7.6603342383
 21
1.0565368249
  0
LINE
  5
714
100
AcDbEntity
  8
IMPORT_IGES
100
AcDbLine
 62
7
  6
CONTINUOUS
 10
8.2332516997
 20
1.0565368249
 11
8.2332516997
 21
2.3331325665
  0
LINE
  5
715
100
AcDbEntity
  8
IMPORT_IGES
100
AcDbLine
 62
7
  6
CONTINUOUS
 10
8.4936691611
 20
2.3331325665
 11
8.4936691611
 21
1.0565368249
  0
LINE
  5
716
100
AcDbEntity
  8
IMPORT_IGES
100
AcDbLine
 62
7
  6
CONTINUOUS
 10
9.0665842383
 20
1.0565368249
 11
9.0665842383
 21
2.3331325665
  0
LINE
  5
717
100
AcDbEntity
  8
IMPORT_IGES
100
AcDbLine
 62
7
  6
CONTINUOUS
 10
9.3270016997
 20
2.3331325665
 11
9.3270016997
 21
1.0565368249
  0
LINE
  5
718
100
AcDbEntity
  8
IMPORT_IGES
100
AcDbLine
 62
7
  6
CONTINUOUS
 10
9.3757516997
 20
-21.6434631751
 11
9.3757516997
 21
-35.9434631751
  0
LINE
  5
719
100
AcDbEntity
  8
IMPORT_IGES
100
AcDbLine
 62
7
  6
CONTINUOUS
 10
9.3757516997
 20
-39.3431655639
 11
9.3757516997
 21
-44.9434631751
  0
LINE
  5
71A
100
AcDbEntity
  8
IMPORT_IGES
100
AcDbLine
 62
7
  6
CONTINUOUS
 10
9.7436691611
 20
1.5352602466
 11
9.7436691611
 21
1.6948346957
  0
LINE
  5
71B
100
AcDbEntity
  8
IMPORT_IGES
100
AcDbLine
 62
7
  6
CONTINUOUS
 10
9.7436691611
 20
2.3331325665
 11
9.7436691611
 21
2.4395155325
  0
LINE
  5
71C
100
AcDbEntity
  8
IMPORT_IGES
100
AcDbLine
 62
7
  6
CONTINUOUS
 10
10.0040842383
 20
1.4820687264
 11
10.0040842383
 21
1.5884517297
  0
LINE
  5
71D
100
AcDbEntity
  8
IMPORT_IGES
100
AcDbLine
 62
7
  6
CONTINUOUS
 10
10.0757516997
 20
32.4569235315
 11
10.0757516997
 21
34.0565368249
  0
LINE
  5
71E
100
AcDbEntity
  8
IMPORT_IGES
100
AcDbLine
 62
7
  6
CONTINUOUS
 10
10.0561691611
 20
1.7480261787
 11
10.0040842383
 21
1.5884517297
  0
LINE
  5
71F
100
AcDbEntity
  8
IMPORT_IGES
100
AcDbLine
 62
7
  6
CONTINUOUS
 10
9.7436691611
 20
2.4395155325
 11
9.7957516997
 21
2.5458984985
  0
LINE
  5
720
100
AcDbEntity
  8
IMPORT_IGES
100
AcDbLine
 62
7
  6
CONTINUOUS
 10
10.0561691611
 20
2.4395155325
 11
10.0040842383
 21
2.3331325665
  0
LINE
  5
721
100
AcDbEntity
  8
IMPORT_IGES
100
AcDbLine
 62
7
  6
CONTINUOUS
 10
9.7436691611
 20
1.6948346957
 11
9.8478342383
 21
1.9076006278
  0
LINE
  5
722
100
AcDbEntity
  8
IMPORT_IGES
100
AcDbLine
 62
7
  6
CONTINUOUS
 10
10.9936691611
 20
1.5352602466
 11
11.0457516997
 21
1.6416432127
  0
LINE
  5
723
100
AcDbEntity
  8
IMPORT_IGES
100
AcDbLine
 62
7
  6
CONTINUOUS
 10
11.0457516997
 20
1.3224942773
 11
10.9936691611
 21
1.2161112926
  0
LINE
  5
724
100
AcDbEntity
  8
IMPORT_IGES
100
AcDbLine
 62
7
  6
CONTINUOUS
 10
12.0874191611
 20
2.4927070155
 11
12.1915842383
 21
2.5990899816
  0
LINE
  5
725
100
AcDbEntity
  8
IMPORT_IGES
100
AcDbLine
 62
7
  6
CONTINUOUS
 10
12.1915842383
 20
2.3863240495
 11
12.0874191611
 21
2.2799410834
  0
LINE
  5
726
100
AcDbEntity
  8
IMPORT_IGES
100
AcDbLine
 62
7
  6
CONTINUOUS
 10
-18.0242483003
 20
8.0565368249
 11
-18.0742483003
 21
8.0565368249
  0
LINE
  5
727
100
AcDbEntity
  8
IMPORT_IGES
100
AcDbLine
 62
7
  6
CONTINUOUS
 10
10.9936691611
 20
2.4395155325
 11
10.8895016997
 21
2.4927070155
  0
LINE
  5
728
100
AcDbEntity
  8
IMPORT_IGES
100
AcDbLine
 62
7
  6
CONTINUOUS
 10
12.8686691611
 20
2.4395155325
 11
12.7645016997
 21
2.4927070155
  0
LINE
  5
729
100
AcDbEntity
  8
IMPORT_IGES
100
AcDbLine
 62
7
  6
CONTINUOUS
 10
10.9936691611
 20
2.7054729476
 11
11.1499191611
 21
2.5990899816
  0
LINE
  5
72A
100
AcDbEntity
  8
IMPORT_IGES
100
AcDbLine
 62
7
  6
CONTINUOUS
 10
12.9207516997
 20
2.7054729476
 11
13.0770016997
 21
2.5990899816
  0
LINE
  5
72B
100
AcDbEntity
  8
IMPORT_IGES
100
AcDbLine
 62
7
  6
CONTINUOUS
 10
8.1811691611
 20
2.4395155325
 11
8.1290842383
 21
2.4927070155
  0
LINE
  5
72C
100
AcDbEntity
  8
IMPORT_IGES
100
AcDbLine
 62
7
  6
CONTINUOUS
 10
8.2853342383
 20
2.7054729476
 11
8.4415842383
 21
2.5458984985
  0
LINE
  5
72D
100
AcDbEntity
  8
IMPORT_IGES
100
AcDbLine
 62
7
  6
CONTINUOUS
 10
9.9520016997
 20
1.1629198003
 11
9.7957516997
 21
1.3224942773
  0
LINE
  5
72E
100
AcDbEntity
  8
IMPORT_IGES
100
AcDbLine
 62
7
  6
CONTINUOUS
 10
9.0145016997
 20
2.4395155325
 11
8.9624191611
 21
2.4927070155
  0
LINE
  5
72F
100
AcDbEntity
  8
IMPORT_IGES
100
AcDbLine
 62
7
  6
CONTINUOUS
 10
9.1186691611
 20
2.7054729476
 11
9.2228342383
 21
2.5990899816
  0
LINE
  5
730
100
AcDbEntity
  8
IMPORT_IGES
100
AcDbLine
 62
7
  6
CONTINUOUS
 10
11.1499191611
 20
2.5990899816
 11
11.2540842383
 21
2.4927070155
  0
LINE
  5
731
100
AcDbEntity
  8
IMPORT_IGES
100
AcDbLine
 62
7
  6
CONTINUOUS
 10
-7.4880780799
 20
25.6398700788
 11
-7.3604185207
 21
25.4732035711
  0
LINE
  5
732
100
AcDbEntity
  8
IMPORT_IGES
100
AcDbLine
 62
7
  6
CONTINUOUS
 10
-8.1689291818
 20
28.6398703172
 11
-8.083822809
 21
28.5148703172
  0
LINE
  5
733
100
AcDbEntity
  8
IMPORT_IGES
100
AcDbLine
 62
7
  6
CONTINUOUS
 10
-7.4880780799
 20
28.3482033327
 11
-7.6582908256
 21
28.5982033327
  0
LINE
  5
734
100
AcDbEntity
  8
IMPORT_IGES
100
AcDbLine
 62
7
  6
CONTINUOUS
 10
-7.4455248935
 20
28.6398703172
 11
-7.3604185207
 21
28.5148703172
  0
LINE
  5
735
100
AcDbEntity
  8
IMPORT_IGES
100
AcDbLine
 62
7
  6
CONTINUOUS
 10
-12.6109693936
 20
31.8409311597
 11
-12.8688445453
 21
32.2277438873
  0
LINE
  5
736
100
AcDbEntity
  8
IMPORT_IGES
100
AcDbLine
 62
7
  6
CONTINUOUS
 10
-8.2540355546
 20
28.3898703172
 11
-8.3816951139
 21
28.5982033327
  0
LINE
  5
737
100
AcDbEntity
  8
IMPORT_IGES
100
AcDbLine
 62
7
  6
CONTINUOUS
 10
-8.2540355546
 20
30.2232033327
 11
-8.3816951139
 21
30.4315368249
  0
LINE
  5
738
100
AcDbEntity
  8
IMPORT_IGES
100
AcDbLine
 62
7
  6
CONTINUOUS
 10
-6.5944610609
 20
29.4315368249
 11
-6.4668014904
 21
29.2232033327
  0
LINE
  5
739
100
AcDbEntity
  8
IMPORT_IGES
100
AcDbLine
 62
7
  6
CONTINUOUS
 10
-7.4880780799
 20
35.9315368249
 11
-7.4029717071
 21
35.7648698404
  0
LINE
  5
73A
100
AcDbEntity
  8
IMPORT_IGES
100
AcDbLine
 62
7
  6
CONTINUOUS
 10
-7.7433971984
 20
37.3482038095
 11
-7.4455248935
 21
36.7648698404
  0
LINE
  5
73B
100
AcDbEntity
  8
IMPORT_IGES
100
AcDbLine
 62
7
  6
CONTINUOUS
 10
8.2332516997
 20
2.3331325665
 11
8.1811691611
 21
2.4395155325
  0
LINE
  5
73C
100
AcDbEntity
  8
IMPORT_IGES
100
AcDbLine
 62
7
  6
CONTINUOUS
 10
9.0665842383
 20
2.3331325665
 11
9.0145016997
 21
2.4395155325
  0
LINE
  5
73D
100
AcDbEntity
  8
IMPORT_IGES
100
AcDbLine
 62
7
  6
CONTINUOUS
 10
10.0040842383
 20
1.4820687264
 11
10.0561691611
 21
1.3756857603
  0
LINE
  5
73E
100
AcDbEntity
  8
IMPORT_IGES
100
AcDbLine
 62
7
  6
CONTINUOUS
 10
9.2228342383
 20
2.5990899816
 11
9.3270016997
 21
2.3331325665
  0
LINE
  5
73F
100
AcDbEntity
  8
IMPORT_IGES
100
AcDbLine
 62
7
  6
CONTINUOUS
 10
9.7957516997
 20
1.3224942773
 11
9.7436691611
 21
1.5352602466
  0
LINE
  5
740
100
AcDbEntity
  8
IMPORT_IGES
100
AcDbLine
 62
7
  6
CONTINUOUS
 10
10.9057516997
 20
34.0565368249
 11
10.9057516997
 21
32.4569235315
  0
LINE
  5
741
100
AcDbEntity
  8
IMPORT_IGES
100
AcDbLine
 62
7
  6
CONTINUOUS
 10
11.0457516997
 20
1.9607921108
 11
11.0457516997
 21
1.6416432127
  0
LINE
  5
742
100
AcDbEntity
  8
IMPORT_IGES
100
AcDbLine
 62
7
  6
CONTINUOUS
 10
11.0457516997
 20
2.1735581174
 11
11.0457516997
 21
2.3331325665
  0
LINE
  5
743
100
AcDbEntity
  8
IMPORT_IGES
100
AcDbLine
 62
7
  6
CONTINUOUS
 10
11.3061691611
 20
2.3331325665
 11
11.3061691611
 21
1.4820687264
  0
LINE
  5
744
100
AcDbEntity
  8
IMPORT_IGES
100
AcDbLine
 62
253
  6
CONTINUOUS
 10
11.3757516997
 20
-43.4434631751
 11
11.3757516997
 21
-44.9434631751
  0
LINE
  5
745
100
AcDbEntity
  8
IMPORT_IGES
100
AcDbLine
 62
7
  6
CONTINUOUS
 10
11.8270016997
 20
1.0565368249
 11
11.8270016997
 21
2.7586644306
  0
LINE
  5
746
100
AcDbEntity
  8
IMPORT_IGES
100
AcDbLine
 62
7
  6
CONTINUOUS
 10
11.8757516997
 20
-44.4434631751
 11
11.8757516997
 21
-43.4434631751
  0
LINE
  5
747
100
AcDbEntity
  8
IMPORT_IGES
100
AcDbLine
 62
7
  6
CONTINUOUS
 10
12.0874191611
 20
2.7586644306
 11
12.0874191611
 21
2.4927070155
  0
LINE
  5
748
100
AcDbEntity
  8
IMPORT_IGES
100
AcDbLine
 62
7
  6
CONTINUOUS
 10
12.0874191611
 20
2.2799410834
 11
12.0874191611
 21
1.0565368249
  0
LINE
  5
749
100
AcDbEntity
  8
IMPORT_IGES
100
AcDbLine
 62
7
  6
CONTINUOUS
 10
13.0249191611
 20
1.0565368249
 11
13.0249191611
 21
2.0671751513
  0
LINE
  5
74A
100
AcDbEntity
  8
IMPORT_IGES
100
AcDbLine
 62
7
  6
CONTINUOUS
 10
13.0757516997
 20
17.6565368249
 11
13.0757516997
 21
15.1565368249
  0
LINE
  5
74B
100
AcDbEntity
  8
IMPORT_IGES
100
AcDbLine
 62
7
  6
CONTINUOUS
 10
13.0757516997
 20
-18.743463175
 11
13.0757516997
 21
-19.4434631751
  0
LINE
  5
74C
100
AcDbEntity
  8
IMPORT_IGES
100
AcDbLine
 62
7
  6
CONTINUOUS
 10
13.2853342383
 20
2.0671751514
 11
13.2853342383
 21
1.0565368249
  0
LINE
  5
74D
100
AcDbEntity
  8
IMPORT_IGES
100
AcDbLine
 62
7
  6
CONTINUOUS
 10
14.0145016997
 20
0.2054730221
 11
14.4311691611
 21
1.2693027757
  0
LINE
  5
74E
100
AcDbEntity
  8
IMPORT_IGES
100
AcDbLine
 62
7
  6
CONTINUOUS
 10
15.3686691611
 20
2.7586644306
 11
14.3270016997
 21
0.2054730221
  0
LINE
  5
74F
100
AcDbEntity
  8
IMPORT_IGES
100
AcDbLine
 62
7
  6
CONTINUOUS
 10
14.5874191611
 20
1.6416432127
 11
15.0561691611
 21
2.7586644306
  0
LINE
  5
750
100
AcDbEntity
  8
IMPORT_IGES
100
AcDbLine
 62
7
  6
CONTINUOUS
 10
-7.6157376392
 20
25.4315368249
 11
-7.700844012
 21
25.5148700788
  0
LINE
  5
751
100
AcDbEntity
  8
IMPORT_IGES
100
AcDbLine
 62
7
  6
CONTINUOUS
 10
12.9728342383
 20
2.3331325665
 11
12.8686691611
 21
2.4395155325
  0
LINE
  5
752
100
AcDbEntity
  8
IMPORT_IGES
100
AcDbLine
 62
7
  6
CONTINUOUS
 10
13.0770016997
 20
2.5990899816
 11
13.1811691611
 21
2.4927070155
  0
LINE
  5
753
100
AcDbEntity
  8
IMPORT_IGES
100
AcDbLine
 62
7
  6
CONTINUOUS
 10
-8.1689291818
 20
30.4732033327
 11
-8.083822809
 21
30.3482033327
  0
LINE
  5
754
100
AcDbEntity
  8
IMPORT_IGES
100
AcDbLine
 62
7
  6
CONTINUOUS
 10
-7.4880780799
 20
30.1815368249
 11
-7.6582908256
 21
30.4315368249
  0
LINE
  5
755
100
AcDbEntity
  8
IMPORT_IGES
100
AcDbLine
 62
7
  6
CONTINUOUS
 10
-6.6795674486
 20
29.1815368249
 11
-6.7646738214
 21
29.3065368249
  0
LINE
  5
756
100
AcDbEntity
  8
IMPORT_IGES
100
AcDbLine
 62
7
  6
CONTINUOUS
 10
-7.4455248935
 20
30.4732033327
 11
-7.3604185207
 21
30.3482033327
  0
LINE
  5
757
100
AcDbEntity
  8
IMPORT_IGES
100
AcDbLine
 62
7
  6
CONTINUOUS
 10
-6.6795674486
 20
31.0148703172
 11
-6.7646738214
 21
31.1398698404
  0
LINE
  5
758
100
AcDbEntity
  8
IMPORT_IGES
100
AcDbLine
 62
7
  6
CONTINUOUS
 10
-6.5944610609
 20
31.2648698404
 11
-6.4668014904
 21
31.0565368249
  0
LINE
  5
759
100
AcDbEntity
  8
IMPORT_IGES
100
AcDbLine
 62
7
  6
CONTINUOUS
 10
-7.4455248935
 20
36.4732038095
 11
-7.8710567577
 21
37.2648698404
  0
LINE
  5
75A
100
AcDbEntity
  8
IMPORT_IGES
100
AcDbLine
 62
7
  6
CONTINUOUS
 10
11.1499191611
 20
1.0565368249
 11
11.0978342383
 21
1.1629198003
  0
LINE
  5
75B
100
AcDbEntity
  8
IMPORT_IGES
100
AcDbLine
 62
7
  6
CONTINUOUS
 10
11.0457516997
 20
2.3331325665
 11
10.9936691611
 21
2.4395155325
  0
LINE
  5
75C
100
AcDbEntity
  8
IMPORT_IGES
100
AcDbLine
 62
7
  6
CONTINUOUS
 10
11.0978342383
 20
1.1629198003
 11
11.0457516997
 21
1.3224942773
  0
LINE
  5
75D
100
AcDbEntity
  8
IMPORT_IGES
100
AcDbLine
 62
7
  6
CONTINUOUS
 10
11.3582516997
 20
1.2161112926
 11
11.4103342383
 21
1.0565368249
  0
LINE
  5
75E
100
AcDbEntity
  8
IMPORT_IGES
100
AcDbLine
 62
7
  6
CONTINUOUS
 10
11.2540842383
 20
2.4927070155
 11
11.3061691611
 21
2.3331325665
  0
LINE
  5
75F
100
AcDbEntity
  8
IMPORT_IGES
100
AcDbLine
 62
7
  6
CONTINUOUS
 10
13.1811691611
 20
2.4927070155
 11
13.2332516997
 21
2.3331325665
  0
LINE
  5
760
100
AcDbEntity
  8
IMPORT_IGES
100
AcDbLine
 62
7
  6
CONTINUOUS
 10
11.3061691611
 20
1.4820687264
 11
11.3582516997
 21
1.2161112926
  0
LINE
  5
761
100
AcDbEntity
  8
IMPORT_IGES
100
AcDbLine
 62
7
  6
CONTINUOUS
 10
13.0249191611
 20
2.0671751513
 11
12.9728342383
 21
2.3331325665
  0
LINE
  5
762
100
AcDbEntity
  8
IMPORT_IGES
100
AcDbLine
 62
253
  6
CONTINUOUS
 10
13.5757516997
 20
-18.243463174
 11
13.5757516997
 21
-19.9434631751
  0
LINE
  5
763
100
AcDbEntity
  8
IMPORT_IGES
100
AcDbLine
 62
7
  6
CONTINUOUS
 10
15.8757516997
 20
44.5565368221
 11
15.8757516997
 21
19.8565368249
  0
LINE
  5
764
100
AcDbEntity
  8
IMPORT_IGES
100
AcDbLine
 62
7
  6
CONTINUOUS
 10
15.8757516997
 20
-21.6434631751
 11
15.8757516997
 21
-44.4434631733
  0
LINE
  5
765
100
AcDbEntity
  8
IMPORT_IGES
100
AcDbLine
 62
253
  6
CONTINUOUS
 10
16.3757516997
 20
-21.1434631751
 11
16.3757516997
 21
-44.9434631751
  0
LINE
  5
766
100
AcDbEntity
  8
IMPORT_IGES
100
AcDbLine
 62
253
  6
CONTINUOUS
 10
16.3757516997
 20
20.1565368249
 11
16.3757516997
 21
45.0565368249
  0
LWPOLYLINE
  5
767
100
AcDbEntity
  8
IMPORT_IGES
100
AcDbPolyline
 62
253
  6
CONTINUOUS
 90
19
 70
0
 10
13.0757516997
 20
-19.3838601305
 10
13.0776605406
 20
-19.3405608449
 10
13.0833688407
 20
-19.2976126572
 10
13.0928276213
 20
-19.2553424671
 10
13.1059581001
 20
-19.2140749027
 10
13.1226557905
 20
-19.1741186054
 10
13.1427945738
 20
-19.1357651869
 10
13.166219716
 20
-19.0993044371
 10
13.1927508624
 20
-19.0650128682
 10
13.2221912458
 20
-19.0331429123
 10
13.2543172976
 20
-19.0039366828
 10
13.288885045
 20
-18.9776160654
 10
13.3256400948
 20
-18.954376373
 10
13.3643037634
 20
-18.9343966483
 10
13.4045839475
 20
-18.9178305333
 10
13.446186672
 20
-18.9048032899
 10
13.4888007813
 20
-18.8954187145
 10
13.5320989915
 20
-18.889755101
 10
13.5757516997
 20
-18.8878611747
  0
LINE
  5
768
100
AcDbEntity
  8
IMPORT_IGES
100
AcDbLine
 62
253
  6
CONTINUOUS
 10
-18.0242483003
 20
13.9565368249
 11
-17.9242483003
 21
13.9565368249
  0
LINE
  5
769
100
AcDbEntity
  8
IMPORT_IGES
100
AcDbLine
 62
7
  6
CONTINUOUS
 10
-18.0742483003
 20
14.0565368249
 11
-18.0242483003
 21
14.0565368249
  0
LINE
  5
76A
100
AcDbEntity
  8
IMPORT_IGES
100
AcDbLine
 62
7
  6
CONTINUOUS
 10
-17.4242483003
 20
15.1565368249
 11
-12.9242483003
 21
15.1565368249
  0
LINE
  5
76B
100
AcDbEntity
  8
IMPORT_IGES
100
AcDbLine
 62
7
  6
CONTINUOUS
 10
13.0757516997
 20
15.1565368249
 11
17.5757516997
 21
15.1565368249
  0
LINE
  5
76C
100
AcDbEntity
  8
IMPORT_IGES
100
AcDbLine
 62
7
  6
CONTINUOUS
 10
-18.0242483003
 20
15.5565368249
 11
-17.9242483003
 21
15.5565368249
  0
LINE
  5
76D
100
AcDbEntity
  8
IMPORT_IGES
100
AcDbLine
 62
253
  6
CONTINUOUS
 10
13.0757516997
 20
15.6565368249
 11
18.0757516997
 21
15.6565368249
  0
LINE
  5
76E
100
AcDbEntity
  8
IMPORT_IGES
100
AcDbLine
 62
253
  6
CONTINUOUS
 10
-12.9242483003
 20
15.6565368249
 11
-17.9242483003
 21
15.6565368249
  0
LINE
  5
76F
100
AcDbEntity
  8
IMPORT_IGES
100
AcDbLine
 62
7
  6
CONTINUOUS
 10
-7.7433971984
 20
23.0565368249
 11
-7.8710567577
 21
23.1398701608
  0
LINE
  5
770
100
AcDbEntity
  8
IMPORT_IGES
100
AcDbLine
 62
7
  6
CONTINUOUS
 10
-7.6582908256
 20
25.7648700788
 11
-7.4880780799
 21
25.6398700788
  0
LINE
  5
771
100
AcDbEntity
  8
IMPORT_IGES
100
AcDbLine
 62
7
  6
CONTINUOUS
 10
-7.3604185207
 20
28.5148703172
 11
-7.2753121478
 21
28.4315368249
  0
LINE
  5
772
100
AcDbEntity
  8
IMPORT_IGES
100
AcDbLine
 62
7
  6
CONTINUOUS
 10
-7.3604185207
 20
30.3482033327
 11
-7.2753121478
 21
30.2648703172
  0
LINE
  5
773
100
AcDbEntity
  8
IMPORT_IGES
100
AcDbLine
 62
7
  6
CONTINUOUS
 10
14.0145016997
 20
2.7586644306
 11
14.5874191611
 21
1.6416432127
  0
LINE
  5
774
100
AcDbEntity
  8
IMPORT_IGES
100
AcDbLine
 62
7
  6
CONTINUOUS
 10
14.4311691611
 20
1.2693027757
 11
13.7020016997
 21
2.7586644306
  0
LINE
  5
775
100
AcDbEntity
  8
IMPORT_IGES
100
AcDbLine
 62
7
  6
CONTINUOUS
 10
13.2332516997
 20
2.3331325665
 11
13.2853342383
 21
2.0671751514
  0
LWPOLYLINE
  5
776
100
AcDbEntity
  8
IMPORT_IGES
100
AcDbPolyline
 62
253
  6
CONTINUOUS
 90
19
 70
0
 10
18.0757516997
 20
-19.3838601305
 10
18.0738493451
 20
-19.340634334
 10
18.0681567506
 20
-19.2977374231
 10
18.0587172236
 20
-19.2554958203
 10
18.0456029747
 20
-19.2142320282
 10
18.0289135831
 20
-19.174258912
 10
18.008774316
 20
-19.1358776882
 10
17.9853362634
 20
-19.0993789184
 10
17.9587780914
 20
-19.0650430773
 10
17.9293039359
 20
-19.0331347603
 10
17.8971384808
 20
-19.0038970403
 10
17.8625264667
 20
-18.977552229
 10
17.8257339157
 20
-18.9543022496
 10
17.7870430817
 20
-18.9343242047
 10
17.7467472111
 20
-18.9177683149
 10
17.705150405
 20
-18.9047590541
 10
17.6625682323
 20
-18.8953951917
 10
17.6193256462
 20
-18.8897482598
 10
17.5757516997
 20
-18.8878611747
  0
LINE
  5
777
100
AcDbEntity
  8
IMPORT_IGES
100
AcDbLine
 62
253
  6
CONTINUOUS
 10
17.5757516997
 20
-44.9434631751
 11
17.5757516997
 21
45.0565368249
  0
LINE
  5
778
100
AcDbEntity
  8
IMPORT_IGES
100
AcDbLine
 62
7
  6
CONTINUOUS
 10
18.0757516997
 20
-44.4434631714
 11
18.0757516997
 21
44.5565368249
  0
LINE
  5
779
100
AcDbEntity
  8
IMPORT_IGES
100
AcDbLine
 62
7
  6
CONTINUOUS
 10
-12.9242483003
 20
17.6565368249
 11
13.0757516997
 21
17.6565368249
  0
LINE
  5
77A
100
AcDbEntity
  8
IMPORT_IGES
100
AcDbLine
 62
7
  6
CONTINUOUS
 10
-16.024226535
 20
19.856536825
 11
16.1757299344
 21
19.856536825
  0
LINE
  5
77B
100
AcDbEntity
  8
IMPORT_IGES
100
AcDbLine
 62
7
  6
CONTINUOUS
 10
-8.083822809
 20
28.5148703172
 11
-7.9561632497
 21
28.4315368249
  0
LINE
  5
77C
100
AcDbEntity
  8
IMPORT_IGES
100
AcDbLine
 62
7
  6
CONTINUOUS
 10
-11.5365715128
 20
27.7556508435
 11
-12.2339080745
 21
28.2205418846
  0
LINE
  5
77D
100
AcDbEntity
  8
IMPORT_IGES
100
AcDbLine
 62
7
  6
CONTINUOUS
 10
-12.9301709842
 20
28.6847171578
 11
-14.2624440168
 21
29.5728991795
  0
LINE
  5
77E
100
AcDbEntity
  8
IMPORT_IGES
100
AcDbLine
 62
7
  6
CONTINUOUS
 10
-14.0045688651
 20
29.9597119072
 11
-12.6722958325
 21
29.0715298854
  0
LINE
  5
77F
100
AcDbEntity
  8
IMPORT_IGES
100
AcDbLine
 62
7
  6
CONTINUOUS
 10
-11.9760329227
 20
28.6073546123
 11
-11.278696361
 21
28.1424635711
  0
LINE
  5
780
100
AcDbEntity
  8
IMPORT_IGES
100
AcDbLine
 62
7
  6
CONTINUOUS
 10
-10.1566938209
 20
30.5916457838
 11
-10.8540303826
 21
31.0565368249
  0
LINE
  5
781
100
AcDbEntity
  8
IMPORT_IGES
100
AcDbLine
 62
7
  6
CONTINUOUS
 10
-8.083822809
 20
28.2648703172
 11
-8.2540355546
 21
28.3898703172
  0
LINE
  5
782
100
AcDbEntity
  8
IMPORT_IGES
100
AcDbLine
 62
7
  6
CONTINUOUS
 10
-8.083822809
 20
30.0982033327
 11
-8.2540355546
 21
30.2232033327
  0
LINE
  5
783
100
AcDbEntity
  8
IMPORT_IGES
100
AcDbLine
 62
7
  6
CONTINUOUS
 10
-6.7646738214
 20
29.5565368249
 11
-6.5944610609
 21
29.4315368249
  0
LWPOLYLINE
  5
784
100
AcDbEntity
  8
IMPORT_IGES
100
AcDbPolyline
 62
7
  6
CONTINUOUS
 90
20
 70
0
 10
-1.7962721126
 20
-24.7460229859
 10
-1.7965949474
 20
-24.7461499315
 10
-1.7962057556
 20
-24.7460099063
 10
-1.7939520391
 20
-24.7452517333
 10
-1.7902738591
 20
-24.7441087168
 10
-1.7852158655
 20
-24.7426476054
 10
-1.778680843
 20
-24.7408857896
 10
-1.7709282489
 20
-24.738926941
 10
-1.7619833815
 20
-24.7367994003
 10
-1.7517978432
 20
-24.734511067
 10
-1.7405253596
 20
-24.7321113982
 10
-1.7281805403
 20
-24.7296136857
 10
-1.7147340103
 20
-24.727021131
 10
-1.7002743401
 20
-24.7243580772
 10
-1.684807294
 20
-24.7216308309
 10
-1.6683172655
 20
-24.7188413922
 10
-1.6508617009
 20
-24.7160032774
 10
-1.6324433417
 20
-24.7131197411
 10
-1.6130537727
 20
-24.7101920154
 10
-1.5927351963
 20
-24.707228483
  0
LWPOLYLINE
  5
785
100
AcDbEntity
  8
IMPORT_IGES
100
AcDbPolyline
 62
7
  6
CONTINUOUS
 90
21
 70
0
 10
-1.7963899572
 20
-23.7461058533
 10
-1.7966744036
 20
-23.7462173272
 10
-1.7961461903
 20
-23.7460269441
 10
-1.7937744641
 20
-23.7452315172
 10
-1.7900159292
 20
-23.7440657038
 10
-1.7849255783
 20
-23.7425959041
 10
-1.7784033278
 20
-23.7408361865
 10
-1.7707001375
 20
-23.7388869645
 10
-1.7618456251
 20
-23.7367771283
 10
-1.7517796358
 20
-23.7345114756
 10
-1.7406180733
 20
-23.7321317012
 10
-1.7283661345
 20
-23.7296501269
 10
-1.7149974157
 20
-23.7270708948
 10
-1.7005772271
 20
-23.7244143321
 10
-1.6851058332
 20
-23.7216864401
 10
-1.6685666734
 20
-23.7188897012
 10
-1.6509963791
 20
-23.7160348508
 10
-1.6323926355
 20
-23.7131251706
 10
-1.6127416801
 20
-23.7101618523
 10
-1.5920601149
 20
-23.7071503097
 10
-1.5703394292
 20
-23.7040917878
  0
LWPOLYLINE
  5
786
100
AcDbEntity
  8
IMPORT_IGES
100
AcDbPolyline
 62
7
  6
CONTINUOUS
 90
21
 70
0
 10
1.9372870818
 20
-23.848123882
 10
1.9367755415
 20
-23.8483195957
 10
1.9340777973
 20
-23.8492930341
 10
1.929525355
 20
-23.8508110352
 10
1.9234485893
 20
-23.8526911641
 10
1.9158626959
 20
-23.8548804442
 10
1.9066856428
 20
-23.857360006
 10
1.8961270306
 20
-23.8600403378
 10
1.8841940576
 20
-23.8628965978
 10
1.8708297045
 20
-23.8659216829
 10
1.8561509557
 20
-23.8690722777
 10
1.8401577963
 20
-23.8723357753
 10
1.8228107509
 20
-23.8757086977
 10
1.8041681596
 20
-23.8791698972
 10
1.7842277557
 20
-23.8827119418
 10
1.7629564068
 20
-23.8863334501
 10
1.740362427
 20
-23.8900263778
 10
1.7164339206
 20
-23.8937868243
 10
1.6911444768
 20
-23.897613468
 10
1.6644750386
 20
-23.9015040873
 10
1.6364123976
 20
-23.905456628
  0
LINE
  5
787
100
AcDbEntity
  8
IMPORT_IGES
100
AcDbLine
 62
7
  6
CONTINUOUS
 10
1.9353358834
 20
-22.8488400403
 11
1.9337490022
 21
-22.8493967463
  0
LWPOLYLINE
  5
788
100
AcDbEntity
  8
IMPORT_IGES
100
AcDbPolyline
 62
7
  6
CONTINUOUS
 90
16
 70
0
 10
1.9337490022
 20
-22.8493967463
 10
1.9252280764
 20
-22.8521462938
 10
1.9126601589
 20
-22.8557627515
 10
1.8966534937
 20
-22.8599175746
 10
1.8773066234
 20
-22.8644918136
 10
1.8543230999
 20
-22.8694760308
 10
1.8282380576
 20
-22.8746967096
 10
1.799086521
 20
-22.8801136513
 10
1.7667437355
 20
-22.8857212433
 10
1.7315872183
 20
-22.8914367116
 10
1.6936712127
 20
-22.8972453049
 10
1.6530030817
 20
-22.9031414714
 10
1.6099692354
 20
-22.9090694883
 10
1.5646539111
 20
-22.9150223659
 10
1.517111774
 20
-22.9209976696
 10
1.4677443577
 20
-22.9269521495
  0
LINE
  5
789
100
AcDbEntity
  8
IMPORT_IGES
100
AcDbLine
 62
253
  6
CONTINUOUS
 10
2.2766222658
 20
-23.0786510995
 11
2.2443959191
 21
-23.0889299696
  0
LWPOLYLINE
  5
78A
100
AcDbEntity
  8
IMPORT_IGES
100
AcDbPolyline
 62
7
  6
CONTINUOUS
 90
18
 70
0
 10
-17.4678283667
 20
20.156414472
 10
-17.5110668315
 20
20.1560169811
 10
-17.5536350845
 20
20.1553507271
 10
-17.595207882
 20
20.1544348436
 10
-17.6354722631
 20
20.1532748009
 10
-17.6741291844
 20
20.1518620406
 10
-17.7108852645
 20
20.1502228177
 10
-17.7454620196
 20
20.1483770815
 10
-17.777602622
 20
20.1463115508
 10
-17.8070611916
 20
20.1440615335
 10
-17.8336145057
 20
20.1416565822
 10
-17.857066224
 20
20.1390785619
 10
-17.8772336565
 20
20.1363693113
 10
-17.8939606643
 20
20.1335662409
 10
-17.9071206254
 20
20.1306471885
 10
-17.9166056633
 20
20.1276343982
 10
-17.9223324716
 20
20.1245944725
 10
-17.9242483003
 20
20.1215734188
  0
LINE
  5
78B
100
AcDbEntity
  8
IMPORT_IGES
100
AcDbLine
 62
7
  6
CONTINUOUS
 10
-17.4678283667
 20
20.156414472
 11
-16.2242483003
 21
20.156536832
  0
LINE
  5
78C
100
AcDbEntity
  8
IMPORT_IGES
100
AcDbLine
 62
7
  6
CONTINUOUS
 10
-7.700844012
 20
25.5148700788
 11
-7.8285035712
 21
25.5565368249
  0
LINE
  5
78D
100
AcDbEntity
  8
IMPORT_IGES
100
AcDbLine
 62
7
  6
CONTINUOUS
 10
-7.7859503848
 20
25.8065368249
 11
-7.6582908256
 21
25.7648700788
  0
LINE
  5
78E
100
AcDbEntity
  8
IMPORT_IGES
100
AcDbLine
 62
7
  6
CONTINUOUS
 10
-8.2540355546
 20
26.9732035711
 11
-7.1050993426
 21
26.5982035711
  0
LINE
  5
78F
100
AcDbEntity
  8
IMPORT_IGES
100
AcDbLine
 62
7
  6
CONTINUOUS
 10
-6.9348865969
 20
26.5565368249
 11
-6.4242483003
 21
26.3898700788
  0
LINE
  5
790
100
AcDbEntity
  8
IMPORT_IGES
100
AcDbLine
 62
7
  6
CONTINUOUS
 10
-6.4242483003
 20
26.1398700788
 11
-8.4242483003
 21
26.8065368249
  0
LINE
  5
791
100
AcDbEntity
  8
IMPORT_IGES
100
AcDbLine
 62
7
  6
CONTINUOUS
 10
-6.7646738214
 20
29.3065368249
 11
-6.8923334105
 21
29.3898703172
  0
LINE
  5
792
100
AcDbEntity
  8
IMPORT_IGES
100
AcDbLine
 62
7
  6
CONTINUOUS
 10
-8.083822809
 20
30.3482033327
 11
-7.9561632497
 21
30.2648703172
  0
LINE
  5
793
100
AcDbEntity
  8
IMPORT_IGES
100
AcDbLine
 62
7
  6
CONTINUOUS
 10
-6.7646738214
 20
31.1398698404
 11
-6.8923334105
 21
31.2232038095
  0
LINE
  5
794
100
AcDbEntity
  8
IMPORT_IGES
100
AcDbLine
 62
7
  6
CONTINUOUS
 10
-6.7646738214
 20
31.3898698404
 11
-6.5944610609
 21
31.2648698404
  0
LINE
  5
795
100
AcDbEntity
  8
IMPORT_IGES
100
AcDbLine
 62
7
  6
CONTINUOUS
 10
-7.6157376392
 20
35.7232038095
 11
-7.700844012
 21
35.8065368249
  0
LWPOLYLINE
  5
796
100
AcDbEntity
  8
IMPORT_IGES
100
AcDbPolyline
 62
7
  6
CONTINUOUS
 90
20
 70
0
 10
-1.7962149107
 20
-27.7459732466
 10
-1.7966625159
 20
-27.7461531421
 10
-1.795029746
 20
-27.745593498
 10
-1.7920067549
 20
-27.7446255221
 10
-1.7876521095
 20
-27.7433266025
 10
-1.781890016
 20
-27.7417205515
 10
-1.7750125079
 20
-27.7399225037
 10
-1.7670714899
 20
-27.7379666437
 10
-1.7580042495
 20
-27.7358557183
 10
-1.7479447907
 20
-27.7336355383
 10
-1.7369077585
 20
-27.7313196059
 10
-1.7248639696
 20
-27.7289110858
 10
-1.7118758067
 20
-27.7264302151
 10
-1.6979467131
 20
-27.7238836782
 10
-1.6830576749
 20
-27.7212733925
 10
-1.66723513
 20
-27.7186081697
 10
-1.6504782459
 20
-27.7158911804
 10
-1.6327793713
 20
-27.7131241893
 10
-1.6141509596
 20
-27.7103117595
 10
-1.5945912974
 20
-27.7074558552
  0
LWPOLYLINE
  5
797
100
AcDbEntity
  8
IMPORT_IGES
100
AcDbPolyline
 62
7
  6
CONTINUOUS
 90
21
 70
0
 10
1.9376910346
 20
-25.8479032537
 10
1.9374007211
 20
-25.8480177852
 10
1.935429192
 20
-25.8487539441
 10
1.9317660566
 20
-25.8500218187
 10
1.9267377594
 20
-25.8516400014
 10
1.9203528543
 20
-25.8535600144
 10
1.9125430567
 20
-25.8557618471
 10
1.9035546676
 20
-25.8581458822
 10
1.8934279069
 20
-25.8606821219
 10
1.8821060627
 20
-25.8633675188
 10
1.8697014862
 20
-25.8661612706
 10
1.856225482
 20
-25.8690504679
 10
1.8416490082
 20
-25.8720318907
 10
1.8260205123
 20
-25.8750877854
 10
1.809341767
 20
-25.878212179
 10
1.7916032353
 20
-25.8814018628
 10
1.772835008
 20
-25.8846471883
 10
1.7530379257
 20
-25.8879445379
 10
1.7322029148
 20
-25.8912922508
 10
1.7103407045
 20
-25.8946857869
 10
1.6874497645
 20
-25.8981229453
  0
LWPOLYLINE
  5
798
100
AcDbEntity
  8
IMPORT_IGES
100
AcDbPolyline
 62
7
  6
CONTINUOUS
 90
20
 70
0
 10
-1.7963420856
 20
-28.7460169395
 10
-1.7966191643
 20
-28.7461254802
 10
-1.796107978
 20
-28.7459412598
 10
-1.7937499562
 20
-28.7451502816
 10
-1.7900055764
 20
-28.7439888637
 10
-1.7849301311
 20
-28.74252361
 10
-1.7784243979
 20
-28.7407689204
 10
-1.7707464374
 20
-28.7388269709
 10
-1.7619275188
 20
-28.7367267669
 10
-1.7519116244
 20
-28.7344736347
 10
-1.7408318447
 20
-28.732111697
 10
-1.7286995703
 20
-28.7296531132
 10
-1.7154945828
 20
-28.72710248
 10
-1.701303119
 20
-28.7244832537
 10
-1.686133093
 20
-28.7218017559
 10
-1.6699709464
 20
-28.71905997
 10
-1.6528699185
 20
-28.7162704304
 10
-1.6348342435
 20
-28.7134364106
 10
-1.6158565435
 20
-28.7105590818
 10
-1.5959724415
 20
-28.7076457064
  0
LWPOLYLINE
  5
799
100
AcDbEntity
  8
IMPORT_IGES
100
AcDbPolyline
 62
7
  6
CONTINUOUS
 90
20
 70
0
 10
-1.7966024775
 20
-26.7461427228
 10
-1.7968521709
 20
-26.7462401841
 10
-1.7962573648
 20
-26.7460262455
 10
-1.7938041796
 20
-26.7452064571
 10
-1.7899518627
 20
-26.7440157928
 10
-1.784752902
 20
-26.7425198589
 10
-1.7781079159
 20
-26.7407330622
 10
-1.7702772901
 20
-26.7387578853
 10
-1.7612892826
 20
-26.7366224853
 10
-1.7510883678
 20
-26.7343324183
 10
-1.7398131489
 20
-26.7319336136
 10
-1.7274744949
 20
-26.7294388138
 10
-1.7140412555
 20
-26.7268511727
 10
-1.6995896449
 20
-26.724193095
 10
-1.6841213103
 20
-26.7214706855
 10
-1.6676221528
 20
-26.7186862235
 10
-1.6501466609
 20
-26.7158523714
 10
-1.63169792
 20
-26.7129721568
 10
-1.6122725588
 20
-26.7100473039
 10
-1.5919169192
 20
-26.7070864583
  0
LWPOLYLINE
  5
79A
100
AcDbEntity
  8
IMPORT_IGES
100
AcDbPolyline
 62
7
  6
CONTINUOUS
 90
21
 70
0
 10
1.9373555168
 20
-24.8480566998
 10
1.9369687294
 20
-24.8482073303
 10
1.9346441274
 20
-24.8490627286
 10
1.9305220391
 20
-24.8504654451
 10
1.9249881679
 20
-24.8522132451
 10
1.9180886562
 20
-24.854246997
 10
1.9097357018
 20
-24.8565534739
 10
1.9001435474
 20
-24.8590432227
 10
1.8893331597
 20
-24.8616908417
 10
1.8772671792
 20
-24.8644883979
 10
1.8640766989
 20
-24.8673922305
 10
1.8497752553
 20
-24.8703900872
 10
1.834342978
 20
-24.8734778134
 10
1.8178601031
 20
-24.8766327534
 10
1.8003349922
 20
-24.8798485093
 10
1.7817561268
 20
-24.8831228517
 10
1.7621728653
 20
-24.8864435573
 10
1.7415899819
 20
-24.8898071552
 10
1.720001906
 20
-24.8932121381
 10
1.6974419141
 20
-24.8966512859
 10
1.6739136397
 20
-24.9001225326
  0
LWPOLYLINE
  5
79B
100
AcDbEntity
  8
IMPORT_IGES
100
AcDbPolyline
 62
7
  6
CONTINUOUS
 90
21
 70
0
 10
-1.7966953295
 20
-25.7461641833
 10
-1.7969324748
 20
-25.7462561877
 10
-1.7962336258
 20
-25.746006506
 10
-1.7936449709
 20
-25.7451489282
 10
-1.7896488821
 20
-25.7439245835
 10
-1.7843090293
 20
-25.7424011705
 10
-1.7775231418
 20
-25.7405912699
 10
-1.769553291
 20
-25.7385962824
 10
-1.7604320434
 20
-25.7364445478
 10
-1.7501026099
 20
-25.734140626
 10
-1.7386922841
 20
-25.7317272802
 10
-1.7262108833
 20
-25.7292168634
 10
-1.7126269824
 20
-25.7266123651
 10
-1.6980019735
 20
-25.7239333372
 10
-1.682334942
 20
-25.7211857021
 10
-1.6656047934
 20
-25.7183713554
 10
-1.6478387421
 20
-25.7154997396
 10
-1.6290315586
 20
-25.7125740805
 10
-1.6091654698
 20
-25.709595392
 10
-1.5882464253
 20
-25.7065678862
 10
-1.5662646079
 20
-25.7034925402
  0
LWPOLYLINE
  5
79C
100
AcDbEntity
  8
IMPORT_IGES
100
AcDbPolyline
 62
7
  6
CONTINUOUS
 90
21
 70
0
 10
1.9374366437
 20
-26.8479900691
 10
1.9369583025
 20
-26.8481743925
 10
1.9343755745
 20
-26.8491147122
 10
1.9299823917
 20
-26.8505944193
 10
1.9241485852
 20
-26.8524190529
 10
1.9169084511
 20
-26.8545331531
 10
1.9081761969
 20
-26.8569223647
 10
1.8981687407
 20
-26.8594969184
 10
1.8869025121
 20
-26.8622318189
 10
1.8743275796
 20
-26.8651204949
 10
1.8605662302
 20
-26.8681198504
 10
1.8456243015
 20
-26.8712176289
 10
1.8294719079
 20
-26.8744100649
 10
1.8121839454
 20
-26.8776748682
 10
1.7937634119
 20
-26.8810062735
 10
1.7742033628
 20
-26.8844008672
 10
1.7535689074
 20
-26.8878437715
 10
1.731868287
 20
-26.8913311028
 10
1.7090959118
 20
-26.894861518
 10
1.6852981894
 20
-26.8984261191
 10
1.6604881734
 20
-26.9020218492
  0
LINE
  5
79D
100
AcDbEntity
  8
IMPORT_IGES
100
AcDbLine
 62
253
  6
CONTINUOUS
 10
2.2757516997
 20
-24.0789642253
 11
2.2442830117
 21
-24.0889725742
  0
LINE
  5
79E
100
AcDbEntity
  8
IMPORT_IGES
100
AcDbLine
 62
7
  6
CONTINUOUS
 10
-6.4242483003
 20
24.264870198
 11
-8.4242483003
 21
24.264870198
  0
LINE
  5
79F
100
AcDbEntity
  8
IMPORT_IGES
100
AcDbLine
 62
7
  6
CONTINUOUS
 10
-7.3178653342
 20
24.514870198
 11
-6.4242483003
 21
24.514870198
  0
LINE
  5
7A0
100
AcDbEntity
  8
IMPORT_IGES
100
AcDbLine
 62
7
  6
CONTINUOUS
 10
-7.5731844527
 20
24.514870198
 11
-8.2114823682
 21
24.514870198
  0
LINE
  5
7A1
100
AcDbEntity
  8
IMPORT_IGES
100
AcDbLine
 62
7
  6
CONTINUOUS
 10
-7.9561632497
 20
25.5565368249
 11
-7.8285035712
 21
25.5565368249
  0
LINE
  5
7A2
100
AcDbEntity
  8
IMPORT_IGES
100
AcDbLine
 62
7
  6
CONTINUOUS
 10
-7.9561632497
 20
25.8065368249
 11
-7.7859503848
 21
25.8065368249
  0
LINE
  5
7A3
100
AcDbEntity
  8
IMPORT_IGES
100
AcDbLine
 62
7
  6
CONTINUOUS
 10
-7.9561632497
 20
28.4315368249
 11
-7.8285035712
 21
28.3898703172
  0
LINE
  5
7A4
100
AcDbEntity
  8
IMPORT_IGES
100
AcDbLine
 62
7
  6
CONTINUOUS
 10
-7.2753121478
 20
28.4315368249
 11
-7.147652529
 21
28.3898703172
  0
LINE
  5
7A5
100
AcDbEntity
  8
IMPORT_IGES
100
AcDbLine
 62
7
  6
CONTINUOUS
 10
-6.8923334105
 20
29.3898703172
 11
-7.0199929697
 21
29.4315368249
  0
LINE
  5
7A6
100
AcDbEntity
  8
IMPORT_IGES
100
AcDbLine
 62
7
  6
CONTINUOUS
 10
-7.9561632497
 20
30.2648703172
 11
-7.8285035713
 21
30.2232033327
  0
LINE
  5
7A7
100
AcDbEntity
  8
IMPORT_IGES
100
AcDbLine
 62
7
  6
CONTINUOUS
 10
-7.8710567577
 20
28.1815368249
 11
-8.083822809
 21
28.2648703172
  0
LINE
  5
7A8
100
AcDbEntity
  8
IMPORT_IGES
100
AcDbLine
 62
7
  6
CONTINUOUS
 10
-6.9774397833
 20
29.6398703172
 11
-6.7646738214
 21
29.5565368249
  0
LINE
  5
7A9
100
AcDbEntity
  8
IMPORT_IGES
100
AcDbLine
 62
7
  6
CONTINUOUS
 10
-7.8710567577
 20
30.0148703172
 11
-8.083822809
 21
30.0982033327
  0
LINE
  5
7AA
100
AcDbEntity
  8
IMPORT_IGES
100
AcDbLine
 62
7
  6
CONTINUOUS
 10
-13.8229826068
 20
32.1503813418
 11
-13.0493571516
 21
31.8280374021
  0
LINE
  5
7AB
100
AcDbEntity
  8
IMPORT_IGES
100
AcDbLine
 62
7
  6
CONTINUOUS
 10
-7.6582908256
 20
36.0565368249
 11
-7.4880780799
 21
35.9315368249
  0
LWPOLYLINE
  5
7AC
100
AcDbEntity
  8
IMPORT_IGES
100
AcDbPolyline
 62
7
  6
CONTINUOUS
 90
19
 70
0
 10
18.0757516997
 20
20.1215734188
 10
18.0738356284
 20
20.1245947594
 10
18.0681081713
 20
20.1276349266
 10
18.0586222003
 20
20.1306479076
 10
18.0454611556
 20
20.1335670927
 10
18.0287330311
 20
20.1363702434
 10
18.0085645216
 20
20.1390795386
 10
17.985111857
 20
20.1416575781
 10
17.9585578127
 20
20.1440625234
 10
17.9290987438
 20
20.1463125106
 10
17.8969579232
 20
20.1483779947
 10
17.8623812717
 20
20.1502236761
 10
17.8256255713
 20
20.151862836
 10
17.7869693142
 20
20.1532755504
 10
17.7467058823
 20
20.1544355537
 10
17.7051342271
 20
20.1553513453
 10
17.662567259
 20
20.1560174366
 10
17.6193302233
 20
20.1564147203
 10
16.3757516997
 20
20.1565368249
  0
LINE
  5
7AD
100
AcDbEntity
  8
IMPORT_IGES
100
AcDbLine
 62
7
  6
CONTINUOUS
 10
15.8769958345
 20
-21.6422262767
 11
16.3757516997
 21
-21.1434631751
  0
LINE
  5
7AE
100
AcDbEntity
  8
IMPORT_IGES
100
AcDbLine
 62
7
  6
CONTINUOUS
 10
15.8757516997
 20
-21.6434631751
 11
15.8760615652
 21
-21.6431626902
  0
LWPOLYLINE
  5
7AF
100
AcDbEntity
  8
IMPORT_IGES
100
AcDbPolyline
 62
7
  6
CONTINUOUS
 90
21
 70
0
 10
-1.7959361198
 20
-29.745810646
 10
-1.7964370856
 20
-29.746012956
 10
-1.7966375676
 20
-29.7460921485
 10
-1.7951129261
 20
-29.7455637047
 10
-1.7922142461
 20
-29.7446337889
 10
-1.7879406209
 20
-29.7433580179
 10
-1.7822268543
 20
-29.7417654751
 10
-1.7753731844
 20
-29.7399746789
 10
-1.7674302398
 20
-29.7380200872
 10
-1.7583389894
 20
-29.7359058094
 10
-1.7482514909
 20
-29.7336817676
 10
-1.7371895959
 20
-29.7313625728
 10
-1.7251232675
 20
-29.7289507093
 10
-1.7121218514
 20
-29.726467285
 10
-1.6981909389
 20
-29.7239188402
 10
-1.6833141469
 20
-29.7213073618
 10
-1.667522208
 20
-29.7186425259
 10
-1.6508147095
 20
-29.7159277688
 10
-1.6331788976
 20
-29.7131642474
 10
-1.6146220879
 20
-29.7103560191
 10
-1.5951400892
 20
-29.707505005
  0
LWPOLYLINE
  5
7B0
100
AcDbEntity
  8
IMPORT_IGES
100
AcDbPolyline
 62
7
  6
CONTINUOUS
 90
21
 70
0
 10
1.9373439268
 20
-28.8480294357
 10
1.9369301146
 20
-28.8481897562
 10
1.9345168412
 20
-28.8490723815
 10
1.9302702119
 20
-28.8505073063
 10
1.9245372637
 20
-28.8523033778
 10
1.9173416473
 20
-28.8544055748
 10
1.9086095967
 20
-28.8567940254
 10
1.8985739363
 20
-28.8593737927
 10
1.8872542606
 20
-28.8621189131
 10
1.8746031245
 20
-28.8650222138
 10
1.860758512
 20
-28.8680373911
 10
1.8457300274
 20
-28.8711520127
 10
1.8294907454
 20
-28.8743623032
 10
1.8121265702
 20
-28.8776437953
 10
1.7936415875
 20
-28.8809902007
 10
1.7740215214
 20
-28.8843990735
 10
1.7533273759
 20
-28.8878557909
 10
1.7315647578
 20
-28.891356445
 10
1.7087242135
 20
-28.8948998412
 10
1.6848463952
 20
-28.8984774663
 10
1.6599417733
 20
-28.9020861364
  0
LWPOLYLINE
  5
7B1
100
AcDbEntity
  8
IMPORT_IGES
100
AcDbPolyline
 62
7
  6
CONTINUOUS
 90
21
 70
0
 10
1.9370209131
 20
-29.8481136024
 10
1.9364089167
 20
-29.8483458572
 10
1.9334614722
 20
-29.8494021956
 10
1.9286703898
 20
-29.8509898821
 10
1.9224227761
 20
-29.8529118165
 10
1.9147612448
 20
-29.8551116048
 10
1.9055932412
 20
-29.8575776601
 10
1.89511773
 20
-29.8602264285
 10
1.8833489762
 20
-29.8630333629
 10
1.8702386377
 20
-29.8659918119
 10
1.8558933475
 20
-29.869063645
 10
1.8403155721
 20
-29.8722378967
 10
1.8234842248
 20
-29.8755094471
 10
1.8054688943
 20
-29.8788571301
 10
1.7862710824
 20
-29.8822748074
 10
1.7658740308
 20
-29.8857601205
 10
1.7443183983
 20
-29.8893016313
 10
1.7216039775
 20
-29.8928957764
 10
1.6977187545
 20
-29.8965411595
 10
1.672684491
 20
-29.9002316044
 10
1.6465037313
 20
-29.9039643783
  0
LWPOLYLINE
  5
7B2
100
AcDbEntity
  8
IMPORT_IGES
100
AcDbPolyline
 62
7
  6
CONTINUOUS
 90
20
 70
0
 10
1.9370949867
 20
-27.848134772
 10
1.9363941455
 20
-27.8483971398
 10
1.9331713819
 20
-27.8495365225
 10
1.9280626087
 20
-27.8512067447
 10
1.9214751981
 20
-27.8532067441
 10
1.9134569071
 20
-27.8554801383
 10
1.9039154189
 20
-27.8580163333
 10
1.8930635433
 20
-27.8607302068
 10
1.8809199391
 20
-27.8635976783
 10
1.8674349156
 20
-27.8666130473
 10
1.8527182667
 20
-27.8697376095
 10
1.8367729336
 20
-27.8729601939
 10
1.8195695139
 20
-27.8762771124
 10
1.8011673423
 20
-27.879668834
 10
1.7815641463
 20
-27.8831293396
 10
1.7607383175
 20
-27.8866564907
 10
1.7387194619
 20
-27.8902401467
 10
1.7155063146
 20
-27.8938769392
 10
1.6910918905
 20
-27.8975651276
 10
1.6654995065
 20
-27.9012988189
  0
LINE
  5
7B3
100
AcDbEntity
  8
IMPORT_IGES
100
AcDbLine
 62
7
  6
CONTINUOUS
 10
-6.9774397833
 20
28.1815368249
 11
-7.2753121478
 21
28.1398703172
  0
LINE
  5
7B4
100
AcDbEntity
  8
IMPORT_IGES
100
AcDbLine
 62
7
  6
CONTINUOUS
 10
-7.2753121478
 20
28.1398703172
 11
-7.5731844528
 21
28.1398703172
  0
LINE
  5
7B5
100
AcDbEntity
  8
IMPORT_IGES
100
AcDbLine
 62
7
  6
CONTINUOUS
 10
-7.5731844527
 20
28.3482033327
 11
-7.4880780799
 21
28.3482033327
  0
LINE
  5
7B6
100
AcDbEntity
  8
IMPORT_IGES
100
AcDbLine
 62
7
  6
CONTINUOUS
 10
-7.0199929697
 20
28.3898703172
 11
-7.147652529
 21
28.3898703172
  0
LINE
  5
7B7
100
AcDbEntity
  8
IMPORT_IGES
100
AcDbLine
 62
7
  6
CONTINUOUS
 10
-7.147652529
 20
29.4315368249
 11
-7.0199929697
 21
29.4315368249
  0
LINE
  5
7B8
100
AcDbEntity
  8
IMPORT_IGES
100
AcDbLine
 62
7
  6
CONTINUOUS
 10
-7.5731844528
 20
28.1398703172
 11
-7.8710567577
 21
28.1815368249
  0
LINE
  5
7B9
100
AcDbEntity
  8
IMPORT_IGES
100
AcDbLine
 62
7
  6
CONTINUOUS
 10
-7.5731844527
 20
29.9732033327
 11
-7.8710567577
 21
30.0148703172
  0
LINE
  5
7BA
100
AcDbEntity
  8
IMPORT_IGES
100
AcDbLine
 62
7
  6
CONTINUOUS
 10
-7.8285035712
 20
28.3898703172
 11
-7.5731844527
 21
28.3482033327
  0
LINE
  5
7BB
100
AcDbEntity
  8
IMPORT_IGES
100
AcDbLine
 62
7
  6
CONTINUOUS
 10
-7.8285035713
 20
30.2232033327
 11
-7.5731844527
 21
30.1815368249
  0
LINE
  5
7BC
100
AcDbEntity
  8
IMPORT_IGES
100
AcDbLine
 62
7
  6
CONTINUOUS
 10
-7.2753121478
 20
30.2648703172
 11
-7.147652529
 21
30.2232033327
  0
LINE
  5
7BD
100
AcDbEntity
  8
IMPORT_IGES
100
AcDbLine
 62
7
  6
CONTINUOUS
 10
-6.8923334105
 20
31.2232038095
 11
-7.0199929697
 21
31.2648698404
  0
LINE
  5
7BE
100
AcDbEntity
  8
IMPORT_IGES
100
AcDbLine
 62
7
  6
CONTINUOUS
 10
-6.9774397833
 20
31.4732038095
 11
-6.7646738214
 21
31.3898698404
  0
LINE
  5
7BF
100
AcDbEntity
  8
IMPORT_IGES
100
AcDbLine
 62
7
  6
CONTINUOUS
 10
-7.147652529
 20
37.3482038095
 11
-7.0199929697
 21
37.2648698404
  0
LINE
  5
7C0
100
AcDbEntity
  8
IMPORT_IGES
100
AcDbLine
 62
7
  6
CONTINUOUS
 10
-6.9774397833
 20
30.0148703172
 11
-7.2753121478
 21
29.9732033327
  0
LINE
  5
7C1
100
AcDbEntity
  8
IMPORT_IGES
100
AcDbLine
 62
7
  6
CONTINUOUS
 10
-7.190205775
 20
29.6398703172
 11
-6.9774397833
 21
29.6398703172
  0
LINE
  5
7C2
100
AcDbEntity
  8
IMPORT_IGES
100
AcDbLine
 62
7
  6
CONTINUOUS
 10
7.7407516997
 20
29.6565368249
 11
8.5657516997
 21
29.6565368249
  0
LINE
  5
7C3
100
AcDbEntity
  8
IMPORT_IGES
100
AcDbLine
 62
7
  6
CONTINUOUS
 10
12.4157516997
 20
29.6565368249
 11
13.2407516997
 21
29.6565368249
  0
LINE
  5
7C4
100
AcDbEntity
  8
IMPORT_IGES
100
AcDbLine
 62
7
  6
CONTINUOUS
 10
-7.2753121478
 20
29.9732033327
 11
-7.5731844527
 21
29.9732033327
  0
LINE
  5
7C5
100
AcDbEntity
  8
IMPORT_IGES
100
AcDbLine
 62
7
  6
CONTINUOUS
 10
-7.5731844527
 20
30.1815368249
 11
-7.4880780799
 21
30.1815368249
  0
LINE
  5
7C6
100
AcDbEntity
  8
IMPORT_IGES
100
AcDbLine
 62
7
  6
CONTINUOUS
 10
-10.3891393415
 20
30.2197329509
 11
-9.9242483003
 21
30.2197329509
  0
LINE
  5
7C7
100
AcDbEntity
  8
IMPORT_IGES
100
AcDbLine
 62
7
  6
CONTINUOUS
 10
-7.0199929697
 20
30.2232033327
 11
-7.147652529
 21
30.2232033327
  0
LINE
  5
7C8
100
AcDbEntity
  8
IMPORT_IGES
100
AcDbLine
 62
7
  6
CONTINUOUS
 10
-10.8540303826
 20
31.0565368249
 11
-10.3891393415
 21
31.0565368249
  0
LINE
  5
7C9
100
AcDbEntity
  8
IMPORT_IGES
100
AcDbLine
 62
7
  6
CONTINUOUS
 10
-9.9242483003
 20
31.0565368249
 11
-9.4593572591
 21
31.0565368249
  0
LINE
  5
7CA
100
AcDbEntity
  8
IMPORT_IGES
100
AcDbLine
 62
7
  6
CONTINUOUS
 10
-7.147652529
 20
31.2648698404
 11
-7.0199929697
 21
31.2648698404
  0
LINE
  5
7CB
100
AcDbEntity
  8
IMPORT_IGES
100
AcDbLine
 62
7
  6
CONTINUOUS
 10
-7.190205775
 20
31.4732038095
 11
-6.9774397833
 21
31.4732038095
  0
LINE
  5
7CC
100
AcDbEntity
  8
IMPORT_IGES
100
AcDbLine
 62
7
  6
CONTINUOUS
 10
-7.147652529
 20
31.8065368249
 11
-7.3604185207
 21
31.8065368249
  0
LINE
  5
7CD
100
AcDbEntity
  8
IMPORT_IGES
100
AcDbLine
 62
7
  6
CONTINUOUS
 10
-7.3604185207
 20
32.3898698404
 11
-7.147652529
 21
32.3898698404
  0
LINE
  5
7CE
100
AcDbEntity
  8
IMPORT_IGES
100
AcDbLine
 62
7
  6
CONTINUOUS
 10
-6.4242483003
 20
32.7232038095
 11
-8.4242483003
 21
32.7232038095
  0
LINE
  5
7CF
100
AcDbEntity
  8
IMPORT_IGES
100
AcDbLine
 62
7
  6
CONTINUOUS
 10
-7.700844012
 20
35.8065368249
 11
-7.8285035712
 21
35.8482038095
  0
LINE
  5
7D0
100
AcDbEntity
  8
IMPORT_IGES
100
AcDbLine
 62
7
  6
CONTINUOUS
 10
-7.7859503848
 20
36.0982038095
 11
-7.6582908256
 21
36.0565368249
  0
LINE
  5
7D1
100
AcDbEntity
  8
IMPORT_IGES
100
AcDbLine
 62
7
  6
CONTINUOUS
 10
-8.1689291818
 20
32.9732038095
 11
-7.6157376392
 21
32.9732038095
  0
LINE
  5
7D2
100
AcDbEntity
  8
IMPORT_IGES
100
AcDbLine
 62
7
  6
CONTINUOUS
 10
-7.3604185207
 20
32.9732038095
 11
-6.4242483003
 21
32.9732038095
  0
LINE
  5
7D3
100
AcDbEntity
  8
IMPORT_IGES
100
AcDbLine
 62
7
  6
CONTINUOUS
 10
-7.6157376392
 20
34.0565368249
 11
-7.3604185207
 21
34.0565368249
  0
LINE
  5
7D4
100
AcDbEntity
  8
IMPORT_IGES
100
AcDbLine
 62
7
  6
CONTINUOUS
 10
10.0757516997
 20
34.0565368249
 11
10.9057516997
 21
34.0565368249
  0
LINE
  5
7D5
100
AcDbEntity
  8
IMPORT_IGES
100
AcDbLine
 62
7
  6
CONTINUOUS
 10
-8.4242483003
 20
34.2232038095
 11
-8.1689291818
 21
34.2232038095
  0
LINE
  5
7D6
100
AcDbEntity
  8
IMPORT_IGES
100
AcDbLine
 62
7
  6
CONTINUOUS
 10
7.7407516997
 20
34.3315368249
 11
8.5707516997
 21
34.3315368249
  0
LINE
  5
7D7
100
AcDbEntity
  8
IMPORT_IGES
100
AcDbLine
 62
7
  6
CONTINUOUS
 10
12.4107516997
 20
34.3315368249
 11
13.2407516997
 21
34.3315368249
  0
LINE
  5
7D8
100
AcDbEntity
  8
IMPORT_IGES
100
AcDbLine
 62
7
  6
CONTINUOUS
 10
-6.4242483003
 20
34.5565368249
 11
-8.4242483003
 21
34.5565368249
  0
LINE
  5
7D9
100
AcDbEntity
  8
IMPORT_IGES
100
AcDbLine
 62
7
  6
CONTINUOUS
 10
-7.3178653342
 20
34.8065368249
 11
-6.4242483003
 21
34.8065368249
  0
LINE
  5
7DA
100
AcDbEntity
  8
IMPORT_IGES
100
AcDbLine
 62
7
  6
CONTINUOUS
 10
-7.5731844527
 20
34.8065368249
 11
-8.2114823682
 21
34.8065368249
  0
LINE
  5
7DB
100
AcDbEntity
  8
IMPORT_IGES
100
AcDbLine
 62
7
  6
CONTINUOUS
 10
-7.9561632497
 20
35.8482038095
 11
-7.8285035712
 21
35.8482038095
  0
LINE
  5
7DC
100
AcDbEntity
  8
IMPORT_IGES
100
AcDbLine
 62
7
  6
CONTINUOUS
 10
5.7757516997
 20
-39.3431655639
 11
5.0142832168
 21
-39.7827995975
  0
LINE
  5
7DD
100
AcDbEntity
  8
IMPORT_IGES
100
AcDbLine
 62
7
  6
CONTINUOUS
 10
-7.9561632497
 20
36.0982038095
 11
-7.7859503848
 21
36.0982038095
  0
LWPOLYLINE
  5
7DE
100
AcDbEntity
  8
IMPORT_IGES
100
AcDbPolyline
 62
253
  6
CONTINUOUS
 90
19
 70
0
 10
16.3757516997
 20
44.1957099262
 10
16.331780579
 20
44.1954403184
 10
16.2886382547
 20
44.1946456372
 10
16.2466346734
 20
44.1933497164
 10
16.2062857391
 20
44.1915911611
 10
16.1675992169
 20
44.18939321
 10
16.1301524694
 20
44.1867365796
 10
16.0940630563
 20
44.1836157666
 10
16.0598173039
 20
44.1800581972
 10
16.0276272391
 20
44.1760726308
 10
15.9977326606
 20
44.171669696
 10
15.9704970001
 20
44.1668820019
 10
15.946287745
 20
44.1617584061
 10
15.9253708805
 20
44.1563457756
 10
15.9079020385
 20
44.1506734083
 10
15.8940390722
 20
44.1447709845
 10
15.8839568456
 20
44.1386781568
 10
15.8778197148
 20
44.132445768
 10
15.8757516997
 20
44.1261233465
  0
LINE
  5
7DF
100
AcDbEntity
  8
IMPORT_IGES
100
AcDbLine
 62
253
  6
CONTINUOUS
 10
15.8757516997
 20
43.0565368249
 11
-15.7242483003
 21
43.0565368249
  0
LINE
  5
7E0
100
AcDbEntity
  8
IMPORT_IGES
100
AcDbLine
 62
7
  6
CONTINUOUS
 10
15.8757516997
 20
43.5565368249
 11
-15.7242483003
 21
43.5565368249
  0
LINE
  5
7E1
100
AcDbEntity
  8
IMPORT_IGES
100
AcDbLine
 62
253
  6
CONTINUOUS
 10
17.5757516997
 20
44.195709926
 11
16.3757516997
 21
44.1957099261
  0
LINE
  5
7E2
100
AcDbEntity
  8
IMPORT_IGES
100
AcDbLine
 62
253
  6
CONTINUOUS
 10
-16.2242483003
 20
44.1957099259
 11
-17.4242483003
 21
44.1957099261
  0
LINE
  5
7E3
100
AcDbEntity
  8
IMPORT_IGES
100
AcDbLine
 62
253
  6
CONTINUOUS
 10
15.8757516997
 20
44.5565368249
 11
-15.7242483003
 21
44.5565368249
  0
LINE
  5
7E4
100
AcDbEntity
  8
IMPORT_IGES
100
AcDbLine
 62
7
  6
CONTINUOUS
 10
-17.4242483003
 20
45.0565368249
 11
17.5757516997
 21
45.0565368249
  0
LWPOLYLINE
  5
7E5
100
AcDbEntity
  8
IMPORT_IGES
100
AcDbPolyline
 62
253
  6
CONTINUOUS
 90
19
 70
0
 10
-16.2242483003
 20
44.1957099259
 10
-16.1802771797
 20
44.1954403181
 10
-16.1371348554
 20
44.1946456369
 10
-16.0951312741
 20
44.1933497161
 10
-16.0547823398
 20
44.1915911607
 10
-16.0160958175
 20
44.1893932097
 10
-15.97864907
 20
44.1867365792
 10
-15.9425596569
 20
44.1836157663
 10
-15.9083139045
 20
44.1800581968
 10
-15.8761238397
 20
44.1760726304
 10
-15.8462292612
 20
44.1716696957
 10
-15.8189936006
 20
44.1668820015
 10
-15.7947843456
 20
44.1617584058
 10
-15.773867481
 20
44.1563457741
 10
-15.756398639
 20
44.1506734057
 10
-15.7425356728
 20
44.1447709842
 10
-15.7324534463
 20
44.1386781635
 10
-15.7263163155
 20
44.1324457852
 10
-15.7242483003
 20
44.1261233778
  0
LWPOLYLINE
  5
7E6
100
AcDbEntity
  8
IMPORT_IGES
100
AcDbPolyline
 62
253
  6
CONTINUOUS
 90
19
 70
0
 10
17.5757516997
 20
44.1957099259
 10
17.6197228203
 20
44.1954403181
 10
17.6628651446
 20
44.1946456369
 10
17.7048687259
 20
44.1933497161
 10
17.7452176602
 20
44.1915911607
 10
17.7839041825
 20
44.1893932097
 10
17.82135093
 20
44.1867365792
 10
17.8574403431
 20
44.1836157663
 10
17.8916860955
 20
44.1800581968
 10
17.9238761603
 20
44.1760726304
 10
17.9537707388
 20
44.1716696957
 10
17.9810063994
 20
44.1668820015
 10
18.0052156544
 20
44.1617584058
 10
18.026132519
 20
44.1563457741
 10
18.043601361
 20
44.1506734057
 10
18.0574643272
 20
44.1447709842
 10
18.0675465537
 20
44.1386781635
 10
18.0736836845
 20
44.1324457852
 10
18.0757516997
 20
44.1261233778
  0
ARC
  5
7E7
100
AcDbEntity
  8
IMPORT_IGES
100
AcDbCircle
 62
7
  6
CONTINUOUS
 10
-2.9242483003
 20
-39.2934631751
 40
2.0
100
AcDbArc
 50
180.0000000001
 51
269.9999999999
  0
ARC
  5
7E8
100
AcDbEntity
  8
IMPORT_IGES
100
AcDbCircle
 62
7
  6
CONTINUOUS
 10
-17.4242483003
 20
-18.7434631751
 40
0.5
100
AcDbArc
 50
90.0000000004
 51
179.9999999983
  0
ARC
  5
7E9
100
AcDbEntity
  8
IMPORT_IGES
100
AcDbCircle
 62
7
  6
CONTINUOUS
 10
-13.4242483003
 20
-18.7434631751
 40
0.5
100
AcDbArc
 50
0.0000000004
 51
89.9999957211
  0
ARC
  5
7EA
100
AcDbEntity
  8
IMPORT_IGES
100
AcDbCircle
 62
7
  6
CONTINUOUS
 10
-11.2242483003
 20
-44.4434631751
 40
0.5
100
AcDbArc
 50
180.0000000005
 51
270.0000000002
  0
ARC
  5
7EB
100
AcDbEntity
  8
IMPORT_IGES
100
AcDbCircle
 62
7
  6
CONTINUOUS
 10
-16.2242483003
 20
-44.4434631751
 40
0.5
100
AcDbArc
 50
269.9999999998
 51
359.9999977986
  0
ARC
  5
7EC
100
AcDbEntity
  8
IMPORT_IGES
100
AcDbCircle
 62
7
  6
CONTINUOUS
 10
-17.4242483003
 20
-44.4434631751
 40
0.5
100
AcDbArc
 50
179.9999978345
 51
269.9999999998
  0
ARC
  5
7ED
100
AcDbEntity
  8
IMPORT_IGES
100
AcDbCircle
 62
7
  6
CONTINUOUS
 10
-10.9613120483
 20
28.6185400402
 40
1.037063748
100
AcDbArc
 50
236.3099324745
 51
360.0
  0
ARC
  5
7EE
100
AcDbEntity
  8
IMPORT_IGES
100
AcDbCircle
 62
7
  6
CONTINUOUS
 10
-13.6871845523
 20
30.4357883763
 40
1.037063748
100
AcDbArc
 50
123.6900675257
 51
236.3099324737
  0
ARC
  5
7EF
100
AcDbEntity
  8
IMPORT_IGES
100
AcDbCircle
 62
7
  6
CONTINUOUS
 10
-10.9613120483
 20
32.2530367123
 40
1.037063748
100
AcDbArc
 50
0.0
 51
123.6900675246
  0
ARC
  5
7F0
100
AcDbEntity
  8
IMPORT_IGES
100
AcDbCircle
 62
7
  6
CONTINUOUS
 10
-10.9613120483
 20
28.6185400402
 40
0.5721727068
100
AcDbArc
 50
236.3099324742
 51
360.0
  0
ARC
  5
7F1
100
AcDbEntity
  8
IMPORT_IGES
100
AcDbCircle
 62
7
  6
CONTINUOUS
 10
-13.6871845523
 20
30.4357883763
 40
0.5721727068
100
AcDbArc
 50
123.6900675255
 51
236.3099324745
  0
ARC
  5
7F2
100
AcDbEntity
  8
IMPORT_IGES
100
AcDbCircle
 62
7
  6
CONTINUOUS
 10
-10.9613120483
 20
32.2530367123
 40
0.5721727068
100
AcDbArc
 50
0.0
 51
123.6900675258
  0
ARC
  5
7F3
100
AcDbEntity
  8
IMPORT_IGES
100
AcDbCircle
 62
7
  6
CONTINUOUS
 10
-17.4242483003
 20
15.656536825
 40
0.5
100
AcDbArc
 50
180.0000000007
 51
270.0000000003
  0
ARC
  5
7F4
100
AcDbEntity
  8
IMPORT_IGES
100
AcDbCircle
 62
7
  6
CONTINUOUS
 10
-16.2242483003
 20
44.5565368249
 40
0.5
100
AcDbArc
 50
359.9999980356
 51
90.0000000009
  0
ARC
  5
7F5
100
AcDbEntity
  8
IMPORT_IGES
100
AcDbCircle
 62
7
  6
CONTINUOUS
 10
-17.4242483003
 20
44.5565368249
 40
0.5
100
AcDbArc
 50
90.0000000004
 51
179.9999980179
  0
ARC
  5
7F6
100
AcDbEntity
  8
IMPORT_IGES
100
AcDbCircle
 62
7
  6
CONTINUOUS
 10
3.0757516997
 20
-39.2934631751
 40
2.0
100
AcDbArc
 50
270.0000000001
 51
359.9999999999
  0
ARC
  5
7F7
100
AcDbEntity
  8
IMPORT_IGES
100
AcDbCircle
 62
7
  6
CONTINUOUS
 10
0.0757516997
 20
-30.6234631751
 40
1.0
100
AcDbArc
 50
0.0
 51
8.8366106968
  0
ARC
  5
7F8
100
AcDbEntity
  8
IMPORT_IGES
100
AcDbCircle
 62
7
  6
CONTINUOUS
 10
0.0757516997
 20
-30.6234631751
 40
1.0
100
AcDbArc
 50
39.3921196449
 51
149.9870745375
  0
ARC
  5
7F9
100
AcDbEntity
  8
IMPORT_IGES
100
AcDbCircle
 62
7
  6
CONTINUOUS
 10
0.0757516997
 20
-23.1234631751
 40
1.0
100
AcDbArc
 50
210.012456611
 51
252.5228994434
  0
ARC
  5
7FA
100
AcDbEntity
  8
IMPORT_IGES
100
AcDbCircle
 62
7
  6
CONTINUOUS
 10
0.0757516997
 20
-23.1234631751
 40
1.0
100
AcDbArc
 50
180.0
 51
180.6652444913
  0
ARC
  5
7FB
100
AcDbEntity
  8
IMPORT_IGES
100
AcDbCircle
 62
7
  6
CONTINUOUS
 10
0.0757516997
 20
-23.1234631751
 40
1.0
100
AcDbArc
 50
296.629560436
 51
339.4174346995
  0
ARC
  5
7FC
100
AcDbEntity
  8
IMPORT_IGES
100
AcDbCircle
 62
7
  6
CONTINUOUS
 10
17.5757516997
 20
-18.7434631751
 40
0.5
100
AcDbArc
 50
0.0000000004
 51
89.9999999996
  0
ARC
  5
7FD
100
AcDbEntity
  8
IMPORT_IGES
100
AcDbCircle
 62
7
  6
CONTINUOUS
 10
13.5757516997
 20
-18.7434631751
 40
0.5
100
AcDbArc
 50
90.0000000004
 51
179.999995372
  0
ARC
  5
7FE
100
AcDbEntity
  8
IMPORT_IGES
100
AcDbCircle
 62
7
  6
CONTINUOUS
 10
11.3757516997
 20
-44.4434631751
 40
0.5
100
AcDbArc
 50
269.9999999998
 51
360.0
  0
ARC
  5
7FF
100
AcDbEntity
  8
IMPORT_IGES
100
AcDbCircle
 62
7
  6
CONTINUOUS
 10
17.5757516997
 20
-44.4434631751
 40
0.5
100
AcDbArc
 50
269.9999999998
 51
359.9999977985
  0
ARC
  5
800
100
AcDbEntity
  8
IMPORT_IGES
100
AcDbCircle
 62
7
  6
CONTINUOUS
 10
16.3757516997
 20
-44.4434631751
 40
0.5
100
AcDbArc
 50
179.9999998033
 51
269.9999999996
  0
ARC
  5
801
100
AcDbEntity
  8
IMPORT_IGES
100
AcDbCircle
 62
7
  6
CONTINUOUS
 10
10.4907516997
 20
29.6565368249
 40
2.75
100
AcDbArc
 50
180.0
 51
360.0
  0
ARC
  5
802
100
AcDbEntity
  8
IMPORT_IGES
100
AcDbCircle
 62
7
  6
CONTINUOUS
 10
10.4907516997
 20
34.3315368249
 40
2.75
100
AcDbArc
 50
180.0
 51
360.0
  0
ARC
  5
803
100
AcDbEntity
  8
IMPORT_IGES
100
AcDbCircle
 62
7
  6
CONTINUOUS
 10
10.4907516997
 20
29.6565368249
 40
1.925
100
AcDbArc
 50
180.0
 51
360.0
  0
ARC
  5
804
100
AcDbEntity
  8
IMPORT_IGES
100
AcDbCircle
 62
7
  6
CONTINUOUS
 10
10.4907516997
 20
34.3315368249
 40
1.92
100
AcDbArc
 50
179.9999999999
 51
257.5172404963
  0
ARC
  5
805
100
AcDbEntity
  8
IMPORT_IGES
100
AcDbCircle
 62
7
  6
CONTINUOUS
 10
10.4907516997
 20
34.3315368249
 40
1.92
100
AcDbArc
 50
282.4827595036
 51
360.0
  0
ARC
  5
806
100
AcDbEntity
  8
IMPORT_IGES
100
AcDbCircle
 62
7
  6
CONTINUOUS
 10
16.3757516997
 20
44.5565368249
 40
0.5
100
AcDbArc
 50
90.0000000004
 51
179.9999980177
  0
ARC
  5
807
100
AcDbEntity
  8
IMPORT_IGES
100
AcDbCircle
 62
7
  6
CONTINUOUS
 10
17.5757516997
 20
44.5565368249
 40
0.5
100
AcDbArc
 50
0.0000016548
 51
90.0000000008
  0
ARC
  5
808
100
AcDbEntity
  8
IMPORT_IGES
100
AcDbCircle
 62
7
  6
CONTINUOUS
 10
17.5757516997
 20
15.6565368249
 40
0.5
100
AcDbArc
 50
270.0000000004
 51
359.9999999996
  0
ELLIPSE
  5
809
100
AcDbEntity
  8
IMPORT_IGES
100
AcDbEllipse
 62
7
  6
CONTINUOUS
 10
16.3757516997
 20
16.5638885578
 30
0.0
 11
0.0
 21
-3.5926482672
 31
0.0
 40
0.139173101
 41
-3.1415926536
 42
-2.7300283112
  0
ENDSEC
  0
SECTION
  2
OBJECTS
  0
DICTIONARY
  5
C
100
AcDbDictionary
280
0
281
1
  3
ACAD_GROUP
350
D
  3
ACAD_MLINESTYLE
350
17
  3
ACAD_LAYOUT
350
1A
  3
ACAD_PLOTSETTINGS
350
19
  3
ACAD_PLOTSTYLENAME
350
E
  0
DICTIONARY
  5
D
102
{ACAD_REACTORS
330
C
102
}
100
AcDbDictionary
280
0
281
1
  0
ACDBDICTIONARYWDFLT
  5
E
102
{ACAD_REACTORS
330
C
102
}
100
AcDbDictionary
281
1
  3
Normal
350
F
100
AcDbDictionaryWithDefault
340
F
  0
DICTIONARY
  5
17
102
{ACAD_REACTORS
330
C
102
}
100
AcDbDictionary
280
0
281
1
  3
Standard
350
18
  0
DICTIONARY
  5
19
102
{ACAD_REACTORS
330
C
102
}
100
AcDbDictionary
281
1
  0
DICTIONARY
  5
1A
102
{ACAD_REACTORS
330
C
102
}
100
AcDbDictionary
281
1
  3
Model
350
80A
  3
Layout1
350
80B
  0
ACDBPLACEHOLDER
  5
F
102
{ACAD_REACTORS
330
E
102
}
  0
MLINESTYLE
  5
18
102
{ACAD_REACTORS
330
17
102
}
100
AcDbMlineStyle
  2
STANDARD
 70
0
  3

 62
256
 51
90.0
 52
90.0
 71
2
 49
0.5
 62
256
  6
BYLAYER
 49
-0.5
 62
256
  6
BYLAYER
  0
LAYOUT
  5
80A
102
{ACAD_REACTORS
330
1A
102
}
100
AcDbPlotSettings
  1

  2
none_device
  4
ANSI_C_(22.00_x_17.00_Inches)
  6

 40
0.0
 41
0.0
 42
0.0
 43
0.0
 44
558.8
 45
431.8
 46
0.0
 47
0.0
 48
0.0
 49
0.0
140
0.0
141
0.0
142
1.0
143
1.0
 70
1024
 72
1
 73
0
 74
0
  7

 75
0
147
1.0
148
0.0
149
0.0
100
AcDbLayout
  1
Model
 70
0
 71
0
 10
0.0
 20
0.0
 11
558.8
 21
431.8
 12
0.0
 22
0.0
 32
0.0
 14
0.0
 24
0.0
 34
0.0
 15
0.0
 25
0.0
 35
0.0
146
0.0
 13
0.0
 23
0.0
 33
0.0
 16
1.0
 26
0.0
 36
0.0
 17
0.0
 27
1.0
 37
0.0
 76
0
330
291
345
0
346
0
  0
LAYOUT
  5
80B
102
{ACAD_REACTORS
330
1A
102
}
100
AcDbPlotSettings
  1

  2
none_device
  4
ANSI_C_(22.00_x_17.00_Inches)
  6

 40
0.0
 41
0.0
 42
0.0
 43
0.0
 44
558.8
 45
431.8
 46
0.0
 47
0.0
 48
0.0
 49
0.0
140
0.0
141
0.0
142
1.0
143
1.0
 70
0
 72
1
 73
0
 74
0
  7

 75
0
147
1.0
148
0.0
149
0.0
100
AcDbLayout
  1
Layout1
 70
0
 71
1
 10
0.0
 20
0.0
 11
558.8
 21
431.8
 12
0.0
 22
0.0
 32
0.0
 14
0.0
 24
0.0
 34
0.0
 15
0.0
 25
0.0
 35
0.0
146
0.0
 13
0.0
 23
0.0
 33
0.0
 16
1.0
 26
0.0
 36
0.0
 17
0.0
 27
1.0
 37
0.0
 76
0
330
292
345
0
346
0
  0
ENDSEC
  0
EOF
