  0
SECTION
  2
HEADER
  9
$ACADVER
  1
AC1021
  9
$DWGCODEPAGE
  3
ANSI_1252
  9
$EXTMAX
 10
297.0
 20
210.0
 30
0.0
  9
$EXTMIN
 10
0.0
 20
0.0
 30
0.0
  9
$LIMMIN
 10
0.0
 20
0.0
  9
$LIMMAX
 10
297.0
 20
210.0
  9
$VIEWCTR
 10
148.5
 20
105.0
  9
$VIEWSIZE
 40
210.0
  9
$CLAYER
  8
0
  9
$LTSCALE
 40
16.335
  9
$CELTYPE
  6
BYLAYER
  9
$DIMSCALE
 40
1.0
  9
$DIMASZ
 40
3.0
  9
$DIMEXO
 40
0.5
  9
$DIMDLI
 40
11.286
  9
$DIMEXE
 40
1.5
  9
$DIMCEN
 40
2.673
  9
$DIMLFAC
 40
1.0
  9
$DIMBLK
  1
_FILLED
  9
$DIMALT
 70
0
  9
$DIMALTF
 40
25.4
  9
$DIMTXT
 40
3.0
  9
$DIMTOL
 70
1
  9
$DIMLIM
 70
0
  9
$DIMTFAC
 40
1.0
  9
$DIMTP
 40
0.01
  9
$DIMTM
 40
0.01
  9
$DIMGAP
 40
0.625
  9
$DIMDSEP
 70
44
  9
$AUNITS
 70
0
  9
$PDMODE
 70
3
  9
$PDSIZE
 40
3.0
  9
$HANDSEED
  5
433
  9
$TILEMODE
 70
1
  9
$MEASUREMENT
 70
1
  9
$INSUNITS
 70
4
  0
ENDSEC
  0
SECTION
  2
CLASSES
  0
CLASS
  1
ACDBDICTIONARYWDFLT
  2
AcDbDictionaryWithDefault
  3
AutoCAD 2000
 90
0
 91
1
280
0
281
0
  0
CLASS
  1
ACDBPLACEHOLDER
  2
AcDbPlaceHolder
  3
AutoCAD 2000
 90
0
 91
1
280
0
281
0
  0
CLASS
  1
LAYOUT
  2
AcDbLayout
  3
AutoCAD 2000
 90
0
 91
0
280
0
281
0
  0
ENDSEC
  0
SECTION
  2
TABLES
  0
TABLE
  2
VPORT
  5
8
100
AcDbSymbolTable
 70
2
  0
VPORT
  5
1F4
100
AcDbSymbolTableRecord
100
AcDbViewportTableRecord
  2
*ACTIVE
 70
0
 10
0.0
 20
0.0
 11
1.0
 21
1.0
 12
148.5
 22
105.0
 13
0.0
 23
0.0
 14
1.0
 24
1.0
 15
0.0
 25
0.0
 16
0.0
 26
0.0
 36
1.0
 17
0.0
 27
0.0
 37
0.0
 40
210.0
 41
1.4142857143
 42
50.0
 43
0.0
 44
0.0
 50
0.0
 51
0.0
 71
0
 72
100
 73
1
 74
1
 75
0
 76
0
 77
0
 78
0
  0
ENDTAB
  0
TABLE
  2
LTYPE
  5
5
100
AcDbSymbolTable
 70
6
  0
LTYPE
  5
14
100
AcDbSymbolTableRecord
100
AcDbLinetypeTableRecord
  2
BYBLOCK
 70
0
  3

 72
65
 73
0
 40
0.0
  0
LTYPE
  5
15
100
AcDbSymbolTableRecord
100
AcDbLinetypeTableRecord
  2
BYLAYER
 70
0
  3

 72
65
 73
0
 40
0.0
  0
LTYPE
  5
16
100
AcDbSymbolTableRecord
100
AcDbLinetypeTableRecord
  2
CONTINUOUS
 70
64
  3
Solid line
 72
65
 73
0
 40
0.0
  0
LTYPE
  5
1F5
100
AcDbSymbolTableRecord
100
AcDbLinetypeTableRecord
  2
CENTER
 70
64
  3
____ _ ____ _ ____ _ ____ _ ____ _ ____ _ ____
 72
65
 73
4
 40
0.6
 49
0.375
 74
0
 49
-0.075
 74
0
 49
0.075
 74
0
 49
-0.075
 74
0
  0
LTYPE
  5
1F6
100
AcDbSymbolTableRecord
100
AcDbLinetypeTableRecord
  2
HIDDEN
 70
64
  3
- - - - - - - - - - - - - - - - - - - -
 72
65
 73
2
 40
0.2
 49
0.1
 74
0
 49
-0.1
 74
0
  0
LTYPE
  5
1F7
100
AcDbSymbolTableRecord
100
AcDbLinetypeTableRecord
  2
PHANTOM
 70
64
  3
_____ _ _ _____ _ _ _____ _ _ _____
 72
65
 73
6
 40
0.8
 49
0.45
 74
0
 49
-0.05
 74
0
 49
0.1
 74
0
 49
-0.05
 74
0
 49
0.1
 74
0
 49
-0.05
 74
0
  0
LTYPE
  5
1F8
100
AcDbSymbolTableRecord
100
AcDbLinetypeTableRecord
  2
DOT
 70
64
  3
. . . . . . . . . . . . . . . . . . . .
 72
65
 73
2
 40
0.2
 49
0.1
 74
0
 49
-0.1
 74
0
  0
LTYPE
  5
1F9
100
AcDbSymbolTableRecord
100
AcDbLinetypeTableRecord
  2
DASHED
 70
64
  3
- - - - - - - - - - - - - - - - - - - -
 72
65
 73
2
 40
0.2
 49
0.1
 74
0
 49
-0.1
 74
0
  0
ENDTAB
  0
TABLE
  2
LAYER
  5
2
100
AcDbSymbolTable
 70
36
  0
LAYER
  5
10
100
AcDbSymbolTableRecord
100
AcDbLayerTableRecord
  2
0
 70
0
 62
7
  6
CONTINUOUS
370
-3
390
F
  0
LAYER
  5
1FA
100
AcDbSymbolTableRecord
100
AcDbLayerTableRecord
  2
DEFAULT_1
 70
0
 62
7
  6
CENTER
370
-3
390
F
  0
LAYER
  5
1FB
100
AcDbSymbolTableRecord
100
AcDbLayerTableRecord
  2
DEFAULT_2
 70
0
 62
7
  6
HIDDEN
370
-3
390
F
  0
LAYER
  5
1FC
100
AcDbSymbolTableRecord
100
AcDbLayerTableRecord
  2
DEFAULT_3
 70
0
 62
7
  6
PHANTOM
370
-3
390
F
  0
LAYER
  5
1FD
100
AcDbSymbolTableRecord
100
AcDbLayerTableRecord
  2
ASSI
 70
0
 62
7
  6
CONTINUOUS
370
-3
390
F
  0
LAYER
  5
1FE
100
AcDbSymbolTableRecord
100
AcDbLayerTableRecord
  2
COORDINATE
 70
0
 62
7
  6
CONTINUOUS
370
-3
390
F
  0
LAYER
  5
1FF
100
AcDbSymbolTableRecord
100
AcDbLayerTableRecord
  2
COORD_ORIGINE
 70
0
 62
7
  6
CONTINUOUS
370
-3
390
F
  0
LAYER
  5
200
100
AcDbSymbolTableRecord
100
AcDbLayerTableRecord
  2
COPY_PUBLISH
 70
0
 62
7
  6
CONTINUOUS
370
-3
390
F
  0
LAYER
  5
201
100
AcDbSymbolTableRecord
100
AcDbLayerTableRecord
  2
COSMETICI
 70
0
 62
7
  6
CONTINUOUS
370
-3
390
F
  0
LAYER
  5
202
100
AcDbSymbolTableRecord
100
AcDbLayerTableRecord
  2
CURVE
 70
0
 62
7
  6
CONTINUOUS
370
-3
390
F
  0
LAYER
  5
203
100
AcDbSymbolTableRecord
100
AcDbLayerTableRecord
  2
DRAFT
 70
0
 62
7
  6
CONTINUOUS
370
-3
390
F
  0
LAYER
  5
204
100
AcDbSymbolTableRecord
100
AcDbLayerTableRecord
  2
IMPORT_IGES
 70
0
 62
7
  6
CONTINUOUS
370
-3
390
F
  0
LAYER
  5
205
100
AcDbSymbolTableRecord
100
AcDbLayerTableRecord
  2
INTF_2
 70
0
 62
7
  6
CONTINUOUS
370
-3
390
F
  0
LAYER
  5
206
100
AcDbSymbolTableRecord
100
AcDbLayerTableRecord
  2
INTF_3
 70
0
 62
7
  6
CONTINUOUS
370
-3
390
F
  0
LAYER
  5
207
100
AcDbSymbolTableRecord
100
AcDbLayerTableRecord
  2
NONE
 70
0
 62
7
  6
CONTINUOUS
370
-3
390
F
  0
LAYER
  5
208
100
AcDbSymbolTableRecord
100
AcDbLayerTableRecord
  2
NOTE
 70
0
 62
7
  6
CONTINUOUS
370
-3
390
F
  0
LAYER
  5
209
100
AcDbSymbolTableRecord
100
AcDbLayerTableRecord
  2
PIANI
 70
0
 62
7
  6
CONTINUOUS
370
-3
390
F
  0
LAYER
  5
20A
100
AcDbSymbolTableRecord
100
AcDbLayerTableRecord
  2
PIANI_ORIGINE
 70
0
 62
7
  6
CONTINUOUS
370
-3
390
F
  0
LAYER
  5
20B
100
AcDbSymbolTableRecord
100
AcDbLayerTableRecord
  2
PUNTI
 70
0
 62
7
  6
CONTINUOUS
370
-3
390
F
  0
LAYER
  5
20C
100
AcDbSymbolTableRecord
100
AcDbLayerTableRecord
  2
RACCORDO
 70
0
 62
7
  6
CONTINUOUS
370
-3
390
F
  0
LAYER
  5
20D
100
AcDbSymbolTableRecord
100
AcDbLayerTableRecord
  2
RGB____0____0____0__
 70
0
 62
7
  6
CONTINUOUS
370
-3
390
F
  0
LAYER
  5
20E
100
AcDbSymbolTableRecord
100
AcDbLayerTableRecord
  2
SIMBOLI
 70
0
 62
7
  6
CONTINUOUS
370
-3
390
F
  0
LAYER
  5
20F
100
AcDbSymbolTableRecord
100
AcDbLayerTableRecord
  2
SMUSSO
 70
0
 62
7
  6
CONTINUOUS
370
-3
390
F
  0
LAYER
  5
210
100
AcDbSymbolTableRecord
100
AcDbLayerTableRecord
  2
SNAPLINE
 70
0
 62
7
  6
CONTINUOUS
370
-3
390
F
  0
LAYER
  5
211
100
AcDbSymbolTableRecord
100
AcDbLayerTableRecord
  2
SUPERFICI
 70
0
 62
7
  6
CONTINUOUS
370
-3
390
F
  0
LAYER
  5
212
100
AcDbSymbolTableRecord
100
AcDbLayerTableRecord
  2
TRASH
 70
0
 62
7
  6
CONTINUOUS
370
-3
390
F
  0
ENDTAB
  0
TABLE
  2
STYLE
  5
3
100
AcDbSymbolTable
 70
1
  0
STYLE
  5
11
100
AcDbSymbolTableRecord
100
AcDbTextStyleTableRecord
  2
STANDARD
 70
0
 40
0.0
 41
0.8
 50
0.0
 71
0
 42
0.2
  3
txt
  4

  0
STYLE
  5
213
100
AcDbSymbolTableRecord
100
AcDbTextStyleTableRecord
  2
TEXTSTYLE_1
 70
0
 40
0.0
 41
0.8
 50
0.0
 71
0
 42
0.2
  3
gdt
  4

  0
ENDTAB
  0
TABLE
  2
VIEW
  5
6
100
AcDbSymbolTable
 70
0
  0
ENDTAB
  0
TABLE
  2
UCS
  5
7
100
AcDbSymbolTable
 70
0
  0
ENDTAB
  0
TABLE
  2
APPID
  5
9
100
AcDbSymbolTable
 70
1
  0
APPID
  5
214
100
AcDbSymbolTableRecord
100
AcDbRegAppTableRecord
  2
ACAD
 70
0
  0
ENDTAB
  0
TABLE
  2
BLOCK_RECORD
  5
1
100
AcDbSymbolTable
 70
0
  0
BLOCK_RECORD
  5
215
100
AcDbSymbolTableRecord
100
AcDbBlockTableRecord
  2
*Model_Space
  0
BLOCK_RECORD
  5
216
100
AcDbSymbolTableRecord
100
AcDbBlockTableRecord
  2
*Paper_Space
  0
ENDTAB
  0
TABLE
  2
DIMSTYLE
  5
A
100
AcDbSymbolTable
 70
1
100
AcDbDimStyleTable
 71
0
  0
DIMSTYLE
105
217
100
AcDbSymbolTableRecord
100
AcDbDimStyleTableRecord
  2
STANDARD
 70
0
  3

  4

 40
1.0
 41
3.0
 42
0.5
 43
0.38
 44
1.5
 45
0.0
 46
0.0
 47
0.01
 48
0.01
140
3.0
141
0.09
142
0.0
143
25.4
144
1.0
145
0.0
146
1.0
147
0.625
 71
1.0
 72
0.0
 73
0
 74
0
 75
0
 76
0
 77
1
 78
8
170
0
171
1
172
0
173
0
174
0
175
0
176
0
177
0
178
0
270
2
271
2
272
2
273
2
274
2
275
0
280
0
281
0
282
0
283
1
284
8
285
0
286
0
287
3
288
0
340
11
278
44
  0
ENDTAB
  0
ENDSEC
  0
SECTION
  2
BLOCKS
  0
BLOCK
  5
20
100
AcDbEntity
  8
0
100
AcDbBlockBegin
  2
*Model_Space
 70
0
 10
0.0
 20
0.0
 30
0.0
  3
*Model_Space
  1

  0
ENDBLK
  5
21
100
AcDbEntity
  8
0
100
AcDbBlockEnd
  0
BLOCK
  5
1C
100
AcDbEntity
  8
0
100
AcDbBlockBegin
  2
*Paper_Space
 70
0
 10
0.0
 20
0.0
 30
0.0
  3
*Paper_Space
  1

  0
ENDBLK
  5
1D
100
AcDbEntity
  8
0
100
AcDbBlockEnd
  0
ENDSEC
  0
SECTION
  2
ENTITIES
  0
LINE
  5
218
100
AcDbEntity
  8
IMPORT_IGES
100
AcDbLine
 62
7
  6
CONTINUOUS
 10
4.5000571154
 20
-46.975
 11
-4.5000571154
 21
-46.975
  0
LINE
  5
219
100
AcDbEntity
  8
IMPORT_IGES
100
AcDbLine
 62
7
  6
CONTINUOUS
 10
-4.4590408368
 20
-46.9339837214
 11
4.4590408368
 21
-46.9339837214
  0
LWPOLYLINE
  5
21A
100
AcDbEntity
  8
IMPORT_IGES
100
AcDbPolyline
 62
253
  6
CONTINUOUS
 90
31
 70
0
 10
17.3943858605
 20
-42.9193668221
 10
17.408258402
 20
-42.9191732739
 10
17.422779631
 20
-42.9185577718
 10
17.4379348046
 20
-42.9174633121
 10
17.4536910072
 20
-42.9158326123
 10
17.4700405556
 20
-42.9136040657
 10
17.4869999714
 20
-42.9107071994
 10
17.5045363826
 20
-42.9070739193
 10
17.5226124087
 20
-42.902634737
 10
17.5412277045
 20
-42.8973060905
 10
17.5603262838
 20
-42.8910136991
 10
17.5798530481
 20
-42.8836807766
 10
17.599794212
 20
-42.8752083159
 10
17.6200611165
 20
-42.8655207129
 10
17.6405763214
 20
-42.8545351482
 10
17.6613201002
 20
-42.8421267823
 10
17.6821603302
 20
-42.828224334
 10
17.7029871634
 20
-42.812740293
 10
17.72377593
 20
-42.7955032293
 10
17.7443499926
 20
-42.7764391293
 10
17.7645318117
 20
-42.7554721439
 10
17.7842347549
 20
-42.7324037765
 10
17.8032050158
 20
-42.7071877718
 10
17.8211920681
 20
-42.6797711459
 10
17.8380241432
 20
-42.6499296927
 10
17.8533513972
 20
-42.6176728677
 10
17.866820913
 20
-42.5830144319
 10
17.8781265418
 20
-42.5457448948
 10
17.8868226454
 20
-42.5058756751
 10
17.8923981281
 20
-42.4636733759
 10
17.8943668221
 20
-42.4193858605
  0
LINE
  5
21B
100
AcDbEntity
  8
0
100
AcDbLine
 62
7
  6
CONTINUOUS
 10
15.5
 20
-45.525
 11
5.9976800674
 21
-45.525
  0
LINE
  5
21C
100
AcDbEntity
  8
0
100
AcDbLine
 62
7
  6
CONTINUOUS
 10
-5.9976796528
 20
-45.525
 11
-13.8
 21
-45.525
  0
LINE
  5
21D
100
AcDbEntity
  8
IMPORT_IGES
100
AcDbLine
 62
7
  6
CONTINUOUS
 10
3.7410277017
 20
-45.3660162786
 11
-3.7410277017
 21
-45.3660162786
  0
LINE
  5
21E
100
AcDbEntity
  8
IMPORT_IGES
100
AcDbLine
 62
7
  6
CONTINUOUS
 10
-3.7000114231
 20
-45.325
 11
3.7000114231
 21
-45.325
  0
LWPOLYLINE
  5
21F
100
AcDbEntity
  8
IMPORT_IGES
100
AcDbPolyline
 62
253
  6
CONTINUOUS
 90
31
 70
0
 10
-6.6541256195
 20
-42.9193668221
 10
-6.640253078
 20
-42.9191732739
 10
-6.625731849
 20
-42.9185577718
 10
-6.6105766754
 20
-42.9174633121
 10
-6.5948204728
 20
-42.9158326123
 10
-6.5784709244
 20
-42.9136040657
 10
-6.5615115087
 20
-42.9107071994
 10
-6.5439750974
 20
-42.9070739193
 10
-6.5258990713
 20
-42.902634737
 10
-6.5072837756
 20
-42.8973060905
 10
-6.4881851962
 20
-42.8910136991
 10
-6.4686584319
 20
-42.8836807766
 10
-6.448717268
 20
-42.8752083159
 10
-6.4284503636
 20
-42.8655207129
 10
-6.4079351586
 20
-42.8545351482
 10
-6.3871913799
 20
-42.8421267823
 10
-6.3663511499
 20
-42.828224334
 10
-6.3455243166
 20
-42.812740293
 10
-6.32473555
 20
-42.7955032293
 10
-6.3041614874
 20
-42.7764391293
 10
-6.2839796683
 20
-42.7554721439
 10
-6.2642767251
 20
-42.7324037765
 10
-6.2453064642
 20
-42.7071877718
 10
-6.2273194119
 20
-42.6797711459
 10
-6.2104873368
 20
-42.6499296927
 10
-6.1951600828
 20
-42.6176728677
 10
-6.1816905671
 20
-42.5830144319
 10
-6.1703849382
 20
-42.5457448948
 10
-6.1616888346
 20
-42.5058756751
 10
-6.1561133519
 20
-42.4636733759
 10
-6.154144658
 20
-42.4193858605
  0
LINE
  5
220
100
AcDbEntity
  8
IMPORT_IGES
100
AcDbLine
 62
7
  6
CONTINUOUS
 10
-17.5000190385
 20
-43.025
 11
-6.0
 21
-43.025
  0
LINE
  5
221
100
AcDbEntity
  8
IMPORT_IGES
100
AcDbLine
 62
7
  6
CONTINUOUS
 10
17.5000190385
 20
-43.025
 11
6.0
 21
-43.025
  0
LINE
  5
222
100
AcDbEntity
  8
IMPORT_IGES
100
AcDbLine
 62
7
  6
CONTINUOUS
 10
-4.0
 20
-43.025
 11
4.0
 21
-43.025
  0
LINE
  5
223
100
AcDbEntity
  8
IMPORT_IGES
100
AcDbLine
 62
7
  6
CONTINUOUS
 10
-6.5956556053
 20
-42.9778368363
 11
-6.0
 21
-42.9778368363
  0
LINE
  5
224
100
AcDbEntity
  8
IMPORT_IGES
100
AcDbLine
 62
7
  6
CONTINUOUS
 10
-4.0
 20
-42.9778368363
 11
4.0
 21
-42.9778368363
  0
LINE
  5
225
100
AcDbEntity
  8
IMPORT_IGES
100
AcDbLine
 62
7
  6
CONTINUOUS
 10
6.0
 20
-42.9778368363
 11
6.5956556053
 21
-42.9778368363
  0
LINE
  5
226
100
AcDbEntity
  8
IMPORT_IGES
100
AcDbLine
 62
7
  6
CONTINUOUS
 10
-17.3943858605
 20
-42.9193668221
 11
-6.6541256195
 21
-42.9193668221
  0
LINE
  5
227
100
AcDbEntity
  8
IMPORT_IGES
100
AcDbLine
 62
7
  6
CONTINUOUS
 10
6.6541256195
 20
-42.9193668221
 11
17.3943858605
 21
-42.9193668221
  0
LINE
  5
228
100
AcDbEntity
  8
IMPORT_IGES
100
AcDbLine
 62
253
  6
CONTINUOUS
 10
6.1
 20
-42.4778558747
 11
6.0
 21
-42.4778558747
  0
LINE
  5
229
100
AcDbEntity
  8
IMPORT_IGES
100
AcDbLine
 62
253
  6
CONTINUOUS
 10
4.0
 20
-42.4778558747
 11
-4.0
 21
-42.4778558747
  0
LINE
  5
22A
100
AcDbEntity
  8
IMPORT_IGES
100
AcDbLine
 62
253
  6
CONTINUOUS
 10
-6.0
 20
-42.4778558747
 11
-6.1
 21
-42.4778558747
  0
LINE
  5
22B
100
AcDbEntity
  8
IMPORT_IGES
100
AcDbLine
 62
253
  6
CONTINUOUS
 10
17.8943668221
 20
-42.4193858605
 11
6.154144658
 21
-42.4193858605
  0
LINE
  5
22C
100
AcDbEntity
  8
IMPORT_IGES
100
AcDbLine
 62
253
  6
CONTINUOUS
 10
-6.154144658
 20
-42.4193858605
 11
-17.8943668221
 21
-42.4193858605
  0
LINE
  5
22D
100
AcDbEntity
  8
IMPORT_IGES
100
AcDbLine
 62
7
  6
CONTINUOUS
 10
-1.1895277587
 20
-40.9854722413
 11
-3.8104722413
 21
-40.9854722413
  0
LINE
  5
22E
100
AcDbEntity
  8
IMPORT_IGES
100
AcDbLine
 62
7
  6
CONTINUOUS
 10
-3.8
 20
-40.975
 11
-1.2
 21
-40.975
  0
LWPOLYLINE
  5
22F
100
AcDbEntity
  8
IMPORT_IGES
100
AcDbPolyline
 62
253
  6
CONTINUOUS
 90
31
 70
0
 10
-5.3707066683
 20
-37.3620000474
 10
-5.3568341268
 20
-37.3618064992
 10
-5.3423128978
 20
-37.3611909972
 10
-5.3271577242
 20
-37.3600965375
 10
-5.3114015216
 20
-37.3584658377
 10
-5.2950519732
 20
-37.3562372911
 10
-5.2780925575
 20
-37.3533404248
 10
-5.2605561462
 20
-37.3497071447
 10
-5.2424801201
 20
-37.3452679624
 10
-5.2238648244
 20
-37.3399393159
 10
-5.204766245
 20
-37.3336469245
 10
-5.1852394807
 20
-37.3263140019
 10
-5.1652983168
 20
-37.3178415412
 10
-5.1450314124
 20
-37.3081539382
 10
-5.1245162074
 20
-37.2971683735
 10
-5.1037724287
 20
-37.2847600077
 10
-5.0829321987
 20
-37.2708575594
 10
-5.0621053654
 20
-37.2553735184
 10
-5.0413165988
 20
-37.2381364547
 10
-5.0207425362
 20
-37.2190723547
 10
-5.0005607171
 20
-37.1981053693
 10
-4.9808577739
 20
-37.1750370019
 10
-4.961887513
 20
-37.1498209972
 10
-4.9439004607
 20
-37.1224043713
 10
-4.9270683856
 20
-37.0925629181
 10
-4.9117411316
 20
-37.0603060931
 10
-4.8982716159
 20
-37.0256476573
 10
-4.886965987
 20
-36.9883781202
 10
-4.8782698834
 20
-36.9485089005
 10
-4.8726944007
 20
-36.9063066013
 10
-4.8707257068
 20
-36.8620190859
  0
LINE
  5
230
100
AcDbEntity
  8
IMPORT_IGES
100
AcDbLine
 62
7
  6
CONTINUOUS
 10
-6.1
 20
-37.7942013249
 11
-6.0
 21
-37.7942013249
  0
LINE
  5
231
100
AcDbEntity
  8
IMPORT_IGES
100
AcDbLine
 62
7
  6
CONTINUOUS
 10
6.0
 20
-37.7942013249
 11
6.1
 21
-37.7942013249
  0
LINE
  5
232
100
AcDbEntity
  8
IMPORT_IGES
100
AcDbLine
 62
7
  6
CONTINUOUS
 10
6.1418889654
 20
-37.37425574
 11
5.3584509757
 21
-37.37425574
  0
LINE
  5
233
100
AcDbEntity
  8
IMPORT_IGES
100
AcDbLine
 62
7
  6
CONTINUOUS
 10
-5.3584509757
 20
-37.37425574
 11
-6.1418889654
 21
-37.37425574
  0
LINE
  5
234
100
AcDbEntity
  8
IMPORT_IGES
100
AcDbLine
 62
7
  6
CONTINUOUS
 10
-6.154144658
 20
-37.3620000474
 11
-5.3707066683
 21
-37.3620000474
  0
LINE
  5
235
100
AcDbEntity
  8
IMPORT_IGES
100
AcDbLine
 62
7
  6
CONTINUOUS
 10
5.3707066683
 20
-37.3620000474
 11
6.154144658
 21
-37.3620000474
  0
LINE
  5
236
100
AcDbEntity
  8
IMPORT_IGES
100
AcDbLine
 62
253
  6
CONTINUOUS
 10
6.6541256195
 20
-36.8620190859
 11
4.8707257068
 21
-36.8620190859
  0
LINE
  5
237
100
AcDbEntity
  8
IMPORT_IGES
100
AcDbLine
 62
253
  6
CONTINUOUS
 10
-4.8707257068
 20
-36.8620190859
 11
-6.6541256195
 21
-36.8620190859
  0
LINE
  5
238
100
AcDbEntity
  8
IMPORT_IGES
100
AcDbLine
 62
7
  6
CONTINUOUS
 10
-3.8017607393
 20
-33.6732392607
 11
-1.1982392607
 21
-33.6732392607
  0
LINE
  5
239
100
AcDbEntity
  8
IMPORT_IGES
100
AcDbLine
 62
253
  6
CONTINUOUS
 10
-6.5956556053
 20
-42.9778368363
 11
-6.6541256195
 21
-42.9193668221
  0
LINE
  5
23A
100
AcDbEntity
  8
IMPORT_IGES
100
AcDbLine
 62
253
  6
CONTINUOUS
 10
-6.154144658
 20
-42.4193858605
 11
-6.1
 21
-42.4735305185
  0
LWPOLYLINE
  5
23B
100
AcDbEntity
  8
IMPORT_IGES
100
AcDbPolyline
 62
253
  6
CONTINUOUS
 90
19
 70
0
 10
-17.9354072227
 20
46.4104262611
 10
-17.9331468985
 20
46.4179634099
 10
-17.9271324886
 20
46.4254403658
 10
-17.9174143111
 20
46.4328008437
 10
-17.9040717633
 20
46.4399889573
 10
-17.8872093745
 20
46.4469514843
 10
-17.8669529781
 20
46.4536380553
 10
-17.8434562939
 20
46.4599986764
 10
-17.8168980424
 20
46.4659856126
 10
-17.7874732393
 20
46.4715551808
 10
-17.7554028626
 20
46.476665516
 10
-17.7209277808
 20
46.4812782015
 10
-17.6842993735
 20
46.4853593235
 10
-17.6457923967
 20
46.4888777932
 10
-17.6056946815
 20
46.4918068582
 10
-17.5642962889
 20
46.4941246067
 10
-17.5219037517
 20
46.4958128271
 10
-17.4788389849
 20
46.4968576731
 10
-17.4354262611
 20
46.49725035
  0
LINE
  5
23C
100
AcDbEntity
  8
IMPORT_IGES
100
AcDbLine
 62
7
  6
CONTINUOUS
 10
-3.8104722413
 20
-32.675
 11
-1.1895277587
 21
-32.675
  0
LINE
  5
23D
100
AcDbEntity
  8
IMPORT_IGES
100
AcDbLine
 62
7
  6
CONTINUOUS
 10
-1.1895277587
 20
-31.8854722413
 11
-3.8104722413
 21
-31.8854722413
  0
LINE
  5
23E
100
AcDbEntity
  8
IMPORT_IGES
100
AcDbLine
 62
7
  6
CONTINUOUS
 10
-3.8
 20
-31.875
 11
-1.2
 21
-31.875
  0
LINE
  5
23F
100
AcDbEntity
  8
IMPORT_IGES
100
AcDbLine
 62
7
  6
CONTINUOUS
 10
3.7000114231
 20
-31.725
 11
-2.5
 21
-31.725
  0
LINE
  5
240
100
AcDbEntity
  8
IMPORT_IGES
100
AcDbLine
 62
7
  6
CONTINUOUS
 10
-2.5
 20
-31.6966376797
 11
3.7283737434
 21
-31.6966376797
  0
LINE
  5
241
100
AcDbEntity
  8
IMPORT_IGES
100
AcDbLine
 62
7
  6
CONTINUOUS
 10
-1.5
 20
-31.225
 11
4.0283623203
 21
-31.225
  0
LINE
  5
242
100
AcDbEntity
  8
IMPORT_IGES
100
AcDbLine
 62
7
  6
CONTINUOUS
 10
-1.5
 20
-31.225
 11
4.0410162786
 21
-31.2123460417
  0
LINE
  5
243
100
AcDbEntity
  8
IMPORT_IGES
100
AcDbLine
 62
7
  6
CONTINUOUS
 10
4.0283623203
 20
-30.225
 11
-1.5
 21
-30.225
  0
LINE
  5
244
100
AcDbEntity
  8
IMPORT_IGES
100
AcDbLine
 62
7
  6
CONTINUOUS
 10
3.7283737434
 20
-29.7533623203
 11
-2.5
 21
-29.7533623203
  0
LINE
  5
245
100
AcDbEntity
  8
IMPORT_IGES
100
AcDbLine
 62
7
  6
CONTINUOUS
 10
4.0410162786
 20
-30.2376539583
 11
-1.5
 21
-30.225
  0
LINE
  5
246
100
AcDbEntity
  8
IMPORT_IGES
100
AcDbLine
 62
7
  6
CONTINUOUS
 10
-6.154144658
 20
-37.3620000474
 11
-6.1546028392
 21
-37.3615519637
  0
LINE
  5
247
100
AcDbEntity
  8
IMPORT_IGES
100
AcDbLine
 62
253
  6
CONTINUOUS
 10
-5.3584509757
 20
-37.37425574
 11
-5.3707066683
 21
-37.3620000474
  0
LINE
  5
248
100
AcDbEntity
  8
IMPORT_IGES
100
AcDbLine
 62
253
  6
CONTINUOUS
 10
4.5000571154
 20
-46.975
 11
4.4590408368
 21
-46.9339837214
  0
LINE
  5
249
100
AcDbEntity
  8
IMPORT_IGES
100
AcDbLine
 62
7
  6
CONTINUOUS
 10
-1.1895277587
 20
-40.9854722413
 11
-1.2
 21
-40.975
  0
LINE
  5
24A
100
AcDbEntity
  8
IMPORT_IGES
100
AcDbLine
 62
7
  6
CONTINUOUS
 10
-6.1573765478
 20
-37.3587681576
 11
-6.6541256195
 21
-36.8620190859
  0
LINE
  5
24B
100
AcDbEntity
  8
IMPORT_IGES
100
AcDbLine
 62
7
  6
CONTINUOUS
 10
-6.1418889654
 20
-37.37425574
 11
-6.1573765478
 21
-37.3587681576
  0
LINE
  5
24C
100
AcDbEntity
  8
IMPORT_IGES
100
AcDbLine
 62
7
  6
CONTINUOUS
 10
-17.9528368363
 20
19.7206746438
 11
-17.9377698084
 21
19.7357416716
  0
LINE
  5
24D
100
AcDbEntity
  8
IMPORT_IGES
100
AcDbLine
 62
7
  6
CONTINUOUS
 10
-1.3080952381
 20
37.3704622787
 11
-1.3054367868
 21
37.372992925
  0
LINE
  5
24E
100
AcDbEntity
  8
IMPORT_IGES
100
AcDbLine
 62
7
  6
CONTINUOUS
 10
-2.5
 20
-29.725
 11
3.7000114231
 21
-29.725
  0
LINE
  5
24F
100
AcDbEntity
  8
IMPORT_IGES
100
AcDbLine
 62
7
  6
CONTINUOUS
 10
-1.2
 20
-29.675
 11
-3.8
 21
-29.675
  0
LINE
  5
250
100
AcDbEntity
  8
IMPORT_IGES
100
AcDbLine
 62
7
  6
CONTINUOUS
 10
-3.8104722413
 20
-29.6645277587
 11
-1.1895277587
 21
-29.6645277587
  0
LINE
  5
251
100
AcDbEntity
  8
IMPORT_IGES
100
AcDbLine
 62
7
  6
CONTINUOUS
 10
1.3104722413
 20
-27.5273547064
 11
-1.3104722413
 21
-27.5273547064
  0
LINE
  5
252
100
AcDbEntity
  8
IMPORT_IGES
100
AcDbLine
 62
7
  6
CONTINUOUS
 10
-1.3
 20
-27.5168824651
 11
1.3
 21
-27.5168824651
  0
LINE
  5
253
100
AcDbEntity
  8
IMPORT_IGES
100
AcDbLine
 62
7
  6
CONTINUOUS
 10
3.7000114231
 20
-26.725
 11
0.0
 21
-26.725
  0
LINE
  5
254
100
AcDbEntity
  8
IMPORT_IGES
100
AcDbLine
 62
7
  6
CONTINUOUS
 10
0.0
 20
-26.6839837214
 11
3.7410277017
 21
-26.6839837214
  0
LINE
  5
255
100
AcDbEntity
  8
IMPORT_IGES
100
AcDbLine
 62
253
  6
CONTINUOUS
 10
-4.8707257068
 20
-36.8620190859
 11
-4.8584700142
 21
-36.8742747785
  0
LINE
  5
256
100
AcDbEntity
  8
IMPORT_IGES
100
AcDbLine
 62
253
  6
CONTINUOUS
 10
3.7410277017
 20
-45.3660162786
 11
3.7000114231
 21
-45.325
  0
LINE
  5
257
100
AcDbEntity
  8
IMPORT_IGES
100
AcDbLine
 62
253
  6
CONTINUOUS
 10
4.0
 20
-45.0250114231
 11
4.0410162786
 21
-45.0660277017
  0
LINE
  5
258
100
AcDbEntity
  8
IMPORT_IGES
100
AcDbLine
 62
253
  6
CONTINUOUS
 10
5.9589837214
 20
-45.4340408368
 11
6.0
 21
-45.4750571154
  0
LINE
  5
259
100
AcDbEntity
  8
IMPORT_IGES
100
AcDbLine
 62
7
  6
CONTINUOUS
 10
-3.8
 20
-33.675
 11
-3.8017607393
 21
-33.6732392607
  0
LINE
  5
25A
100
AcDbEntity
  8
IMPORT_IGES
100
AcDbLine
 62
253
  6
CONTINUOUS
 10
-17.9225295655
 20
17.2448828158
 11
-17.8943668221
 21
17.300968965
  0
LINE
  5
25B
100
AcDbEntity
  8
IMPORT_IGES
100
AcDbLine
 62
253
  6
CONTINUOUS
 10
-17.3987484637
 20
16.801064153
 11
-17.4196870854
 21
16.759364854
  0
LINE
  5
25C
100
AcDbEntity
  8
IMPORT_IGES
100
AcDbLine
 62
7
  6
CONTINUOUS
 10
5.549047619
 20
37.3704622787
 11
5.5517060703
 21
37.372992925
  0
LINE
  5
25D
100
AcDbEntity
  8
IMPORT_IGES
100
AcDbLine
 62
7
  6
CONTINUOUS
 10
2.5591545797
 20
33.9464285714
 11
2.5624124202
 21
33.9490829351
  0
LWPOLYLINE
  5
25E
100
AcDbEntity
  8
IMPORT_IGES
100
AcDbPolyline
 62
7
  6
CONTINUOUS
 90
13
 70
0
 10
-3.7410538436
 20
-24.0820738603
 10
-3.7812592269
 20
-24.0849983147
 10
-3.8195226293
 20
-24.0926105257
 10
-3.855844051
 20
-24.1049104932
 10
-3.8907720354
 20
-24.1222645791
 10
-3.923758039
 20
-24.1443064215
 10
-3.9531564311
 20
-24.1699369348
 10
-3.9787853128
 20
-24.1993380403
 10
-4.000826583
 20
-24.2323278168
 10
-4.018180308
 20
-24.2672614154
 10
-4.0304798434
 20
-24.3035905532
 10
-4.0380918336
 20
-24.3418635131
 10
-4.0410162786
 20
-24.3820802952
  0
LWPOLYLINE
  5
25F
100
AcDbEntity
  8
IMPORT_IGES
100
AcDbPolyline
 62
253
  6
CONTINUOUS
 90
31
 70
0
 10
5.3707066683
 20
-23.3865114326
 10
5.3568341268
 20
-23.3867049808
 10
5.3423128978
 20
-23.3873204828
 10
5.3271577242
 20
-23.3884149426
 10
5.3114015216
 20
-23.3900456424
 10
5.2950519732
 20
-23.3922741889
 10
5.2780925575
 20
-23.3951710553
 10
5.2605561462
 20
-23.3988043353
 10
5.2424801201
 20
-23.4032435176
 10
5.2238648244
 20
-23.4085721641
 10
5.204766245
 20
-23.4148645555
 10
5.1852394807
 20
-23.4221974781
 10
5.1652983168
 20
-23.4306699388
 10
5.1450314124
 20
-23.4403575418
 10
5.1245162074
 20
-23.4513431065
 10
5.1037724287
 20
-23.4637514724
 10
5.0829321987
 20
-23.4776539207
 10
5.0621053654
 20
-23.4931379617
 10
5.0413165988
 20
-23.5103750254
 10
5.0207425362
 20
-23.5294391253
 10
5.0005607171
 20
-23.5504061108
 10
4.9808577739
 20
-23.5734744781
 10
4.961887513
 20
-23.5986904828
 10
4.9439004607
 20
-23.6261071088
 10
4.9270683856
 20
-23.6559485619
 10
4.9117411316
 20
-23.6882053869
 10
4.8982716159
 20
-23.7228638228
 10
4.886965987
 20
-23.7601333598
 10
4.8782698834
 20
-23.8000025795
 10
4.8726944007
 20
-23.8422048788
 10
4.8707257068
 20
-23.8864923941
  0
LINE
  5
260
100
AcDbEntity
  8
IMPORT_IGES
100
AcDbLine
 62
7
  6
CONTINUOUS
 10
3.7410277017
 20
-25.2660162786
 11
-0.0149287045
 21
-25.2660162786
  0
LINE
  5
261
100
AcDbEntity
  8
IMPORT_IGES
100
AcDbLine
 62
7
  6
CONTINUOUS
 10
-0.0103230404
 20
-25.2533623203
 11
0.7216376797
 21
-25.2533623203
  0
LINE
  5
262
100
AcDbEntity
  8
IMPORT_IGES
100
AcDbLine
 62
7
  6
CONTINUOUS
 10
0.75
 20
-25.225
 11
3.7000114231
 21
-25.225
  0
LINE
  5
263
100
AcDbEntity
  8
IMPORT_IGES
100
AcDbLine
 62
7
  6
CONTINUOUS
 10
0.75
 20
-24.9151217258
 11
1.3017607393
 21
-24.9151217258
  0
LINE
  5
264
100
AcDbEntity
  8
IMPORT_IGES
100
AcDbLine
 62
7
  6
CONTINUOUS
 10
-1.3104722413
 20
-23.9168824651
 11
-0.75
 21
-23.9168824651
  0
LINE
  5
265
100
AcDbEntity
  8
IMPORT_IGES
100
AcDbLine
 62
7
  6
CONTINUOUS
 10
0.75
 20
-23.9168824651
 11
1.3104722413
 21
-23.9168824651
  0
LINE
  5
266
100
AcDbEntity
  8
IMPORT_IGES
100
AcDbLine
 62
253
  6
CONTINUOUS
 10
-6.6541256195
 20
-23.8864923941
 11
-4.8707257068
 21
-23.8864923941
  0
LINE
  5
267
100
AcDbEntity
  8
IMPORT_IGES
100
AcDbLine
 62
253
  6
CONTINUOUS
 10
4.8707257068
 20
-23.8864923941
 11
6.6541256195
 21
-23.8864923941
  0
LINE
  5
268
100
AcDbEntity
  8
IMPORT_IGES
100
AcDbLine
 62
7
  6
CONTINUOUS
 10
1.3104722413
 20
-23.4273547064
 11
0.75
 21
-23.4273547064
  0
LINE
  5
269
100
AcDbEntity
  8
IMPORT_IGES
100
AcDbLine
 62
7
  6
CONTINUOUS
 10
-0.75
 20
-23.4273547064
 11
-1.3104722413
 21
-23.4273547064
  0
LINE
  5
26A
100
AcDbEntity
  8
IMPORT_IGES
100
AcDbLine
 62
7
  6
CONTINUOUS
 10
-1.3
 20
-23.4168824651
 11
-0.75
 21
-23.4168824651
  0
LINE
  5
26B
100
AcDbEntity
  8
IMPORT_IGES
100
AcDbLine
 62
7
  6
CONTINUOUS
 10
0.75
 20
-23.4168824651
 11
1.3
 21
-23.4168824651
  0
LINE
  5
26C
100
AcDbEntity
  8
IMPORT_IGES
100
AcDbLine
 62
7
  6
CONTINUOUS
 10
6.154144658
 20
-23.3865114326
 11
5.3707066683
 21
-23.3865114326
  0
LINE
  5
26D
100
AcDbEntity
  8
IMPORT_IGES
100
AcDbLine
 62
7
  6
CONTINUOUS
 10
-5.3707066683
 20
-23.3865114326
 11
-6.154144658
 21
-23.3865114326
  0
LINE
  5
26E
100
AcDbEntity
  8
IMPORT_IGES
100
AcDbLine
 62
7
  6
CONTINUOUS
 10
-6.1418889654
 20
-23.37425574
 11
-5.3584509757
 21
-23.37425574
  0
LINE
  5
26F
100
AcDbEntity
  8
IMPORT_IGES
100
AcDbLine
 62
7
  6
CONTINUOUS
 10
5.3584509757
 20
-23.37425574
 11
6.1418889654
 21
-23.37425574
  0
LWPOLYLINE
  5
270
100
AcDbEntity
  8
IMPORT_IGES
100
AcDbPolyline
 62
7
  6
CONTINUOUS
 90
10
 70
0
 10
-3.700037565
 20
-24.1700335536
 10
-3.6765618265
 20
-24.1709817244
 10
-3.653499908
 20
-24.1736784406
 10
-3.6308518095
 20
-24.1781237023
 10
-3.6084868258
 20
-24.1843648918
 10
-3.586535662
 20
-24.1923546267
 10
-3.5653904343
 20
-24.2019507603
 10
-3.5451818478
 20
-24.2131059103
 10
-3.5257791973
 20
-24.2258674589
 10
-3.5071824828
 20
-24.2402354062
  0
LINE
  5
271
100
AcDbEntity
  8
IMPORT_IGES
100
AcDbLine
 62
253
  6
CONTINUOUS
 10
-17.8943668221
 20
-18.3291256195
 11
-17.9528368363
 21
-18.2706556053
  0
LINE
  5
272
100
AcDbEntity
  8
IMPORT_IGES
100
AcDbLine
 62
253
  6
CONTINUOUS
 10
-17.4485305185
 20
-17.775
 11
-17.3943858605
 21
-17.829144658
  0
LINE
  5
273
100
AcDbEntity
  8
IMPORT_IGES
100
AcDbLine
 62
7
  6
CONTINUOUS
 10
-16.8613436759
 20
-17.8136563241
 11
-16.9
 21
-17.775
  0
LINE
  5
274
100
AcDbEntity
  8
IMPORT_IGES
100
AcDbLine
 62
7
  6
CONTINUOUS
 10
-3.8104722413
 20
-29.6645277587
 11
-3.8
 21
-29.675
  0
LINE
  5
275
100
AcDbEntity
  8
IMPORT_IGES
100
AcDbLine
 62
7
  6
CONTINUOUS
 10
-1.1895277587
 20
-31.8854722413
 11
-1.2
 21
-31.875
  0
LINE
  5
276
100
AcDbEntity
  8
IMPORT_IGES
100
AcDbLine
 62
7
  6
CONTINUOUS
 10
-16.9
 20
-15.775
 11
-16.882362833
 21
-15.792637167
  0
LWPOLYLINE
  5
277
100
AcDbEntity
  8
IMPORT_IGES
100
AcDbPolyline
 62
253
  6
CONTINUOUS
 90
31
 70
0
 10
-17.8943668221
 20
-42.4193858605
 10
-17.8925093064
 20
-42.4624059817
 10
-17.8872242622
 20
-42.503558027
 10
-17.8789353868
 20
-42.5426077126
 10
-17.8680831135
 20
-42.5793243969
 10
-17.8550663289
 20
-42.6136558718
 10
-17.8401939031
 20
-42.6457059529
 10
-17.8238070926
 20
-42.6754358965
 10
-17.806227481
 20
-42.7028460189
 10
-17.7876380652
 20
-42.7281174173
 10
-17.7682899338
 20
-42.7512861544
 10
-17.7484215178
 20
-42.7724024043
 10
-17.7281159806
 20
-42.7916575983
 10
-17.707542301
 20
-42.8091234864
 10
-17.6868766923
 20
-42.8248633718
 10
-17.6661555041
 20
-42.8390343476
 10
-17.6454955023
 20
-42.8517148732
 10
-17.6250209623
 20
-42.8629766965
 10
-17.6047423117
 20
-42.8729457728
 10
-17.5847385128
 20
-42.8816989865
 10
-17.5650965008
 20
-42.8893077915
 10
-17.5458148739
 20
-42.8958721945
 10
-17.5269437144
 20
-42.9014643236
 10
-17.5085447782
 20
-42.9061509374
 10
-17.4906191613
 20
-42.9100108933
 10
-17.4732045785
 20
-42.9131091076
 10
-17.4563364038
 20
-42.9155092434
 10
-17.4400023948
 20
-42.9172780522
 10
-17.4242129024
 20
-42.9184740714
 10
-17.4090018539
 20
-42.919152028
 10
-17.3943858605
 20
-42.9193668221
  0
LINE
  5
278
100
AcDbEntity
  8
IMPORT_IGES
100
AcDbLine
 62
7
  6
CONTINUOUS
 10
-1.3080952381
 20
30.5242134196
 11
-1.3054367868
 21
30.5270513359
  0
LINE
  5
279
100
AcDbEntity
  8
IMPORT_IGES
100
AcDbLine
 62
253
  6
CONTINUOUS
 10
17.4354262611
 20
46.9104072227
 11
17.5000190385
 21
46.975
  0
LINE
  5
27A
100
AcDbEntity
  8
IMPORT_IGES
100
AcDbLine
 62
253
  6
CONTINUOUS
 10
18.0
 20
46.4750190385
 11
17.9354072227
 21
46.4104262611
  0
LINE
  5
27B
100
AcDbEntity
  8
IMPORT_IGES
100
AcDbLine
 62
7
  6
CONTINUOUS
 10
4.7871428571
 20
33.9464285714
 11
4.7898013084
 21
33.9490829351
  0
LINE
  5
27C
100
AcDbEntity
  8
IMPORT_IGES
100
AcDbLine
 62
7
  6
CONTINUOUS
 10
6.1
 20
-22.9543101551
 11
6.0
 21
-22.9543101551
  0
LINE
  5
27D
100
AcDbEntity
  8
IMPORT_IGES
100
AcDbLine
 62
7
  6
CONTINUOUS
 10
-6.1
 20
-22.9543101551
 11
-6.0
 21
-22.9543101551
  0
LWPOLYLINE
  5
27E
100
AcDbEntity
  8
IMPORT_IGES
100
AcDbPolyline
 62
7
  6
CONTINUOUS
 90
10
 70
0
 10
-3.5481987614
 20
-24.1522757129
 10
-3.5667954759
 20
-24.1379077656
 10
-3.5861981264
 20
-24.125146217
 10
-3.6064067129
 20
-24.113991067
 10
-3.6275519407
 20
-24.1043949334
 10
-3.6495031044
 20
-24.0964051985
 10
-3.6718680882
 20
-24.090164009
 10
-3.6945161866
 20
-24.0857187473
 10
-3.7175781051
 20
-24.083022031
 10
-3.7410538436
 20
-24.0820738603
  0
LINE
  5
27F
100
AcDbEntity
  8
IMPORT_IGES
100
AcDbLine
 62
7
  6
CONTINUOUS
 10
-0.9641814145
 20
-26.3740666647
 11
-3.5071824828
 21
-24.2402354062
  0
LINE
  5
280
100
AcDbEntity
  8
IMPORT_IGES
100
AcDbLine
 62
7
  6
CONTINUOUS
 10
-3.5481987614
 20
-24.1522757129
 11
-0.9378166588
 21
-26.3426463724
  0
LWPOLYLINE
  5
281
100
AcDbEntity
  8
IMPORT_IGES
100
AcDbPolyline
 62
253
  6
CONTINUOUS
 90
76
 70
0
 10
-17.8943668221
 20
17.300968965
 10
-17.8938164447
 20
17.2775939973
 10
-17.8921991985
 20
17.2545432658
 10
-17.8895564585
 20
17.2318633724
 10
-17.8859055264
 20
17.2094602447
 10
-17.8813037332
 20
17.1875128792
 10
-17.8759092092
 20
17.1664606212
 10
-17.8698514566
 20
17.1464188274
 10
-17.863200969
 20
17.1272972999
 10
-17.8560900763
 20
17.1092008318
 10
-17.8486482146
 20
17.0921914189
 10
-17.8409411886
 20
17.0761858655
 10
-17.8329993013
 20
17.0610642028
 10
-17.8248920494
 20
17.0468083775
 10
-17.8166883469
 20
17.0334037792
 10
-17.8083915855
 20
17.0207417447
 10
-17.8000486522
 20
17.0087987573
 10
-17.7917122644
 20
16.9975627477
 10
-17.7833758189
 20
16.9869491393
 10
-17.7750735437
 20
16.9769369939
 10
-17.7668439373
 20
16.9675125871
 10
-17.7586740104
 20
16.9586083335
 10
-17.7505886867
 20
16.9502057671
 10
-17.7426164783
 20
16.9422915957
 10
-17.7347408031
 20
16.9348113603
 10
-17.7269796941
 20
16.9277489357
 10
-17.7193545947
 20
16.9210923469
 10
-17.7118476734
 20
16.9147979016
 10
-17.7044720526
 20
16.9088517558
 10
-17.6972439708
 20
16.9032433546
 10
-17.6901457431
 20
16.8979376899
 10
-17.6831872642
 20
16.8929231847
 10
-17.6763806402
 20
16.888190436
 10
-17.6697082339
 20
16.8837107932
 10
-17.6631771658
 20
16.8794743577
 10
-17.6567968597
 20
16.875473173
 10
-17.6505507475
 20
16.8716840569
 10
-17.6444441268
 20
16.8680986956
 10
-17.6384842206
 20
16.8647102531
 10
-17.6326556053
 20
16.8614998466
 10
-17.6269623321
 20
16.8584605457
 10
-17.6214098765
 20
16.8555864514
 10
-17.6159836608
 20
16.8528619441
 10
-17.6106865515
 20
16.8502811295
 10
-17.6055229512
 20
16.8478390787
 10
-17.6004796247
 20
16.8455230314
 10
-17.5955589101
 20
16.8433281284
 10
-17.5907640485
 20
16.8412500839
 10
-17.5860824347
 20
16.8392781663
 10
-17.5815152639
 20
16.8374080746
 10
-17.5770656229
 20
16.8356364249
 10
-17.5727232072
 20
16.8339548035
 10
-17.5684893309
 20
16.8323597501
 10
-17.5643660096
 20
16.8308481813
 10
-17.5603435946
 20
16.8294129992
 10
-17.5564233743
 20
16.8280513761
 10
-17.5526066518
 20
16.8267605801
 10
-17.5488834864
 20
16.8255343115
 10
-17.5452549294
 20
16.8243702136
 10
-17.5417219348
 20
16.8232659711
 10
-17.5382741592
 20
16.8222159456
 10
-17.5349107293
 20
16.8212176888
 10
-17.531634053
 20
16.8202697959
 10
-17.5284385262
 20
16.8193686393
 10
-17.5253204886
 20
16.8185113515
 10
-17.5222848146
 20
16.8176974902
 10
-17.5193386446
 20
16.8169271312
 10
-17.5164860713
 20
16.8161994669
 10
-17.5137240987
 20
16.8155119193
 10
-17.5110491983
 20
16.8148619273
 10
-17.5084586625
 20
16.8142472704
 10
-17.5059560547
 20
16.8136672862
 10
-17.5035472134
 20
16.8131218053
 10
-17.5012393312
 20
16.8126108993
 10
-17.4990259685
 20
16.8121316514
 10
-17.4948420401
 20
16.8112543266
  0
LINE
  5
282
100
AcDbEntity
  8
IMPORT_IGES
100
AcDbLine
 62
7
  6
CONTINUOUS
 10
-17.9225295655
 20
17.2448828158
 11
-17.9377698084
 21
18.2532971511
  0
LINE
  5
283
100
AcDbEntity
  8
IMPORT_IGES
100
AcDbLine
 62
7
  6
CONTINUOUS
 10
-16.882362833
 20
-15.792637167
 11
-16.8613436759
 21
-17.8136563241
  0
LINE
  5
284
100
AcDbEntity
  8
IMPORT_IGES
100
AcDbLine
 62
7
  6
CONTINUOUS
 10
-17.8943668221
 20
19.7397256824
 11
-17.9354072227
 21
46.4104262611
  0
LINE
  5
285
100
AcDbEntity
  8
IMPORT_IGES
100
AcDbLine
 62
7
  6
CONTINUOUS
 10
-18.0
 20
-42.5250190385
 11
-18.0
 21
46.4750190385
  0
LINE
  5
286
100
AcDbEntity
  8
IMPORT_IGES
100
AcDbLine
 62
7
  6
CONTINUOUS
 10
-17.9528368363
 20
19.7206746438
 11
-17.9528368363
 21
-18.2706556053
  0
LINE
  5
287
100
AcDbEntity
  8
IMPORT_IGES
100
AcDbLine
 62
7
  6
CONTINUOUS
 10
-17.9377698084
 20
18.2532971511
 11
-17.9377698084
 21
19.7356033002
  0
LINE
  5
288
100
AcDbEntity
  8
IMPORT_IGES
100
AcDbLine
 62
7
  6
CONTINUOUS
 10
-17.8943668221
 20
19.7397256824
 11
-17.8943668221
 21
17.300968965
  0
LINE
  5
289
100
AcDbEntity
  8
IMPORT_IGES
100
AcDbLine
 62
7
  6
CONTINUOUS
 10
-17.8943668221
 20
-18.3291256195
 11
-17.8943668221
 21
-42.4193858605
  0
LINE
  5
28A
100
AcDbEntity
  8
IMPORT_IGES
100
AcDbLine
 62
253
  6
CONTINUOUS
 10
-17.4528558747
 20
-17.775
 11
-17.4528558747
 21
16.759364854
  0
LINE
  5
28B
100
AcDbEntity
  8
IMPORT_IGES
100
AcDbLine
 62
253
  6
CONTINUOUS
 10
-17.3943195702
 20
19.7834700142
 11
-17.4354262611
 21
46.9104072227
  0
LINE
  5
28C
100
AcDbEntity
  8
IMPORT_IGES
100
AcDbLine
 62
253
  6
CONTINUOUS
 10
-17.3943858605
 20
-42.9193668221
 11
-17.3943858605
 21
-17.829144658
  0
LINE
  5
28D
100
AcDbEntity
  8
IMPORT_IGES
100
AcDbLine
 62
253
  6
CONTINUOUS
 10
-17.3943858605
 20
17.300968965
 11
-17.3943858605
 21
19.7834700142
  0
LINE
  5
28E
100
AcDbEntity
  8
IMPORT_IGES
100
AcDbLine
 62
7
  6
CONTINUOUS
 10
-16.9
 20
-17.775
 11
-16.9
 21
-15.775
  0
LINE
  5
28F
100
AcDbEntity
  8
IMPORT_IGES
100
AcDbLine
 62
253
  6
CONTINUOUS
 10
-17.3987484637
 20
16.801064153
 11
-17.3943858605
 21
17.300968965
  0
LINE
  5
290
100
AcDbEntity
  8
IMPORT_IGES
100
AcDbLine
 62
7
  6
CONTINUOUS
 10
5.549047619
 20
30.5242134196
 11
5.5517060703
 21
30.5270513359
  0
LWPOLYLINE
  5
291
100
AcDbEntity
  8
IMPORT_IGES
100
AcDbPolyline
 62
7
  6
CONTINUOUS
 90
13
 70
0
 10
-3.7381240694
 20
-17.2252886317
 10
-3.7796248078
 20
-17.2284689891
 10
-3.8188605373
 20
-17.2362732777
 10
-3.855831258
 20
-17.2487014976
 10
-3.8909780501
 20
-17.2660988907
 10
-3.9238598334
 20
-17.288120215
 10
-3.9531533671
 20
-17.3137297447
 10
-3.9787841846
 20
-17.3431308684
 10
-4.0008267525
 20
-17.3761201976
 10
-4.01818123
 20
-17.4110518408
 10
-4.0304810033
 20
-17.4473771676
 10
-4.0380926862
 20
-17.4856448085
 10
-4.0410162786
 20
-17.5258547634
  0
LWPOLYLINE
  5
292
100
AcDbEntity
  8
IMPORT_IGES
100
AcDbPolyline
 62
7
  6
CONTINUOUS
 90
37
 70
0
 10
-17.448528546
 20
-17.7750019725
 10
-17.4679813908
 20
-17.7753769157
 10
-17.4870078411
 20
-17.7764716024
 10
-17.5055829463
 20
-17.7782384239
 10
-17.5235016232
 20
-17.7806023524
 10
-17.5409313863
 20
-17.7835310978
 10
-17.5584011476
 20
-17.7871001787
 10
-17.5760444475
 20
-17.7913628522
 10
-17.5936726483
 20
-17.7962993263
 10
-17.6113180919
 20
-17.8019392099
 10
-17.6289495299
 20
-17.8082976961
 10
-17.6465338075
 20
-17.8153884898
 10
-17.6640936124
 20
-17.8232503897
 10
-17.6815914635
 20
-17.8319018247
 10
-17.6989846351
 20
-17.841357937
 10
-17.7162790341
 20
-17.8516625887
 10
-17.7334276882
 20
-17.8628348622
 10
-17.7503775039
 20
-17.8748892024
 10
-17.7671146034
 20
-17.8878700309
 10
-17.7835907956
 20
-17.9018028791
 10
-17.7997302514
 20
-17.9166900904
 10
-17.8154695361
 20
-17.9325417612
 10
-17.8307413337
 20
-17.9493635326
 10
-17.8454734377
 20
-17.9671546101
 10
-17.8595914696
 20
-17.9859091562
 10
-17.8730281893
 20
-18.0056290908
 10
-17.8856983905
 20
-18.026289146
 10
-17.8975038819
 20
-18.0478314933
 10
-17.9083826351
 20
-18.0702510596
 10
-17.9182477956
 20
-18.0934907442
 10
-17.9269862121
 20
-18.1173960142
 10
-17.9345399259
 20
-18.1419018051
 10
-17.9408613333
 20
-18.1669650136
 10
-17.9458851906
 20
-18.1924475537
 10
-17.9495730027
 20
-18.2182570557
 10
-17.9518995929
 20
-18.2443502846
 10
-17.9528368363
 20
-18.2706556053
  0
LWPOLYLINE
  5
293
100
AcDbEntity
  8
IMPORT_IGES
100
AcDbPolyline
 62
253
  6
CONTINUOUS
 90
31
 70
0
 10
6.6541256195
 20
-17.829144658
 10
6.640253078
 20
-17.8293382062
 10
6.625731849
 20
-17.8299537082
 10
6.6105766754
 20
-17.8310481679
 10
6.5948204728
 20
-17.8326788677
 10
6.5784709244
 20
-17.8349074143
 10
6.5615115087
 20
-17.8378042807
 10
6.5439750974
 20
-17.8414375607
 10
6.5258990713
 20
-17.845876743
 10
6.5072837756
 20
-17.8512053895
 10
6.4881851962
 20
-17.8574977809
 10
6.4686584319
 20
-17.8648307035
 10
6.448717268
 20
-17.8733031642
 10
6.4284503636
 20
-17.8829907672
 10
6.4079351586
 20
-17.8939763319
 10
6.3871913799
 20
-17.9063846977
 10
6.3663511499
 20
-17.920287146
 10
6.3455243166
 20
-17.935771187
 10
6.32473555
 20
-17.9530082507
 10
6.3041614874
 20
-17.9720723507
 10
6.2839796683
 20
-17.9930393361
 10
6.2642767251
 20
-18.0161077035
 10
6.2453064642
 20
-18.0413237082
 10
6.2273194119
 20
-18.0687403341
 10
6.2104873368
 20
-18.0985817873
 10
6.1951600828
 20
-18.1308386123
 10
6.1816905671
 20
-18.1654970481
 10
6.1703849382
 20
-18.2027665852
 10
6.1616888346
 20
-18.2426358049
 10
6.1561133519
 20
-18.2848381041
 10
6.154144658
 20
-18.3291256195
  0
LWPOLYLINE
  5
294
100
AcDbEntity
  8
IMPORT_IGES
100
AcDbPolyline
 62
253
  6
CONTINUOUS
 90
31
 70
0
 10
-17.3943858605
 20
-17.829144658
 10
-17.408258402
 20
-17.8293382062
 10
-17.422779631
 20
-17.8299537082
 10
-17.4379348046
 20
-17.8310481679
 10
-17.4536910072
 20
-17.8326788677
 10
-17.4700405556
 20
-17.8349074143
 10
-17.4869999714
 20
-17.8378042807
 10
-17.5045363826
 20
-17.8414375607
 10
-17.5226124087
 20
-17.845876743
 10
-17.5412277045
 20
-17.8512053895
 10
-17.5603262838
 20
-17.8574977809
 10
-17.5798530481
 20
-17.8648307035
 10
-17.599794212
 20
-17.8733031642
 10
-17.6200611165
 20
-17.8829907672
 10
-17.6405763214
 20
-17.8939763319
 10
-17.6613201002
 20
-17.9063846977
 10
-17.6821603302
 20
-17.920287146
 10
-17.7029871634
 20
-17.935771187
 10
-17.72377593
 20
-17.9530082507
 10
-17.7443499926
 20
-17.9720723507
 10
-17.7645318117
 20
-17.9930393361
 10
-17.7842347549
 20
-18.0161077035
 10
-17.8032050158
 20
-18.0413237082
 10
-17.8211920681
 20
-18.0687403341
 10
-17.8380241432
 20
-18.0985817873
 10
-17.8533513972
 20
-18.1308386123
 10
-17.866820913
 20
-18.1654970481
 10
-17.8781265418
 20
-18.2027665852
 10
-17.8868226454
 20
-18.2426358049
 10
-17.8923981281
 20
-18.2848381041
 10
-17.8943668221
 20
-18.3291256195
  0
LINE
  5
295
100
AcDbEntity
  8
IMPORT_IGES
100
AcDbLine
 62
253
  6
CONTINUOUS
 10
-0.75
 20
-19.0168824651
 11
-0.7216376797
 21
-19.0168824651
  0
LINE
  5
296
100
AcDbEntity
  8
IMPORT_IGES
100
AcDbLine
 62
253
  6
CONTINUOUS
 10
0.7216376797
 20
-19.0168824651
 11
0.75
 21
-19.0168824651
  0
LINE
  5
297
100
AcDbEntity
  8
IMPORT_IGES
100
AcDbLine
 62
253
  6
CONTINUOUS
 10
-17.8943668221
 20
-18.3291256195
 11
-6.154144658
 21
-18.3291256195
  0
LINE
  5
298
100
AcDbEntity
  8
IMPORT_IGES
100
AcDbLine
 62
253
  6
CONTINUOUS
 10
6.154144658
 20
-18.3291256195
 11
17.8943668221
 21
-18.3291256195
  0
LINE
  5
299
100
AcDbEntity
  8
IMPORT_IGES
100
AcDbLine
 62
7
  6
CONTINUOUS
 10
1.3
 20
-18.2168824651
 11
-1.3
 21
-18.2168824651
  0
LINE
  5
29A
100
AcDbEntity
  8
IMPORT_IGES
100
AcDbLine
 62
7
  6
CONTINUOUS
 10
-1.3104722413
 20
-18.2064102237
 11
1.3104722413
 21
-18.2064102237
  0
LINE
  5
29B
100
AcDbEntity
  8
IMPORT_IGES
100
AcDbLine
 62
7
  6
CONTINUOUS
 10
17.3943858605
 20
-17.829144658
 11
6.6541256195
 21
-17.829144658
  0
LINE
  5
29C
100
AcDbEntity
  8
IMPORT_IGES
100
AcDbLine
 62
7
  6
CONTINUOUS
 10
-6.6541256195
 20
-17.829144658
 11
-17.3943858605
 21
-17.829144658
  0
LINE
  5
29D
100
AcDbEntity
  8
IMPORT_IGES
100
AcDbLine
 62
7
  6
CONTINUOUS
 10
-16.8613436759
 20
-17.8136563241
 11
-15.0386563241
 21
-17.8136563241
  0
LINE
  5
29E
100
AcDbEntity
  8
IMPORT_IGES
100
AcDbLine
 62
7
  6
CONTINUOUS
 10
15.0386563241
 20
-17.8136563241
 11
16.8613436759
 21
-17.8136563241
  0
LINE
  5
29F
100
AcDbEntity
  8
IMPORT_IGES
100
AcDbLine
 62
7
  6
CONTINUOUS
 10
-17.4528558747
 20
-17.775
 11
-16.9
 21
-17.775
  0
LINE
  5
2A0
100
AcDbEntity
  8
IMPORT_IGES
100
AcDbLine
 62
7
  6
CONTINUOUS
 10
-15.0
 20
-17.775
 11
-6.5999809615
 21
-17.775
  0
LINE
  5
2A1
100
AcDbEntity
  8
IMPORT_IGES
100
AcDbLine
 62
7
  6
CONTINUOUS
 10
6.5999809615
 20
-17.775
 11
15.0
 21
-17.775
  0
LINE
  5
2A2
100
AcDbEntity
  8
IMPORT_IGES
100
AcDbLine
 62
7
  6
CONTINUOUS
 10
16.9
 20
-17.775
 11
17.4528558747
 21
-17.775
  0
LINE
  5
2A3
100
AcDbEntity
  8
IMPORT_IGES
100
AcDbLine
 62
7
  6
CONTINUOUS
 10
3.7000114231
 20
-17.2668824651
 11
-3.7000114231
 21
-17.2668824651
  0
LINE
  5
2A4
100
AcDbEntity
  8
IMPORT_IGES
100
AcDbLine
 62
7
  6
CONTINUOUS
 10
-3.7410278157
 20
-17.2258660725
 11
-3.7000114231
 21
-17.2258661865
  0
LINE
  5
2A5
100
AcDbEntity
  8
IMPORT_IGES
100
AcDbLine
 62
7
  6
CONTINUOUS
 10
3.7000114231
 20
-17.2258661865
 11
3.7410277017
 21
-17.2258661865
  0
LINE
  5
2A6
100
AcDbEntity
  8
IMPORT_IGES
100
AcDbLine
 62
7
  6
CONTINUOUS
 10
-3.6912845553
 20
-17.2171393187
 11
3.6912845553
 21
-17.2171393187
  0
LINE
  5
2A7
100
AcDbEntity
  8
IMPORT_IGES
100
AcDbLine
 62
7
  6
CONTINUOUS
 10
-3.9912731322
 20
-16.7668824651
 11
3.9912731322
 21
-16.7668824651
  0
LWPOLYLINE
  5
2A8
100
AcDbEntity
  8
IMPORT_IGES
100
AcDbPolyline
 62
7
  6
CONTINUOUS
 90
37
 70
0
 10
17.4528558747
 20
-17.7750187084
 10
17.4703835265
 20
-17.7754650536
 10
17.4879666286
 20
-17.7765382921
 10
17.5055829463
 20
-17.7782384239
 10
17.5231846919
 20
-17.7805530327
 10
17.5407739242
 20
-17.7834945348
 10
17.5584011476
 20
-17.7871001787
 10
17.5760444371
 20
-17.791364052
 10
17.5936727111
 20
-17.7962920671
 10
17.6113180919
 20
-17.8019392099
 10
17.6289495055
 20
-17.8083005174
 10
17.6465338727
 20
-17.8153809525
 10
17.6640936124
 20
-17.8232503897
 10
17.6815914239
 20
-17.8319064086
 10
17.6989846914
 20
-17.8413514296
 10
17.7162790341
 20
-17.8516625887
 10
17.7334276366
 20
-17.8628408185
 10
17.7503775387
 20
-17.8748851865
 10
17.7671146034
 20
-17.8878700309
 10
17.7835907205
 20
-17.9018115617
 10
17.7997302213
 20
-17.916693569
 10
17.8154695361
 20
-17.9325417612
 10
17.8307412785
 20
-17.9493699199
 10
17.8454733541
 20
-17.9671642635
 10
17.8595914696
 20
-17.9859091562
 10
17.8730281538
 20
-18.005633192
 10
17.8856982293
 20
-18.0263077769
 10
17.8975038819
 20
-18.0478314933
 10
17.9083826412
 20
-18.0702503563
 10
17.9182475568
 20
-18.0935183509
 10
17.9269862121
 20
-18.1173960142
 10
17.9345400294
 20
-18.1418898404
 10
17.9408610883
 20
-18.1669933353
 10
17.9458851906
 20
-18.1924475537
 10
17.9495737889
 20
-18.2181661807
 10
17.9519005856
 20
-18.2442355312
 10
17.9528368363
 20
-18.2706556053
  0
LINE
  5
2A9
100
AcDbEntity
  8
IMPORT_IGES
100
AcDbLine
 62
7
  6
CONTINUOUS
 10
-0.0149287045
 20
-25.2660162786
 11
-3.933856642
 21
-21.9776452917
  0
LINE
  5
2AA
100
AcDbEntity
  8
IMPORT_IGES
100
AcDbLine
 62
7
  6
CONTINUOUS
 10
-0.7216376797
 20
-24.6564984688
 11
-0.0103230404
 21
-25.2533623203
  0
LINE
  5
2AB
100
AcDbEntity
  8
IMPORT_IGES
100
AcDbLine
 62
7
  6
CONTINUOUS
 10
-3.8928403634
 20
-21.9585190869
 11
-0.75
 21
-24.5956752766
  0
LINE
  5
2AC
100
AcDbEntity
  8
IMPORT_IGES
100
AcDbLine
 62
7
  6
CONTINUOUS
 10
1.3104722413
 20
-27.5273547064
 11
1.3
 21
-27.5168824651
  0
LINE
  5
2AD
100
AcDbEntity
  8
IMPORT_IGES
100
AcDbLine
 62
7
  6
CONTINUOUS
 10
4.0283623203
 20
-30.225
 11
4.0410162786
 21
-30.2376539583
  0
LINE
  5
2AE
100
AcDbEntity
  8
IMPORT_IGES
100
AcDbLine
 62
253
  6
CONTINUOUS
 10
3.7283737434
 20
-29.7533623203
 11
3.7000114231
 21
-29.725
  0
LINE
  5
2AF
100
AcDbEntity
  8
IMPORT_IGES
100
AcDbLine
 62
253
  6
CONTINUOUS
 10
17.5000190385
 20
-43.025
 11
17.3943858605
 21
-42.9193668221
  0
LINE
  5
2B0
100
AcDbEntity
  8
IMPORT_IGES
100
AcDbLine
 62
253
  6
CONTINUOUS
 10
4.0
 20
-29.4250114231
 11
4.0283623203
 21
-29.4533737434
  0
LINE
  5
2B1
100
AcDbEntity
  8
IMPORT_IGES
100
AcDbLine
 62
253
  6
CONTINUOUS
 10
17.8943668221
 20
-42.4193858605
 11
18.0
 21
-42.5250190385
  0
LINE
  5
2B2
100
AcDbEntity
  8
IMPORT_IGES
100
AcDbLine
 62
7
  6
CONTINUOUS
 10
-15.0
 20
-15.775
 11
-15.0
 21
-17.775
  0
LINE
  5
2B3
100
AcDbEntity
  8
IMPORT_IGES
100
AcDbLine
 62
253
  6
CONTINUOUS
 10
-14.8913486316
 20
19.7834700142
 11
-14.8913486316
 21
17.2791252901
  0
LINE
  5
2B4
100
AcDbEntity
  8
IMPORT_IGES
100
AcDbLine
 62
253
  6
CONTINUOUS
 10
-14.391424784
 20
17.2791252901
 11
-14.391424784
 21
19.7891668208
  0
LINE
  5
2B5
100
AcDbEntity
  8
IMPORT_IGES
100
AcDbLine
 62
7
  6
CONTINUOUS
 10
-14.3039825167
 20
18.2349884612
 11
-14.3039825167
 21
19.7354649288
  0
LINE
  5
2B6
100
AcDbEntity
  8
0
100
AcDbLine
 62
7
  6
CONTINUOUS
 10
-13.8
 20
-45.525
 11
-13.8
 21
-43.025
  0
LINE
  5
2B7
100
AcDbEntity
  8
IMPORT_IGES
100
AcDbLine
 62
253
  6
CONTINUOUS
 10
-14.8913486316
 20
17.2791252901
 11
-14.8957112348
 21
16.7792204781
  0
LINE
  5
2B8
100
AcDbEntity
  8
IMPORT_IGES
100
AcDbLine
 62
7
  6
CONTINUOUS
 10
-15.0386563241
 20
-17.8136563241
 11
-15.017637167
 21
-15.792637167
  0
LINE
  5
2B9
100
AcDbEntity
  8
IMPORT_IGES
100
AcDbLine
 62
7
  6
CONTINUOUS
 10
-14.3039825167
 20
18.2349884612
 11
-14.3346228672
 21
17.2218255075
  0
LWPOLYLINE
  5
2BA
100
AcDbEntity
  8
IMPORT_IGES
100
AcDbPolyline
 62
7
  6
CONTINUOUS
 90
40
 70
0
 10
-14.3346228672
 20
17.2218255075
 10
-14.3368270072
 20
17.1915535484
 10
-14.3404079321
 20
17.1625442499
 10
-14.3453656418
 20
17.1347976121
 10
-14.3518399152
 20
17.1083549656
 10
-14.3596909734
 20
17.0831749797
 10
-14.3684994801
 20
17.0591336627
 10
-14.378217215
 20
17.0362298944
 10
-14.3888923984
 20
17.014464795
 10
-14.4002503539
 20
16.9937177325
 10
-14.4122635723
 20
16.973980802
 10
-14.4249595629
 20
16.9552619086
 10
-14.4381461771
 20
16.9374641359
 10
-14.4518080311
 20
16.9205804035
 10
-14.4659605087
 20
16.904617792
 10
-14.4804576133
 20
16.8895006266
 10
-14.4952920173
 20
16.8752232975
 10
-14.5104710482
 20
16.8617914146
 10
-14.5258706917
 20
16.8491461333
 10
-14.5414877219
 20
16.8372847697
 10
-14.5573253647
 20
16.8262100076
 10
-14.5732692837
 20
16.8158710541
 10
-14.5893199112
 20
16.8062671918
 10
-14.6054768149
 20
16.797399138
 10
-14.6216243613
 20
16.7892182523
 10
-14.6377638152
 20
16.781726683
 10
-14.6538939119
 20
16.7749222818
 10
-14.6698952234
 20
16.7687499633
 10
-14.685742035
 20
16.7632185175
 10
-14.7014600616
 20
16.7583191544
 10
-14.7170070202
 20
16.753970419
 10
-14.7323711694
 20
16.750169749
 10
-14.7475642507
 20
16.7469197066
 10
-14.7625792052
 20
16.7441465237
 10
-14.7773832987
 20
16.7418455567
 10
-14.7920092654
 20
16.7400214492
 10
-14.8065482484
 20
16.7386143631
 10
-14.8210306288
 20
16.7376043525
 10
-14.8354260256
 20
16.7370113635
 10
-14.8497344387
 20
16.7368353959
  0
LINE
  5
2BB
100
AcDbEntity
  8
IMPORT_IGES
100
AcDbLine
 62
7
  6
CONTINUOUS
 10
-5.9589837214
 20
-15.9277828339
 11
-4.0
 21
-15.9277828339
  0
LINE
  5
2BC
100
AcDbEntity
  8
IMPORT_IGES
100
AcDbLine
 62
7
  6
CONTINUOUS
 10
4.0
 20
-15.9277828339
 11
5.9589837214
 21
-15.9277828339
  0
LINE
  5
2BD
100
AcDbEntity
  8
IMPORT_IGES
100
AcDbLine
 62
7
  6
CONTINUOUS
 10
16.882362833
 20
-15.792637167
 11
15.017637167
 21
-15.792637167
  0
LINE
  5
2BE
100
AcDbEntity
  8
IMPORT_IGES
100
AcDbLine
 62
7
  6
CONTINUOUS
 10
-15.017637167
 20
-15.792637167
 11
-16.882362833
 21
-15.792637167
  0
LINE
  5
2BF
100
AcDbEntity
  8
IMPORT_IGES
100
AcDbLine
 62
7
  6
CONTINUOUS
 10
-16.9
 20
-15.775
 11
-15.0
 21
-15.775
  0
LINE
  5
2C0
100
AcDbEntity
  8
IMPORT_IGES
100
AcDbLine
 62
7
  6
CONTINUOUS
 10
15.0
 20
-15.775
 11
16.9
 21
-15.775
  0
LINE
  5
2C1
100
AcDbEntity
  8
IMPORT_IGES
100
AcDbLine
 62
7
  6
CONTINUOUS
 10
5.9844473069
 20
-13.4794261345
 11
-5.9844473069
 21
-13.4794261345
  0
LINE
  5
2C2
100
AcDbEntity
  8
IMPORT_IGES
100
AcDbLine
 62
7
  6
CONTINUOUS
 10
5.9888751311
 20
-13.4772130673
 11
5.9844703234
 21
-13.4772130673
  0
LINE
  5
2C3
100
AcDbEntity
  8
IMPORT_IGES
100
AcDbLine
 62
7
  6
CONTINUOUS
 10
-5.9844703234
 20
-13.4772130673
 11
-5.9888751311
 21
-13.4772130673
  0
LINE
  5
2C4
100
AcDbEntity
  8
IMPORT_IGES
100
AcDbLine
 62
7
  6
CONTINUOUS
 10
-5.9896369434
 20
-13.475
 11
5.9896369434
 21
-13.475
  0
LINE
  5
2C5
100
AcDbEntity
  8
IMPORT_IGES
100
AcDbLine
 62
7
  6
CONTINUOUS
 10
1.3104722413
 20
-23.4273547064
 11
1.3
 21
-23.4168824651
  0
LINE
  5
2C6
100
AcDbEntity
  8
IMPORT_IGES
100
AcDbLine
 62
253
  6
CONTINUOUS
 10
-4.0
 20
-17.566871042
 11
-4.0410162786
 21
-17.5258547634
  0
LINE
  5
2C7
100
AcDbEntity
  8
IMPORT_IGES
100
AcDbLine
 62
253
  6
CONTINUOUS
 10
3.7410277017
 20
-25.2660162786
 11
3.7000114231
 21
-25.225
  0
LINE
  5
2C8
100
AcDbEntity
  8
IMPORT_IGES
100
AcDbLine
 62
253
  6
CONTINUOUS
 10
-3.7410278157
 20
-17.2258660725
 11
-3.7000114231
 21
-17.2668824651
  0
LINE
  5
2C9
100
AcDbEntity
  8
IMPORT_IGES
100
AcDbLine
 62
253
  6
CONTINUOUS
 10
4.0
 20
-24.9250114231
 11
4.0410162786
 21
-24.9660277017
  0
LINE
  5
2CA
100
AcDbEntity
  8
IMPORT_IGES
100
AcDbLine
 62
7
  6
CONTINUOUS
 10
-1.3104722413
 20
-18.2064102237
 11
-1.3
 21
-18.2168824651
  0
LINE
  5
2CB
100
AcDbEntity
  8
IMPORT_IGES
100
AcDbLine
 62
253
  6
CONTINUOUS
 10
4.8707257068
 20
-23.8864923941
 11
4.8584700142
 21
-23.8742367015
  0
LINE
  5
2CC
100
AcDbEntity
  8
IMPORT_IGES
100
AcDbLine
 62
253
  6
CONTINUOUS
 10
-4.0
 20
-24.4700399886
 11
-4.0410162786
 21
-24.3820802952
  0
LINE
  5
2CD
100
AcDbEntity
  8
IMPORT_IGES
100
AcDbLine
 62
253
  6
CONTINUOUS
 10
-3.5481987614
 20
-24.1522757129
 11
-3.5071824828
 21
-24.2402354062
  0
LINE
  5
2CE
100
AcDbEntity
  8
IMPORT_IGES
100
AcDbLine
 62
7
  6
CONTINUOUS
 10
-6.1418889654
 20
-37.37425574
 11
-6.1
 21
-37.7942013249
  0
LINE
  5
2CF
100
AcDbEntity
  8
IMPORT_IGES
100
AcDbLine
 62
7
  6
CONTINUOUS
 10
14.3896910148
 20
19.7783159142
 11
14.3039825167
 21
19.7354649288
  0
LINE
  5
2D0
100
AcDbEntity
  8
IMPORT_IGES
100
AcDbLine
 62
7
  6
CONTINUOUS
 10
6.154144658
 20
-23.3865114326
 11
6.1546028392
 21
-23.3869595163
  0
LINE
  5
2D1
100
AcDbEntity
  8
IMPORT_IGES
100
AcDbLine
 62
253
  6
CONTINUOUS
 10
5.3584509757
 20
-23.37425574
 11
5.3707066683
 21
-23.3865114326
  0
LINE
  5
2D2
100
AcDbEntity
  8
IMPORT_IGES
100
AcDbLine
 62
7
  6
CONTINUOUS
 10
6.1418889654
 20
-23.37425574
 11
6.6541256195
 21
-23.8864923941
  0
LINE
  5
2D3
100
AcDbEntity
  8
IMPORT_IGES
100
AcDbLine
 62
7
  6
CONTINUOUS
 10
-0.75
 20
-24.5956752766
 11
-0.7216376797
 21
-24.6564984688
  0
LWPOLYLINE
  5
2D4
100
AcDbEntity
  8
IMPORT_IGES
100
AcDbPolyline
 62
7
  6
CONTINUOUS
 90
7
 70
0
 10
-14.391424784
 20
19.7891668208
 10
-14.3920574005
 20
19.7932763014
 10
-14.3933343504
 20
19.7981243224
 10
-14.3952594742
 20
19.8037108836
 10
-14.3978326046
 20
19.810006624
 10
-14.4010576146
 20
19.8170409048
 10
-14.4049493972
 20
19.8249018093
  0
LWPOLYLINE
  5
2D5
100
AcDbEntity
  8
IMPORT_IGES
100
AcDbPolyline
 62
253
  6
CONTINUOUS
 90
31
 70
0
 10
-6.154144658
 20
-18.3291256195
 10
-6.1560021737
 20
-18.2861054983
 10
-6.1612872178
 20
-18.2449534531
 10
-6.1695760933
 20
-18.2059037674
 10
-6.1804283665
 20
-18.1691870831
 10
-6.1934451512
 20
-18.1348556083
 10
-6.2083175769
 20
-18.1028055271
 10
-6.2247043874
 20
-18.0730755835
 10
-6.242283999
 20
-18.0456654612
 10
-6.2608734148
 20
-18.0203940627
 10
-6.2802215462
 20
-17.9972253257
 10
-6.3000899622
 20
-17.9761090757
 10
-6.3203954994
 20
-17.9568538817
 10
-6.340969179
 20
-17.9393879936
 10
-6.3616347878
 20
-17.9236481082
 10
-6.382355976
 20
-17.9094771324
 10
-6.4030159777
 20
-17.8967966069
 10
-6.4234905177
 20
-17.8855347835
 10
-6.4437691683
 20
-17.8755657072
 10
-6.4637729672
 20
-17.8668124935
 10
-6.4834149792
 20
-17.8592036885
 10
-6.5026966062
 20
-17.8526392856
 10
-6.5215677657
 20
-17.8470471565
 10
-6.5399667018
 20
-17.8423605426
 10
-6.5578923188
 20
-17.8385005868
 10
-6.5753069015
 20
-17.8354023724
 10
-6.5921750762
 20
-17.8330022367
 10
-6.6085090852
 20
-17.8312334278
 10
-6.6242985776
 20
-17.8300374086
 10
-6.6395096261
 20
-17.8293594521
 10
-6.6541256195
 20
-17.829144658
  0
LINE
  5
2D6
100
AcDbEntity
  8
IMPORT_IGES
100
AcDbLine
 62
253
  6
CONTINUOUS
 10
-6.6541256195
 20
-17.829144658
 11
-6.6541256195
 21
-23.8864923941
  0
LINE
  5
2D7
100
AcDbEntity
  8
IMPORT_IGES
100
AcDbLine
 62
253
  6
CONTINUOUS
 10
-6.6541256195
 20
-36.8620190859
 11
-6.6541256195
 21
-42.9193668221
  0
LINE
  5
2D8
100
AcDbEntity
  8
IMPORT_IGES
100
AcDbLine
 62
253
  6
CONTINUOUS
 10
3.6912845553
 20
-17.2171393187
 11
3.7000114231
 21
-17.2258661865
  0
LINE
  5
2D9
100
AcDbEntity
  8
IMPORT_IGES
100
AcDbLine
 62
253
  6
CONTINUOUS
 10
3.9912731322
 20
-16.9171507418
 11
4.0
 21
-16.9258776096
  0
LINE
  5
2DA
100
AcDbEntity
  8
IMPORT_IGES
100
AcDbLine
 62
253
  6
CONTINUOUS
 10
6.154144658
 20
-18.3291256195
 11
6.1
 21
-18.2749809615
  0
LINE
  5
2DB
100
AcDbEntity
  8
IMPORT_IGES
100
AcDbLine
 62
253
  6
CONTINUOUS
 10
6.5999809615
 20
-17.775
 11
6.6541256195
 21
-17.829144658
  0
LWPOLYLINE
  5
2DC
100
AcDbEntity
  8
IMPORT_IGES
100
AcDbPolyline
 62
7
  6
CONTINUOUS
 90
13
 70
0
 10
-4.0
 20
-16.9258776096
 10
-3.9975661418
 20
-16.9626790772
 10
-3.991139302
 20
-16.9979505686
 10
-3.9807194806
 20
-17.0316920837
 10
-3.9660439364
 20
-17.0643323324
 10
-3.9473754105
 20
-17.0954426048
 10
-3.9255021263
 20
-17.1237367712
 10
-3.9003318199
 20
-17.1490269607
 10
-3.8719567552
 20
-17.1715010441
 10
-3.8414419463
 20
-17.1904365047
 10
-3.8091423981
 20
-17.2055925033
 10
-3.7747031058
 20
-17.2172098789
 10
-3.7381240694
 20
-17.2252886317
  0
LWPOLYLINE
  5
2DD
100
AcDbEntity
  8
IMPORT_IGES
100
AcDbPolyline
 62
253
  6
CONTINUOUS
 90
31
 70
0
 10
-4.8707257068
 20
-23.8864923941
 10
-4.8725832225
 20
-23.8434722729
 10
-4.8778682666
 20
-23.8023202277
 10
-4.8861571421
 20
-23.763270542
 10
-4.8970094153
 20
-23.7265538577
 10
-4.9100262
 20
-23.6922223829
 10
-4.9248986257
 20
-23.6601723017
 10
-4.9412854362
 20
-23.6304423581
 10
-4.9588650478
 20
-23.6030322358
 10
-4.9774544636
 20
-23.5777608373
 10
-4.996802595
 20
-23.5545921003
 10
-5.016671011
 20
-23.5334758504
 10
-5.0369765482
 20
-23.5142206563
 10
-5.0575502278
 20
-23.4967547682
 10
-5.0782158366
 20
-23.4810148829
 10
-5.0989370248
 20
-23.466843907
 10
-5.1195970265
 20
-23.4541633815
 10
-5.1400715665
 20
-23.4429015581
 10
-5.1603502171
 20
-23.4329324818
 10
-5.180354016
 20
-23.4241792681
 10
-5.199996028
 20
-23.4165704632
 10
-5.219277655
 20
-23.4100060602
 10
-5.2381488145
 20
-23.4044139311
 10
-5.2565477506
 20
-23.3997273173
 10
-5.2744733676
 20
-23.3958673614
 10
-5.2918879503
 20
-23.392769147
 10
-5.308756125
 20
-23.3903690113
 10
-5.3250901341
 20
-23.3886002024
 10
-5.3408796264
 20
-23.3874041833
 10
-5.3560906749
 20
-23.3867262267
 10
-5.3707066683
 20
-23.3865114326
  0
LINE
  5
2DE
100
AcDbEntity
  8
IMPORT_IGES
100
AcDbLine
 62
7
  6
CONTINUOUS
 10
-5.9844473069
 20
-13.4794261345
 11
-5.9589837214
 21
-15.9277828339
  0
LINE
  5
2DF
100
AcDbEntity
  8
IMPORT_IGES
100
AcDbLine
 62
7
  6
CONTINUOUS
 10
-3.9912731322
 20
-16.7668824651
 11
-4.0
 21
-15.9277828339
  0
LINE
  5
2E0
100
AcDbEntity
  8
IMPORT_IGES
100
AcDbLine
 62
7
  6
CONTINUOUS
 10
-3.8017607393
 20
-33.6732392607
 11
-3.8104722413
 21
-32.675
  0
LINE
  5
2E1
100
AcDbEntity
  8
IMPORT_IGES
100
AcDbLine
 62
7
  6
CONTINUOUS
 10
-6.154144658
 20
-42.4193858605
 11
-6.154144658
 21
-37.3620000474
  0
LINE
  5
2E2
100
AcDbEntity
  8
IMPORT_IGES
100
AcDbLine
 62
7
  6
CONTINUOUS
 10
-6.154144658
 20
-23.3865114326
 11
-6.154144658
 21
-18.3291256195
  0
LINE
  5
2E3
100
AcDbEntity
  8
IMPORT_IGES
100
AcDbLine
 62
7
  6
CONTINUOUS
 10
-6.1
 20
-18.2749809615
 11
-6.1
 21
-22.9543101551
  0
LINE
  5
2E4
100
AcDbEntity
  8
IMPORT_IGES
100
AcDbLine
 62
7
  6
CONTINUOUS
 10
-6.1
 20
-37.7942013249
 11
-6.1
 21
-42.4778558747
  0
LINE
  5
2E5
100
AcDbEntity
  8
IMPORT_IGES
100
AcDbLine
 62
7
  6
CONTINUOUS
 10
-6.0
 20
-45.4750571154
 11
-6.0
 21
-37.37425574
  0
LINE
  5
2E6
100
AcDbEntity
  8
IMPORT_IGES
100
AcDbLine
 62
7
  6
CONTINUOUS
 10
-6.0
 20
-23.37425574
 11
-6.0
 21
-15.5712375299
  0
LINE
  5
2E7
100
AcDbEntity
  8
IMPORT_IGES
100
AcDbLine
 62
7
  6
CONTINUOUS
 10
-5.9589837214
 20
-15.9277828339
 11
-5.9589837214
 21
-23.37425574
  0
LINE
  5
2E8
100
AcDbEntity
  8
IMPORT_IGES
100
AcDbLine
 62
7
  6
CONTINUOUS
 10
-5.9589837214
 20
-37.37425574
 11
-5.9589837214
 21
-45.4340408368
  0
LINE
  5
2E9
100
AcDbEntity
  8
IMPORT_IGES
100
AcDbLine
 62
253
  6
CONTINUOUS
 10
-5.3707066683
 20
-23.3865114326
 11
-5.3707066683
 21
-37.3620000474
  0
LINE
  5
2EA
100
AcDbEntity
  8
IMPORT_IGES
100
AcDbLine
 62
7
  6
CONTINUOUS
 10
-4.8707257068
 20
-36.8620190859
 11
-4.8707257068
 21
-23.8864923941
  0
LINE
  5
2EB
100
AcDbEntity
  8
IMPORT_IGES
100
AcDbLine
 62
7
  6
CONTINUOUS
 10
-4.8584700142
 20
-23.8742367015
 11
-4.8584700142
 21
-36.8742747785
  0
LINE
  5
2EC
100
AcDbEntity
  8
IMPORT_IGES
100
AcDbLine
 62
7
  6
CONTINUOUS
 10
-4.0410162786
 20
-45.0660277017
 11
-4.0410162786
 21
-24.3820802952
  0
LINE
  5
2ED
100
AcDbEntity
  8
IMPORT_IGES
100
AcDbLine
 62
7
  6
CONTINUOUS
 10
-4.0410162786
 20
-21.7478407093
 11
-4.0410162786
 21
-17.5258547634
  0
LINE
  5
2EE
100
AcDbEntity
  8
IMPORT_IGES
100
AcDbLine
 62
7
  6
CONTINUOUS
 10
-4.0
 20
-15.9277828339
 11
-4.0
 21
-16.9258776096
  0
LINE
  5
2EF
100
AcDbEntity
  8
IMPORT_IGES
100
AcDbLine
 62
7
  6
CONTINUOUS
 10
-4.0
 20
-17.566871042
 11
-4.0
 21
-21.7287145045
  0
LINE
  5
2F0
100
AcDbEntity
  8
IMPORT_IGES
100
AcDbLine
 62
7
  6
CONTINUOUS
 10
-4.0
 20
-24.4700399886
 11
-4.0
 21
-45.0250114231
  0
LINE
  5
2F1
100
AcDbEntity
  8
IMPORT_IGES
100
AcDbLine
 62
7
  6
CONTINUOUS
 10
-3.9912731322
 20
-16.9171507418
 11
-3.9912731322
 21
-16.7668824651
  0
LINE
  5
2F2
100
AcDbEntity
  8
IMPORT_IGES
100
AcDbLine
 62
7
  6
CONTINUOUS
 10
-3.8104722413
 20
-40.9854722413
 11
-3.8104722413
 21
-32.675
  0
LINE
  5
2F3
100
AcDbEntity
  8
IMPORT_IGES
100
AcDbLine
 62
7
  6
CONTINUOUS
 10
-3.8104722413
 20
-31.8854722413
 11
-3.8104722413
 21
-29.6645277587
  0
LINE
  5
2F4
100
AcDbEntity
  8
0
100
AcDbLine
 62
7
  6
CONTINUOUS
 10
-3.8
 20
-45.3071810697
 11
-3.8
 21
-43.025
  0
LINE
  5
2F5
100
AcDbEntity
  8
IMPORT_IGES
100
AcDbLine
 62
7
  6
CONTINUOUS
 10
-3.8
 20
-29.675
 11
-3.8
 21
-31.875
  0
LINE
  5
2F6
100
AcDbEntity
  8
IMPORT_IGES
100
AcDbLine
 62
7
  6
CONTINUOUS
 10
-3.8
 20
-33.675
 11
-3.8
 21
-40.975
  0
LINE
  5
2F7
100
AcDbEntity
  8
IMPORT_IGES
100
AcDbLine
 62
7
  6
CONTINUOUS
 10
-5.9888751311
 20
-13.4772130673
 11
-5.9904004454
 21
-15.475
  0
LWPOLYLINE
  5
2F8
100
AcDbEntity
  8
IMPORT_IGES
100
AcDbPolyline
 62
7
  6
CONTINUOUS
 90
37
 70
0
 10
-6.1000187084
 20
-42.4778558747
 10
-6.1004650536
 20
-42.4953835265
 10
-6.1015382921
 20
-42.5129666286
 10
-6.1032384239
 20
-42.5305829463
 10
-6.1055530327
 20
-42.5481846919
 10
-6.1084945348
 20
-42.5657739242
 10
-6.1121001787
 20
-42.5834011476
 10
-6.116364052
 20
-42.6010444371
 10
-6.1212920671
 20
-42.6186727111
 10
-6.1269392099
 20
-42.6363180919
 10
-6.1333005174
 20
-42.6539495055
 10
-6.1403809525
 20
-42.6715338727
 10
-6.1482503897
 20
-42.6890936124
 10
-6.1569064086
 20
-42.7065914239
 10
-6.1663514296
 20
-42.7239846914
 10
-6.1766625887
 20
-42.7412790341
 10
-6.1878408185
 20
-42.7584276366
 10
-6.1998851865
 20
-42.7753775387
 10
-6.2128700309
 20
-42.7921146034
 10
-6.2268115617
 20
-42.8085907205
 10
-6.241693569
 20
-42.8247302213
 10
-6.2575417612
 20
-42.8404695361
 10
-6.2743699199
 20
-42.8557412785
 10
-6.2921642635
 20
-42.8704733541
 10
-6.3109091562
 20
-42.8845914696
 10
-6.330633192
 20
-42.8980281538
 10
-6.3513077769
 20
-42.9106982293
 10
-6.3728314933
 20
-42.9225038819
 10
-6.3952503563
 20
-42.9333826412
 10
-6.4185183509
 20
-42.9432475568
 10
-6.4423960142
 20
-42.9519862121
 10
-6.4668898404
 20
-42.9595400294
 10
-6.4919933353
 20
-42.9658610883
 10
-6.5174475537
 20
-42.9708851906
 10
-6.5431661807
 20
-42.9745737889
 10
-6.5692355312
 20
-42.9769005856
 10
-6.5956556053
 20
-42.9778368363
  0
LINE
  5
2F9
100
AcDbEntity
  8
IMPORT_IGES
100
AcDbLine
 62
7
  6
CONTINUOUS
 10
-5.9904004454
 20
-15.475
 11
-6.0
 21
-15.5712375299
  0
LINE
  5
2FA
100
AcDbEntity
  8
IMPORT_IGES
100
AcDbLine
 62
7
  6
CONTINUOUS
 10
-6.1
 20
-22.9543101551
 11
-6.1418889654
 21
-23.37425574
  0
LWPOLYLINE
  5
2FB
100
AcDbEntity
  8
IMPORT_IGES
100
AcDbPolyline
 62
7
  6
CONTINUOUS
 90
25
 70
0
 10
2.5591545797
 20
33.9464285714
 10
2.599266702
 20
34.1153897663
 10
2.6488535547
 20
34.2802837494
 10
2.7079151377
 20
34.4411105208
 10
2.7767231269
 20
34.5983728155
 10
2.8550058465
 20
34.7515678984
 10
2.9419482689
 20
34.8991875651
 10
3.0376487792
 20
35.0411729732
 10
3.1420089924
 20
35.177582965
 10
3.2539187263
 20
35.3070858621
 10
3.373527259
 20
35.4297061125
 10
3.5006853123
 20
35.5454192682
 10
3.6338348694
 20
35.6528203071
 10
3.772941073
 20
35.751692497
 10
3.9180387803
 20
35.8422525701
 10
4.0676745471
 20
35.9237457004
 10
4.2219600432
 20
35.9961567514
 10
4.3807835987
 20
36.0595008596
 10
4.5423567589
 20
36.1130686094
 10
4.7067097759
 20
36.1566963499
 10
4.8738123977
 20
36.190547732
 10
5.0417854139
 20
36.2144042924
 10
5.2100024212
 20
36.22819321
 10
5.3790898229
 20
36.231987306
 10
5.549047619
 20
36.2257865804
  0
LWPOLYLINE
  5
2FC
100
AcDbEntity
  8
IMPORT_IGES
100
AcDbPolyline
 62
7
  6
CONTINUOUS
 90
6
 70
0
 10
-14.4049493972
 20
19.8249018093
 10
-14.4095165755
 20
19.8335778604
 10
-14.4147632287
 20
19.8430805353
 10
-14.420706051
 20
19.8535323482
 10
-14.4273689202
 20
19.8649486908
 10
-14.4427935389
 20
19.8907051289
  0
LINE
  5
2FD
100
AcDbEntity
  8
IMPORT_IGES
100
AcDbLine
 62
7
  6
CONTINUOUS
 10
-1.3086392604
 20
-24.1269212793
 11
-1.3104722413
 21
-23.9168824651
  0
LINE
  5
2FE
100
AcDbEntity
  8
IMPORT_IGES
100
AcDbLine
 62
253
  6
CONTINUOUS
 10
-2.5
 20
-31.725
 11
-2.5
 21
-31.6966376797
  0
LINE
  5
2FF
100
AcDbEntity
  8
IMPORT_IGES
100
AcDbLine
 62
253
  6
CONTINUOUS
 10
-2.5
 20
-29.7533623203
 11
-2.5
 21
-29.725
  0
LINE
  5
300
100
AcDbEntity
  8
IMPORT_IGES
100
AcDbLine
 62
7
  6
CONTINUOUS
 10
-1.5
 20
-30.225
 11
-1.5
 21
-31.225
  0
LINE
  5
301
100
AcDbEntity
  8
IMPORT_IGES
100
AcDbLine
 62
7
  6
CONTINUOUS
 10
-1.3104722413
 20
-27.5273547064
 11
-1.3104722413
 21
-26.0834941596
  0
LINE
  5
302
100
AcDbEntity
  8
IMPORT_IGES
100
AcDbLine
 62
7
  6
CONTINUOUS
 10
-1.3104722413
 20
-24.1253832256
 11
-1.3104722413
 21
-23.9168824651
  0
LINE
  5
303
100
AcDbEntity
  8
IMPORT_IGES
100
AcDbLine
 62
7
  6
CONTINUOUS
 10
-1.3104722413
 20
-23.4273547064
 11
-1.3104722413
 21
-18.2064102237
  0
LINE
  5
304
100
AcDbEntity
  8
IMPORT_IGES
100
AcDbLine
 62
7
  6
CONTINUOUS
 10
-1.3080952381
 20
37.3704622787
 11
-1.3080952381
 21
36.2257865804
  0
LINE
  5
305
100
AcDbEntity
  8
IMPORT_IGES
100
AcDbLine
 62
7
  6
CONTINUOUS
 10
-1.3080952381
 20
30.5242134196
 11
-1.3080952381
 21
29.3795377213
  0
LINE
  5
306
100
AcDbEntity
  8
IMPORT_IGES
100
AcDbLine
 62
7
  6
CONTINUOUS
 10
-1.3054367868
 20
29.3769988935
 11
-1.3054367868
 21
30.5270513359
  0
LINE
  5
307
100
AcDbEntity
  8
IMPORT_IGES
100
AcDbLine
 62
7
  6
CONTINUOUS
 10
-1.3054367868
 20
36.2229404825
 11
-1.3054367868
 21
37.372992925
  0
LINE
  5
308
100
AcDbEntity
  8
IMPORT_IGES
100
AcDbLine
 62
7
  6
CONTINUOUS
 10
-1.3
 20
-18.2168824651
 11
-1.3
 21
-23.4168824651
  0
LINE
  5
309
100
AcDbEntity
  8
IMPORT_IGES
100
AcDbLine
 62
7
  6
CONTINUOUS
 10
-1.3
 20
-26.0922814135
 11
-1.3
 21
-27.5168824651
  0
LINE
  5
30A
100
AcDbEntity
  8
IMPORT_IGES
100
AcDbLine
 62
7
  6
CONTINUOUS
 10
-1.2
 20
-40.975
 11
-1.2
 21
-33.675
  0
LINE
  5
30B
100
AcDbEntity
  8
IMPORT_IGES
100
AcDbLine
 62
7
  6
CONTINUOUS
 10
-1.2
 20
-31.875
 11
-1.2
 21
-31.725
  0
LINE
  5
30C
100
AcDbEntity
  8
IMPORT_IGES
100
AcDbLine
 62
7
  6
CONTINUOUS
 10
-1.2
 20
-29.725
 11
-1.2
 21
-29.675
  0
LINE
  5
30D
100
AcDbEntity
  8
IMPORT_IGES
100
AcDbLine
 62
7
  6
CONTINUOUS
 10
-1.1895277587
 20
-29.6645277587
 11
-1.1895277587
 21
-29.725
  0
LINE
  5
30E
100
AcDbEntity
  8
IMPORT_IGES
100
AcDbLine
 62
7
  6
CONTINUOUS
 10
-1.1895277587
 20
-31.725
 11
-1.1895277587
 21
-31.8854722413
  0
LINE
  5
30F
100
AcDbEntity
  8
IMPORT_IGES
100
AcDbLine
 62
7
  6
CONTINUOUS
 10
-1.1895277587
 20
-32.675
 11
-1.1895277587
 21
-40.9854722413
  0
LINE
  5
310
100
AcDbEntity
  8
IMPORT_IGES
100
AcDbLine
 62
7
  6
CONTINUOUS
 10
-0.75
 20
-24.5956752766
 11
-0.75
 21
-19.0168824651
  0
LINE
  5
311
100
AcDbEntity
  8
IMPORT_IGES
100
AcDbLine
 62
7
  6
CONTINUOUS
 10
-0.7216376797
 20
-19.0168824651
 11
-0.7216376797
 21
-24.6564984688
  0
LINE
  5
312
100
AcDbEntity
  8
IMPORT_IGES
100
AcDbLine
 62
253
  6
CONTINUOUS
 10
0.0
 20
-26.725
 11
0.0
 21
-26.6839837214
  0
LINE
  5
313
100
AcDbEntity
  8
IMPORT_IGES
100
AcDbLine
 62
7
  6
CONTINUOUS
 10
-1.1895277587
 20
-32.675
 11
-1.1982392607
 21
-33.6732392607
  0
LWPOLYLINE
  5
314
100
AcDbEntity
  8
IMPORT_IGES
100
AcDbPolyline
 62
7
  6
CONTINUOUS
 90
13
 70
0
 10
-4.0
 20
-24.4700399886
 10
-3.9970756012
 20
-24.4298230923
 10
-3.989463543
 20
-24.391549968
 10
-3.9771638252
 20
-24.3552206156
 10
-3.9598097524
 20
-24.320286683
 10
-3.9377680201
 20
-24.2872965224
 10
-3.9121387149
 20
-24.2578951904
 10
-3.8827398825
 20
-24.2322647121
 10
-3.8497534771
 20
-24.2102230625
 10
-3.8148254478
 20
-24.1928692237
 10
-3.7785044442
 20
-24.1805695229
 10
-3.7402418166
 20
-24.1729576329
 10
-3.700037565
 20
-24.1700335536
  0
LINE
  5
315
100
AcDbEntity
  8
IMPORT_IGES
100
AcDbLine
 62
253
  6
CONTINUOUS
 10
14.3346228672
 20
17.2218255075
 11
14.391424784
 21
17.2791252901
  0
LINE
  5
316
100
AcDbEntity
  8
IMPORT_IGES
100
AcDbLine
 62
253
  6
CONTINUOUS
 10
14.8957112348
 20
16.7792204781
 11
14.8537291429
 21
16.7368704154
  0
LINE
  5
317
100
AcDbEntity
  8
IMPORT_IGES
100
AcDbLine
 62
7
  6
CONTINUOUS
 10
15.0
 20
-17.775
 11
15.0386563241
 21
-17.8136563241
  0
LINE
  5
318
100
AcDbEntity
  8
IMPORT_IGES
100
AcDbLine
 62
7
  6
CONTINUOUS
 10
15.0
 20
-15.775
 11
15.017637167
 21
-15.792637167
  0
LWPOLYLINE
  5
319
100
AcDbEntity
  8
IMPORT_IGES
100
AcDbPolyline
 62
7
  6
CONTINUOUS
 90
26
 70
0
 10
-14.4427935389
 20
19.8907051289
 10
-14.4708595223
 20
19.9371072023
 10
-14.4811631054
 20
19.9544041305
 10
-14.4918338613
 20
19.9725535334
 10
-14.5025506589
 20
19.9911815479
 10
-14.5132321833
 20
20.0103537978
 10
-14.5238124932
 20
20.0300046592
 10
-14.5339331845
 20
20.0495633977
 10
-14.5434145849
 20
20.0689094059
 10
-14.5522724274
 20
20.0881632911
 10
-14.5604251927
 20
20.1071161414
 10
-14.5677835717
 20
20.1256932997
 10
-14.5743293576
 20
20.1439694231
 10
-14.580102136
 20
20.1619595702
 10
-14.5850717677
 20
20.1796304227
 10
-14.5892095455
 20
20.197015299
 10
-14.5925707979
 20
20.2142292123
 10
-14.5951525487
 20
20.231282879
 10
-14.596930673
 20
20.2481655828
 10
-14.5979369242
 20
20.264960188
 10
-14.5981754403
 20
20.2816544092
 10
-14.597636884
 20
20.2982605319
 10
-14.5963380713
 20
20.3148982767
 10
-14.5942892036
 20
20.3316075505
 10
-14.5914939828
 20
20.3483484465
 10
-14.5879643089
 20
20.3651209645
  0
LINE
  5
31A
100
AcDbEntity
  8
IMPORT_IGES
100
AcDbLine
 62
7
  6
CONTINUOUS
 10
6.1418889654
 20
-23.37425574
 11
6.1
 21
-22.9543101551
  0
LWPOLYLINE
  5
31B
100
AcDbEntity
  8
IMPORT_IGES
100
AcDbPolyline
 62
253
  6
CONTINUOUS
 90
31
 70
0
 10
4.8707257068
 20
-36.8620190859
 10
4.8725832225
 20
-36.9050392071
 10
4.8778682666
 20
-36.9461912524
 10
4.8861571421
 20
-36.985240938
 10
4.8970094153
 20
-37.0219576223
 10
4.9100262
 20
-37.0562890971
 10
4.9248986257
 20
-37.0883391783
 10
4.9412854362
 20
-37.1180691219
 10
4.9588650478
 20
-37.1454792442
 10
4.9774544636
 20
-37.1707506427
 10
4.996802595
 20
-37.1939193797
 10
5.016671011
 20
-37.2150356297
 10
5.0369765482
 20
-37.2342908237
 10
5.0575502278
 20
-37.2517567118
 10
5.0782158366
 20
-37.2674965972
 10
5.0989370248
 20
-37.281667573
 10
5.1195970265
 20
-37.2943480986
 10
5.1400715665
 20
-37.3056099219
 10
5.1603502171
 20
-37.3155789982
 10
5.180354016
 20
-37.3243322119
 10
5.199996028
 20
-37.3319410169
 10
5.219277655
 20
-37.3385054199
 10
5.2381488145
 20
-37.3440975489
 10
5.2565477506
 20
-37.3487841628
 10
5.2744733676
 20
-37.3526441186
 10
5.2918879503
 20
-37.355742333
 10
5.308756125
 20
-37.3581424687
 10
5.3250901341
 20
-37.3599112776
 10
5.3408796264
 20
-37.3611072968
 10
5.3560906749
 20
-37.3617852533
 10
5.3707066683
 20
-37.3620000474
  0
LINE
  5
31C
100
AcDbEntity
  8
IMPORT_IGES
100
AcDbLine
 62
7
  6
CONTINUOUS
 10
0.7216376797
 20
-25.2533623203
 11
0.7216376797
 21
-19.0168824651
  0
LINE
  5
31D
100
AcDbEntity
  8
IMPORT_IGES
100
AcDbLine
 62
7
  6
CONTINUOUS
 10
0.75
 20
-19.0168824651
 11
0.75
 21
-25.225
  0
LINE
  5
31E
100
AcDbEntity
  8
IMPORT_IGES
100
AcDbLine
 62
7
  6
CONTINUOUS
 10
1.3
 20
-27.5168824651
 11
1.3
 21
-26.725
  0
LINE
  5
31F
100
AcDbEntity
  8
IMPORT_IGES
100
AcDbLine
 62
7
  6
CONTINUOUS
 10
1.3
 20
-25.225
 11
1.3
 21
-24.9168824651
  0
LINE
  5
320
100
AcDbEntity
  8
IMPORT_IGES
100
AcDbLine
 62
7
  6
CONTINUOUS
 10
1.3
 20
-23.4168824651
 11
1.3
 21
-18.2168824651
  0
LINE
  5
321
100
AcDbEntity
  8
IMPORT_IGES
100
AcDbLine
 62
7
  6
CONTINUOUS
 10
1.3104722413
 20
-18.2064102237
 11
1.3104722413
 21
-23.4273547064
  0
LINE
  5
322
100
AcDbEntity
  8
IMPORT_IGES
100
AcDbLine
 62
7
  6
CONTINUOUS
 10
1.3104722413
 20
-23.9168824651
 11
1.3104722413
 21
-25.225
  0
LINE
  5
323
100
AcDbEntity
  8
IMPORT_IGES
100
AcDbLine
 62
7
  6
CONTINUOUS
 10
1.3104722413
 20
-26.725
 11
1.3104722413
 21
-27.5273547064
  0
LINE
  5
324
100
AcDbEntity
  8
IMPORT_IGES
100
AcDbLine
 62
7
  6
CONTINUOUS
 10
1.3104722413
 20
-23.9168824651
 11
1.3017607393
 21
-24.9151217258
  0
LWPOLYLINE
  5
325
100
AcDbEntity
  8
IMPORT_IGES
100
AcDbPolyline
 62
7
  6
CONTINUOUS
 90
5
 70
0
 10
14.4049147947
 20
19.8248342361
 10
14.409472708
 20
19.8334914886
 10
14.4147036298
 20
19.8429921474
 10
14.4206364766
 20
19.8534118747
 10
14.4272941552
 20
19.8647951214
  0
LWPOLYLINE
  5
326
100
AcDbEntity
  8
IMPORT_IGES
100
AcDbPolyline
 62
7
  6
CONTINUOUS
 90
23
 70
0
 10
14.4916473429
 20
19.9721258326
 10
14.5023067098
 20
19.9907515565
 10
14.512962449
 20
20.0098965425
 10
14.5235887302
 20
20.0294796732
 10
14.5336747139
 20
20.0490501696
 10
14.543120588
 20
20.0683978919
 10
14.5520261645
 20
20.0875798153
 10
14.5601800399
 20
20.1065229156
 10
14.567526949
 20
20.125113981
 10
14.5741221569
 20
20.1433541604
 10
14.5799200559
 20
20.1613555869
 10
14.5849034721
 20
20.1790670814
 10
14.5890895792
 20
20.1964682366
 10
14.5924842906
 20
20.2137320769
 10
14.5950857734
 20
20.2308564524
 10
14.5968958604
 20
20.2477958252
 10
14.5979259628
 20
20.2646657142
 10
14.5981719368
 20
20.281436467
 10
14.5976379261
 20
20.2980990253
 10
14.5963477737
 20
20.3148015527
 10
14.5943094272
 20
20.3315803113
 10
14.5915149389
 20
20.3483601046
 10
14.5879643089
 20
20.3651209645
  0
LINE
  5
327
100
AcDbEntity
  8
IMPORT_IGES
100
AcDbLine
 62
7
  6
CONTINUOUS
 10
14.4272941552
 20
19.8647951214
 11
14.442675484
 21
19.8905097637
  0
LWPOLYLINE
  5
328
100
AcDbEntity
  8
IMPORT_IGES
100
AcDbPolyline
 62
7
  6
CONTINUOUS
 90
4
 70
0
 10
14.442675484
 20
19.8905097637
 10
14.4608509163
 20
19.9204365355
 10
14.4706735848
 20
19.9367976393
 10
14.4916473429
 20
19.9721258326
  0
LINE
  5
329
100
AcDbEntity
  8
IMPORT_IGES
100
AcDbLine
 62
7
  6
CONTINUOUS
 10
-15.0
 20
-15.775
 11
-15.017637167
 21
-15.792637167
  0
LINE
  5
32A
100
AcDbEntity
  8
IMPORT_IGES
100
AcDbLine
 62
7
  6
CONTINUOUS
 10
-15.0
 20
-17.775
 11
-15.0386563241
 21
-17.8136563241
  0
LINE
  5
32B
100
AcDbEntity
  8
IMPORT_IGES
100
AcDbLine
 62
253
  6
CONTINUOUS
 10
-14.8537291429
 20
16.7368704154
 11
-14.8957112348
 21
16.7792204781
  0
LINE
  5
32C
100
AcDbEntity
  8
IMPORT_IGES
100
AcDbLine
 62
253
  6
CONTINUOUS
 10
-14.391424784
 20
17.2791252901
 11
-14.3346228672
 21
17.2218255075
  0
LINE
  5
32D
100
AcDbEntity
  8
IMPORT_IGES
100
AcDbLine
 62
7
  6
CONTINUOUS
 10
6.0
 20
-15.5712375299
 11
5.9904004454
 21
-15.475
  0
LWPOLYLINE
  5
32E
100
AcDbEntity
  8
IMPORT_IGES
100
AcDbPolyline
 62
253
  6
CONTINUOUS
 90
31
 70
0
 10
6.154144658
 20
-42.4193858605
 10
6.1560021737
 20
-42.4624059817
 10
6.1612872178
 20
-42.503558027
 10
6.1695760933
 20
-42.5426077126
 10
6.1804283665
 20
-42.5793243969
 10
6.1934451512
 20
-42.6136558718
 10
6.2083175769
 20
-42.6457059529
 10
6.2247043874
 20
-42.6754358965
 10
6.242283999
 20
-42.7028460189
 10
6.2608734148
 20
-42.7281174173
 10
6.2802215462
 20
-42.7512861544
 10
6.3000899622
 20
-42.7724024043
 10
6.3203954994
 20
-42.7916575983
 10
6.340969179
 20
-42.8091234864
 10
6.3616347878
 20
-42.8248633718
 10
6.382355976
 20
-42.8390343476
 10
6.4030159777
 20
-42.8517148732
 10
6.4234905177
 20
-42.8629766965
 10
6.4437691683
 20
-42.8729457728
 10
6.4637729672
 20
-42.8816989865
 10
6.4834149792
 20
-42.8893077915
 10
6.5026966062
 20
-42.8958721945
 10
6.5215677657
 20
-42.9014643236
 10
6.5399667018
 20
-42.9061509374
 10
6.5578923188
 20
-42.9100108933
 10
6.5753069015
 20
-42.9131091076
 10
6.5921750762
 20
-42.9155092434
 10
6.6085090852
 20
-42.9172780522
 10
6.6242985776
 20
-42.9184740714
 10
6.6395096261
 20
-42.919152028
 10
6.6541256195
 20
-42.9193668221
  0
LWPOLYLINE
  5
32F
100
AcDbEntity
  8
IMPORT_IGES
100
AcDbPolyline
 62
7
  6
CONTINUOUS
 90
37
 70
0
 10
6.1000019725
 20
-42.473528546
 10
6.1003769157
 20
-42.4929813908
 10
6.1014716024
 20
-42.5120078411
 10
6.1032384239
 20
-42.5305829463
 10
6.1056023524
 20
-42.5485016232
 10
6.1085310978
 20
-42.5659313863
 10
6.1121001787
 20
-42.5834011476
 10
6.1163628522
 20
-42.6010444475
 10
6.1212993263
 20
-42.6186726483
 10
6.1269392099
 20
-42.6363180919
 10
6.1332976961
 20
-42.6539495299
 10
6.1403884898
 20
-42.6715338075
 10
6.1482503897
 20
-42.6890936124
 10
6.1569018247
 20
-42.7065914635
 10
6.166357937
 20
-42.7239846351
 10
6.1766625887
 20
-42.7412790341
 10
6.1878348622
 20
-42.7584276882
 10
6.1998892024
 20
-42.7753775039
 10
6.2128700309
 20
-42.7921146034
 10
6.2268028791
 20
-42.8085907956
 10
6.2416900904
 20
-42.8247302514
 10
6.2575417612
 20
-42.8404695361
 10
6.2743635326
 20
-42.8557413337
 10
6.2921546101
 20
-42.8704734377
 10
6.3109091562
 20
-42.8845914696
 10
6.3306290908
 20
-42.8980281893
 10
6.351289146
 20
-42.9106983905
 10
6.3728314933
 20
-42.9225038819
 10
6.3952510596
 20
-42.9333826351
 10
6.4184907442
 20
-42.9432477956
 10
6.4423960142
 20
-42.9519862121
 10
6.4669018051
 20
-42.9595399259
 10
6.4919650136
 20
-42.9658613333
 10
6.5174475537
 20
-42.9708851906
 10
6.5432570557
 20
-42.9745730027
 10
6.5693502846
 20
-42.9768995929
 10
6.5956556053
 20
-42.9778368363
  0
LINE
  5
330
100
AcDbEntity
  8
IMPORT_IGES
100
AcDbLine
 62
7
  6
CONTINUOUS
 10
5.9904004454
 20
-15.475
 11
5.9888751311
 21
-13.4772130673
  0
LINE
  5
331
100
AcDbEntity
  8
IMPORT_IGES
100
AcDbLine
 62
7
  6
CONTINUOUS
 10
3.9912731322
 20
-16.7668824651
 11
3.9912731322
 21
-16.9171507418
  0
LINE
  5
332
100
AcDbEntity
  8
IMPORT_IGES
100
AcDbLine
 62
7
  6
CONTINUOUS
 10
4.0
 20
-45.0250114231
 11
4.0
 21
-32.0249885769
  0
LINE
  5
333
100
AcDbEntity
  8
IMPORT_IGES
100
AcDbLine
 62
7
  6
CONTINUOUS
 10
4.0
 20
-31.2123460417
 11
4.0
 21
-30.2376539583
  0
LINE
  5
334
100
AcDbEntity
  8
IMPORT_IGES
100
AcDbLine
 62
7
  6
CONTINUOUS
 10
4.0
 20
-29.4250114231
 11
4.0
 21
-27.0249885769
  0
LINE
  5
335
100
AcDbEntity
  8
IMPORT_IGES
100
AcDbLine
 62
7
  6
CONTINUOUS
 10
4.0
 20
-24.9250114231
 11
4.0
 21
-17.566871042
  0
LINE
  5
336
100
AcDbEntity
  8
IMPORT_IGES
100
AcDbLine
 62
7
  6
CONTINUOUS
 10
4.0
 20
-16.9258776096
 11
4.0
 21
-15.9277828339
  0
LINE
  5
337
100
AcDbEntity
  8
IMPORT_IGES
100
AcDbLine
 62
7
  6
CONTINUOUS
 10
4.0283623203
 20
-30.225
 11
4.0283623203
 21
-29.4533737434
  0
LINE
  5
338
100
AcDbEntity
  8
IMPORT_IGES
100
AcDbLine
 62
7
  6
CONTINUOUS
 10
4.0283623203
 20
-31.225
 11
4.0283623203
 21
-31.9966262566
  0
LINE
  5
339
100
AcDbEntity
  8
IMPORT_IGES
100
AcDbLine
 62
7
  6
CONTINUOUS
 10
4.0410162786
 20
-17.5258547634
 11
4.0410162786
 21
-24.9660277017
  0
LINE
  5
33A
100
AcDbEntity
  8
IMPORT_IGES
100
AcDbLine
 62
7
  6
CONTINUOUS
 10
4.0410162786
 20
-26.9839722983
 11
4.0410162786
 21
-30.2376539583
  0
LINE
  5
33B
100
AcDbEntity
  8
IMPORT_IGES
100
AcDbLine
 62
7
  6
CONTINUOUS
 10
4.0410162786
 20
-31.2123460417
 11
4.0410162786
 21
-45.0660277017
  0
LINE
  5
33C
100
AcDbEntity
  8
IMPORT_IGES
100
AcDbLine
 62
7
  6
CONTINUOUS
 10
4.7871428571
 20
33.9464285714
 11
4.7871428571
 21
32.8035714286
  0
LINE
  5
33D
100
AcDbEntity
  8
IMPORT_IGES
100
AcDbLine
 62
7
  6
CONTINUOUS
 10
4.7898013084
 20
32.8009088834
 11
4.7898013084
 21
33.9490829351
  0
LINE
  5
33E
100
AcDbEntity
  8
IMPORT_IGES
100
AcDbLine
 62
7
  6
CONTINUOUS
 10
4.8584700142
 20
-36.8742747785
 11
4.8584700142
 21
-23.8742367015
  0
LINE
  5
33F
100
AcDbEntity
  8
IMPORT_IGES
100
AcDbLine
 62
7
  6
CONTINUOUS
 10
4.8707257068
 20
-23.8864923941
 11
4.8707257068
 21
-36.8620190859
  0
LINE
  5
340
100
AcDbEntity
  8
IMPORT_IGES
100
AcDbLine
 62
253
  6
CONTINUOUS
 10
5.3707066683
 20
-37.3620000474
 11
5.3707066683
 21
-23.3865114326
  0
LINE
  5
341
100
AcDbEntity
  8
IMPORT_IGES
100
AcDbLine
 62
7
  6
CONTINUOUS
 10
5.549047619
 20
37.3704622787
 11
5.549047619
 21
36.2257865804
  0
LINE
  5
342
100
AcDbEntity
  8
IMPORT_IGES
100
AcDbLine
 62
7
  6
CONTINUOUS
 10
5.549047619
 20
30.5242134196
 11
5.549047619
 21
29.3795377213
  0
LINE
  5
343
100
AcDbEntity
  8
IMPORT_IGES
100
AcDbLine
 62
7
  6
CONTINUOUS
 10
5.5517060703
 20
29.3769988935
 11
5.5517060703
 21
30.5270513359
  0
LINE
  5
344
100
AcDbEntity
  8
IMPORT_IGES
100
AcDbLine
 62
7
  6
CONTINUOUS
 10
5.5517060703
 20
36.2229404825
 11
5.5517060703
 21
37.372992925
  0
LINE
  5
345
100
AcDbEntity
  8
IMPORT_IGES
100
AcDbLine
 62
7
  6
CONTINUOUS
 10
5.9589837214
 20
-45.4340408368
 11
5.9589837214
 21
-37.37425574
  0
LINE
  5
346
100
AcDbEntity
  8
IMPORT_IGES
100
AcDbLine
 62
7
  6
CONTINUOUS
 10
5.9589837214
 20
-23.37425574
 11
5.9589837214
 21
-15.9277828339
  0
LINE
  5
347
100
AcDbEntity
  8
IMPORT_IGES
100
AcDbLine
 62
7
  6
CONTINUOUS
 10
6.0
 20
-15.5712375299
 11
6.0
 21
-23.37425574
  0
LINE
  5
348
100
AcDbEntity
  8
IMPORT_IGES
100
AcDbLine
 62
7
  6
CONTINUOUS
 10
6.0
 20
-37.37425574
 11
6.0
 21
-45.4750571154
  0
LINE
  5
349
100
AcDbEntity
  8
IMPORT_IGES
100
AcDbLine
 62
7
  6
CONTINUOUS
 10
6.1
 20
-42.4778558747
 11
6.1
 21
-37.7942013249
  0
LINE
  5
34A
100
AcDbEntity
  8
IMPORT_IGES
100
AcDbLine
 62
7
  6
CONTINUOUS
 10
6.1
 20
-22.9543101551
 11
6.1
 21
-18.2749809615
  0
LINE
  5
34B
100
AcDbEntity
  8
IMPORT_IGES
100
AcDbLine
 62
7
  6
CONTINUOUS
 10
6.154144658
 20
-18.3291256195
 11
6.154144658
 21
-23.3865114326
  0
LINE
  5
34C
100
AcDbEntity
  8
IMPORT_IGES
100
AcDbLine
 62
7
  6
CONTINUOUS
 10
6.154144658
 20
-37.3620000474
 11
6.154144658
 21
-42.4193858605
  0
LINE
  5
34D
100
AcDbEntity
  8
IMPORT_IGES
100
AcDbLine
 62
253
  6
CONTINUOUS
 10
6.6541256195
 20
-42.9193668221
 11
6.6541256195
 21
-36.8620190859
  0
LINE
  5
34E
100
AcDbEntity
  8
IMPORT_IGES
100
AcDbLine
 62
253
  6
CONTINUOUS
 10
6.6541256195
 20
-23.8864923941
 11
6.6541256195
 21
-17.829144658
  0
LINE
  5
34F
100
AcDbEntity
  8
IMPORT_IGES
100
AcDbLine
 62
7
  6
CONTINUOUS
 10
4.0
 20
-15.9277828339
 11
3.9912731322
 21
-16.7668824651
  0
LINE
  5
350
100
AcDbEntity
  8
IMPORT_IGES
100
AcDbLine
 62
7
  6
CONTINUOUS
 10
5.9589837214
 20
-15.9277828339
 11
5.9844473069
 21
-13.4794261345
  0
LINE
  5
351
100
AcDbEntity
  8
IMPORT_IGES
100
AcDbLine
 62
7
  6
CONTINUOUS
 10
6.1
 20
-37.7942013249
 11
6.1418889654
 21
-37.37425574
  0
LINE
  5
352
100
AcDbEntity
  8
IMPORT_IGES
100
AcDbLine
 62
7
  6
CONTINUOUS
 10
-0.0149287045
 20
-25.2660162786
 11
-0.0103230404
 21
-25.2533623203
  0
LINE
  5
353
100
AcDbEntity
  8
IMPORT_IGES
100
AcDbLine
 62
253
  6
CONTINUOUS
 10
-6.6541256195
 20
-17.829144658
 11
-6.5999809615
 21
-17.775
  0
LINE
  5
354
100
AcDbEntity
  8
IMPORT_IGES
100
AcDbLine
 62
253
  6
CONTINUOUS
 10
-6.1
 20
-18.2749809615
 11
-6.154144658
 21
-18.3291256195
  0
LINE
  5
355
100
AcDbEntity
  8
IMPORT_IGES
100
AcDbLine
 62
253
  6
CONTINUOUS
 10
-4.0
 20
-16.9258776096
 11
-3.9912731322
 21
-16.9171507418
  0
LINE
  5
356
100
AcDbEntity
  8
IMPORT_IGES
100
AcDbLine
 62
253
  6
CONTINUOUS
 10
-3.7000114231
 20
-17.2258661865
 11
-3.6912845553
 21
-17.2171393187
  0
LWPOLYLINE
  5
357
100
AcDbEntity
  8
IMPORT_IGES
100
AcDbPolyline
 62
7
  6
CONTINUOUS
 90
25
 70
0
 10
2.5624124201
 20
32.8009088834
 10
2.6025699397
 20
32.631939545
 10
2.6521867588
 20
32.467201602
 10
2.7112628776
 20
32.3066950544
 10
2.7801378156
 20
32.1499408832
 10
2.8584720532
 20
31.9974181074
 10
2.9452470312
 20
31.850563784
 10
3.040428018
 20
31.7094916575
 10
3.1440497451
 20
31.5740879833
 10
3.2551978473
 20
31.4454485848
 10
3.3740985999
 20
31.323447635
 10
3.5005257276
 20
31.2082109609
 10
3.632886039
 20
31.1012118666
 10
3.7710389626
 20
31.0027238729
 10
3.91512507
 20
30.9124734592
 10
4.0639728846
 20
30.8311133676
 10
4.2178921052
 20
30.7585656109
 10
4.376573033
 20
30.6949081764
 10
4.5379150961
 20
30.6410277688
 10
4.7014382554
 20
30.5971473542
 10
4.86762255
 20
30.5630439665
 10
5.0358075243
 20
30.5389354116
 10
5.2057730265
 20
30.5248942917
 10
5.3777392085
 20
30.5208480046
 10
5.5517060703
 20
30.5267965504
  0
LWPOLYLINE
  5
358
100
AcDbEntity
  8
IMPORT_IGES
100
AcDbPolyline
 62
7
  6
CONTINUOUS
 90
7
 70
0
 10
14.391424784
 20
19.7891668208
 10
14.3920511187
 20
19.7932936316
 10
14.3933262535
 20
19.7981284063
 10
14.3952501885
 20
19.8036864005
 10
14.3978148543
 20
19.8099695087
 10
14.4010283203
 20
19.8170002882
 10
14.4049147947
 20
19.8248342361
  0
LINE
  5
359
100
AcDbEntity
  8
IMPORT_IGES
100
AcDbLine
 62
7
  6
CONTINUOUS
 10
-6.154144658
 20
-23.3865114326
 11
-6.1545927417
 21
-23.3869696138
  0
LINE
  5
35A
100
AcDbEntity
  8
IMPORT_IGES
100
AcDbLine
 62
253
  6
CONTINUOUS
 10
-5.3707066683
 20
-23.3865114326
 11
-5.3584509757
 21
-23.37425574
  0
LINE
  5
35B
100
AcDbEntity
  8
IMPORT_IGES
100
AcDbLine
 62
253
  6
CONTINUOUS
 10
-4.8584700142
 20
-23.8742367015
 11
-4.8707257068
 21
-23.8864923941
  0
LINE
  5
35C
100
AcDbEntity
  8
IMPORT_IGES
100
AcDbLine
 62
7
  6
CONTINUOUS
 10
1.3104722413
 20
-18.2064102237
 11
1.3
 21
-18.2168824651
  0
LINE
  5
35D
100
AcDbEntity
  8
IMPORT_IGES
100
AcDbLine
 62
7
  6
CONTINUOUS
 10
-6.1418889654
 20
-23.37425574
 11
-6.6541256195
 21
-23.8864923941
  0
LWPOLYLINE
  5
35E
100
AcDbEntity
  8
IMPORT_IGES
100
AcDbPolyline
 62
253
  6
CONTINUOUS
 90
75
 70
0
 10
17.4987153385
 20
16.8120652314
 10
17.5009182552
 20
16.8125407275
 10
17.5032157015
 20
16.8130477129
 10
17.5056142104
 20
16.8135891139
 10
17.5081065022
 20
16.8141648372
 10
17.5106869088
 20
16.8147750901
 10
17.5133517268
 20
16.8154204994
 10
17.5161038099
 20
16.8161033133
 10
17.5189472833
 20
16.8168262395
 10
17.5218853438
 20
16.8175919135
 10
17.5249136982
 20
16.8184011041
 10
17.5280251974
 20
16.8192537491
 10
17.5312151794
 20
16.820150366
 10
17.53448709
 20
16.821093772
 10
17.537845888
 20
16.8220874083
 10
17.5412889664
 20
16.8231326179
 10
17.5448174046
 20
16.8242319059
 10
17.5484415136
 20
16.8253908872
 10
17.5521603292
 20
16.8266118702
 10
17.5559728185
 20
16.8278972148
 10
17.559888934
 20
16.8292532094
 10
17.563907343
 20
16.8306825724
 10
17.5680267967
 20
16.8321881416
 10
17.5722570594
 20
16.8337770432
 10
17.5765961638
 20
16.8354523796
 10
17.5810427565
 20
16.8372175966
 10
17.5856071266
 20
16.8390810873
 10
17.590286173
 20
16.8410462301
 10
17.5950787263
 20
16.8431173351
 10
17.5999974379
 20
16.8453051356
 10
17.6050390794
 20
16.8476139249
 10
17.6102013121
 20
16.8500485634
 10
17.6154973986
 20
16.8526218044
 10
17.6209229186
 20
16.8553385717
 10
17.626475037
 20
16.8582047764
 10
17.632168432
 20
16.8612360693
 10
17.6379976555
 20
16.8644383737
 10
17.6439586402
 20
16.8678186193
 10
17.650066844
 20
16.8713956872
 10
17.6563150198
 20
16.8751764115
 10
17.6626979058
 20
16.8791691376
 10
17.6692321936
 20
16.8833971037
 10
17.6759084752
 20
16.8878683009
 10
17.6827196183
 20
16.8925926413
 10
17.6896833379
 20
16.897598811
 10
17.6967875116
 20
16.9028962349
 10
17.7040222579
 20
16.9084965318
 10
17.71140538
 20
16.9144347871
 10
17.7189206136
 20
16.9207215888
 10
17.7265548422
 20
16.9273708356
 10
17.73432605
 20
16.93442635
 10
17.7422127686
 20
16.9419001699
 10
17.7501969386
 20
16.9498084789
 10
17.7582952754
 20
16.9582058857
 10
17.7664791985
 20
16.967105741
 10
17.7747237557
 20
16.9765266083
 10
17.7830420996
 20
16.9865363156
 10
17.7913956308
 20
16.9971486749
 10
17.7997500446
 20
17.008384738
 10
17.8081120906
 20
17.0203294069
 10
17.8164288575
 20
17.0329948121
 10
17.8246533506
 20
17.0464046524
 10
17.8327823574
 20
17.0606681596
 10
17.8407466715
 20
17.075800026
 10
17.8484765586
 20
17.0918185112
 10
17.8559418005
 20
17.1088444171
 10
17.8630760567
 20
17.1269606736
 10
17.8697495384
 20
17.1461058329
 10
17.8758299008
 20
17.1661772347
 10
17.8812462657
 20
17.1872667355
 10
17.8858676993
 20
17.2092575018
 10
17.8895346462
 20
17.2317074586
 10
17.8921892108
 20
17.2544364895
 10
17.8938138725
 20
17.2775392927
 10
17.8943668221
 20
17.300968965
  0
LINE
  5
35F
100
AcDbEntity
  8
IMPORT_IGES
100
AcDbLine
 62
253
  6
CONTINUOUS
 10
17.4945509052
 20
16.8111946668
 11
17.4987153385
 21
16.8120652314
  0
LINE
  5
360
100
AcDbEntity
  8
IMPORT_IGES
100
AcDbLine
 62
253
  6
CONTINUOUS
 10
17.490684868
 20
16.810419497
 11
17.4945509052
 21
16.8111946668
  0
LINE
  5
361
100
AcDbEntity
  8
IMPORT_IGES
100
AcDbLine
 62
253
  6
CONTINUOUS
 10
17.4870488533
 20
16.8097193185
 11
17.490684868
 21
16.810419497
  0
LINE
  5
362
100
AcDbEntity
  8
IMPORT_IGES
100
AcDbLine
 62
253
  6
CONTINUOUS
 10
17.4835448941
 20
16.8090709342
 11
17.4870488533
 21
16.8097193185
  0
LINE
  5
363
100
AcDbEntity
  8
IMPORT_IGES
100
AcDbLine
 62
253
  6
CONTINUOUS
 10
17.4800964031
 20
16.8084579792
 11
17.4835448941
 21
16.8090709342
  0
LINE
  5
364
100
AcDbEntity
  8
IMPORT_IGES
100
AcDbLine
 62
253
  6
CONTINUOUS
 10
17.4765584299
 20
16.8078549656
 11
17.4800964031
 21
16.8084579792
  0
LINE
  5
365
100
AcDbEntity
  8
IMPORT_IGES
100
AcDbLine
 62
253
  6
CONTINUOUS
 10
17.4728331308
 20
16.8072482131
 11
17.4765584299
 21
16.8078549656
  0
LINE
  5
366
100
AcDbEntity
  8
IMPORT_IGES
100
AcDbLine
 62
253
  6
CONTINUOUS
 10
-17.4767952686
 20
16.8078945169
 11
-17.4730770799
 21
16.8072870633
  0
LINE
  5
367
100
AcDbEntity
  8
IMPORT_IGES
100
AcDbLine
 62
253
  6
CONTINUOUS
 10
-17.4803351676
 20
16.8084996161
 11
-17.4767952686
 21
16.8078945169
  0
LINE
  5
368
100
AcDbEntity
  8
IMPORT_IGES
100
AcDbLine
 62
253
  6
CONTINUOUS
 10
-17.4837914465
 20
16.8091157129
 11
-17.4803351676
 21
16.8084996161
  0
LINE
  5
369
100
AcDbEntity
  8
IMPORT_IGES
100
AcDbLine
 62
253
  6
CONTINUOUS
 10
-17.4873073454
 20
16.8097681743
 11
-17.4837914465
 21
16.8091157129
  0
LINE
  5
36A
100
AcDbEntity
  8
IMPORT_IGES
100
AcDbLine
 62
253
  6
CONTINUOUS
 10
-17.4909585201
 20
16.8104733243
 11
-17.4873073454
 21
16.8097681743
  0
LINE
  5
36B
100
AcDbEntity
  8
IMPORT_IGES
100
AcDbLine
 62
253
  6
CONTINUOUS
 10
-17.4948420401
 20
16.8112543266
 11
-17.4909585201
 21
16.8104733243
  0
LINE
  5
36C
100
AcDbEntity
  8
IMPORT_IGES
100
AcDbLine
 62
7
  6
CONTINUOUS
 10
-14.3039825167
 20
19.7354649288
 11
-14.3896910148
 21
19.7783159142
  0
LWPOLYLINE
  5
36D
100
AcDbEntity
  8
IMPORT_IGES
100
AcDbPolyline
 62
7
  6
CONTINUOUS
 90
40
 70
0
 10
14.3346228672
 20
17.2218255075
 10
14.3368263912
 20
17.1915560507
 10
14.3404070397
 20
17.162548019
 10
14.3453648127
 20
17.1348014123
 10
14.3518395472
 20
17.1083570744
 10
14.3596914061
 20
17.0831741617
 10
14.3685008781
 20
17.0591301428
 10
14.3782197895
 20
17.0362242941
 10
14.388896314
 20
17.0144573392
 10
14.4002554619
 20
16.9937089185
 10
14.4122695065
 20
16.9739714239
 10
14.4249661745
 20
16.9552524635
 10
14.438153656
 20
16.9374545013
 10
14.4518167606
 20
16.9205701531
 10
14.4659706787
 20
16.9046068032
 10
14.4804691717
 20
16.8894890684
 10
14.495304883
 20
16.8752114238
 10
14.5104851692
 20
16.8617793944
 10
14.5258858612
 20
16.849134171
 10
14.5415035226
 20
16.8372731916
 10
14.5573415899
 20
16.8261990184
 10
14.5732862032
 20
16.8158605284
 10
14.5893381628
 20
16.8062567844
 10
14.6054966685
 20
16.7973887236
 10
14.6216454594
 20
16.7892080343
 10
14.6377854703
 20
16.7817170469
 10
14.6539157665
 20
16.7749134311
 10
14.6699172833
 20
16.7687418846
 10
14.6857648945
 20
16.763211043
 10
14.7014837264
 20
16.7583122706
 10
14.7170300938
 20
16.7539643585
 10
14.7323912085
 20
16.750164993
 10
14.7475798587
 20
16.7469164877
 10
14.7625907235
 20
16.7441445739
 10
14.7773915596
 20
16.7418444054
 10
14.7920146104
 20
16.7400208283
 10
14.8065512849
 20
16.7386141119
 10
14.821032053
 20
16.7376043459
 10
14.8354264448
 20
16.7370114407
 10
14.8497344605
 20
16.7368353961
  0
LWPOLYLINE
  5
36E
100
AcDbEntity
  8
IMPORT_IGES
100
AcDbPolyline
 62
253
  6
CONTINUOUS
 90
31
 70
0
 10
17.8943668221
 20
-18.3291256195
 10
17.8925093064
 20
-18.2861054983
 10
17.8872242622
 20
-18.2449534531
 10
17.8789353868
 20
-18.2059037674
 10
17.8680831135
 20
-18.1691870831
 10
17.8550663289
 20
-18.1348556083
 10
17.8401939031
 20
-18.1028055271
 10
17.8238070926
 20
-18.0730755835
 10
17.806227481
 20
-18.0456654612
 10
17.7876380652
 20
-18.0203940627
 10
17.7682899338
 20
-17.9972253257
 10
17.7484215178
 20
-17.9761090757
 10
17.7281159806
 20
-17.9568538817
 10
17.707542301
 20
-17.9393879936
 10
17.6868766923
 20
-17.9236481082
 10
17.6661555041
 20
-17.9094771324
 10
17.6454955023
 20
-17.8967966069
 10
17.6250209623
 20
-17.8855347835
 10
17.6047423117
 20
-17.8755657072
 10
17.5847385128
 20
-17.8668124935
 10
17.5650965008
 20
-17.8592036885
 10
17.5458148739
 20
-17.8526392856
 10
17.5269437144
 20
-17.8470471565
 10
17.5085447782
 20
-17.8423605426
 10
17.4906191613
 20
-17.8385005868
 10
17.4732045785
 20
-17.8354023724
 10
17.4563364038
 20
-17.8330022367
 10
17.4400023948
 20
-17.8312334278
 10
17.4242129024
 20
-17.8300374086
 10
17.4090018539
 20
-17.8293594521
 10
17.3943858605
 20
-17.829144658
  0
LINE
  5
36F
100
AcDbEntity
  8
IMPORT_IGES
100
AcDbLine
 62
7
  6
CONTINUOUS
 10
14.3346228672
 20
17.2218255075
 11
14.3039825167
 21
18.2349884612
  0
LWPOLYLINE
  5
370
100
AcDbEntity
  8
IMPORT_IGES
100
AcDbPolyline
 62
253
  6
CONTINUOUS
 90
75
 70
0
 10
14.391424784
 20
17.2791252901
 10
14.3920111434
 20
17.2550723773
 10
14.3937121481
 20
17.2315100552
 10
14.3964622715
 20
17.2084865256
 10
14.4002216396
 20
17.1859053863
 10
14.4049097334
 20
17.1639447775
 10
14.41034392
 20
17.1430444381
 10
14.416356682
 20
17.1233661592
 10
14.4228728655
 20
17.104758007
 10
14.4298063
 20
17.0871672526
 10
14.4370485201
 20
17.0706143352
 10
14.4445208435
 20
17.0550561338
 10
14.4522092392
 20
17.0403456732
 10
14.4600558537
 20
17.0264534003
 10
14.467989614
 20
17.0133782669
 10
14.4760034986
 20
17.0010230107
 10
14.484050412
 20
16.989368426
 10
14.4920824719
 20
16.9783993055
 10
14.5001087207
 20
16.968030654
 10
14.5080976013
 20
16.9582415465
 10
14.5160118521
 20
16.949020106
 10
14.5238642842
 20
16.9403008848
 10
14.5316312194
 20
16.9320664
 10
14.5392856299
 20
16.9243041286
 10
14.5468438028
 20
16.9169610981
 10
14.5542886173
 20
16.9100220279
 10
14.561599677
 20
16.9034757141
 10
14.5687944081
 20
16.8972795654
 10
14.5758602343
 20
16.8914205653
 10
14.5827817795
 20
16.8858887745
 10
14.5895766029
 20
16.8806497573
 10
14.5962354126
 20
16.8756925129
 10
14.6027465462
 20
16.871008374
 10
14.6091271435
 20
16.8665693262
 10
14.6153704111
 20
16.8623660494
 10
14.6214673497
 20
16.8583911448
 10
14.6274340774
 20
16.8546218747
 10
14.6332654937
 20
16.8510504438
 10
14.6389547214
 20
16.8476704825
 10
14.6445168922
 20
16.8444633494
 10
14.6499481767
 20
16.8414225188
 10
14.655243276
 20
16.8385425515
 10
14.6604163662
 20
16.8358080484
 10
14.6654646838
 20
16.8332134906
 10
14.6703840087
 20
16.8307543181
 10
14.6751872637
 20
16.8284178929
 10
14.6798723145
 20
16.8261996221
 10
14.684435923
 20
16.8240956022
 10
14.6888900555
 20
16.8220953156
 10
14.6932333224
 20
16.8201948204
 10
14.6974629681
 20
16.8183909086
 10
14.7015894338
 20
16.816675047
 10
14.70561142
 20
16.8150440284
 10
14.7095270014
 20
16.8134950077
 10
14.713346077
 20
16.8120207196
 10
14.7170676318
 20
16.8106184776
 10
14.7206901713
 20
16.8092858636
 10
14.7242231852
 20
16.8080166347
 10
14.727666915
 20
16.806808188
 10
14.7310191711
 20
16.8056588527
 10
14.7342860208
 20
16.8045642521
 10
14.7374689916
 20
16.8035217543
 10
14.7405650067
 20
16.8025303119
 10
14.7435733425
 20
16.8015881403
 10
14.7464923001
 20
16.8006938101
 10
14.7493222619
 20
16.7998453075
 10
14.7520657008
 20
16.7990400981
 10
14.7547225751
 20
16.7982764959
 10
14.7572918612
 20
16.797553156
 10
14.759774631
 20
16.7968682049
 10
14.7621632564
 20
16.7962221881
 10
14.764464474
 20
16.7956117848
 10
14.7667010392
 20
16.795029748
 10
14.7688746666
 20
16.7944746468
 10
14.7730432129
 20
16.7934390675
  0
LINE
  5
371
100
AcDbEntity
  8
IMPORT_IGES
100
AcDbLine
 62
7
  6
CONTINUOUS
 10
15.017637167
 20
-15.792637167
 11
15.0386563241
 21
-17.8136563241
  0
LINE
  5
372
100
AcDbEntity
  8
IMPORT_IGES
100
AcDbLine
 62
253
  6
CONTINUOUS
 10
14.8957112348
 20
16.7792204781
 11
14.8913486316
 21
17.2791252901
  0
LINE
  5
373
100
AcDbEntity
  8
IMPORT_IGES
100
AcDbLine
 62
7
  6
CONTINUOUS
 10
14.3039825167
 20
19.7354649288
 11
14.3039825167
 21
18.2349884612
  0
LINE
  5
374
100
AcDbEntity
  8
IMPORT_IGES
100
AcDbLine
 62
253
  6
CONTINUOUS
 10
14.391424784
 20
19.7891668208
 11
14.391424784
 21
17.2791252901
  0
LINE
  5
375
100
AcDbEntity
  8
IMPORT_IGES
100
AcDbLine
 62
253
  6
CONTINUOUS
 10
14.8913486316
 20
17.2791252901
 11
14.8913486316
 21
19.7834700142
  0
LINE
  5
376
100
AcDbEntity
  8
IMPORT_IGES
100
AcDbLine
 62
7
  6
CONTINUOUS
 10
15.0
 20
-17.775
 11
15.0
 21
-15.775
  0
LINE
  5
377
100
AcDbEntity
  8
0
100
AcDbLine
 62
7
  6
CONTINUOUS
 10
15.5
 20
-45.525
 11
15.5
 21
-43.025
  0
LINE
  5
378
100
AcDbEntity
  8
IMPORT_IGES
100
AcDbLine
 62
7
  6
CONTINUOUS
 10
16.9
 20
-15.775
 11
16.9
 21
-17.775
  0
LINE
  5
379
100
AcDbEntity
  8
IMPORT_IGES
100
AcDbLine
 62
7
  6
CONTINUOUS
 10
16.8613436759
 20
-17.8136563241
 11
16.882362833
 21
-15.792637167
  0
LINE
  5
37A
100
AcDbEntity
  8
IMPORT_IGES
100
AcDbLine
 62
253
  6
CONTINUOUS
 10
-0.9378166588
 20
-26.3426463724
 11
-0.9641814145
 21
-26.3740666647
  0
LINE
  5
37B
100
AcDbEntity
  8
IMPORT_IGES
100
AcDbLine
 62
253
  6
CONTINUOUS
 10
3.7000114231
 20
-17.2668824651
 11
3.7410277017
 21
-17.2258661865
  0
LINE
  5
37C
100
AcDbEntity
  8
IMPORT_IGES
100
AcDbLine
 62
253
  6
CONTINUOUS
 10
4.0410162786
 20
-17.5258547634
 11
4.0
 21
-17.566871042
  0
LINE
  5
37D
100
AcDbEntity
  8
IMPORT_IGES
100
AcDbLine
 62
7
  6
CONTINUOUS
 10
-1.3
 20
-23.4168824651
 11
-1.3104722413
 21
-23.4273547064
  0
LINE
  5
37E
100
AcDbEntity
  8
IMPORT_IGES
100
AcDbLine
 62
253
  6
CONTINUOUS
 10
17.468857049
 20
16.8066323983
 11
17.4728331308
 21
16.8072482131
  0
LWPOLYLINE
  5
37F
100
AcDbEntity
  8
IMPORT_IGES
100
AcDbPolyline
 62
253
  6
CONTINUOUS
 90
23
 70
0
 10
17.4070831874
 20
16.8012076216
 10
17.4093977213
 20
16.8012721264
 10
17.4117942332
 20
16.8013502205
 10
17.4142656772
 20
16.8014428084
 10
17.4168189017
 20
16.8015513189
 10
17.4194653572
 20
16.8016775931
 10
17.4222158392
 20
16.8018237305
 10
17.4250592351
 20
16.8019907835
 10
17.4279741191
 20
16.8021789154
 10
17.4309796233
 20
16.80239081
 10
17.4340562173
 20
16.8026265791
 10
17.4371245878
 20
16.8028807513
 10
17.4401785702
 20
16.8031526347
 10
17.4432241256
 20
16.8034425793
 10
17.4462003495
 20
16.8037441037
 10
17.4490962085
 20
16.8040547672
 10
17.4519227936
 20
16.8043744677
 10
17.4546525627
 20
16.8046986903
 10
17.4572798666
 20
16.8050251286
 10
17.4598105786
 20
16.8053529339
 10
17.4622345284
 20
16.8056792339
 10
17.4645410114
 20
16.8060009392
 10
17.468857049
 20
16.8066323983
  0
LINE
  5
380
100
AcDbEntity
  8
IMPORT_IGES
100
AcDbLine
 62
253
  6
CONTINUOUS
 10
17.4027313246
 20
16.8011153721
 11
17.4070831874
 21
16.8012076216
  0
LINE
  5
381
100
AcDbEntity
  8
IMPORT_IGES
100
AcDbLine
 62
253
  6
CONTINUOUS
 10
17.3987484637
 20
16.801064153
 11
17.4027313246
 21
16.8011153721
  0
LINE
  5
382
100
AcDbEntity
  8
IMPORT_IGES
100
AcDbLine
 62
7
  6
CONTINUOUS
 10
14.8537291429
 20
16.7368704154
 11
17.4196870854
 21
16.759364854
  0
LINE
  5
383
100
AcDbEntity
  8
IMPORT_IGES
100
AcDbLine
 62
253
  6
CONTINUOUS
 10
14.8957112348
 20
16.7792204781
 11
17.3987484637
 21
16.801064153
  0
LINE
  5
384
100
AcDbEntity
  8
IMPORT_IGES
100
AcDbLine
 62
253
  6
CONTINUOUS
 10
14.8913486316
 20
17.2791252901
 11
17.3943858605
 21
17.300968965
  0
LWPOLYLINE
  5
385
100
AcDbEntity
  8
IMPORT_IGES
100
AcDbPolyline
 62
253
  6
CONTINUOUS
 90
22
 70
0
 10
-14.8957112348
 20
16.7792204781
 10
-14.8908785471
 20
16.7792031484
 10
-14.8864421379
 20
16.7792283684
 10
-14.882402304
 20
16.7792855869
 10
-14.8788761397
 20
16.7793622257
 10
-14.8757466534
 20
16.7794510942
 10
-14.8726630135
 20
16.7795578508
 10
-14.8694975228
 20
16.7796872675
 10
-14.8663781193
 20
16.7798344645
 10
-14.8633375664
 20
16.7799967435
 10
-14.860386203
 20
16.7801720329
 10
-14.8575137425
 20
16.780359464
 10
-14.8547219582
 20
16.7805575558
 10
-14.8520103884
 20
16.7807650019
 10
-14.8493794697
 20
16.7809804671
 10
-14.846832299
 20
16.7812024056
 10
-14.8443741289
 20
16.7814290429
 10
-14.8419996063
 20
16.7816595988
 10
-14.8396959199
 20
16.7818942149
 10
-14.8374655027
 20
16.7821316474
 10
-14.8353058158
 20
16.7823712009
 10
-14.8311372113
 20
16.7828604864
  0
LINE
  5
386
100
AcDbEntity
  8
IMPORT_IGES
100
AcDbLine
 62
7
  6
CONTINUOUS
 10
-17.4196870854
 20
16.759364854
 11
-14.8537291429
 21
16.7368704154
  0
LINE
  5
387
100
AcDbEntity
  8
IMPORT_IGES
100
AcDbLine
 62
253
  6
CONTINUOUS
 10
-17.3943858605
 20
17.300968965
 11
-14.8913486316
 21
17.2791252901
  0
LINE
  5
388
100
AcDbEntity
  8
IMPORT_IGES
100
AcDbLine
 62
253
  6
CONTINUOUS
 10
-17.4006657016
 20
16.8010848475
 11
-14.8957112348
 21
16.7792204781
  0
LWPOLYLINE
  5
389
100
AcDbEntity
  8
IMPORT_IGES
100
AcDbPolyline
 62
253
  6
CONTINUOUS
 90
24
 70
0
 10
-17.4648393371
 20
16.8060433494
 10
-17.4625567497
 20
16.8057235191
 10
-17.4601632971
 20
16.8053996648
 10
-17.4576671151
 20
16.8050744385
 10
-17.4550706085
 20
16.8047496871
 10
-17.4523686639
 20
16.8044263854
 10
-17.4495661534
 20
16.8041067918
 10
-17.4466805137
 20
16.8037944354
 10
-17.4436968395
 20
16.8034892691
 10
-17.4406299197
 20
16.8031944178
 10
-17.4375418953
 20
16.8029167894
 10
-17.4344226576
 20
16.8026559336
 10
-17.4312824826
 20
16.8024131719
 10
-17.4282143389
 20
16.8021951824
 10
-17.4252401933
 20
16.8020019651
 10
-17.4223385002
 20
16.8018306016
 10
-17.4195370959
 20
16.8016812118
 10
-17.4168489332
 20
16.801552673
 10
-17.4142614012
 20
16.8014426376
 10
-17.4117639803
 20
16.8013491629
 10
-17.4093498018
 20
16.8012706821
 10
-17.4070259442
 20
16.8012061621
 10
-17.4048027834
 20
16.8011545557
 10
-17.4006657016
 20
16.8010848475
  0
LINE
  5
38A
100
AcDbEntity
  8
IMPORT_IGES
100
AcDbLine
 62
253
  6
CONTINUOUS
 10
-17.4691196448
 20
16.8066720593
 11
-17.4648393371
 21
16.8060433494
  0
LINE
  5
38B
100
AcDbEntity
  8
IMPORT_IGES
100
AcDbLine
 62
253
  6
CONTINUOUS
 10
-17.4730770799
 20
16.8072870633
 11
-17.4691196448
 21
16.8066720593
  0
LWPOLYLINE
  5
38C
100
AcDbEntity
  8
IMPORT_IGES
100
AcDbPolyline
 62
253
  6
CONTINUOUS
 90
31
 70
0
 10
17.9354072227
 20
46.4104262611
 10
17.9335497239
 20
46.4534461866
 10
17.9282647223
 20
46.4945980798
 10
17.919975903
 20
46.5336476586
 10
17.9091236855
 20
46.5703642901
 10
17.8961069479
 20
46.6046957546
 10
17.8812345655
 20
46.636745838
 10
17.864847796
 20
46.6664757893
 10
17.8472682185
 20
46.69388593
 10
17.8286788335
 20
46.7191573497
 10
17.8093307317
 20
46.7423261074
 10
17.7894623418
 20
46.7634423802
 10
17.7691568249
 20
46.7826976012
 10
17.7485831579
 20
46.8001635204
 10
17.7279175548
 20
46.8159034391
 10
17.7071963671
 20
46.8300744487
 10
17.6865363611
 20
46.8427550077
 10
17.6660618116
 20
46.8540168638
 10
17.6457831473
 20
46.8639859717
 10
17.6257793312
 20
46.8727392151
 10
17.6061372981
 20
46.880348048
 10
17.5868556459
 20
46.886912477
 10
17.5679844567
 20
46.8925046302
 10
17.5495854871
 20
46.8971912657
 10
17.5316598335
 20
46.9010512406
 10
17.5142452112
 20
46.9041494711
 10
17.4973769943
 20
46.9065496202
 10
17.4810429408
 20
46.9083184395
 10
17.4652534019
 20
46.9095144661
 10
17.4500423048
 20
46.9101924271
 10
17.4354262611
 20
46.9104072227
  0
LINE
  5
38D
100
AcDbEntity
  8
IMPORT_IGES
100
AcDbLine
 62
253
  6
CONTINUOUS
 10
17.3943858605
 20
17.300968965
 11
17.3987484637
 21
16.801064153
  0
LINE
  5
38E
100
AcDbEntity
  8
IMPORT_IGES
100
AcDbLine
 62
253
  6
CONTINUOUS
 10
17.3943858605
 20
19.7834700142
 11
17.3943858605
 21
17.300968965
  0
LINE
  5
38F
100
AcDbEntity
  8
IMPORT_IGES
100
AcDbLine
 62
253
  6
CONTINUOUS
 10
17.3943858605
 20
-17.829144658
 11
17.3943858605
 21
-42.9193668221
  0
LINE
  5
390
100
AcDbEntity
  8
IMPORT_IGES
100
AcDbLine
 62
253
  6
CONTINUOUS
 10
17.4528558747
 20
16.759364854
 11
17.4528558747
 21
-17.775
  0
LINE
  5
391
100
AcDbEntity
  8
IMPORT_IGES
100
AcDbLine
 62
7
  6
CONTINUOUS
 10
17.8943668221
 20
-42.4193858605
 11
17.8943668221
 21
-18.3291256195
  0
LINE
  5
392
100
AcDbEntity
  8
IMPORT_IGES
100
AcDbLine
 62
7
  6
CONTINUOUS
 10
17.8943668221
 20
17.300968965
 11
17.8943668221
 21
19.7397256824
  0
LINE
  5
393
100
AcDbEntity
  8
IMPORT_IGES
100
AcDbLine
 62
7
  6
CONTINUOUS
 10
17.9377698084
 20
19.7356033002
 11
17.9377698084
 21
18.2532971511
  0
LINE
  5
394
100
AcDbEntity
  8
IMPORT_IGES
100
AcDbLine
 62
7
  6
CONTINUOUS
 10
17.9528368363
 20
-18.2706556053
 11
17.9528368363
 21
19.7206746438
  0
LINE
  5
395
100
AcDbEntity
  8
IMPORT_IGES
100
AcDbLine
 62
7
  6
CONTINUOUS
 10
18.0
 20
46.4750190385
 11
18.0
 21
-42.5250190385
  0
LINE
  5
396
100
AcDbEntity
  8
IMPORT_IGES
100
AcDbLine
 62
253
  6
CONTINUOUS
 10
17.3943195702
 20
19.7834700142
 11
17.4354262611
 21
46.9104072227
  0
LINE
  5
397
100
AcDbEntity
  8
IMPORT_IGES
100
AcDbLine
 62
7
  6
CONTINUOUS
 10
17.9354072227
 20
46.4104262611
 11
17.8943668221
 21
19.7397256824
  0
LINE
  5
398
100
AcDbEntity
  8
IMPORT_IGES
100
AcDbLine
 62
7
  6
CONTINUOUS
 10
17.9377698084
 20
18.2532971511
 11
17.9225295655
 21
17.2448828158
  0
LINE
  5
399
100
AcDbEntity
  8
IMPORT_IGES
100
AcDbLine
 62
253
  6
CONTINUOUS
 10
-18.0
 20
-42.5250190385
 11
-17.8943668221
 21
-42.4193858605
  0
LINE
  5
39A
100
AcDbEntity
  8
IMPORT_IGES
100
AcDbLine
 62
253
  6
CONTINUOUS
 10
-17.3943858605
 20
-42.9193668221
 11
-17.5000190385
 21
-43.025
  0
LINE
  5
39B
100
AcDbEntity
  8
IMPORT_IGES
100
AcDbLine
 62
7
  6
CONTINUOUS
 10
0.75
 20
-25.225
 11
0.7216376797
 21
-25.2533623203
  0
LINE
  5
39C
100
AcDbEntity
  8
IMPORT_IGES
100
AcDbLine
 62
7
  6
CONTINUOUS
 10
-1.3
 20
-27.5168824651
 11
-1.3104722413
 21
-27.5273547064
  0
LINE
  5
39D
100
AcDbEntity
  8
IMPORT_IGES
100
AcDbLine
 62
7
  6
CONTINUOUS
 10
-3.8
 20
-31.875
 11
-3.8104722413
 21
-31.8854722413
  0
LINE
  5
39E
100
AcDbEntity
  8
IMPORT_IGES
100
AcDbLine
 62
7
  6
CONTINUOUS
 10
-1.1895277587
 20
-29.6645277587
 11
-1.2
 21
-29.675
  0
LINE
  5
39F
100
AcDbEntity
  8
IMPORT_IGES
100
AcDbLine
 62
253
  6
CONTINUOUS
 10
-4.0410162786
 20
-21.7478407093
 11
-4.0
 21
-21.7287145045
  0
LINE
  5
3A0
100
AcDbEntity
  8
IMPORT_IGES
100
AcDbLine
 62
253
  6
CONTINUOUS
 10
-3.8928403634
 20
-21.9585190869
 11
-3.933856642
 21
-21.9776452917
  0
LWPOLYLINE
  5
3A1
100
AcDbEntity
  8
IMPORT_IGES
100
AcDbPolyline
 62
253
  6
CONTINUOUS
 90
73
 70
0
 10
-14.7728861852
 20
16.793477389
 10
-14.7706871015
 20
16.7940197171
 10
-14.7684218555
 20
16.7945894295
 10
-14.7660794348
 20
16.7951904052
 10
-14.763663056
 20
16.7958230321
 10
-14.7611702203
 20
16.7964892198
 10
-14.7585814979
 20
16.7971956512
 10
-14.7558914285
 20
16.7979455893
 10
-14.7531065488
 20
16.7987390571
 10
-14.7502255677
 20
16.799578302
 10
-14.747250169
 20
16.8004647922
 10
-14.7441799704
 20
16.801400672
 10
-14.7410106818
 20
16.8023894173
 10
-14.7377427381
 20
16.8034331969
 10
-14.7343773436
 20
16.8045340125
 10
-14.7309114954
 20
16.8056953576
 10
-14.7273466953
 20
16.8069193678
 10
-14.7236834629
 20
16.8082085929
 10
-14.7199174851
 20
16.8095674484
 10
-14.7160519712
 20
16.8109978166
 10
-14.712086214
 20
16.8125030995
 10
-14.7080102899
 20
16.8140905026
 10
-14.7038261052
 20
16.8157630035
 10
-14.6995349896
 20
16.8175239169
 10
-14.6951265473
 20
16.8193816906
 10
-14.6906035067
 20
16.8213396942
 10
-14.685967307
 20
16.8234019808
 10
-14.6812061367
 20
16.8255789162
 10
-14.6763233255
 20
16.8278745252
 10
-14.6713209479
 20
16.8302935788
 10
-14.6661860037
 20
16.8328486638
 10
-14.6609227865
 20
16.8355445001
 10
-14.6555340398
 20
16.8383867938
 10
-14.6500053721
 20
16.8413909674
 10
-14.6443422629
 20
16.8445625985
 10
-14.6385484486
 20
16.8479084831
 10
-14.6326081879
 20
16.8514475435
 10
-14.6265284163
 20
16.8551864344
 10
-14.6203143375
 20
16.8591331859
 10
-14.6139493234
 20
16.8633108266
 10
-14.6074425152
 20
16.8677270782
 10
-14.6008008233
 20
16.8723915725
 10
-14.5940066025
 20
16.8773326947
 10
-14.5870718139
 20
16.8825594347
 10
-14.5800058473
 20
16.8880832357
 10
-14.5727904121
 20
16.8939392113
 10
-14.5654412477
 20
16.9001377456
 10
-14.5579711887
 20
16.906692354
 10
-14.5503620453
 20
16.9136465595
 10
-14.5426346905
 20
16.921012161
 10
-14.534806727
 20
16.928804993
 10
-14.5268612943
 20
16.937079102
 10
-14.5188263359
 20
16.9458474733
 10
-14.5107260326
 20
16.9551284604
 10
-14.5025466849
 20
16.9649894659
 10
-14.4943264872
 20
16.975443409
 10
-14.4860982812
 20
16.9865117603
 10
-14.4778530896
 20
16.9982810179
 10
-14.4696409891
 20
17.0107662253
 10
-14.4615099995
 20
17.0239883415
 10
-14.4534661163
 20
17.0380494207
 10
-14.4455822765
 20
17.0529528325
 10
-14.4379197041
 20
17.0687275738
 10
-14.4304946811
 20
17.0855214161
 10
-14.423382607
 20
17.1033955178
 10
-14.4167036829
 20
17.1223128036
 10
-14.4105632305
 20
17.1422723833
 10
-14.4050369529
 20
17.1634094669
 10
-14.4002847049
 20
17.1855742562
 10
-14.3964869926
 20
17.2083139128
 10
-14.3937184418
 20
17.2314445329
 10
-14.3920115163
 20
17.2550646865
 10
-14.391424784
 20
17.2791252901
  0
LINE
  5
3A2
100
AcDbEntity
  8
IMPORT_IGES
100
AcDbLine
 62
253
  6
CONTINUOUS
 10
-14.7770896997
 20
16.792470063
 11
-14.7728861852
 21
16.793477389
  0
LINE
  5
3A3
100
AcDbEntity
  8
IMPORT_IGES
100
AcDbLine
 62
253
  6
CONTINUOUS
 10
-14.7810343494
 20
16.7915596167
 11
-14.7770896997
 21
16.792470063
  0
LINE
  5
3A4
100
AcDbEntity
  8
IMPORT_IGES
100
AcDbLine
 62
253
  6
CONTINUOUS
 10
-14.7847357207
 20
16.79073583
 11
-14.7810343494
 21
16.7915596167
  0
LINE
  5
3A5
100
AcDbEntity
  8
IMPORT_IGES
100
AcDbLine
 62
253
  6
CONTINUOUS
 10
-14.7882250942
 20
16.7899861388
 11
-14.7847357207
 21
16.79073583
  0
LINE
  5
3A6
100
AcDbEntity
  8
IMPORT_IGES
100
AcDbLine
 62
253
  6
CONTINUOUS
 10
-14.7915971137
 20
16.7892863626
 11
-14.7882250942
 21
16.7899861388
  0
LINE
  5
3A7
100
AcDbEntity
  8
IMPORT_IGES
100
AcDbLine
 62
253
  6
CONTINUOUS
 10
-14.7949148265
 20
16.7886214499
 11
-14.7915971137
 21
16.7892863626
  0
LINE
  5
3A8
100
AcDbEntity
  8
IMPORT_IGES
100
AcDbLine
 62
253
  6
CONTINUOUS
 10
-14.798306776
 20
16.7879657533
 11
-14.7949148265
 21
16.7886214499
  0
LINE
  5
3A9
100
AcDbEntity
  8
IMPORT_IGES
100
AcDbLine
 62
253
  6
CONTINUOUS
 10
-14.8017522156
 20
16.7873245571
 11
-14.798306776
 21
16.7879657533
  0
LINE
  5
3AA
100
AcDbEntity
  8
IMPORT_IGES
100
AcDbLine
 62
253
  6
CONTINUOUS
 10
-14.8052449705
 20
16.786700009
 11
-14.8017522156
 21
16.7873245571
  0
LINE
  5
3AB
100
AcDbEntity
  8
IMPORT_IGES
100
AcDbLine
 62
253
  6
CONTINUOUS
 10
-14.8087593401
 20
16.7860973633
 11
-14.8052449705
 21
16.786700009
  0
LINE
  5
3AC
100
AcDbEntity
  8
IMPORT_IGES
100
AcDbLine
 62
253
  6
CONTINUOUS
 10
-14.8122995383
 20
16.7855163257
 11
-14.8087593401
 21
16.7860973633
  0
LINE
  5
3AD
100
AcDbEntity
  8
IMPORT_IGES
100
AcDbLine
 62
253
  6
CONTINUOUS
 10
-14.8158777103
 20
16.7849555163
 11
-14.8122995383
 21
16.7855163257
  0
LINE
  5
3AE
100
AcDbEntity
  8
IMPORT_IGES
100
AcDbLine
 62
253
  6
CONTINUOUS
 10
-14.819533764
 20
16.7844098837
 11
-14.8158777103
 21
16.7849555163
  0
LINE
  5
3AF
100
AcDbEntity
  8
IMPORT_IGES
100
AcDbLine
 62
253
  6
CONTINUOUS
 10
-14.8232871989
 20
16.7838784163
 11
-14.819533764
 21
16.7844098837
  0
LINE
  5
3B0
100
AcDbEntity
  8
IMPORT_IGES
100
AcDbLine
 62
253
  6
CONTINUOUS
 10
-14.8271515538
 20
16.7833615231
 11
-14.8232871989
 21
16.7838784163
  0
LINE
  5
3B1
100
AcDbEntity
  8
IMPORT_IGES
100
AcDbLine
 62
253
  6
CONTINUOUS
 10
-14.8311372113
 20
16.7828604864
 11
-14.8271515538
 21
16.7833615231
  0
LWPOLYLINE
  5
3B2
100
AcDbEntity
  8
IMPORT_IGES
100
AcDbPolyline
 62
7
  6
CONTINUOUS
 90
19
 70
0
 10
-17.3943858605
 20
19.7834696195
 10
-17.4366310518
 20
19.7832852003
 10
-17.4789536084
 20
19.7827771139
 10
-17.521032815
 20
19.7819453602
 10
-17.5628708501
 20
19.780763615
 10
-17.6037660909
 20
19.7792582026
 10
-17.6424341721
 20
19.7775080958
 10
-17.6781388393
 20
19.7755347386
 10
-17.7112967202
 20
19.7733166871
 10
-17.7423889989
 20
19.7708685826
 10
-17.771195099
 20
19.7681968932
 10
-17.7974574191
 20
19.7652951508
 10
-17.8213462389
 20
19.7621585927
 10
-17.8427468311
 20
19.7587364795
 10
-17.8609384553
 20
19.7550795507
 10
-17.8752784964
 20
19.751335261
 10
-17.8856079604
 20
19.7475527622
 10
-17.8919811004
 20
19.7436829027
 10
-17.8943668221
 20
19.7397256824
  0
LINE
  5
3B3
100
AcDbEntity
  8
IMPORT_IGES
100
AcDbLine
 62
253
  6
CONTINUOUS
 10
14.8913486316
 20
17.2791252901
 11
14.391424784
 21
17.2791252901
  0
LINE
  5
3B4
100
AcDbEntity
  8
IMPORT_IGES
100
AcDbLine
 62
253
  6
CONTINUOUS
 10
-14.391424784
 20
17.2791252901
 11
-14.8913486316
 21
17.2791252901
  0
LINE
  5
3B5
100
AcDbEntity
  8
IMPORT_IGES
100
AcDbLine
 62
253
  6
CONTINUOUS
 10
17.8943668221
 20
17.300968965
 11
17.3943858605
 21
17.300968965
  0
LINE
  5
3B6
100
AcDbEntity
  8
IMPORT_IGES
100
AcDbLine
 62
253
  6
CONTINUOUS
 10
-17.3943858605
 20
17.300968965
 11
-17.8943668221
 21
17.300968965
  0
LINE
  5
3B7
100
AcDbEntity
  8
IMPORT_IGES
100
AcDbLine
 62
7
  6
CONTINUOUS
 10
14.3039825167
 20
19.725
 11
-14.3039825167
 21
19.725
  0
LINE
  5
3B8
100
AcDbEntity
  8
IMPORT_IGES
100
AcDbLine
 62
7
  6
CONTINUOUS
 10
-14.3896910148
 20
19.7783159142
 11
14.3896910148
 21
19.7783159142
  0
LINE
  5
3B9
100
AcDbEntity
  8
IMPORT_IGES
100
AcDbLine
 62
7
  6
CONTINUOUS
 10
17.3943858605
 20
19.7834700142
 11
14.8913486316
 21
19.7834700142
  0
LINE
  5
3BA
100
AcDbEntity
  8
IMPORT_IGES
100
AcDbLine
 62
7
  6
CONTINUOUS
 10
-14.8913486316
 20
19.7834700142
 11
-17.3943858605
 21
19.7834700142
  0
LINE
  5
3BB
100
AcDbEntity
  8
IMPORT_IGES
100
AcDbLine
 62
253
  6
CONTINUOUS
 10
14.5879643089
 20
20.3651209645
 11
-14.5879643089
 21
20.3651209645
  0
LWPOLYLINE
  5
3BC
100
AcDbEntity
  8
IMPORT_IGES
100
AcDbPolyline
 62
253
  6
CONTINUOUS
 90
27
 70
0
 10
14.8132109196
 20
16.785370963
 10
14.8153997739
 20
16.7850288876
 10
14.8176740175
 20
16.7846839809
 10
14.8200285658
 20
16.7843381604
 10
14.8224687455
 20
16.7839918311
 10
14.8250306154
 20
16.7836414205
 10
14.8277267167
 20
16.7832872103
 10
14.830544888
 20
16.7829328901
 10
14.8334841942
 20
16.7825806479
 10
14.8365660087
 20
16.7822302652
 10
14.8397692705
 20
16.7818865784
 10
14.843029232
 20
16.7815582221
 10
14.8463505537
 20
16.7812458571
 10
14.8497285033
 20
16.7809510775
 10
14.8530839527
 20
16.7806810957
 10
14.8563977941
 20
16.7804367621
 10
14.8596887419
 20
16.7802160163
 10
14.8629342428
 20
16.7800196649
 10
14.8661030469
 20
16.7798483816
 10
14.8692260133
 20
16.7796993035
 10
14.8723738038
 20
16.7795688408
 10
14.8754294763
 20
16.7794611959
 10
14.8785097125
 20
16.7793716175
 10
14.882035892
 20
16.779292392
 10
14.8861485562
 20
16.7792314263
 10
14.8907071082
 20
16.7792033917
 10
14.8957112348
 20
16.7792204781
  0
LINE
  5
3BD
100
AcDbEntity
  8
IMPORT_IGES
100
AcDbLine
 62
253
  6
CONTINUOUS
 10
14.8090219211
 20
16.7860533709
 11
14.8132109196
 21
16.785370963
  0
LINE
  5
3BE
100
AcDbEntity
  8
IMPORT_IGES
100
AcDbLine
 62
253
  6
CONTINUOUS
 10
14.8050849737
 20
16.7867280597
 11
14.8090219211
 21
16.7860533709
  0
LINE
  5
3BF
100
AcDbEntity
  8
IMPORT_IGES
100
AcDbLine
 62
253
  6
CONTINUOUS
 10
14.8014091217
 20
16.7873872873
 11
14.8050849737
 21
16.7867280597
  0
LINE
  5
3C0
100
AcDbEntity
  8
IMPORT_IGES
100
AcDbLine
 62
253
  6
CONTINUOUS
 10
14.7979665875
 20
16.7880304187
 11
14.8014091217
 21
16.7873872873
  0
LINE
  5
3C1
100
AcDbEntity
  8
IMPORT_IGES
100
AcDbLine
 62
253
  6
CONTINUOUS
 10
14.7946953837
 20
16.7886647082
 11
14.7979665875
 21
16.7880304187
  0
LINE
  5
3C2
100
AcDbEntity
  8
IMPORT_IGES
100
AcDbLine
 62
253
  6
CONTINUOUS
 10
14.7914205049
 20
16.7893224124
 11
14.7946953837
 21
16.7886647082
  0
LINE
  5
3C3
100
AcDbEntity
  8
IMPORT_IGES
100
AcDbLine
 62
253
  6
CONTINUOUS
 10
14.7880451656
 20
16.7900241598
 11
14.7914205049
 21
16.7893224124
  0
LINE
  5
3C4
100
AcDbEntity
  8
IMPORT_IGES
100
AcDbLine
 62
253
  6
CONTINUOUS
 10
14.7845283075
 20
16.7907812139
 11
14.7880451656
 21
16.7900241598
  0
LINE
  5
3C5
100
AcDbEntity
  8
IMPORT_IGES
100
AcDbLine
 62
253
  6
CONTINUOUS
 10
14.7808463643
 20
16.7916022419
 11
14.7845283075
 21
16.7907812139
  0
LINE
  5
3C6
100
AcDbEntity
  8
IMPORT_IGES
100
AcDbLine
 62
253
  6
CONTINUOUS
 10
14.7770209513
 20
16.792486229
 11
14.7808463643
 21
16.7916022419
  0
LINE
  5
3C7
100
AcDbEntity
  8
IMPORT_IGES
100
AcDbLine
 62
253
  6
CONTINUOUS
 10
14.7730432129
 20
16.7934390675
 11
14.7770209513
 21
16.792486229
  0
LINE
  5
3C8
100
AcDbEntity
  8
IMPORT_IGES
100
AcDbLine
 62
7
  6
CONTINUOUS
 10
-1.3054367868
 20
29.3769988935
 11
-1.3080952381
 21
29.3795377213
  0
LINE
  5
3C9
100
AcDbEntity
  8
IMPORT_IGES
100
AcDbLine
 62
253
  6
CONTINUOUS
 10
-17.9354072227
 20
46.4104262611
 11
-18.0
 21
46.4750190385
  0
LINE
  5
3CA
100
AcDbEntity
  8
IMPORT_IGES
100
AcDbLine
 62
253
  6
CONTINUOUS
 10
3.7000114231
 20
-26.725
 11
3.7410277017
 21
-26.6839837214
  0
LINE
  5
3CB
100
AcDbEntity
  8
IMPORT_IGES
100
AcDbLine
 62
253
  6
CONTINUOUS
 10
4.0410162786
 20
-26.9839722983
 11
4.0
 21
-27.0249885769
  0
LINE
  5
3CC
100
AcDbEntity
  8
IMPORT_IGES
100
AcDbLine
 62
7
  6
CONTINUOUS
 10
16.9
 20
-15.775
 11
16.882362833
 21
-15.792637167
  0
LINE
  5
3CD
100
AcDbEntity
  8
IMPORT_IGES
100
AcDbLine
 62
253
  6
CONTINUOUS
 10
-17.5000190385
 20
46.975
 11
-17.4354262611
 21
46.9104072227
  0
LINE
  5
3CE
100
AcDbEntity
  8
IMPORT_IGES
100
AcDbLine
 62
7
  6
CONTINUOUS
 10
-1.3054367868
 20
36.2229404825
 11
-1.3080952381
 21
36.2257865804
  0
LINE
  5
3CF
100
AcDbEntity
  8
IMPORT_IGES
100
AcDbLine
 62
253
  6
CONTINUOUS
 10
17.4196870854
 20
16.759364854
 11
17.3987484637
 21
16.801064153
  0
LINE
  5
3D0
100
AcDbEntity
  8
IMPORT_IGES
100
AcDbLine
 62
253
  6
CONTINUOUS
 10
17.8943668221
 20
17.300968965
 11
17.9225295655
 21
17.2448828158
  0
LINE
  5
3D1
100
AcDbEntity
  8
IMPORT_IGES
100
AcDbLine
 62
7
  6
CONTINUOUS
 10
16.8613436759
 20
-17.8136563241
 11
16.9
 21
-17.775
  0
LINE
  5
3D2
100
AcDbEntity
  8
IMPORT_IGES
100
AcDbLine
 62
253
  6
CONTINUOUS
 10
17.3943858605
 20
-17.829144658
 11
17.4485305185
 21
-17.775
  0
LINE
  5
3D3
100
AcDbEntity
  8
IMPORT_IGES
100
AcDbLine
 62
7
  6
CONTINUOUS
 10
4.0410162786
 20
-31.2123460417
 11
4.0283623203
 21
-31.225
  0
LINE
  5
3D4
100
AcDbEntity
  8
IMPORT_IGES
100
AcDbLine
 62
253
  6
CONTINUOUS
 10
3.7000114231
 20
-31.725
 11
3.7283737434
 21
-31.6966376797
  0
LINE
  5
3D5
100
AcDbEntity
  8
IMPORT_IGES
100
AcDbLine
 62
253
  6
CONTINUOUS
 10
4.0283623203
 20
-31.9966262566
 11
4.0
 21
-32.0249885769
  0
LINE
  5
3D6
100
AcDbEntity
  8
IMPORT_IGES
100
AcDbLine
 62
253
  6
CONTINUOUS
 10
17.9528368363
 20
-18.2706556053
 11
17.8943668221
 21
-18.3291256195
  0
LINE
  5
3D7
100
AcDbEntity
  8
IMPORT_IGES
100
AcDbLine
 62
7
  6
CONTINUOUS
 10
-3.8
 20
-40.975
 11
-3.8104722413
 21
-40.9854722413
  0
LINE
  5
3D8
100
AcDbEntity
  8
IMPORT_IGES
100
AcDbLine
 62
7
  6
CONTINUOUS
 10
2.5624124202
 20
32.8009088834
 11
2.5591545797
 21
32.8035714286
  0
LINE
  5
3D9
100
AcDbEntity
  8
IMPORT_IGES
100
AcDbLine
 62
7
  6
CONTINUOUS
 10
5.5517060703
 20
29.3769988935
 11
5.549047619
 21
29.3795377213
  0
LINE
  5
3DA
100
AcDbEntity
  8
IMPORT_IGES
100
AcDbLine
 62
7
  6
CONTINUOUS
 10
17.9377698084
 20
19.7357416716
 11
17.9528368363
 21
19.7206746438
  0
LINE
  5
3DB
100
AcDbEntity
  8
IMPORT_IGES
100
AcDbLine
 62
7
  6
CONTINUOUS
 10
4.7871428571
 20
32.8035714286
 11
4.7898013084
 21
32.8009088834
  0
LWPOLYLINE
  5
3DC
100
AcDbEntity
  8
IMPORT_IGES
100
AcDbPolyline
 62
7
  6
CONTINUOUS
 90
19
 70
0
 10
17.8943668221
 20
19.7397256824
 10
17.8921925822
 20
19.7434870271
 10
17.8863628449
 20
19.7471937965
 10
17.8768300697
 20
19.7508459905
 10
17.8634571492
 20
19.7544946617
 10
17.8463191842
 20
19.7580887576
 10
17.8259836075
 20
19.7614751207
 10
17.8031089917
 20
19.7646031843
 10
17.7777428823
 20
19.767523515
 10
17.7496398343
 20
19.7702346556
 10
17.718973174
 20
19.7727468467
 10
17.6859390194
 20
19.7750498476
 10
17.6500791573
 20
19.7771114795
 10
17.6109854533
 20
19.7789535549
 10
17.5693446778
 20
19.7805542613
 10
17.5263991976
 20
19.7818159811
 10
17.4828488038
 20
19.7827061752
 10
17.4387261859
 20
19.7832573828
 10
17.3943858605
 20
19.7834696038
  0
LINE
  5
3DD
100
AcDbEntity
  8
IMPORT_IGES
100
AcDbLine
 62
7
  6
CONTINUOUS
 10
6.154144658
 20
-37.3620000474
 11
6.1545927417
 21
-37.3615418662
  0
LINE
  5
3DE
100
AcDbEntity
  8
IMPORT_IGES
100
AcDbLine
 62
253
  6
CONTINUOUS
 10
-6.0
 20
-45.4750571154
 11
-5.9589837214
 21
-45.4340408368
  0
LINE
  5
3DF
100
AcDbEntity
  8
IMPORT_IGES
100
AcDbLine
 62
253
  6
CONTINUOUS
 10
-4.0410162786
 20
-45.0660277017
 11
-4.0
 21
-45.0250114231
  0
LINE
  5
3E0
100
AcDbEntity
  8
IMPORT_IGES
100
AcDbLine
 62
253
  6
CONTINUOUS
 10
-3.7000114231
 20
-45.325
 11
-3.7410277017
 21
-45.3660162786
  0
LINE
  5
3E1
100
AcDbEntity
  8
IMPORT_IGES
100
AcDbLine
 62
253
  6
CONTINUOUS
 10
4.8584700142
 20
-36.8742747785
 11
4.8707257068
 21
-36.8620190859
  0
LINE
  5
3E2
100
AcDbEntity
  8
IMPORT_IGES
100
AcDbLine
 62
253
  6
CONTINUOUS
 10
-4.4590408368
 20
-46.9339837214
 11
-4.5000571154
 21
-46.975
  0
LINE
  5
3E3
100
AcDbEntity
  8
IMPORT_IGES
100
AcDbLine
 62
253
  6
CONTINUOUS
 10
5.3707066683
 20
-37.3620000474
 11
5.3584509757
 21
-37.37425574
  0
LWPOLYLINE
  5
3E4
100
AcDbEntity
  8
IMPORT_IGES
100
AcDbPolyline
 62
7
  6
CONTINUOUS
 90
25
 70
0
 10
5.549047619
 20
30.5242134196
 10
5.3783236372
 20
30.5180536071
 10
5.2086325232
 20
30.5219152586
 10
5.039974277
 20
30.5357983741
 10
4.8717405831
 20
30.5597961179
 10
4.7045397569
 20
30.5938153257
 10
4.5401967454
 20
30.637576504
 10
4.3787461428
 20
30.6912300438
 10
4.2201533548
 20
30.7546255542
 10
4.0661395448
 20
30.8270323692
 10
3.916813123
 20
30.9084537617
 10
3.7720656793
 20
30.9988864587
 10
3.6332931471
 20
31.0975899751
 10
3.5004543852
 20
31.2047705535
 10
3.3735905349
 20
31.3202219513
 10
3.2542209539
 20
31.442584956
 10
3.1424837482
 20
31.5718295374
 10
3.0382408119
 20
31.7079857258
 10
2.9425971846
 20
31.8497843988
 10
2.8556388578
 20
31.9972824764
 10
2.77727984
 20
32.1504230386
 10
2.7083671967
 20
32.3077662031
 10
2.6491832832
 20
32.4688320092
 10
2.5994457442
 20
32.6341004177
 10
2.5591545797
 20
32.8035714286
  0
LWPOLYLINE
  5
3E5
100
AcDbEntity
  8
IMPORT_IGES
100
AcDbPolyline
 62
7
  6
CONTINUOUS
 90
53
 70
0
 10
-1.3080952381
 20
30.5242134196
 10
-1.480564789
 20
30.5180843357
 10
-1.6519596795
 20
30.5221642962
 10
-1.8222799098
 20
30.536453301
 10
-1.992178123
 20
30.5610570531
 10
-2.1610016759
 20
30.5958698495
 10
-2.3267926387
 20
30.6405745815
 10
-2.4895061023
 20
30.6953525449
 10
-2.6491869758
 20
30.7600224439
 10
-2.8040120573
 20
30.8337232828
 10
-2.9536902079
 20
30.9163123495
 10
-3.0985125664
 20
31.0079323561
 10
-3.237529347
 20
31.1081504422
 10
-3.3710300414
 20
31.2172646152
 10
-3.4987251578
 20
31.3349768677
 10
-3.6187964356
 20
31.4599603172
 10
-3.7310630271
 20
31.5922828027
 10
-3.83570578
 20
31.7318764852
 10
-3.9314489763
 20
31.8772109658
 10
-4.0182240016
 20
32.0283970746
 10
-4.0960994703
 20
32.1853239816
 10
-4.1640055077
 20
32.3461287979
 10
-4.2217428279
 20
32.5108299125
 10
-4.2695107169
 20
32.6794089363
 10
-4.3068371567
 20
32.8499478143
 10
-4.3336536072
 20
33.0224626619
 10
-4.3500286086
 20
33.1969373636
 10
-4.3556957638
 20
33.371405518
 10
-4.3504716738
 20
33.5458670562
 10
-4.3345397375
 20
33.7203220471
 10
-4.3081837549
 20
33.8928042957
 10
-4.2713392496
 20
34.0632868959
 10
-4.2240706979
 20
34.2317967538
 10
-4.1668553288
 20
34.3964483925
 10
-4.0995053958
 20
34.5572215244
 10
-4.0222086454
 20
34.7141364372
 10
-3.936005545
 20
34.8653685171
 10
-3.8408375072
 20
35.0108094218
 10
-3.7367631194
 20
35.1505674936
 10
-3.6249986116
 20
35.2831431452
 10
-3.5053613558
 20
35.4084889236
 10
-3.3780339799
 20
35.5266522819
 10
-3.2447805976
 20
35.6362759921
 10
-3.105877205
 20
35.7370691364
 10
-2.961047806
 20
35.8293226327
 10
-2.8112285262
 20
35.9125520059
 10
-2.6561266427
 20
35.9869032347
 10
-2.4960348784
 20
36.0522303406
 10
-2.3327675274
 20
36.1076109124
 10
-2.1662630377
 20
36.1528628771
 10
-1.9965829614
 20
36.1881683078
 10
-1.8257262483
 20
36.2131510127
 10
-1.654359215
 20
36.2276855944
  0
LWPOLYLINE
  5
3E6
100
AcDbEntity
  8
IMPORT_IGES
100
AcDbPolyline
 62
7
  6
CONTINUOUS
 90
53
 70
0
 10
-1.3054367868
 20
30.5267698484
 10
-1.5005075066
 20
30.5219331852
 10
-1.68998167
 20
30.5281740912
 10
-1.873859277
 20
30.5454925666
 10
-2.0519697263
 20
30.5743864281
 10
-2.2244836191
 20
30.614357859
 10
-2.3919127595
 20
30.6639134081
 10
-2.554559811
 20
30.7228913859
 10
-2.7121221102
 20
30.7914534821
 10
-2.8642034703
 20
30.8685913146
 10
-3.0107713958
 20
30.9540050436
 10
-3.1518583824
 20
31.0479945089
 10
-3.28716573
 20
31.1504508493
 10
-3.4171964275
 20
31.2617702299
 10
-3.5414474862
 20
31.3815564855
 10
-3.6581112394
 20
31.5085122591
 10
-3.7670926115
 20
31.6428674329
 10
-3.8684866781
 20
31.7843921248
 10
-3.9607710006
 20
31.9310993311
 10
-4.0436735766
 20
32.0827707281
 10
-4.1174664085
 20
32.2396246396
 10
-4.1814430649
 20
32.4003290333
 10
-4.2355575796
 20
32.5651425226
 10
-4.2798559188
 20
32.733806494
 10
-4.3137695502
 20
32.9042130756
 10
-4.3371766619
 20
33.0763351471
 10
-4.3501990657
 20
33.2501998288
 10
-4.352633665
 20
33.4237806091
 10
-4.3443393535
 20
33.5969252251
 10
-4.3254572375
 20
33.7697859397
 10
-4.2962075391
 20
33.9407930303
 10
-4.2564328148
 20
34.1102432624
 10
-4.2062905081
 20
34.2778398705
 10
-4.1464731719
 20
34.4411228357
 10
-4.0768782342
 20
34.5997499925
 10
-3.997608267
 20
34.7540635065
 10
-3.9096635382
 20
34.9026298561
 10
-3.8129845074
 20
35.045449953
 10
-3.7076307151
 20
35.1825228855
 10
-3.5947810505
 20
35.3124123962
 10
-3.4742440263
 20
35.4350730175
 10
-3.3462111299
 20
35.550550217
 10
-3.2124357123
 20
35.6575441398
 10
-3.0729967694
 20
35.7558439912
 10
-2.9278153053
 20
35.8456605658
 10
-2.7784076836
 20
35.9263263929
 10
-2.6247465294
 20
35.9977909351
 10
-2.4668592175
 20
36.0601047298
 10
-2.3063442362
 20
36.1127519177
 10
-2.1432097287
 20
36.1556129237
 10
-1.9774475518
 20
36.1888073229
 10
-1.8106317633
 20
36.2121779816
 10
-1.6432870494
 20
36.2256725218
  0
LINE
  5
3E7
100
AcDbEntity
  8
IMPORT_IGES
100
AcDbLine
 62
7
  6
CONTINUOUS
 10
5.333638013
 20
29.3752612039
 11
5.549047619
 21
29.3795377213
  0
LINE
  5
3E8
100
AcDbEntity
  8
IMPORT_IGES
100
AcDbLine
 62
7
  6
CONTINUOUS
 10
-1.5235048442
 20
29.3752612039
 11
-1.3080952381
 21
29.3795377213
  0
LINE
  5
3E9
100
AcDbEntity
  8
IMPORT_IGES
100
AcDbLine
 62
7
  6
CONTINUOUS
 10
5.5517060703
 20
36.2229404825
 11
5.549047619
 21
36.2257865804
  0
LINE
  5
3EA
100
AcDbEntity
  8
IMPORT_IGES
100
AcDbLine
 62
7
  6
CONTINUOUS
 10
6.1573765478
 20
-37.3587681576
 11
6.6541256195
 21
-36.8620190859
  0
LINE
  5
3EB
100
AcDbEntity
  8
IMPORT_IGES
100
AcDbLine
 62
7
  6
CONTINUOUS
 10
6.1418889654
 20
-37.37425574
 11
6.1573765478
 21
-37.3587681576
  0
LINE
  5
3EC
100
AcDbEntity
  8
IMPORT_IGES
100
AcDbLine
 62
7
  6
CONTINUOUS
 10
2.5624124202
 20
32.8009088834
 11
4.7898013084
 21
32.8009088834
  0
LINE
  5
3ED
100
AcDbEntity
  8
IMPORT_IGES
100
AcDbLine
 62
7
  6
CONTINUOUS
 10
2.5591545797
 20
32.8035714286
 11
4.7871428571
 21
32.8035714286
  0
LINE
  5
3EE
100
AcDbEntity
  8
IMPORT_IGES
100
AcDbLine
 62
7
  6
CONTINUOUS
 10
4.7871428571
 20
33.9464285714
 11
2.5591545797
 21
33.9464285714
  0
LINE
  5
3EF
100
AcDbEntity
  8
IMPORT_IGES
100
AcDbLine
 62
7
  6
CONTINUOUS
 10
4.7898013084
 20
33.9490829351
 11
2.5624124202
 21
33.9490829351
  0
LINE
  5
3F0
100
AcDbEntity
  8
IMPORT_IGES
100
AcDbLine
 62
253
  6
CONTINUOUS
 10
6.1
 20
-42.4735305185
 11
6.154144658
 21
-42.4193858605
  0
LINE
  5
3F1
100
AcDbEntity
  8
IMPORT_IGES
100
AcDbLine
 62
253
  6
CONTINUOUS
 10
6.6541256195
 20
-42.9193668221
 11
6.5956556053
 21
-42.9778368363
  0
LWPOLYLINE
  5
3F2
100
AcDbEntity
  8
IMPORT_IGES
100
AcDbPolyline
 62
7
  6
CONTINUOUS
 90
3
 70
0
 10
-1.654359215
 20
36.2276855944
 10
-1.481815545
 20
36.2318974503
 10
-1.3080952381
 20
36.2257865804
  0
LWPOLYLINE
  5
3F3
100
AcDbEntity
  8
IMPORT_IGES
100
AcDbPolyline
 62
7
  6
CONTINUOUS
 90
3
 70
0
 10
-1.6432870494
 20
36.2256725218
 10
-1.4748887238
 20
36.2293433214
 10
-1.3054367868
 20
36.2231903804
  0
LWPOLYLINE
  5
3F4
100
AcDbEntity
  8
IMPORT_IGES
100
AcDbPolyline
 62
7
  6
CONTINUOUS
 90
60
 70
0
 10
-1.3080952381
 20
37.3704622787
 10
-1.5218421985
 20
37.3747987248
 10
-1.7345875779
 20
37.3678475382
 10
-1.9463313764
 20
37.3496087189
 10
-2.1577244662
 20
37.3200077612
 10
-2.3681159751
 20
37.2791191709
 10
-2.5755532862
 20
37.2271664653
 10
-2.7800645694
 20
37.1639694594
 10
-2.9816216549
 20
37.0897083383
 10
-3.178187416
 20
37.005147174
 10
-3.3693396207
 20
36.9104237899
 10
-3.555500501
 20
36.8054003627
 10
-3.7358996269
 20
36.6904274949
 10
-3.9109646161
 20
36.5652383599
 10
-4.0802678508
 20
36.4300997843
 10
-4.2417560472
 20
36.2861628505
 10
-4.3952182159
 20
36.1332994832
 10
-4.5408653462
 20
35.9716377577
 10
-4.6772771223
 20
35.8027129827
 10
-4.8043756137
 20
35.6264886974
 10
-4.9222387508
 20
35.4430013626
 10
-5.029680009
 20
35.2538956701
 10
-5.1265935396
 20
35.0589951469
 10
-5.2130851912
 20
34.858476266
 10
-5.2882859854
 20
34.6545131372
 10
-5.3519837666
 20
34.447298099
 10
-5.4043906904
 20
34.2366388129
 10
-5.4452742443
 20
34.0241323731
 10
-5.4746353792
 20
33.8096889602
 10
-5.4924731444
 20
33.5933983937
 10
-5.4985521747
 20
33.3771272263
 10
-5.4927078798
 20
33.1608758315
 10
-5.4751048502
 20
32.9446438359
 10
-5.4460014917
 20
32.7302966718
 10
-5.4054003884
 20
32.5179317907
 10
-5.3532989563
 20
32.3074517412
 10
-5.2899478489
 20
32.1004296015
 10
-5.2151436348
 20
31.8966775724
 10
-5.1290897453
 20
31.6963834531
 10
-5.032647129
 20
31.50168372
 10
-4.9257166516
 20
31.3127545963
 10
-4.8083974472
 20
31.1294198587
 10
-4.681847867
 20
30.9532873142
 10
-4.545998856
 20
30.7843878996
 10
-4.4009194691
 20
30.6226906781
 10
-4.2479752221
 20
30.4697106452
 10
-4.086950782
 20
30.3255619422
 10
-3.9180614818
 20
30.1901304278
 10
-3.7433188362
 20
30.0645886743
 10
-3.5631512119
 20
29.9492011702
 10
-3.3771302422
 20
29.8437034269
 10
-3.185982342
 20
29.7484745509
 10
-2.9892892071
 20
29.6633674748
 10
-2.7874691417
 20
29.5885292661
 10
-2.5825034731
 20
29.5247802326
 10
-2.3744052073
 20
29.4722923886
 10
-2.1631613384
 20
29.43089372
 10
-1.950714176
 20
29.4008884923
 10
-1.7377111568
 20
29.3823781276
 10
-1.5235048442
 20
29.3752612039
  0
LWPOLYLINE
  5
3F5
100
AcDbEntity
  8
IMPORT_IGES
100
AcDbPolyline
 62
7
  6
CONTINUOUS
 90
61
 70
0
 10
-1.3054367868
 20
37.3731926052
 10
-1.5174551387
 20
37.3774752775
 10
-1.7280955027
 20
37.3708374732
 10
-1.9373578789
 20
37.3532791925
 10
-2.1455554903
 20
37.3248048208
 10
-2.3523751138
 20
37.2854099726
 10
-2.5568770801
 20
37.2350814916
 10
-2.7593784809
 20
37.1736929844
 10
-2.9595622245
 20
37.1013708444
 10
-3.1555373667
 20
37.0184810945
 10
-3.3473793819
 20
36.9247743309
 10
-3.5350127958
 20
36.8204999575
 10
-3.7163202404
 20
36.7067722091
 10
-3.8909351797
 20
36.58381135
 10
-4.0592241498
 20
36.451397116
 10
-4.2201693911
 20
36.309982949
 10
-4.3740644335
 20
36.1590552579
 10
-4.520615747
 20
35.9991276339
 10
-4.6579249822
 20
35.8321942926
 10
-4.7856180647
 20
35.6586087467
 10
-4.9040690688
 20
35.4780174836
 10
-5.0125018684
 20
35.2913541811
 10
-5.1110515096
 20
35.0981100794
 10
-5.1995829462
 20
34.8987939384
 10
-5.2769149134
 20
34.6958657156
 10
-5.3427414972
 20
34.4897100733
 10
-5.3973686115
 20
34.2799423492
 10
-5.4405327329
 20
34.0678685138
 10
-5.4722489018
 20
33.8530490871
 10
-5.4925020778
 20
33.6359235492
 10
-5.5009836161
 20
33.4191163097
 10
-5.4975076219
 20
33.2030828234
 10
-5.4822599901
 20
32.9873676356
 10
-5.4554897599
 20
32.7732287924
 10
-5.4171022696
 20
32.5603163688
 10
-5.367192181
 20
32.3489802897
 10
-5.3062925184
 20
32.1415283768
 10
-5.2343604908
 20
31.9382514072
 10
-5.1514388892
 20
31.7388586037
 10
-5.0581891101
 20
31.544785456
 10
-4.9543878169
 20
31.3559035023
 10
-4.8402583462
 20
31.1723412043
 10
-4.7171321054
 20
30.9959194375
 10
-4.5849727652
 20
30.8267629447
 10
-4.4438166549
 20
30.664746983
 10
-4.2951041689
 20
30.5113181994
 10
-4.1387299626
 20
30.3666503725
 10
-3.9747993806
 20
30.2305697236
 10
-3.8050688514
 20
30.1040015634
 10
-3.6301622964
 20
29.9872299329
 10
-3.4494557942
 20
29.8799707911
 10
-3.2628340088
 20
29.7822973256
 10
-3.0703803285
 20
29.6939228665
 10
-2.8720113651
 20
29.6151340836
 10
-2.6673616178
 20
29.5468641742
 10
-2.4563610637
 20
29.4888032059
 10
-2.2390797258
 20
29.4412611111
 10
-2.0153621723
 20
29.406100883
 10
-1.7851565927
 20
29.3839435194
 10
-1.5485147975
 20
29.3741680225
 10
-1.3054367868
 20
29.3767743924
  0
LWPOLYLINE
  5
3F6
100
AcDbEntity
  8
IMPORT_IGES
100
AcDbPolyline
 62
7
  6
CONTINUOUS
 90
25
 70
0
 10
5.5517060703
 20
36.223192433
 10
5.3803653515
 20
36.2293350234
 10
5.2103113826
 20
36.22550525
 10
5.0415441635
 20
36.2117031128
 10
4.8734942301
 20
36.1878112958
 10
4.7067310465
 20
36.1539471149
 10
4.5429630053
 20
36.1104625182
 10
4.382340665
 20
36.0573129748
 10
4.2247134671
 20
35.9945430155
 10
4.0713381296
 20
35.9226381813
 10
3.9219763854
 20
35.8413848349
 10
3.7768665017
 20
35.7509966135
 10
3.6379799982
 20
35.6525999695
 10
3.5056587398
 20
35.5463056341
 10
3.3795608616
 20
35.4320028761
 10
3.2606322877
 20
35.3104859543
 10
3.1486734168
 20
35.1814206304
 10
3.0438838502
 20
35.0451411427
 10
2.947808317
 20
34.9034444649
 10
2.8607775363
 20
34.7567079003
 10
2.782460789
 20
34.6045541457
 10
2.7134106465
 20
34.4476482655
 10
2.6538112995
 20
34.2862119477
 10
2.6034785574
 20
34.1200235042
 10
2.5624124202
 20
33.9490829351
  0
LWPOLYLINE
  5
3F7
100
AcDbEntity
  8
IMPORT_IGES
100
AcDbPolyline
 62
7
  6
CONTINUOUS
 90
60
 70
0
 10
5.549047619
 20
37.3704622787
 10
5.3353006587
 20
37.3747987248
 10
5.1225552792
 20
37.3678475382
 10
4.9108114808
 20
37.3496087189
 10
4.6994183909
 20
37.3200077612
 10
4.4890268821
 20
37.2791191709
 10
4.281589571
 20
37.2271664653
 10
4.0770782877
 20
37.1639694594
 10
3.8755212023
 20
37.0897083383
 10
3.6789554411
 20
37.005147174
 10
3.4878032364
 20
36.9104237899
 10
3.3016423561
 20
36.8054003627
 10
3.1212432303
 20
36.6904274949
 10
2.946178241
 20
36.5652383599
 10
2.7768750063
 20
36.4300997843
 10
2.6153868099
 20
36.2861628505
 10
2.4619246412
 20
36.1332994832
 10
2.3162775109
 20
35.9716377577
 10
2.1798657349
 20
35.8027129827
 10
2.0527672435
 20
35.6264886974
 10
1.9349041064
 20
35.4430013626
 10
1.8274628481
 20
35.2538956701
 10
1.7305493176
 20
35.0589951469
 10
1.6440576659
 20
34.858476266
 10
1.5688568718
 20
34.6545131372
 10
1.5051590905
 20
34.447298099
 10
1.4527521668
 20
34.2366388129
 10
1.4118686129
 20
34.0241323731
 10
1.3825074779
 20
33.8096889602
 10
1.3646697128
 20
33.5933983937
 10
1.3585906825
 20
33.3771272263
 10
1.3644349773
 20
33.1608758315
 10
1.382038007
 20
32.9446438359
 10
1.4111413655
 20
32.7302966718
 10
1.4517424687
 20
32.5179317907
 10
1.5038439009
 20
32.3074517412
 10
1.5671950082
 20
32.1004296015
 10
1.6419992224
 20
31.8966775724
 10
1.7280531118
 20
31.6963834531
 10
1.8244957281
 20
31.50168372
 10
1.9314262056
 20
31.3127545963
 10
2.0487454099
 20
31.1294198587
 10
2.1752949901
 20
30.9532873142
 10
2.3111440012
 20
30.7843878996
 10
2.4562233881
 20
30.6226906781
 10
2.6091676351
 20
30.4697106452
 10
2.7701920752
 20
30.3255619422
 10
2.9390813754
 20
30.1901304278
 10
3.1138240209
 20
30.0645886743
 10
3.2939916452
 20
29.9492011701
 10
3.4800126149
 20
29.8437034269
 10
3.6711605151
 20
29.7484745509
 10
3.86785365
 20
29.6633674748
 10
4.0696737155
 20
29.5885292661
 10
4.274639384
 20
29.5247802326
 10
4.4827376498
 20
29.4722923886
 10
4.6939815188
 20
29.43089372
 10
4.9064286811
 20
29.4008884923
 10
5.1194317003
 20
29.3823781276
 10
5.333638013
 20
29.3752612039
  0
LWPOLYLINE
  5
3F8
100
AcDbEntity
  8
IMPORT_IGES
100
AcDbPolyline
 62
7
  6
CONTINUOUS
 90
61
 70
0
 10
5.5517060703
 20
37.3731926052
 10
5.3396877184
 20
37.3774752775
 10
5.1290473544
 20
37.3708374732
 10
4.9197849783
 20
37.3532791925
 10
4.7115873669
 20
37.3248048208
 10
4.5047677433
 20
37.2854099726
 10
4.300265777
 20
37.2350814916
 10
4.0977643762
 20
37.1736929844
 10
3.8975806327
 20
37.1013708444
 10
3.7016054905
 20
37.0184810945
 10
3.5097634752
 20
36.9247743309
 10
3.3221300614
 20
36.8204999575
 10
3.1408226168
 20
36.7067722091
 10
2.9662076774
 20
36.58381135
 10
2.7979187073
 20
36.451397116
 10
2.636973466
 20
36.309982949
 10
2.4830784236
 20
36.1590552579
 10
2.3365271101
 20
35.9991276339
 10
2.1992178749
 20
35.8321942926
 10
2.0715247924
 20
35.6586087467
 10
1.9530737883
 20
35.4780174836
 10
1.8446409888
 20
35.2913541811
 10
1.7460913476
 20
35.0981100794
 10
1.6575599109
 20
34.8987939384
 10
1.5802279438
 20
34.6958657156
 10
1.5144013599
 20
34.4897100733
 10
1.4597742456
 20
34.2799423492
 10
1.4166101242
 20
34.0678685138
 10
1.3848939553
 20
33.8530490871
 10
1.3646407793
 20
33.6359235492
 10
1.3561592411
 20
33.4191163097
 10
1.3596352352
 20
33.2030828234
 10
1.3748828671
 20
32.9873676356
 10
1.4016530973
 20
32.7732287924
 10
1.4400405875
 20
32.5603163688
 10
1.4899506761
 20
32.3489802897
 10
1.5508503388
 20
32.1415283768
 10
1.6227823663
 20
31.9382514072
 10
1.705703968
 20
31.7388586037
 10
1.798953747
 20
31.544785456
 10
1.9027550403
 20
31.3559035023
 10
2.0168845109
 20
31.1723412043
 10
2.1400107518
 20
30.9959194375
 10
2.2721700919
 20
30.8267629447
 10
2.4133262023
 20
30.664746983
 10
2.5620386883
 20
30.5113181994
 10
2.7184128946
 20
30.3666503725
 10
2.8823434765
 20
30.2305697236
 10
3.0520740057
 20
30.1040015634
 10
3.2269805607
 20
29.9872299329
 10
3.4076870629
 20
29.8799707911
 10
3.5943088483
 20
29.7822973256
 10
3.7867625286
 20
29.6939228665
 10
3.9851314921
 20
29.6151340836
 10
4.1897812394
 20
29.5468641742
 10
4.4007817935
 20
29.4888032059
 10
4.6180631314
 20
29.4412611111
 10
4.8417806848
 20
29.406100883
 10
5.0719862644
 20
29.3839435194
 10
5.3086280596
 20
29.3741680225
 10
5.5517060703
 20
29.3767743924
  0
LWPOLYLINE
  5
3F9
100
AcDbEntity
  8
IMPORT_IGES
100
AcDbPolyline
 62
253
  6
CONTINUOUS
 90
31
 70
0
 10
-17.4354262611
 20
46.9104072227
 10
-17.4492988053
 20
46.9102136744
 10
-17.4638200371
 20
46.9095981721
 10
-17.4789752137
 20
46.908503712
 10
-17.4947314196
 20
46.9068730115
 10
-17.5110809713
 20
46.904644464
 10
-17.5280403903
 20
46.9017475965
 10
-17.5455768047
 20
46.8981143151
 10
-17.5636528337
 20
46.8936751312
 10
-17.5822681319
 20
46.8883464829
 10
-17.6013667133
 20
46.8820540896
 10
-17.6208934791
 20
46.874721165
 10
-17.6408346444
 20
46.8662487022
 10
-17.6611015501
 20
46.8565610968
 10
-17.6816167561
 20
46.8455755295
 10
-17.7023605353
 20
46.8331671611
 10
-17.7232007652
 20
46.8192647103
 10
-17.7440275979
 20
46.803780667
 10
-17.7648163633
 20
46.7865436013
 10
-17.7853904241
 20
46.7674794997
 10
-17.8055722408
 20
46.7465125131
 10
-17.8252751813
 20
46.7234441451
 10
-17.8442454392
 20
46.6982281401
 10
-17.8622324882
 20
46.6708115145
 10
-17.8790645598
 20
46.6409700628
 10
-17.8943918098
 20
46.6087132406
 10
-17.9078613218
 20
46.5740548088
 10
-17.9191669473
 20
46.5367852767
 10
-17.9278630483
 20
46.4969160625
 10
-17.9334385294
 20
46.4547137696
 10
-17.9354072227
 20
46.4104262611
  0
LINE
  5
3FA
100
AcDbEntity
  8
IMPORT_IGES
100
AcDbLine
 62
253
  6
CONTINUOUS
 10
-17.4354262611
 20
46.49725035
 11
17.4354262611
 21
46.49725035
  0
LINE
  5
3FB
100
AcDbEntity
  8
IMPORT_IGES
100
AcDbLine
 62
7
  6
CONTINUOUS
 10
17.4354262611
 20
46.9104072227
 11
-17.4354262611
 21
46.9104072227
  0
LINE
  5
3FC
100
AcDbEntity
  8
IMPORT_IGES
100
AcDbLine
 62
7
  6
CONTINUOUS
 10
-17.5000190385
 20
46.975
 11
17.5000190385
 21
46.975
  0
LWPOLYLINE
  5
3FD
100
AcDbEntity
  8
IMPORT_IGES
100
AcDbPolyline
 62
253
  6
CONTINUOUS
 90
19
 70
0
 10
17.4354262611
 20
46.49725035
 10
17.4788406055
 20
46.4968576462
 10
17.5219067753
 20
46.4958127304
 10
17.5643004722
 20
46.4941244067
 10
17.6056997671
 20
46.4918065308
 10
17.6457981164
 20
46.488877324
 10
17.6843054509
 20
46.4853587088
 10
17.7209339491
 20
46.4812774473
 10
17.7554088768
 20
46.4766646372
 10
17.7874788792
 20
46.4715542013
 10
17.8169031238
 20
46.4659845636
 10
17.8434606754
 20
46.4599975956
 10
17.8669565645
 20
46.4536369858
 10
17.887212124
 20
46.4469504733
 10
17.9040736918
 20
46.4399880539
 10
17.9174154945
 20
46.4328000972
 10
17.9271330628
 20
46.4254398243
 10
17.9331470589
 20
46.4179631188
 10
17.9354072227
 20
46.4104262611
  0
ARC
  5
3FE
100
AcDbEntity
  8
IMPORT_IGES
100
AcDbCircle
 62
7
  6
CONTINUOUS
 10
0.0
 20
-25.225
 40
1.5
100
AcDbArc
 50
229.9999999999
 51
270.0000000001
  0
ARC
  5
3FF
100
AcDbEntity
  8
IMPORT_IGES
100
AcDbCircle
 62
7
  6
CONTINUOUS
 10
-0.0
 20
-25.225
 40
1.4589837214
100
AcDbArc
 50
229.9999999997
 51
270.0000000003
  0
ARC
  5
400
100
AcDbEntity
  8
IMPORT_IGES
100
AcDbCircle
 62
7
  6
CONTINUOUS
 10
-2.5
 20
-30.725
 40
1.0
100
AcDbArc
 50
90.0
 51
270.0
  0
ARC
  5
401
100
AcDbEntity
  8
IMPORT_IGES
100
AcDbCircle
 62
7
  6
CONTINUOUS
 10
-2.5
 20
-30.725
 40
0.9716376797
100
AcDbArc
 50
90.0000000001
 51
269.9999999999
  0
ARC
  5
402
100
AcDbEntity
  8
IMPORT_IGES
100
AcDbCircle
 62
7
  6
CONTINUOUS
 10
-0.0
 20
-19.0168824651
 40
0.75
100
AcDbArc
 50
0.0
 51
180.0
  0
ARC
  5
403
100
AcDbEntity
  8
IMPORT_IGES
100
AcDbCircle
 62
7
  6
CONTINUOUS
 10
0.0
 20
-19.0168824651
 40
0.7216376797
100
AcDbArc
 50
0.0000000002
 51
179.9999999998
  0
ELLIPSE
  5
404
100
AcDbEntity
  8
IMPORT_IGES
100
AcDbEllipse
 62
7
  6
CONTINUOUS
 10
4.4999428824
 20
-45.4749428824
 30
0.0
 11
1.0607409467
 21
-1.0607409467
 31
0.0
 40
0.9999238505
 41
-0.7853600872
 42
0.7853600872
  0
ELLIPSE
  5
405
100
AcDbEntity
  8
IMPORT_IGES
100
AcDbEllipse
 62
7
  6
CONTINUOUS
 10
-4.4999428824
 20
-45.4749428824
 30
0.0
 11
1.0607409467
 21
1.0607409467
 31
0.0
 40
0.9999238505
 41
-3.9269527408
 42
-2.3562325664
  0
ELLIPSE
  5
406
100
AcDbEntity
  8
IMPORT_IGES
100
AcDbEllipse
 62
7
  6
CONTINUOUS
 10
-3.6999885765
 20
-17.5668938886
 30
0.0
 11
0.2121481893
 21
-0.2121481893
 31
0.0
 40
0.9999238505
 41
2.3562325664
 42
3.9269527408
  0
ELLIPSE
  5
407
100
AcDbEntity
  8
IMPORT_IGES
100
AcDbEllipse
 62
7
  6
CONTINUOUS
 10
-3.6999885765
 20
-21.728703851
 30
0.0
 11
0.2719049405
 21
0.1267913561
 31
0.0
 40
0.9999536441
 41
2.7052780961
 42
3.5779072111
  0
ELLIPSE
  5
408
100
AcDbEntity
  8
IMPORT_IGES
100
AcDbEllipse
 62
7
  6
CONTINUOUS
 10
3.6999885765
 20
-24.9249885765
 30
0.0
 11
0.2121481893
 21
-0.2121481893
 31
0.0
 40
0.9999238505
 41
-0.7853600872
 42
0.7853600872
  0
ELLIPSE
  5
409
100
AcDbEntity
  8
IMPORT_IGES
100
AcDbEllipse
 62
7
  6
CONTINUOUS
 10
3.6999885765
 20
-17.5668938886
 30
0.0
 11
0.2121481893
 21
0.2121481893
 31
0.0
 40
0.9999238505
 41
-0.7853600872
 42
0.7853600872
  0
ELLIPSE
  5
40A
100
AcDbEntity
  8
IMPORT_IGES
100
AcDbEllipse
 62
7
  6
CONTINUOUS
 10
3.6999885765
 20
-32.0250114235
 30
0.0
 11
0.2121481893
 21
0.2121481893
 31
0.0
 40
0.9999238505
 41
-0.7853600872
 42
0.7853600872
  0
ELLIPSE
  5
40B
100
AcDbEntity
  8
IMPORT_IGES
100
AcDbEllipse
 62
7
  6
CONTINUOUS
 10
3.6999885765
 20
-45.0249885765
 30
0.0
 11
0.2121481893
 21
-0.2121481893
 31
0.0
 40
0.9999238505
 41
-0.7853600872
 42
0.7853600872
  0
ELLIPSE
  5
40C
100
AcDbEntity
  8
IMPORT_IGES
100
AcDbEllipse
 62
7
  6
CONTINUOUS
 10
-3.6999885765
 20
-45.0249885765
 30
0.0
 11
0.2121481893
 21
0.2121481893
 31
0.0
 40
0.9999238505
 41
-3.9269527408
 42
-2.3562325664
  0
ELLIPSE
  5
40D
100
AcDbEntity
  8
IMPORT_IGES
100
AcDbEllipse
 62
7
  6
CONTINUOUS
 10
3.6999885765
 20
-27.0250114235
 30
0.0
 11
0.2121481893
 21
0.2121481893
 31
0.0
 40
0.9999238505
 41
-0.7853600872
 42
0.7853600872
  0
ELLIPSE
  5
40E
100
AcDbEntity
  8
IMPORT_IGES
100
AcDbEllipse
 62
7
  6
CONTINUOUS
 10
3.6999885765
 20
-29.4249885765
 30
0.0
 11
0.2121481893
 21
-0.2121481893
 31
0.0
 40
0.9999238505
 41
-0.7853600872
 42
0.7853600872
  0
ELLIPSE
  5
40F
100
AcDbEntity
  8
IMPORT_IGES
100
AcDbEllipse
 62
7
  6
CONTINUOUS
 10
4.4589266038
 20
-45.4339266038
 30
0.0
 11
1.0607409467
 21
-1.0607409467
 31
0.0
 40
0.9999238505
 41
-0.7853600872
 42
0.7853600872
  0
ELLIPSE
  5
410
100
AcDbEntity
  8
IMPORT_IGES
100
AcDbEllipse
 62
7
  6
CONTINUOUS
 10
-4.4589266038
 20
-45.4339266038
 30
0.0
 11
-1.0607409467
 21
-1.0607409467
 31
0.0
 40
0.9999238505
 41
-0.7853600872
 42
0.7853600872
  0
ELLIPSE
  5
411
100
AcDbEntity
  8
IMPORT_IGES
100
AcDbEllipse
 62
7
  6
CONTINUOUS
 10
3.6999885765
 20
-16.925854763
 30
0.0
 11
0.2121481893
 21
-0.2121481893
 31
0.0
 40
0.9999238505
 41
-0.7853600872
 42
0.7853600872
  0
ELLIPSE
  5
412
100
AcDbEntity
  8
IMPORT_IGES
100
AcDbEllipse
 62
7
  6
CONTINUOUS
 10
3.6912617087
 20
-16.9171278952
 30
0.0
 11
0.2121481893
 21
-0.2121481893
 31
0.0
 40
0.9999238505
 41
-0.7853600872
 42
0.7853600872
  0
ELLIPSE
  5
413
100
AcDbEntity
  8
IMPORT_IGES
100
AcDbEllipse
 62
7
  6
CONTINUOUS
 10
-3.7410048551
 20
-21.7478300558
 30
0.0
 11
0.2719049405
 21
0.1267913561
 31
0.0
 40
0.9999536441
 41
2.7052780961
 42
3.5779072111
  0
ELLIPSE
  5
414
100
AcDbEntity
  8
IMPORT_IGES
100
AcDbEllipse
 62
7
  6
CONTINUOUS
 10
3.7410048551
 20
-24.9660048551
 30
0.0
 11
-0.2121481893
 21
0.2121481893
 31
0.0
 40
0.9999238505
 41
2.3562325664
 42
3.9269527408
  0
ELLIPSE
  5
415
100
AcDbEntity
  8
IMPORT_IGES
100
AcDbEllipse
 62
7
  6
CONTINUOUS
 10
3.7410048551
 20
-17.52587761
 30
0.0
 11
-0.2121481893
 21
-0.2121481893
 31
0.0
 40
0.9999238505
 41
2.3562325664
 42
3.9269527408
  0
ELLIPSE
  5
416
100
AcDbEntity
  8
IMPORT_IGES
100
AcDbEllipse
 62
7
  6
CONTINUOUS
 10
-3.6912617087
 20
-16.9171278952
 30
0.0
 11
0.2121481893
 21
0.2121481893
 31
0.0
 40
0.9999238505
 41
2.3562325664
 42
3.9269527408
  0
ELLIPSE
  5
417
100
AcDbEntity
  8
IMPORT_IGES
100
AcDbEllipse
 62
7
  6
CONTINUOUS
 10
3.7283508968
 20
-31.9966491032
 30
0.0
 11
-0.2121481893
 21
-0.2121481893
 31
0.0
 40
0.9999238505
 41
2.3562325664
 42
3.9269527408
  0
ELLIPSE
  5
418
100
AcDbEntity
  8
IMPORT_IGES
100
AcDbEllipse
 62
7
  6
CONTINUOUS
 10
3.7410048551
 20
-45.0660048551
 30
0.0
 11
-0.2121481893
 21
0.2121481893
 31
0.0
 40
0.9999238505
 41
2.3562325664
 42
3.9269527408
  0
ELLIPSE
  5
419
100
AcDbEntity
  8
IMPORT_IGES
100
AcDbEllipse
 62
7
  6
CONTINUOUS
 10
-3.7410048551
 20
-45.0660048551
 30
0.0
 11
0.2121481893
 21
0.2121481893
 31
0.0
 40
0.9999238505
 41
2.3562325664
 42
3.9269527408
  0
ELLIPSE
  5
41A
100
AcDbEntity
  8
IMPORT_IGES
100
AcDbEllipse
 62
7
  6
CONTINUOUS
 10
3.7410048551
 20
-26.9839951449
 30
0.0
 11
-0.2121481893
 21
-0.2121481893
 31
0.0
 40
0.9999238505
 41
2.3562325664
 42
3.9269527408
  0
ELLIPSE
  5
41B
100
AcDbEntity
  8
IMPORT_IGES
100
AcDbEllipse
 62
7
  6
CONTINUOUS
 10
3.7283508968
 20
-29.4533508968
 30
0.0
 11
-0.2121481893
 21
0.2121481893
 31
0.0
 40
0.9999238505
 41
2.3562325664
 42
3.9269527408
  0
ELLIPSE
  5
41C
100
AcDbEntity
  8
IMPORT_IGES
100
AcDbEllipse
 62
7
  6
CONTINUOUS
 10
17.4999809608
 20
46.4749809608
 30
0.0
 11
-0.3535803156
 21
-0.3535803156
 31
0.0
 40
0.9999238505
 41
8.6394178736
 42
10.210138048
  0
ELLIPSE
  5
41D
100
AcDbEntity
  8
IMPORT_IGES
100
AcDbEllipse
 62
7
  6
CONTINUOUS
 10
-17.4999809608
 20
-42.5249809608
 30
0.0
 11
-0.3535803156
 21
-0.3535803156
 31
0.0
 40
0.9999238505
 41
5.49782522
 42
7.0685453944
  0
ELLIPSE
  5
41E
100
AcDbEntity
  8
IMPORT_IGES
100
AcDbEllipse
 62
7
  6
CONTINUOUS
 10
17.4225855634
 20
17.244809211
 30
0.0
 11
0.4873364861
 21
0.1155608309
 31
0.0
 40
0.9675233235
 41
-1.8021167691
 42
-0.2401977321
  0
ELLIPSE
  5
41F
100
AcDbEntity
  8
IMPORT_IGES
100
AcDbEllipse
 62
7
  6
CONTINUOUS
 10
17.4999809608
 20
46.4749809608
 30
0.0
 11
0.3535803156
 21
0.3535803156
 31
0.0
 40
0.9999238505
 41
-0.7853600872
 42
0.7853600872
  0
ELLIPSE
  5
420
100
AcDbEntity
  8
IMPORT_IGES
100
AcDbEllipse
 62
7
  6
CONTINUOUS
 10
-17.4999809608
 20
46.4749809608
 30
0.0
 11
0.3535803156
 21
-0.3535803156
 31
0.0
 40
0.9999238505
 41
2.3562325664
 42
3.9269527408
  0
ELLIPSE
  5
421
100
AcDbEntity
  8
IMPORT_IGES
100
AcDbEllipse
 62
7
  6
CONTINUOUS
 10
-17.4999809608
 20
46.4749809608
 30
0.0
 11
-0.3535803156
 21
0.3535803156
 31
0.0
 40
0.9999238505
 41
-0.7853600872
 42
-0.6093764657
  0
ELLIPSE
  5
422
100
AcDbEntity
  8
IMPORT_IGES
100
AcDbEllipse
 62
7
  6
CONTINUOUS
 10
-17.4225855634
 20
17.244809211
 30
0.0
 11
0.4873364861
 21
-0.1155608309
 31
0.0
 40
0.9675233235
 41
-2.9013949215
 42
-1.3394758845
  0
ELLIPSE
  5
423
100
AcDbEntity
  8
IMPORT_IGES
100
AcDbEllipse
 62
7
  6
CONTINUOUS
 10
-5.3584890534
 20
-23.8742747792
 30
0.0
 11
0.3535803156
 21
0.3535803156
 31
0.0
 40
0.9999238505
 41
-0.7853600872
 42
0.7853600872
  0
ELLIPSE
  5
424
100
AcDbEntity
  8
IMPORT_IGES
100
AcDbEllipse
 62
7
  6
CONTINUOUS
 10
-5.3584890534
 20
-36.8742367008
 30
0.0
 11
0.3535803156
 21
-0.3535803156
 31
0.0
 40
0.9999238505
 41
-0.7853600872
 42
0.7853600872
  0
ELLIPSE
  5
425
100
AcDbEntity
  8
IMPORT_IGES
100
AcDbEllipse
 62
7
  6
CONTINUOUS
 10
5.3584890534
 20
-23.8742747792
 30
0.0
 11
0.3535803156
 21
-0.3535803156
 31
0.0
 40
0.9999238505
 41
2.3562325664
 42
3.9269527408
  0
ELLIPSE
  5
426
100
AcDbEntity
  8
IMPORT_IGES
100
AcDbEllipse
 62
7
  6
CONTINUOUS
 10
5.3584890534
 20
-36.8742367008
 30
0.0
 11
0.3535803156
 21
0.3535803156
 31
0.0
 40
0.9999238505
 41
-3.9269527408
 42
-2.3562325664
  0
ELLIPSE
  5
427
100
AcDbEntity
  8
IMPORT_IGES
100
AcDbEllipse
 62
7
  6
CONTINUOUS
 10
17.4999809608
 20
-42.5249809608
 30
0.0
 11
0.3535803156
 21
-0.3535803156
 31
0.0
 40
0.9999238505
 41
-0.7853600872
 42
0.7853600872
  0
ELLIPSE
  5
428
100
AcDbEntity
  8
IMPORT_IGES
100
AcDbEllipse
 62
7
  6
CONTINUOUS
 10
-17.4999809608
 20
-42.5249809608
 30
0.0
 11
0.3535803156
 21
0.3535803156
 31
0.0
 40
0.9999238505
 41
-3.9269527408
 42
-2.3562325664
  0
ELLIPSE
  5
429
100
AcDbEntity
  8
IMPORT_IGES
100
AcDbEllipse
 62
7
  6
CONTINUOUS
 10
14.8913486316
 20
22.619110924
 30
0.0
 11
-0.0
 21
2.8356409098
 31
0.0
 40
0.1763269807
 41
-3.7935816877
 42
-3.1415926536
  0
ELLIPSE
  5
42A
100
AcDbEntity
  8
IMPORT_IGES
100
AcDbEllipse
 62
7
  6
CONTINUOUS
 10
14.3896148537
 20
20.2782968757
 30
0.0
 11
-0.0
 21
0.5
 31
0.0
 40
0.0174550649
 41
-3.1328660073
 42
-2.9326949727
  0
ELLIPSE
  5
42B
100
AcDbEntity
  8
IMPORT_IGES
100
AcDbEllipse
 62
7
  6
CONTINUOUS
 10
-14.3896148537
 20
20.2782968757
 30
0.0
 11
-0.0
 21
0.5
 31
0.0
 40
0.0174550649
 41
-3.3504903345
 42
-3.1503192999
  0
ELLIPSE
  5
42C
100
AcDbEntity
  8
IMPORT_IGES
100
AcDbEllipse
 62
7
  6
CONTINUOUS
 10
-14.8913486316
 20
22.619110924
 30
0.0
 11
0.0
 21
2.8356409098
 31
0.0
 40
0.1763269807
 41
-3.1415926536
 42
-2.4896036195
  0
ELLIPSE
  5
42D
100
AcDbEntity
  8
IMPORT_IGES
100
AcDbEllipse
 62
7
  6
CONTINUOUS
 10
17.4528558747
 20
19.7206365661
 30
0.0
 11
0.5
 21
0.0
 31
0.0
 40
0.0087268678
 41
0.0969161025
 42
0.2429856623
  0
ELLIPSE
  5
42E
100
AcDbEntity
  8
IMPORT_IGES
100
AcDbEllipse
 62
7
  6
CONTINUOUS
 10
-17.4528558747
 20
19.7206365661
 30
0.0
 11
0.5
 21
0.0
 31
0.0
 40
0.0087268678
 41
2.898508523
 42
3.0450060729
  0
ELLIPSE
  5
42F
100
AcDbEntity
  8
IMPORT_IGES
100
AcDbEllipse
 62
7
  6
CONTINUOUS
 10
6.6000190392
 20
-18.2750190392
 30
0.0
 11
0.3535803156
 21
-0.3535803156
 31
0.0
 40
0.9999238505
 41
2.3562325664
 42
3.9269527408
  0
ELLIPSE
  5
430
100
AcDbEntity
  8
IMPORT_IGES
100
AcDbEllipse
 62
7
  6
CONTINUOUS
 10
-6.6000190392
 20
-18.2750190392
 30
0.0
 11
0.3535803156
 21
0.3535803156
 31
0.0
 40
0.9999238505
 41
-0.7853600872
 42
0.7853600872
  0
ENDSEC
  0
SECTION
  2
OBJECTS
  0
DICTIONARY
  5
C
100
AcDbDictionary
280
0
281
1
  3
ACAD_GROUP
350
D
  3
ACAD_MLINESTYLE
350
17
  3
ACAD_LAYOUT
350
1A
  3
ACAD_PLOTSETTINGS
350
19
  3
ACAD_PLOTSTYLENAME
350
E
  0
DICTIONARY
  5
D
102
{ACAD_REACTORS
330
C
102
}
100
AcDbDictionary
280
0
281
1
  0
ACDBDICTIONARYWDFLT
  5
E
102
{ACAD_REACTORS
330
C
102
}
100
AcDbDictionary
281
1
  3
Normal
350
F
100
AcDbDictionaryWithDefault
340
F
  0
DICTIONARY
  5
17
102
{ACAD_REACTORS
330
C
102
}
100
AcDbDictionary
280
0
281
1
  3
Standard
350
18
  0
DICTIONARY
  5
19
102
{ACAD_REACTORS
330
C
102
}
100
AcDbDictionary
281
1
  0
DICTIONARY
  5
1A
102
{ACAD_REACTORS
330
C
102
}
100
AcDbDictionary
281
1
  3
Model
350
431
  3
Layout1
350
432
  0
ACDBPLACEHOLDER
  5
F
102
{ACAD_REACTORS
330
E
102
}
  0
MLINESTYLE
  5
18
102
{ACAD_REACTORS
330
17
102
}
100
AcDbMlineStyle
  2
STANDARD
 70
0
  3

 62
256
 51
90.0
 52
90.0
 71
2
 49
0.5
 62
256
  6
BYLAYER
 49
-0.5
 62
256
  6
BYLAYER
  0
LAYOUT
  5
431
102
{ACAD_REACTORS
330
1A
102
}
100
AcDbPlotSettings
  1

  2
none_device
  4
ISO_A4_(297.00_x_210.00_MM)
  6

 40
0.0
 41
0.0
 42
0.0
 43
0.0
 44
297.0
 45
210.0
 46
0.0
 47
0.0
 48
0.0
 49
0.0
140
0.0
141
0.0
142
1.0
143
1.0
 70
1024
 72
1
 73
0
 74
0
  7

 75
0
147
1.0
148
0.0
149
0.0
100
AcDbLayout
  1
Model
 70
0
 71
0
 10
0.0
 20
0.0
 11
297.0
 21
210.0
 12
0.0
 22
0.0
 32
0.0
 14
0.0
 24
0.0
 34
0.0
 15
0.0
 25
0.0
 35
0.0
146
0.0
 13
0.0
 23
0.0
 33
0.0
 16
1.0
 26
0.0
 36
0.0
 17
0.0
 27
1.0
 37
0.0
 76
0
330
215
345
0
346
0
  0
LAYOUT
  5
432
102
{ACAD_REACTORS
330
1A
102
}
100
AcDbPlotSettings
  1

  2
none_device
  4
ISO_A4_(297.00_x_210.00_MM)
  6

 40
0.0
 41
0.0
 42
0.0
 43
0.0
 44
297.0
 45
210.0
 46
0.0
 47
0.0
 48
0.0
 49
0.0
140
0.0
141
0.0
142
1.0
143
1.0
 70
0
 72
1
 73
0
 74
0
  7

 75
0
147
1.0
148
0.0
149
0.0
100
AcDbLayout
  1
Layout1
 70
0
 71
1
 10
0.0
 20
0.0
 11
297.0
 21
210.0
 12
0.0
 22
0.0
 32
0.0
 14
0.0
 24
0.0
 34
0.0
 15
0.0
 25
0.0
 35
0.0
146
0.0
 13
0.0
 23
0.0
 33
0.0
 16
1.0
 26
0.0
 36
0.0
 17
0.0
 27
1.0
 37
0.0
 76
0
330
216
345
0
346
0
  0
ENDSEC
  0
EOF
