  0
SECTION
  2
HEADER
  9
$ACADVER
  1
AC1015
  9
$DWGCODEPAGE
  3
ANSI_1252
  9
$EXTMAX
 10
297.0
 20
210.0
 30
0.0
  9
$EXTMIN
 10
0.0
 20
0.0
 30
0.0
  9
$LIMMIN
 10
0.0
 20
0.0
  9
$LIMMAX
 10
297.0
 20
210.0
  9
$VIEWCTR
 10
148.5
 20
105.0
  9
$VIEWSIZE
 40
210.0
  9
$CLAYER
  8
0
  9
$LTSCALE
 40
16.335
  9
$CELTYPE
  6
BYLAYER
  9
$DIMSCALE
 40
1.0
  9
$DIMASZ
 40
3.0
  9
$DIMEXO
 40
1.85625
  9
$DIMDLI
 40
11.286
  9
$DIMEXE
 40
5.346
  9
$DIMCEN
 40
2.673
  9
$DIMLFAC
 40
1.0
  9
$DIMBLK
  1
_FILLED
  9
$DIMTXT
 40
3.0
  9
$DIMTOL
 70
1
  9
$DIMLIM
 70
0
  9
$DIMTFAC
 40
1.0
  9
$DIMTP
 40
0.01
  9
$DIMTM
 40
0.01
  9
$PDMODE
 70
3
  9
$PDSIZE
 40
3.0
  9
$HANDSEED
  5
48F
  9
$TILEMODE
 70
1
  9
$MEASUREMENT
 70
1
  9
$INSUNITS
 70
4
  0
ENDSEC
  0
SECTION
  2
CLASSES
  0
CLASS
  1
ACDBDICTIONARYWDFLT
  2
AcDbDictionaryWithDefault
  3
AutoCAD 2000
 90
0
280
0
281
0
  0
CLASS
  1
ACDBPLACEHOLDER
  2
AcDbPlaceHolder
  3
AutoCAD 2000
 90
0
280
0
281
0
  0
CLASS
  1
LAYOUT
  2
AcDbLayout
  3
AutoCAD 2000
 90
0
280
0
281
0
  0
ENDSEC
  0
SECTION
  2
TABLES
  0
TABLE
  2
VPORT
  5
8
100
AcDbSymbolTable
 70
2
  0
VPORT
  5
1F4
100
AcDbSymbolTableRecord
100
AcDbViewportTableRecord
  2
*ACTIVE
 70
0
 10
0.0
 20
0.0
 11
1.0
 21
1.0
 12
148.5
 22
105.0
 13
0.0
 23
0.0
 14
1.0
 24
1.0
 15
0.0
 25
0.0
 16
0.0
 26
0.0
 36
1.0
 17
0.0
 27
0.0
 37
0.0
 40
210.0
 41
1.4142857143
 42
50.0
 43
0.0
 44
0.0
 50
0.0
 51
0.0
 71
0
 72
100
 73
1
 74
1
 75
0
 76
0
 77
0
 78
0
  0
ENDTAB
  0
TABLE
  2
LTYPE
  5
5
100
AcDbSymbolTable
 70
6
  0
LTYPE
  5
14
100
AcDbSymbolTableRecord
100
AcDbLinetypeTableRecord
  2
BYBLOCK
 70
0
  3

 72
65
 73
0
 40
0.0
  0
LTYPE
  5
15
100
AcDbSymbolTableRecord
100
AcDbLinetypeTableRecord
  2
BYLAYER
 70
0
  3

 72
65
 73
0
 40
0.0
  0
LTYPE
  5
16
100
AcDbSymbolTableRecord
100
AcDbLinetypeTableRecord
  2
CONTINUOUS
 70
64
  3
Solid line
 72
65
 73
0
 40
0.0
  0
LTYPE
  5
1F5
100
AcDbSymbolTableRecord
100
AcDbLinetypeTableRecord
  2
CENTER
 70
64
  3
____ _ ____ _ ____ _ ____ _ ____ _ ____ _ ____
 72
65
 73
4
 40
0.6
 49
0.375
 74
0
 49
-0.075
 74
0
 49
0.075
 74
0
 49
-0.075
 74
0
  0
LTYPE
  5
1F6
100
AcDbSymbolTableRecord
100
AcDbLinetypeTableRecord
  2
HIDDEN
 70
64
  3
- - - - - - - - - - - - - - - - - - - -
 72
65
 73
2
 40
0.2
 49
0.1
 74
0
 49
-0.1
 74
0
  0
LTYPE
  5
1F7
100
AcDbSymbolTableRecord
100
AcDbLinetypeTableRecord
  2
PHANTOM
 70
64
  3
_____ _ _ _____ _ _ _____ _ _ _____
 72
65
 73
6
 40
0.8
 49
0.45
 74
0
 49
-0.05
 74
0
 49
0.1
 74
0
 49
-0.05
 74
0
 49
0.1
 74
0
 49
-0.05
 74
0
  0
LTYPE
  5
1F8
100
AcDbSymbolTableRecord
100
AcDbLinetypeTableRecord
  2
DOT
 70
64
  3
. . . . . . . . . . . . . . . . . . . .
 72
65
 73
2
 40
0.2
 49
0.1
 74
0
 49
-0.1
 74
0
  0
LTYPE
  5
1F9
100
AcDbSymbolTableRecord
100
AcDbLinetypeTableRecord
  2
DASHED
 70
64
  3
- - - - - - - - - - - - - - - - - - - -
 72
65
 73
2
 40
0.2
 49
0.1
 74
0
 49
-0.1
 74
0
  0
ENDTAB
  0
TABLE
  2
LAYER
  5
2
100
AcDbSymbolTable
 70
36
  0
LAYER
  5
10
100
AcDbSymbolTableRecord
100
AcDbLayerTableRecord
  2
0
 70
0
 62
7
  6
CONTINUOUS
370
-3
390
F
  0
LAYER
  5
1FA
100
AcDbSymbolTableRecord
100
AcDbLayerTableRecord
  2
DEFAULT_1
 70
0
 62
7
  6
CENTER
370
-3
390
F
  0
LAYER
  5
1FB
100
AcDbSymbolTableRecord
100
AcDbLayerTableRecord
  2
DEFAULT_2
 70
0
 62
7
  6
HIDDEN
370
-3
390
F
  0
LAYER
  5
1FC
100
AcDbSymbolTableRecord
100
AcDbLayerTableRecord
  2
DEFAULT_3
 70
0
 62
7
  6
PHANTOM
370
-3
390
F
  0
LAYER
  5
1FD
100
AcDbSymbolTableRecord
100
AcDbLayerTableRecord
  2
2125-CC-RF-VIMAR_65000
 70
0
 62
7
  6
CONTINUOUS
370
-3
390
F
  0
LAYER
  5
1FE
100
AcDbSymbolTableRecord
100
AcDbLayerTableRecord
  2
2125-CC-RF-VIMAR_65000_1
 70
0
 62
7
  6
CONTINUOUS
370
-3
390
F
  0
LAYER
  5
1FF
100
AcDbSymbolTableRecord
100
AcDbLayerTableRecord
  2
2125-CC-RF-VIMAR_65000_2
 70
0
 62
7
  6
CONTINUOUS
370
-3
390
F
  0
LAYER
  5
200
100
AcDbSymbolTableRecord
100
AcDbLayerTableRecord
  2
2125-CC-RF-VIMAR_65000_3
 70
0
 62
7
  6
CONTINUOUS
370
-3
390
F
  0
LAYER
  5
201
100
AcDbSymbolTableRecord
100
AcDbLayerTableRecord
  2
2125-CC-RF-VIMAR_65000_4
 70
0
 62
7
  6
CONTINUOUS
370
-3
390
F
  0
LAYER
  5
202
100
AcDbSymbolTableRecord
100
AcDbLayerTableRecord
  2
2125-CC-RF-VIMAR_65000_5
 70
0
 62
7
  6
CONTINUOUS
370
-3
390
F
  0
LAYER
  5
203
100
AcDbSymbolTableRecord
100
AcDbLayerTableRecord
  2
2125-CC-RF-VIMAR_65000_6
 70
0
 62
7
  6
CONTINUOUS
370
-3
390
F
  0
LAYER
  5
204
100
AcDbSymbolTableRecord
100
AcDbLayerTableRecord
  2
2125-CC-RF-VIMAR_65000_7
 70
0
 62
7
  6
CONTINUOUS
370
-3
390
F
  0
LAYER
  5
205
100
AcDbSymbolTableRecord
100
AcDbLayerTableRecord
  2
2125-CC-RF-VIMAR_65000_8
 70
0
 62
7
  6
CONTINUOUS
370
-3
390
F
  0
LAYER
  5
206
100
AcDbSymbolTableRecord
100
AcDbLayerTableRecord
  2
2125-DL-RF-FINE_VIMAR_110000
 70
0
 62
7
  6
CONTINUOUS
370
-3
390
F
  0
LAYER
  5
207
100
AcDbSymbolTableRecord
100
AcDbLayerTableRecord
  2
2125-DL-RF-FINE_VIMAR_110000_1
 70
0
 62
7
  6
CONTINUOUS
370
-3
390
F
  0
LAYER
  5
208
100
AcDbSymbolTableRecord
100
AcDbLayerTableRecord
  2
2125-DL-RF-FINE_VIMAR_110000_2
 70
0
 62
7
  6
CONTINUOUS
370
-3
390
F
  0
LAYER
  5
209
100
AcDbSymbolTableRecord
100
AcDbLayerTableRecord
  2
2125-DL-RF-FINE_VIMAR_110000_3
 70
0
 62
7
  6
CONTINUOUS
370
-3
390
F
  0
LAYER
  5
20A
100
AcDbSymbolTableRecord
100
AcDbLayerTableRecord
  2
2125-DL-RF-FINE_VIMAR_110000_4
 70
0
 62
7
  6
CONTINUOUS
370
-3
390
F
  0
LAYER
  5
20B
100
AcDbSymbolTableRecord
100
AcDbLayerTableRecord
  2
2125-R1-RF-VIMAR_60000
 70
0
 62
7
  6
CONTINUOUS
370
-3
390
F
  0
LAYER
  5
20C
100
AcDbSymbolTableRecord
100
AcDbLayerTableRecord
  2
2125-R1-RF-VIMAR_60000_1
 70
0
 62
7
  6
CONTINUOUS
370
-3
390
F
  0
LAYER
  5
20D
100
AcDbSymbolTableRecord
100
AcDbLayerTableRecord
  2
2125-R1-RF-VIMAR_60000_2
 70
0
 62
7
  6
CONTINUOUS
370
-3
390
F
  0
LAYER
  5
20E
100
AcDbSymbolTableRecord
100
AcDbLayerTableRecord
  2
2125-R1-RF-VIMAR_60000_3
 70
0
 62
7
  6
CONTINUOUS
370
-3
390
F
  0
LAYER
  5
20F
100
AcDbSymbolTableRecord
100
AcDbLayerTableRecord
  2
217010050
 70
0
 62
7
  6
CONTINUOUS
370
-3
390
F
  0
LAYER
  5
210
100
AcDbSymbolTableRecord
100
AcDbLayerTableRecord
  2
223010000
 70
0
 62
7
  6
CONTINUOUS
370
-3
390
F
  0
LAYER
  5
211
100
AcDbSymbolTableRecord
100
AcDbLayerTableRecord
  2
3216-CF-RF-VIMAR_100000
 70
0
 62
7
  6
CONTINUOUS
370
-3
390
F
  0
LAYER
  5
212
100
AcDbSymbolTableRecord
100
AcDbLayerTableRecord
  2
3216-CS2-RF_1_180000
 70
0
 62
7
  6
CONTINUOUS
370
-3
390
F
  0
LAYER
  5
213
100
AcDbSymbolTableRecord
100
AcDbLayerTableRecord
  2
3216-CS2-RF_1_180000_1
 70
0
 62
7
  6
CONTINUOUS
370
-3
390
F
  0
LAYER
  5
214
100
AcDbSymbolTableRecord
100
AcDbLayerTableRecord
  2
3216-R1-RF-VIMAR_60000
 70
0
 62
7
  6
CONTINUOUS
370
-3
390
F
  0
LAYER
  5
215
100
AcDbSymbolTableRecord
100
AcDbLayerTableRecord
  2
3216-R1-RF-VIMAR_60000_1
 70
0
 62
7
  6
CONTINUOUS
370
-3
390
F
  0
LAYER
  5
216
100
AcDbSymbolTableRecord
100
AcDbLayerTableRecord
  2
43000436A0
 70
0
 62
7
  6
CONTINUOUS
370
-3
390
F
  0
LAYER
  5
217
100
AcDbSymbolTableRecord
100
AcDbLayerTableRecord
  2
ASSI
 70
0
 62
7
  6
CONTINUOUS
370
-3
390
F
  0
LAYER
  5
218
100
AcDbSymbolTableRecord
100
AcDbLayerTableRecord
  2
CAPC1608N_80000
 70
0
 62
7
  6
CONTINUOUS
370
-3
390
F
  0
LAYER
  5
219
100
AcDbSymbolTableRecord
100
AcDbLayerTableRecord
  2
CAPC1608N_80000_1
 70
0
 62
7
  6
CONTINUOUS
370
-3
390
F
  0
LAYER
  5
21A
100
AcDbSymbolTableRecord
100
AcDbLayerTableRecord
  2
CAPC1608N_80000_10
 70
0
 62
7
  6
CONTINUOUS
370
-3
390
F
  0
LAYER
  5
21B
100
AcDbSymbolTableRecord
100
AcDbLayerTableRecord
  2
CAPC1608N_80000_11
 70
0
 62
7
  6
CONTINUOUS
370
-3
390
F
  0
LAYER
  5
21C
100
AcDbSymbolTableRecord
100
AcDbLayerTableRecord
  2
CAPC1608N_80000_12
 70
0
 62
7
  6
CONTINUOUS
370
-3
390
F
  0
LAYER
  5
21D
100
AcDbSymbolTableRecord
100
AcDbLayerTableRecord
  2
CAPC1608N_80000_13
 70
0
 62
7
  6
CONTINUOUS
370
-3
390
F
  0
LAYER
  5
21E
100
AcDbSymbolTableRecord
100
AcDbLayerTableRecord
  2
CAPC1608N_80000_14
 70
0
 62
7
  6
CONTINUOUS
370
-3
390
F
  0
LAYER
  5
21F
100
AcDbSymbolTableRecord
100
AcDbLayerTableRecord
  2
CAPC1608N_80000_15
 70
0
 62
7
  6
CONTINUOUS
370
-3
390
F
  0
LAYER
  5
220
100
AcDbSymbolTableRecord
100
AcDbLayerTableRecord
  2
CAPC1608N_80000_16
 70
0
 62
7
  6
CONTINUOUS
370
-3
390
F
  0
LAYER
  5
221
100
AcDbSymbolTableRecord
100
AcDbLayerTableRecord
  2
CAPC1608N_80000_17
 70
0
 62
7
  6
CONTINUOUS
370
-3
390
F
  0
LAYER
  5
222
100
AcDbSymbolTableRecord
100
AcDbLayerTableRecord
  2
CAPC1608N_80000_18
 70
0
 62
7
  6
CONTINUOUS
370
-3
390
F
  0
LAYER
  5
223
100
AcDbSymbolTableRecord
100
AcDbLayerTableRecord
  2
CAPC1608N_80000_19
 70
0
 62
7
  6
CONTINUOUS
370
-3
390
F
  0
LAYER
  5
224
100
AcDbSymbolTableRecord
100
AcDbLayerTableRecord
  2
CAPC1608N_80000_2
 70
0
 62
7
  6
CONTINUOUS
370
-3
390
F
  0
LAYER
  5
225
100
AcDbSymbolTableRecord
100
AcDbLayerTableRecord
  2
CAPC1608N_80000_20
 70
0
 62
7
  6
CONTINUOUS
370
-3
390
F
  0
LAYER
  5
226
100
AcDbSymbolTableRecord
100
AcDbLayerTableRecord
  2
CAPC1608N_80000_3
 70
0
 62
7
  6
CONTINUOUS
370
-3
390
F
  0
LAYER
  5
227
100
AcDbSymbolTableRecord
100
AcDbLayerTableRecord
  2
CAPC1608N_80000_4
 70
0
 62
7
  6
CONTINUOUS
370
-3
390
F
  0
LAYER
  5
228
100
AcDbSymbolTableRecord
100
AcDbLayerTableRecord
  2
CAPC1608N_80000_5
 70
0
 62
7
  6
CONTINUOUS
370
-3
390
F
  0
LAYER
  5
229
100
AcDbSymbolTableRecord
100
AcDbLayerTableRecord
  2
CAPC1608N_80000_6
 70
0
 62
7
  6
CONTINUOUS
370
-3
390
F
  0
LAYER
  5
22A
100
AcDbSymbolTableRecord
100
AcDbLayerTableRecord
  2
CAPC1608N_80000_7
 70
0
 62
7
  6
CONTINUOUS
370
-3
390
F
  0
LAYER
  5
22B
100
AcDbSymbolTableRecord
100
AcDbLayerTableRecord
  2
CAPC1608N_80000_8
 70
0
 62
7
  6
CONTINUOUS
370
-3
390
F
  0
LAYER
  5
22C
100
AcDbSymbolTableRecord
100
AcDbLayerTableRecord
  2
CAPC1608N_80000_9
 70
0
 62
7
  6
CONTINUOUS
370
-3
390
F
  0
LAYER
  5
22D
100
AcDbSymbolTableRecord
100
AcDbLayerTableRecord
  2
CN-1S-HEADER-PIH-1_254000
 70
0
 62
7
  6
CONTINUOUS
370
-3
390
F
  0
LAYER
  5
22E
100
AcDbSymbolTableRecord
100
AcDbLayerTableRecord
  2
CN-1S-HEADER-PIH-1_254000_1
 70
0
 62
7
  6
CONTINUOUS
370
-3
390
F
  0
LAYER
  5
22F
100
AcDbSymbolTableRecord
100
AcDbLayerTableRecord
  2
CN-1S-HEADER-PIH-1_254000_2
 70
0
 62
7
  6
CONTINUOUS
370
-3
390
F
  0
LAYER
  5
230
100
AcDbSymbolTableRecord
100
AcDbLayerTableRecord
  2
CN-1S-HEADER-PIH-1_254000_3
 70
0
 62
7
  6
CONTINUOUS
370
-3
390
F
  0
LAYER
  5
231
100
AcDbSymbolTableRecord
100
AcDbLayerTableRecord
  2
CN-1S-HEADER-PIH-1_254000_4
 70
0
 62
7
  6
CONTINUOUS
370
-3
390
F
  0
LAYER
  5
232
100
AcDbSymbolTableRecord
100
AcDbLayerTableRecord
  2
CN-1S-HEADER-PIH-1_254000_5
 70
0
 62
7
  6
CONTINUOUS
370
-3
390
F
  0
LAYER
  5
233
100
AcDbSymbolTableRecord
100
AcDbLayerTableRecord
  2
CN-1S-HEADER-PIH-1_254000_6
 70
0
 62
7
  6
CONTINUOUS
370
-3
390
F
  0
LAYER
  5
234
100
AcDbSymbolTableRecord
100
AcDbLayerTableRecord
  2
CN-1S-HEADER-PIH-1_254000_7
 70
0
 62
7
  6
CONTINUOUS
370
-3
390
F
  0
LAYER
  5
235
100
AcDbSymbolTableRecord
100
AcDbLayerTableRecord
  2
CN-243-VIMAR_850000
 70
0
 62
7
  6
CONTINUOUS
370
-3
390
F
  0
LAYER
  5
236
100
AcDbSymbolTableRecord
100
AcDbLayerTableRecord
  2
CN-243-VIMAR_850000_1
 70
0
 62
7
  6
CONTINUOUS
370
-3
390
F
  0
LAYER
  5
237
100
AcDbSymbolTableRecord
100
AcDbLayerTableRecord
  2
CN-MRT4P5_2-VIMAR_1750000
 70
0
 62
7
  6
CONTINUOUS
370
-3
390
F
  0
LAYER
  5
238
100
AcDbSymbolTableRecord
100
AcDbLayerTableRecord
  2
CN-MRT4P5_2-VIMAR_1750000_1
 70
0
 62
7
  6
CONTINUOUS
370
-3
390
F
  0
LAYER
  5
239
100
AcDbSymbolTableRecord
100
AcDbLayerTableRecord
  2
CN-MRT4P5_2-VIMAR_1750000_2
 70
0
 62
7
  6
CONTINUOUS
370
-3
390
F
  0
LAYER
  5
23A
100
AcDbSymbolTableRecord
100
AcDbLayerTableRecord
  2
CN1-AUTOTRONIK_REF_POINT_CROCE-
 70
0
 62
7
  6
CONTINUOUS
370
-3
390
F
  0
LAYER
  5
23B
100
AcDbSymbolTableRecord
100
AcDbLayerTableRecord
  2
CN1-AUTOTRONIK_REF_POINT_CROC_1
 70
0
 62
7
  6
CONTINUOUS
370
-3
390
F
  0
LAYER
  5
23C
100
AcDbSymbolTableRecord
100
AcDbLayerTableRecord
  2
CN1-AUTOTRONIK_REF_POINT_CROC_2
 70
0
 62
7
  6
CONTINUOUS
370
-3
390
F
  0
LAYER
  5
23D
100
AcDbSymbolTableRecord
100
AcDbLayerTableRecord
  2
CN1-AUTOTRONIK_REF_POINT_CROC_3
 70
0
 62
7
  6
CONTINUOUS
370
-3
390
F
  0
LAYER
  5
23E
100
AcDbSymbolTableRecord
100
AcDbLayerTableRecord
  2
COLOR1
 70
0
 62
7
  6
CONTINUOUS
370
-3
390
F
  0
LAYER
  5
23F
100
AcDbSymbolTableRecord
100
AcDbLayerTableRecord
  2
COLOR14
 70
0
 62
7
  6
CONTINUOUS
370
-3
390
F
  0
LAYER
  5
240
100
AcDbSymbolTableRecord
100
AcDbLayerTableRecord
  2
COLOR3
 70
0
 62
7
  6
CONTINUOUS
370
-3
390
F
  0
LAYER
  5
241
100
AcDbSymbolTableRecord
100
AcDbLayerTableRecord
  2
COLOR5
 70
0
 62
7
  6
CONTINUOUS
370
-3
390
F
  0
LAYER
  5
242
100
AcDbSymbolTableRecord
100
AcDbLayerTableRecord
  2
COORDINATE
 70
0
 62
7
  6
CONTINUOUS
370
-3
390
F
  0
LAYER
  5
243
100
AcDbSymbolTableRecord
100
AcDbLayerTableRecord
  2
COORD_ORIGINE
 70
0
 62
7
  6
CONTINUOUS
370
-3
390
F
  0
LAYER
  5
244
100
AcDbSymbolTableRecord
100
AcDbLayerTableRecord
  2
COPY_PUBLISH
 70
0
 62
7
  6
CONTINUOUS
370
-3
390
F
  0
LAYER
  5
245
100
AcDbSymbolTableRecord
100
AcDbLayerTableRecord
  2
COSMETIC
 70
0
 62
7
  6
CONTINUOUS
370
-3
390
F
  0
LAYER
  5
246
100
AcDbSymbolTableRecord
100
AcDbLayerTableRecord
  2
CP-CE10-RF-VIMAR_630000
 70
0
 62
7
  6
CONTINUOUS
370
-3
390
F
  0
LAYER
  5
247
100
AcDbSymbolTableRecord
100
AcDbLayerTableRecord
  2
CP-CE4-RF_550000
 70
0
 62
7
  6
CONTINUOUS
370
-3
390
F
  0
LAYER
  5
248
100
AcDbSymbolTableRecord
100
AcDbLayerTableRecord
  2
CP-CE8-RF-FINE-VIMAR_1080000
 70
0
 62
7
  6
CONTINUOUS
370
-3
390
F
  0
LAYER
  5
249
100
AcDbSymbolTableRecord
100
AcDbLayerTableRecord
  2
CP-DO-214AC-VIMAR_240000
 70
0
 62
7
  6
CONTINUOUS
370
-3
390
F
  0
LAYER
  5
24A
100
AcDbSymbolTableRecord
100
AcDbLayerTableRecord
  2
CURVE
 70
0
 62
7
  6
CONTINUOUS
370
-3
390
F
  0
LAYER
  5
24B
100
AcDbSymbolTableRecord
100
AcDbLayerTableRecord
  2
DIP4-300-F-VIMAR_450000
 70
0
 62
7
  6
CONTINUOUS
370
-3
390
F
  0
LAYER
  5
24C
100
AcDbSymbolTableRecord
100
AcDbLayerTableRecord
  2
DIP4-300-F-VIMAR_450000_1
 70
0
 62
7
  6
CONTINUOUS
370
-3
390
F
  0
LAYER
  5
24D
100
AcDbSymbolTableRecord
100
AcDbLayerTableRecord
  2
DIP4-300-F-VIMAR_450000_2
 70
0
 62
7
  6
CONTINUOUS
370
-3
390
F
  0
LAYER
  5
24E
100
AcDbSymbolTableRecord
100
AcDbLayerTableRecord
  2
DIP4-300-F-VIMAR_450000_3
 70
0
 62
7
  6
CONTINUOUS
370
-3
390
F
  0
LAYER
  5
24F
100
AcDbSymbolTableRecord
100
AcDbLayerTableRecord
  2
DRAFT
 70
0
 62
7
  6
CONTINUOUS
370
-3
390
F
  0
LAYER
  5
250
100
AcDbSymbolTableRecord
100
AcDbLayerTableRecord
  2
E2_MARK_10000
 70
0
 62
7
  6
CONTINUOUS
370
-3
390
F
  0
LAYER
  5
251
100
AcDbSymbolTableRecord
100
AcDbLayerTableRecord
  2
E2_MARK_10000_1
 70
0
 62
7
  6
CONTINUOUS
370
-3
390
F
  0
LAYER
  5
252
100
AcDbSymbolTableRecord
100
AcDbLayerTableRecord
  2
IGES_HOLGER
 70
0
 62
7
  6
CONTINUOUS
370
-3
390
F
  0
LAYER
  5
253
100
AcDbSymbolTableRecord
100
AcDbLayerTableRecord
  2
IMPORT_IGES
 70
0
 62
7
  6
CONTINUOUS
370
-3
390
F
  0
LAYER
  5
254
100
AcDbSymbolTableRecord
100
AcDbLayerTableRecord
  2
INTFCLR_1
 70
0
 62
7
  6
CONTINUOUS
370
-3
390
F
  0
LAYER
  5
255
100
AcDbSymbolTableRecord
100
AcDbLayerTableRecord
  2
INTFCLR_3
 70
0
 62
7
  6
CONTINUOUS
370
-3
390
F
  0
LAYER
  5
256
100
AcDbSymbolTableRecord
100
AcDbLayerTableRecord
  2
INTF_6
 70
0
 62
7
  6
CONTINUOUS
370
-3
390
F
  0
LAYER
  5
257
100
AcDbSymbolTableRecord
100
AcDbLayerTableRecord
  2
INTF_8
 70
0
 62
7
  6
CONTINUOUS
370
-3
390
F
  0
LAYER
  5
258
100
AcDbSymbolTableRecord
100
AcDbLayerTableRecord
  2
INTF_82
 70
0
 62
7
  6
CONTINUOUS
370
-3
390
F
  0
LAYER
  5
259
100
AcDbSymbolTableRecord
100
AcDbLayerTableRecord
  2
INTF_BLANK
 70
0
 62
7
  6
CONTINUOUS
370
-3
390
F
  0
LAYER
  5
25A
100
AcDbSymbolTableRecord
100
AcDbLayerTableRecord
  2
INTF_GREEN
 70
0
 62
7
  6
CONTINUOUS
370
-3
390
F
  0
LAYER
  5
25B
100
AcDbSymbolTableRecord
100
AcDbLayerTableRecord
  2
INTF_YELLOW
 70
0
 62
7
  6
CONTINUOUS
370
-3
390
F
  0
LAYER
  5
25C
100
AcDbSymbolTableRecord
100
AcDbLayerTableRecord
  2
LOGO_RESIST-RESTYLING_10000
 70
0
 62
7
  6
CONTINUOUS
370
-3
390
F
  0
LAYER
  5
25D
100
AcDbSymbolTableRecord
100
AcDbLayerTableRecord
  2
LOGO_RESIST-RESTYLING_10000_1
 70
0
 62
7
  6
CONTINUOUS
370
-3
390
F
  0
LAYER
  5
25E
100
AcDbSymbolTableRecord
100
AcDbLayerTableRecord
  2
L_SRR0604-RF-VIMAR_480000
 70
0
 62
7
  6
CONTINUOUS
370
-3
390
F
  0
LAYER
  5
25F
100
AcDbSymbolTableRecord
100
AcDbLayerTableRecord
  2
MM3-MPAK-RF-VIMAR_120000
 70
0
 62
7
  6
CONTINUOUS
370
-3
390
F
  0
LAYER
  5
260
100
AcDbSymbolTableRecord
100
AcDbLayerTableRecord
  2
MM3-MPAK-RF-VIMAR_120000_1
 70
0
 62
7
  6
CONTINUOUS
370
-3
390
F
  0
LAYER
  5
261
100
AcDbSymbolTableRecord
100
AcDbLayerTableRecord
  2
MM3-MPAK-RF-VIMAR_120000_2
 70
0
 62
7
  6
CONTINUOUS
370
-3
390
F
  0
LAYER
  5
262
100
AcDbSymbolTableRecord
100
AcDbLayerTableRecord
  2
MM3-MPAK-RF-VIMAR_120000_3
 70
0
 62
7
  6
CONTINUOUS
370
-3
390
F
  0
LAYER
  5
263
100
AcDbSymbolTableRecord
100
AcDbLayerTableRecord
  2
MM3-MPAK-RF-VIMAR_120000_4
 70
0
 62
7
  6
CONTINUOUS
370
-3
390
F
  0
LAYER
  5
264
100
AcDbSymbolTableRecord
100
AcDbLayerTableRecord
  2
MM3-MPAK-RF-VIMAR_120000_5
 70
0
 62
7
  6
CONTINUOUS
370
-3
390
F
  0
LAYER
  5
265
100
AcDbSymbolTableRecord
100
AcDbLayerTableRecord
  2
MM3-MPAK-RF-VIMAR_120000_6
 70
0
 62
7
  6
CONTINUOUS
370
-3
390
F
  0
LAYER
  5
266
100
AcDbSymbolTableRecord
100
AcDbLayerTableRecord
  2
MM3-X-5-VIMAR_70000
 70
0
 62
7
  6
CONTINUOUS
370
-3
390
F
  0
LAYER
  5
267
100
AcDbSymbolTableRecord
100
AcDbLayerTableRecord
  2
MM4-SWITCH-8-VIMAR_500000
 70
0
 62
7
  6
CONTINUOUS
370
-3
390
F
  0
LAYER
  5
268
100
AcDbSymbolTableRecord
100
AcDbLayerTableRecord
  2
MM5-FMT-RF_120000
 70
0
 62
7
  6
CONTINUOUS
370
-3
390
F
  0
LAYER
  5
269
100
AcDbSymbolTableRecord
100
AcDbLayerTableRecord
  2
MM5-FMT-RF_120000_1
 70
0
 62
7
  6
CONTINUOUS
370
-3
390
F
  0
LAYER
  5
26A
100
AcDbSymbolTableRecord
100
AcDbLayerTableRecord
  2
MM6-SC70-1-VIMAR_110000
 70
0
 62
7
  6
CONTINUOUS
370
-3
390
F
  0
LAYER
  5
26B
100
AcDbSymbolTableRecord
100
AcDbLayerTableRecord
  2
MM6-SC70-1-VIMAR_110000_1
 70
0
 62
7
  6
CONTINUOUS
370
-3
390
F
  0
LAYER
  5
26C
100
AcDbSymbolTableRecord
100
AcDbLayerTableRecord
  2
MM6-SC70-1-VIMAR_110000_2
 70
0
 62
7
  6
CONTINUOUS
370
-3
390
F
  0
LAYER
  5
26D
100
AcDbSymbolTableRecord
100
AcDbLayerTableRecord
  2
MM6-SC70-1-VIMAR_110000_3
 70
0
 62
7
  6
CONTINUOUS
370
-3
390
F
  0
LAYER
  5
26E
100
AcDbSymbolTableRecord
100
AcDbLayerTableRecord
  2
NO-PB_MARK_10000
 70
0
 62
7
  6
CONTINUOUS
370
-3
390
F
  0
LAYER
  5
26F
100
AcDbSymbolTableRecord
100
AcDbLayerTableRecord
  2
NO-PB_MARK_10000_1
 70
0
 62
7
  6
CONTINUOUS
370
-3
390
F
  0
LAYER
  5
270
100
AcDbSymbolTableRecord
100
AcDbLayerTableRecord
  2
NOTE
 70
0
 62
7
  6
CONTINUOUS
370
-3
390
F
  0
LAYER
  5
271
100
AcDbSymbolTableRecord
100
AcDbLayerTableRecord
  2
PIANI
 70
0
 62
7
  6
CONTINUOUS
370
-3
390
F
  0
LAYER
  5
272
100
AcDbSymbolTableRecord
100
AcDbLayerTableRecord
  2
PIANI_ORIGINE
 70
0
 62
7
  6
CONTINUOUS
370
-3
390
F
  0
LAYER
  5
273
100
AcDbSymbolTableRecord
100
AcDbLayerTableRecord
  2
PUNTI
 70
0
 62
7
  6
CONTINUOUS
370
-3
390
F
  0
LAYER
  5
274
100
AcDbSymbolTableRecord
100
AcDbLayerTableRecord
  2
QFP50P1200X1200X120-64N_120000
 70
0
 62
7
  6
CONTINUOUS
370
-3
390
F
  0
LAYER
  5
275
100
AcDbSymbolTableRecord
100
AcDbLayerTableRecord
  2
RACCORDO
 70
0
 62
7
  6
CONTINUOUS
370
-3
390
F
  0
LAYER
  5
276
100
AcDbSymbolTableRecord
100
AcDbLayerTableRecord
  2
RD-C150-5-VIMAR_1600000
 70
0
 62
7
  6
CONTINUOUS
370
-3
390
F
  0
LAYER
  5
277
100
AcDbSymbolTableRecord
100
AcDbLayerTableRecord
  2
RESC1608N_45000
 70
0
 62
7
  6
CONTINUOUS
370
-3
390
F
  0
LAYER
  5
278
100
AcDbSymbolTableRecord
100
AcDbLayerTableRecord
  2
RESC1608N_45000_1
 70
0
 62
7
  6
CONTINUOUS
370
-3
390
F
  0
LAYER
  5
279
100
AcDbSymbolTableRecord
100
AcDbLayerTableRecord
  2
RESC1608N_45000_10
 70
0
 62
7
  6
CONTINUOUS
370
-3
390
F
  0
LAYER
  5
27A
100
AcDbSymbolTableRecord
100
AcDbLayerTableRecord
  2
RESC1608N_45000_11
 70
0
 62
7
  6
CONTINUOUS
370
-3
390
F
  0
LAYER
  5
27B
100
AcDbSymbolTableRecord
100
AcDbLayerTableRecord
  2
RESC1608N_45000_12
 70
0
 62
7
  6
CONTINUOUS
370
-3
390
F
  0
LAYER
  5
27C
100
AcDbSymbolTableRecord
100
AcDbLayerTableRecord
  2
RESC1608N_45000_13
 70
0
 62
7
  6
CONTINUOUS
370
-3
390
F
  0
LAYER
  5
27D
100
AcDbSymbolTableRecord
100
AcDbLayerTableRecord
  2
RESC1608N_45000_14
 70
0
 62
7
  6
CONTINUOUS
370
-3
390
F
  0
LAYER
  5
27E
100
AcDbSymbolTableRecord
100
AcDbLayerTableRecord
  2
RESC1608N_45000_15
 70
0
 62
7
  6
CONTINUOUS
370
-3
390
F
  0
LAYER
  5
27F
100
AcDbSymbolTableRecord
100
AcDbLayerTableRecord
  2
RESC1608N_45000_16
 70
0
 62
7
  6
CONTINUOUS
370
-3
390
F
  0
LAYER
  5
280
100
AcDbSymbolTableRecord
100
AcDbLayerTableRecord
  2
RESC1608N_45000_17
 70
0
 62
7
  6
CONTINUOUS
370
-3
390
F
  0
LAYER
  5
281
100
AcDbSymbolTableRecord
100
AcDbLayerTableRecord
  2
RESC1608N_45000_18
 70
0
 62
7
  6
CONTINUOUS
370
-3
390
F
  0
LAYER
  5
282
100
AcDbSymbolTableRecord
100
AcDbLayerTableRecord
  2
RESC1608N_45000_19
 70
0
 62
7
  6
CONTINUOUS
370
-3
390
F
  0
LAYER
  5
283
100
AcDbSymbolTableRecord
100
AcDbLayerTableRecord
  2
RESC1608N_45000_2
 70
0
 62
7
  6
CONTINUOUS
370
-3
390
F
  0
LAYER
  5
284
100
AcDbSymbolTableRecord
100
AcDbLayerTableRecord
  2
RESC1608N_45000_20
 70
0
 62
7
  6
CONTINUOUS
370
-3
390
F
  0
LAYER
  5
285
100
AcDbSymbolTableRecord
100
AcDbLayerTableRecord
  2
RESC1608N_45000_21
 70
0
 62
7
  6
CONTINUOUS
370
-3
390
F
  0
LAYER
  5
286
100
AcDbSymbolTableRecord
100
AcDbLayerTableRecord
  2
RESC1608N_45000_22
 70
0
 62
7
  6
CONTINUOUS
370
-3
390
F
  0
LAYER
  5
287
100
AcDbSymbolTableRecord
100
AcDbLayerTableRecord
  2
RESC1608N_45000_23
 70
0
 62
7
  6
CONTINUOUS
370
-3
390
F
  0
LAYER
  5
288
100
AcDbSymbolTableRecord
100
AcDbLayerTableRecord
  2
RESC1608N_45000_24
 70
0
 62
7
  6
CONTINUOUS
370
-3
390
F
  0
LAYER
  5
289
100
AcDbSymbolTableRecord
100
AcDbLayerTableRecord
  2
RESC1608N_45000_25
 70
0
 62
7
  6
CONTINUOUS
370
-3
390
F
  0
LAYER
  5
28A
100
AcDbSymbolTableRecord
100
AcDbLayerTableRecord
  2
RESC1608N_45000_26
 70
0
 62
7
  6
CONTINUOUS
370
-3
390
F
  0
LAYER
  5
28B
100
AcDbSymbolTableRecord
100
AcDbLayerTableRecord
  2
RESC1608N_45000_27
 70
0
 62
7
  6
CONTINUOUS
370
-3
390
F
  0
LAYER
  5
28C
100
AcDbSymbolTableRecord
100
AcDbLayerTableRecord
  2
RESC1608N_45000_28
 70
0
 62
7
  6
CONTINUOUS
370
-3
390
F
  0
LAYER
  5
28D
100
AcDbSymbolTableRecord
100
AcDbLayerTableRecord
  2
RESC1608N_45000_29
 70
0
 62
7
  6
CONTINUOUS
370
-3
390
F
  0
LAYER
  5
28E
100
AcDbSymbolTableRecord
100
AcDbLayerTableRecord
  2
RESC1608N_45000_3
 70
0
 62
7
  6
CONTINUOUS
370
-3
390
F
  0
LAYER
  5
28F
100
AcDbSymbolTableRecord
100
AcDbLayerTableRecord
  2
RESC1608N_45000_30
 70
0
 62
7
  6
CONTINUOUS
370
-3
390
F
  0
LAYER
  5
290
100
AcDbSymbolTableRecord
100
AcDbLayerTableRecord
  2
RESC1608N_45000_31
 70
0
 62
7
  6
CONTINUOUS
370
-3
390
F
  0
LAYER
  5
291
100
AcDbSymbolTableRecord
100
AcDbLayerTableRecord
  2
RESC1608N_45000_32
 70
0
 62
7
  6
CONTINUOUS
370
-3
390
F
  0
LAYER
  5
292
100
AcDbSymbolTableRecord
100
AcDbLayerTableRecord
  2
RESC1608N_45000_33
 70
0
 62
7
  6
CONTINUOUS
370
-3
390
F
  0
LAYER
  5
293
100
AcDbSymbolTableRecord
100
AcDbLayerTableRecord
  2
RESC1608N_45000_34
 70
0
 62
7
  6
CONTINUOUS
370
-3
390
F
  0
LAYER
  5
294
100
AcDbSymbolTableRecord
100
AcDbLayerTableRecord
  2
RESC1608N_45000_35
 70
0
 62
7
  6
CONTINUOUS
370
-3
390
F
  0
LAYER
  5
295
100
AcDbSymbolTableRecord
100
AcDbLayerTableRecord
  2
RESC1608N_45000_36
 70
0
 62
7
  6
CONTINUOUS
370
-3
390
F
  0
LAYER
  5
296
100
AcDbSymbolTableRecord
100
AcDbLayerTableRecord
  2
RESC1608N_45000_37
 70
0
 62
7
  6
CONTINUOUS
370
-3
390
F
  0
LAYER
  5
297
100
AcDbSymbolTableRecord
100
AcDbLayerTableRecord
  2
RESC1608N_45000_38
 70
0
 62
7
  6
CONTINUOUS
370
-3
390
F
  0
LAYER
  5
298
100
AcDbSymbolTableRecord
100
AcDbLayerTableRecord
  2
RESC1608N_45000_39
 70
0
 62
7
  6
CONTINUOUS
370
-3
390
F
  0
LAYER
  5
299
100
AcDbSymbolTableRecord
100
AcDbLayerTableRecord
  2
RESC1608N_45000_4
 70
0
 62
7
  6
CONTINUOUS
370
-3
390
F
  0
LAYER
  5
29A
100
AcDbSymbolTableRecord
100
AcDbLayerTableRecord
  2
RESC1608N_45000_40
 70
0
 62
7
  6
CONTINUOUS
370
-3
390
F
  0
LAYER
  5
29B
100
AcDbSymbolTableRecord
100
AcDbLayerTableRecord
  2
RESC1608N_45000_41
 70
0
 62
7
  6
CONTINUOUS
370
-3
390
F
  0
LAYER
  5
29C
100
AcDbSymbolTableRecord
100
AcDbLayerTableRecord
  2
RESC1608N_45000_42
 70
0
 62
7
  6
CONTINUOUS
370
-3
390
F
  0
LAYER
  5
29D
100
AcDbSymbolTableRecord
100
AcDbLayerTableRecord
  2
RESC1608N_45000_43
 70
0
 62
7
  6
CONTINUOUS
370
-3
390
F
  0
LAYER
  5
29E
100
AcDbSymbolTableRecord
100
AcDbLayerTableRecord
  2
RESC1608N_45000_44
 70
0
 62
7
  6
CONTINUOUS
370
-3
390
F
  0
LAYER
  5
29F
100
AcDbSymbolTableRecord
100
AcDbLayerTableRecord
  2
RESC1608N_45000_45
 70
0
 62
7
  6
CONTINUOUS
370
-3
390
F
  0
LAYER
  5
2A0
100
AcDbSymbolTableRecord
100
AcDbLayerTableRecord
  2
RESC1608N_45000_5
 70
0
 62
7
  6
CONTINUOUS
370
-3
390
F
  0
LAYER
  5
2A1
100
AcDbSymbolTableRecord
100
AcDbLayerTableRecord
  2
RESC1608N_45000_6
 70
0
 62
7
  6
CONTINUOUS
370
-3
390
F
  0
LAYER
  5
2A2
100
AcDbSymbolTableRecord
100
AcDbLayerTableRecord
  2
RESC1608N_45000_7
 70
0
 62
7
  6
CONTINUOUS
370
-3
390
F
  0
LAYER
  5
2A3
100
AcDbSymbolTableRecord
100
AcDbLayerTableRecord
  2
RESC1608N_45000_8
 70
0
 62
7
  6
CONTINUOUS
370
-3
390
F
  0
LAYER
  5
2A4
100
AcDbSymbolTableRecord
100
AcDbLayerTableRecord
  2
RESC1608N_45000_9
 70
0
 62
7
  6
CONTINUOUS
370
-3
390
F
  0
LAYER
  5
2A5
100
AcDbSymbolTableRecord
100
AcDbLayerTableRecord
  2
RESC6432X70N_70000
 70
0
 62
7
  6
CONTINUOUS
370
-3
390
F
  0
LAYER
  5
2A6
100
AcDbSymbolTableRecord
100
AcDbLayerTableRecord
  2
RESC6432X70N_70000_1
 70
0
 62
7
  6
CONTINUOUS
370
-3
390
F
  0
LAYER
  5
2A7
100
AcDbSymbolTableRecord
100
AcDbLayerTableRecord
  2
RESC6432X70N_70000_2
 70
0
 62
7
  6
CONTINUOUS
370
-3
390
F
  0
LAYER
  5
2A8
100
AcDbSymbolTableRecord
100
AcDbLayerTableRecord
  2
RESC6432X70N_70000_3
 70
0
 62
7
  6
CONTINUOUS
370
-3
390
F
  0
LAYER
  5
2A9
100
AcDbSymbolTableRecord
100
AcDbLayerTableRecord
  2
RESC6432X70N_70000_4
 70
0
 62
7
  6
CONTINUOUS
370
-3
390
F
  0
LAYER
  5
2AA
100
AcDbSymbolTableRecord
100
AcDbLayerTableRecord
  2
RESC6432X70N_70000_5
 70
0
 62
7
  6
CONTINUOUS
370
-3
390
F
  0
LAYER
  5
2AB
100
AcDbSymbolTableRecord
100
AcDbLayerTableRecord
  2
RESC6432X70N_70000_6
 70
0
 62
7
  6
CONTINUOUS
370
-3
390
F
  0
LAYER
  5
2AC
100
AcDbSymbolTableRecord
100
AcDbLayerTableRecord
  2
SMUSSO
 70
0
 62
7
  6
CONTINUOUS
370
-3
390
F
  0
LAYER
  5
2AD
100
AcDbSymbolTableRecord
100
AcDbLayerTableRecord
  2
SNAPLINE
 70
0
 62
7
  6
CONTINUOUS
370
-3
390
F
  0
LAYER
  5
2AE
100
AcDbSymbolTableRecord
100
AcDbLayerTableRecord
  2
SOP20-1-VIMAR_270000
 70
0
 62
7
  6
CONTINUOUS
370
-3
390
F
  0
LAYER
  5
2AF
100
AcDbSymbolTableRecord
100
AcDbLayerTableRecord
  2
SUPERFICI
 70
0
 62
7
  6
CONTINUOUS
370
-3
390
F
  0
LAYER
  5
2B0
100
AcDbSymbolTableRecord
100
AcDbLayerTableRecord
  2
TP15_SMD_0
 70
0
 62
7
  6
CONTINUOUS
370
-3
390
F
  0
LAYER
  5
2B1
100
AcDbSymbolTableRecord
100
AcDbLayerTableRecord
  2
TP15_SMD_0_1
 70
0
 62
7
  6
CONTINUOUS
370
-3
390
F
  0
LAYER
  5
2B2
100
AcDbSymbolTableRecord
100
AcDbLayerTableRecord
  2
TP15_SMD_0_2
 70
0
 62
7
  6
CONTINUOUS
370
-3
390
F
  0
LAYER
  5
2B3
100
AcDbSymbolTableRecord
100
AcDbLayerTableRecord
  2
TP15_SMD_0_3
 70
0
 62
7
  6
CONTINUOUS
370
-3
390
F
  0
LAYER
  5
2B4
100
AcDbSymbolTableRecord
100
AcDbLayerTableRecord
  2
TP15_SMD_0_4
 70
0
 62
7
  6
CONTINUOUS
370
-3
390
F
  0
LAYER
  5
2B5
100
AcDbSymbolTableRecord
100
AcDbLayerTableRecord
  2
TP15_SMD_0_5
 70
0
 62
7
  6
CONTINUOUS
370
-3
390
F
  0
LAYER
  5
2B6
100
AcDbSymbolTableRecord
100
AcDbLayerTableRecord
  2
TP15_SMD_0_6
 70
0
 62
7
  6
CONTINUOUS
370
-3
390
F
  0
LAYER
  5
2B7
100
AcDbSymbolTableRecord
100
AcDbLayerTableRecord
  2
TRASH
 70
0
 62
7
  6
CONTINUOUS
370
-3
390
F
  0
LAYER
  5
2B8
100
AcDbSymbolTableRecord
100
AcDbLayerTableRecord
  2
XSEC_DATUMS
 70
0
 62
7
  6
CONTINUOUS
370
-3
390
F
  0
LAYER
  5
2B9
100
AcDbSymbolTableRecord
100
AcDbLayerTableRecord
  2
___SHELL
 70
0
 62
7
  6
CONTINUOUS
370
-3
390
F
  0
ENDTAB
  0
TABLE
  2
STYLE
  5
3
100
AcDbSymbolTable
 70
1
  0
STYLE
  5
11
100
AcDbSymbolTableRecord
100
AcDbTextStyleTableRecord
  2
STANDARD
 70
0
 40
0.0
 41
0.8
 50
0.0
 71
0
 42
0.2
  3
txt
  4

  0
STYLE
  5
2BA
100
AcDbSymbolTableRecord
100
AcDbTextStyleTableRecord
  2
TEXTSTYLE_1
 70
0
 40
0.0
 41
0.8
 50
0.0
 71
0
 42
0.2
  3
gdt
  4

  0
ENDTAB
  0
TABLE
  2
VIEW
  5
6
100
AcDbSymbolTable
 70
0
  0
ENDTAB
  0
TABLE
  2
UCS
  5
7
100
AcDbSymbolTable
 70
0
  0
ENDTAB
  0
TABLE
  2
APPID
  5
9
100
AcDbSymbolTable
 70
1
  0
APPID
  5
2BB
100
AcDbSymbolTableRecord
100
AcDbRegAppTableRecord
  2
ACAD
 70
0
  0
ENDTAB
  0
TABLE
  2
BLOCK_RECORD
  5
1
100
AcDbSymbolTable
 70
0
  0
BLOCK_RECORD
  5
2BC
100
AcDbSymbolTableRecord
100
AcDbBlockTableRecord
  2
*Model_Space
  0
BLOCK_RECORD
  5
2BD
100
AcDbSymbolTableRecord
100
AcDbBlockTableRecord
  2
*Paper_Space
  0
ENDTAB
  0
TABLE
  2
DIMSTYLE
  5
A
100
AcDbSymbolTable
 70
1
100
AcDbDimStyleTable
 71
0
  0
DIMSTYLE
105
2BE
100
AcDbSymbolTableRecord
100
AcDbDimStyleTableRecord
  2
STANDARD
 70
0
  3

  4

 40
1.0
 41
3.0
 42
0.0625
 43
0.38
 44
0.18
 45
0.0
 46
0.0
 47
0.01
 48
0.01
140
3.0
141
0.09
142
0.0
143
25.4
144
1.0
145
0.0
146
1.0
147
0.09
 71
1.0
 72
0.0
 73
0
 74
0
 75
0
 76
0
 77
1
 78
8
170
0
171
2
172
0
173
0
174
0
175
0
176
0
177
0
178
0
270
2
271
2
272
2
273
2
274
2
275
0
280
0
281
0
282
0
283
1
284
8
285
0
286
0
287
3
288
0
340
11
  0
ENDTAB
  0
ENDSEC
  0
SECTION
  2
BLOCKS
  0
BLOCK
  5
20
100
AcDbEntity
  8
0
100
AcDbBlockBegin
  2
*Model_Space
 70
0
 10
0.0
 20
0.0
 30
0.0
  3
*Model_Space
  1

  0
ENDBLK
  5
21
100
AcDbEntity
  8
0
100
AcDbBlockEnd
  0
BLOCK
  5
1C
100
AcDbEntity
  8
0
100
AcDbBlockBegin
  2
*Paper_Space
 70
0
 10
0.0
 20
0.0
 30
0.0
  3
*Paper_Space
  1

  0
ENDBLK
  5
1D
100
AcDbEntity
  8
0
100
AcDbBlockEnd
  0
ENDSEC
  0
SECTION
  2
ENTITIES
  0
LINE
  5
2BF
100
AcDbEntity
  8
DRAFT
100
AcDbLine
 62
7
  6
CONTINUOUS
 10
-18.2466053153
 20
40.4511245329
 11
-18.3513357048
 21
40.3463941433
  0
LINE
  5
2C0
100
AcDbEntity
  8
DRAFT
100
AcDbLine
 62
7
  6
CONTINUOUS
 10
-17.6751531074
 20
40.3463941433
 11
-17.64897051
 21
40.3725767407
  0
LINE
  5
2C1
100
AcDbEntity
  8
DRAFT
100
AcDbLine
 62
7
  6
CONTINUOUS
 10
-6.89897051
 20
-50.5536058567
 11
-6.9513357048
 21
-50.5012406619
  0
LINE
  5
2C2
100
AcDbEntity
  8
RACCORDO
100
AcDbLine
 62
7
  6
CONTINUOUS
 10
16.4488166
 20
-50.5536058567
 11
-6.89897051
 21
-50.5536058567
  0
LINE
  5
2C3
100
AcDbEntity
  8
RACCORDO
100
AcDbLine
 62
7
  6
CONTINUOUS
 10
-17.0037008996
 20
-50.5536058567
 11
-17.3514880097
 21
-50.5536058567
  0
LINE
  5
2C4
100
AcDbEntity
  8
DRAFT
100
AcDbLine
 62
7
  6
CONTINUOUS
 10
-6.9513357048
 20
-50.5012406619
 11
-16.9513357048
 21
-50.5012406619
  0
LINE
  5
2C5
100
AcDbEntity
  8
RACCORDO
100
AcDbLine
 62
7
  6
CONTINUOUS
 10
16.3440862104
 20
-50.4488754671
 11
-17.2467576201
 21
-50.4488754671
  0
LINE
  5
2C6
100
AcDbEntity
  8
0
100
AcDbLine
 62
7
  6
CONTINUOUS
 10
4.0486642952
 20
-49.6536058567
 11
-4.9513357048
 21
-49.6536058567
  0
LINE
  5
2C7
100
AcDbEntity
  8
RACCORDO
100
AcDbLine
 62
253
  6
CONTINUOUS
 10
-0.6272911855
 20
-49.4246527424
 11
1.6779283683
 21
-49.4246527424
  0
LINE
  5
2C8
100
AcDbEntity
  8
RACCORDO
100
AcDbLine
 62
253
  6
CONTINUOUS
 10
-0.0013357048
 20
-49.3033773646
 11
-0.6272911855
 21
-49.3033773646
  0
LINE
  5
2C9
100
AcDbEntity
  8
0
100
AcDbLine
 62
7
  6
CONTINUOUS
 10
15.9936642952
 20
-49.1536058567
 11
5.0486642952
 21
-49.1536058567
  0
LINE
  5
2CA
100
AcDbEntity
  8
RACCORDO
100
AcDbLine
 62
7
  6
CONTINUOUS
 10
1.6815901795
 20
-49.0050826922
 11
0.8764483797
 21
-49.0050826922
  0
LINE
  5
2CB
100
AcDbEntity
  8
RACCORDO
100
AcDbLine
 62
7
  6
CONTINUOUS
 10
-0.0083177308
 20
-48.9033773646
 11
-0.74947664
 21
-48.9033773646
  0
LINE
  5
2CC
100
AcDbEntity
  8
RACCORDO
100
AcDbLine
 62
7
  6
CONTINUOUS
 10
-4.9513357048
 20
-48.7515182998
 11
-2.8667302311
 21
-48.7515182998
  0
LINE
  5
2CD
100
AcDbEntity
  8
DRAFT
100
AcDbLine
 62
7
  6
CONTINUOUS
 10
-4.9513357048
 20
-48.6814761945
 11
-0.3454223295
 21
-48.6814761945
  0
LINE
  5
2CE
100
AcDbEntity
  8
RACCORDO
100
AcDbLine
 62
253
  6
CONTINUOUS
 10
1.9028968161
 20
-48.6799770144
 11
1.2015540574
 21
-48.6799770144
  0
LINE
  5
2CF
100
AcDbEntity
  8
0
100
AcDbLine
 62
7
  6
CONTINUOUS
 10
-10.9513357048
 20
-48.5536058567
 11
-12.9513357048
 21
-48.5536058567
  0
LINE
  5
2D0
100
AcDbEntity
  8
RACCORDO
100
AcDbLine
 62
253
  6
CONTINUOUS
 10
1.8986642952
 20
-48.4300531668
 11
1.2059976265
 21
-48.4300531668
  0
LINE
  5
2D1
100
AcDbEntity
  8
DRAFT
100
AcDbLine
 62
7
  6
CONTINUOUS
 10
-18.2466053153
 20
-31.7583362463
 11
-18.3513357048
 21
-31.6536058567
  0
LINE
  5
2D2
100
AcDbEntity
  8
RACCORDO
100
AcDbLine
 62
7
  6
CONTINUOUS
 10
-0.74947664
 20
-48.9033773646
 11
-0.8670348407
 21
-48.7858191639
  0
LINE
  5
2D3
100
AcDbEntity
  8
DRAFT
100
AcDbLine
 62
7
  6
CONTINUOUS
 10
-17.6751531074
 20
-31.6536058567
 11
-17.64897051
 21
-31.6797884541
  0
LINE
  5
2D4
100
AcDbEntity
  8
DRAFT
100
AcDbLine
 62
7
  6
CONTINUOUS
 10
-0.1235211593
 20
-48.9033773646
 11
-0.3454223295
 21
-48.6814761945
  0
LINE
  5
2D5
100
AcDbEntity
  8
DRAFT
100
AcDbLine
 62
7
  6
CONTINUOUS
 10
-18.3513357048
 20
22.0963941433
 11
-18.2466053153
 21
22.410840819
  0
LINE
  5
2D6
100
AcDbEntity
  8
DRAFT
100
AcDbLine
 62
7
  6
CONTINUOUS
 10
16.10102949
 20
59.2463941433
 11
16.0486642952
 21
59.1940289485
  0
LINE
  5
2D7
100
AcDbEntity
  8
RACCORDO
100
AcDbLine
 62
253
  6
CONTINUOUS
 10
16.4488166
 20
59.2463941433
 11
16.3440862104
 21
59.1416637537
  0
LINE
  5
2D8
100
AcDbEntity
  8
RACCORDO
100
AcDbLine
 62
253
  6
CONTINUOUS
 10
17.4486642952
 20
58.2465464481
 11
17.3439339056
 21
58.1418160586
  0
LINE
  5
2D9
100
AcDbEntity
  8
RACCORDO
100
AcDbLine
 62
7
  6
CONTINUOUS
 10
3.4487404476
 20
-45.7536058567
 11
-4.3514118572
 21
-45.7536058567
  0
LINE
  5
2DA
100
AcDbEntity
  8
RACCORDO
100
AcDbLine
 62
7
  6
CONTINUOUS
 10
3.3736836684
 20
-45.6785490775
 11
-4.2763550781
 21
-45.6785490775
  0
LINE
  5
2DB
100
AcDbEntity
  8
0
100
AcDbLine
 62
7
  6
CONTINUOUS
 10
-12.9513357048
 20
-44.5536058567
 11
-10.9513357048
 21
-44.5536058567
  0
LINE
  5
2DC
100
AcDbEntity
  8
DRAFT
100
AcDbLine
 62
7
  6
CONTINUOUS
 10
-3.7624284321
 20
-44.2536058567
 11
2.8597570224
 21
-44.2536058567
  0
LINE
  5
2DD
100
AcDbEntity
  8
RACCORDO
100
AcDbLine
 62
253
  6
CONTINUOUS
 10
0.6764788407
 20
-43.9078865862
 11
-0.0013357048
 21
-43.9078865862
  0
LINE
  5
2DE
100
AcDbEntity
  8
RACCORDO
100
AcDbLine
 62
253
  6
CONTINUOUS
 10
0.6924125965
 20
-42.9116918881
 11
-0.0172694606
 21
-42.9116918881
  0
LINE
  5
2DF
100
AcDbEntity
  8
0
100
AcDbLine
 62
7
  6
CONTINUOUS
 10
15.9936642952
 20
-42.8536058567
 11
13.7936642952
 21
-42.8536058567
  0
LINE
  5
2E0
100
AcDbEntity
  8
RACCORDO
100
AcDbLine
 62
7
  6
CONTINUOUS
 10
4.0486642952
 20
-42.4036058567
 11
3.9486642952
 21
-42.4036058567
  0
LINE
  5
2E1
100
AcDbEntity
  8
RACCORDO
100
AcDbLine
 62
7
  6
CONTINUOUS
 10
2.7847002432
 20
-42.4036058567
 11
-3.6873716529
 21
-42.4036058567
  0
LINE
  5
2E2
100
AcDbEntity
  8
RACCORDO
100
AcDbLine
 62
7
  6
CONTINUOUS
 10
-4.8513357048
 20
-42.4036058567
 11
-4.9513357048
 21
-42.4036058567
  0
LINE
  5
2E3
100
AcDbEntity
  8
RACCORDO
100
AcDbLine
 62
253
  6
CONTINUOUS
 10
3.4487404476
 20
-45.7536058567
 11
3.3736836684
 21
-45.6785490775
  0
LINE
  5
2E4
100
AcDbEntity
  8
RACCORDO
100
AcDbLine
 62
253
  6
CONTINUOUS
 10
3.9486642952
 20
-45.2536820091
 11
3.873607516
 21
-45.1786252299
  0
LINE
  5
2E5
100
AcDbEntity
  8
RACCORDO
100
AcDbLine
 62
7
  6
CONTINUOUS
 10
1.9028968161
 20
-48.6799770144
 11
2.0768718567
 21
-48.8829111945
  0
LINE
  5
2E6
100
AcDbEntity
  8
SMUSSO
100
AcDbLine
 62
7
  6
CONTINUOUS
 10
-18.3076980425
 20
-14.2346253049
 11
-18.32059235
 21
-13.4959109247
  0
LINE
  5
2E7
100
AcDbEntity
  8
DRAFT
100
AcDbLine
 62
7
  6
CONTINUOUS
 10
-18.3513357048
 20
-31.5536058567
 11
-18.3513357048
 21
-28.1536058567
  0
LINE
  5
2E8
100
AcDbEntity
  8
DRAFT
100
AcDbLine
 62
7
  6
CONTINUOUS
 10
-18.3513357048
 20
-23.1536058567
 11
-18.3513357048
 21
-16.9598161791
  0
LINE
  5
2E9
100
AcDbEntity
  8
RACCORDO
100
AcDbLine
 62
7
  6
CONTINUOUS
 10
-18.3513357048
 20
-31.5536058567
 11
-18.3513357048
 21
-49.5537581616
  0
LINE
  5
2EA
100
AcDbEntity
  8
DRAFT
100
AcDbLine
 62
7
  6
CONTINUOUS
 10
-18.3513357048
 20
-13.4036058567
 11
-18.3513357048
 21
31.8463941433
  0
LINE
  5
2EB
100
AcDbEntity
  8
DRAFT
100
AcDbLine
 62
7
  6
CONTINUOUS
 10
-18.3513357048
 20
36.8463941433
 11
-18.3513357048
 21
40.2463941433
  0
LINE
  5
2EC
100
AcDbEntity
  8
RACCORDO
100
AcDbLine
 62
7
  6
CONTINUOUS
 10
-18.3513357048
 20
40.2463941433
 11
-18.3513357048
 21
58.2465464481
  0
LINE
  5
2ED
100
AcDbEntity
  8
DRAFT
100
AcDbLine
 62
7
  6
CONTINUOUS
 10
-18.3391171594
 20
-28.3036058567
 11
-18.3391171594
 21
-23.0036058567
  0
LINE
  5
2EE
100
AcDbEntity
  8
DRAFT
100
AcDbLine
 62
7
  6
CONTINUOUS
 10
-18.3391171594
 20
31.6963941433
 11
-18.3391171594
 21
36.9963941433
  0
LINE
  5
2EF
100
AcDbEntity
  8
SMUSSO
100
AcDbLine
 62
7
  6
CONTINUOUS
 10
-18.3076980425
 20
-14.2346253049
 11
-18.3076980425
 21
-16.0346253049
  0
LINE
  5
2F0
100
AcDbEntity
  8
RACCORDO
100
AcDbLine
 62
7
  6
CONTINUOUS
 10
-18.2500963282
 20
-30.5536058567
 11
-18.2500963282
 21
-20.7536058567
  0
LINE
  5
2F1
100
AcDbEntity
  8
RACCORDO
100
AcDbLine
 62
7
  6
CONTINUOUS
 10
-18.2500963282
 20
29.4463941433
 11
-18.2500963282
 21
39.2463941433
  0
LINE
  5
2F2
100
AcDbEntity
  8
RACCORDO
100
AcDbLine
 62
7
  6
CONTINUOUS
 10
-18.2466053153
 20
-49.449027772
 11
-18.2466053153
 21
-31.7583362463
  0
LINE
  5
2F3
100
AcDbEntity
  8
DRAFT
100
AcDbLine
 62
7
  6
CONTINUOUS
 10
-18.2466053153
 20
-19.5488754671
 11
-18.2466053153
 21
-16.2180525324
  0
LINE
  5
2F4
100
AcDbEntity
  8
DRAFT
100
AcDbLine
 62
7
  6
CONTINUOUS
 10
-18.2466053153
 20
22.410840819
 11
-18.2466053153
 21
28.2416637537
  0
LINE
  5
2F5
100
AcDbEntity
  8
RACCORDO
100
AcDbLine
 62
7
  6
CONTINUOUS
 10
-18.2466053153
 20
40.4511245329
 11
-18.2466053153
 21
58.1418160586
  0
LINE
  5
2F6
100
AcDbEntity
  8
0
100
AcDbLine
 62
7
  6
CONTINUOUS
 10
-17.5834880684
 20
37.0463941433
 11
-17.5834880684
 21
31.6463941433
  0
LINE
  5
2F7
100
AcDbEntity
  8
0
100
AcDbLine
 62
7
  6
CONTINUOUS
 10
-17.5834880684
 20
-28.3536058567
 11
-17.5834880684
 21
-22.9536058567
  0
LINE
  5
2F8
100
AcDbEntity
  8
DRAFT
100
AcDbLine
 62
7
  6
CONTINUOUS
 10
-17.5727879126
 20
40.3463941433
 11
-17.5727879126
 21
40.2463941433
  0
LINE
  5
2F9
100
AcDbEntity
  8
DRAFT
100
AcDbLine
 62
7
  6
CONTINUOUS
 10
-17.5727879126
 20
28.4463941433
 11
-17.5727879126
 21
28.3254480654
  0
LINE
  5
2FA
100
AcDbEntity
  8
DRAFT
100
AcDbLine
 62
7
  6
CONTINUOUS
 10
-17.5727879126
 20
-19.6536058567
 11
-17.5727879126
 21
-19.7536058567
  0
LINE
  5
2FB
100
AcDbEntity
  8
DRAFT
100
AcDbLine
 62
7
  6
CONTINUOUS
 10
-17.5727879126
 20
-31.5536058567
 11
-17.5727879126
 21
-31.6536058567
  0
LINE
  5
2FC
100
AcDbEntity
  8
223010000
100
AcDbLine
 62
7
  6
CONTINUOUS
 10
-17.4513357048
 20
-14.474705067
 11
-17.4513357048
 21
23.1674933536
  0
LINE
  5
2FD
100
AcDbEntity
  8
RACCORDO
100
AcDbLine
 62
7
  6
CONTINUOUS
 10
-17.1834880684
 20
-30.5536058567
 11
-17.1834880684
 21
-28.3536058567
  0
LINE
  5
2FE
100
AcDbEntity
  8
RACCORDO
100
AcDbLine
 62
7
  6
CONTINUOUS
 10
-17.1834880684
 20
-22.9536058567
 11
-17.1834880684
 21
-20.7536058567
  0
LINE
  5
2FF
100
AcDbEntity
  8
RACCORDO
100
AcDbLine
 62
7
  6
CONTINUOUS
 10
-17.1834880684
 20
29.4463941433
 11
-17.1834880684
 21
31.6463941433
  0
LINE
  5
300
100
AcDbEntity
  8
RACCORDO
100
AcDbLine
 62
7
  6
CONTINUOUS
 10
-17.1834880684
 20
37.0463941433
 11
-17.1834880684
 21
39.2463941433
  0
LINE
  5
301
100
AcDbEntity
  8
0
100
AcDbLine
 62
7
  6
CONTINUOUS
 10
-17.1710178312
 20
37.0463941433
 11
-17.1710178312
 21
31.6463941433
  0
LINE
  5
302
100
AcDbEntity
  8
0
100
AcDbLine
 62
7
  6
CONTINUOUS
 10
-17.1710178312
 20
-28.3536058567
 11
-17.1710178312
 21
-22.9536058567
  0
LINE
  5
303
100
AcDbEntity
  8
DRAFT
100
AcDbLine
 62
7
  6
CONTINUOUS
 10
-17.0997037567
 20
40.3725767407
 11
-17.0997037567
 21
40.2463941433
  0
LINE
  5
304
100
AcDbEntity
  8
DRAFT
100
AcDbLine
 62
7
  6
CONTINUOUS
 10
-17.0997037567
 20
28.4463941433
 11
-17.0997037567
 21
28.3254480654
  0
LINE
  5
305
100
AcDbEntity
  8
DRAFT
100
AcDbLine
 62
7
  6
CONTINUOUS
 10
-17.0997037567
 20
-19.6326597788
 11
-17.0997037567
 21
-19.7536058567
  0
LINE
  5
306
100
AcDbEntity
  8
DRAFT
100
AcDbLine
 62
7
  6
CONTINUOUS
 10
-17.0997037567
 20
-31.5536058567
 11
-17.0997037567
 21
-31.6797884541
  0
LINE
  5
307
100
AcDbEntity
  8
DRAFT
100
AcDbLine
 62
7
  6
CONTINUOUS
 10
-17.0944672372
 20
-28.3036058567
 11
-17.0944672372
 21
-28.1536058567
  0
LINE
  5
308
100
AcDbEntity
  8
DRAFT
100
AcDbLine
 62
7
  6
CONTINUOUS
 10
-17.0944672372
 20
-23.1536058567
 11
-17.0944672372
 21
-23.0036058567
  0
LINE
  5
309
100
AcDbEntity
  8
DRAFT
100
AcDbLine
 62
7
  6
CONTINUOUS
 10
-17.0944672372
 20
31.6963941433
 11
-17.0944672372
 21
31.8463941433
  0
LINE
  5
30A
100
AcDbEntity
  8
DRAFT
100
AcDbLine
 62
7
  6
CONTINUOUS
 10
-17.0944672372
 20
36.8463941433
 11
-17.0944672372
 21
36.9963941433
  0
LINE
  5
30B
100
AcDbEntity
  8
DRAFT
100
AcDbLine
 62
7
  6
CONTINUOUS
 10
15.9936642952
 20
-42.2536058567
 11
12.2986642952
 21
-42.2536058567
  0
LINE
  5
30C
100
AcDbEntity
  8
DRAFT
100
AcDbLine
 62
7
  6
CONTINUOUS
 10
12.2637541653
 20
-42.2536058567
 11
5.0486642952
 21
-42.2536058567
  0
LINE
  5
30D
100
AcDbEntity
  8
DRAFT
100
AcDbLine
 62
7
  6
CONTINUOUS
 10
2.8108828406
 20
-42.0536058567
 11
-3.7135542503
 21
-42.0536058567
  0
LINE
  5
30E
100
AcDbEntity
  8
DRAFT
100
AcDbLine
 62
7
  6
CONTINUOUS
 10
4.0486642952
 20
-40.9603304974
 11
3.9486642952
 21
-40.9603304974
  0
LINE
  5
30F
100
AcDbEntity
  8
DRAFT
100
AcDbLine
 62
7
  6
CONTINUOUS
 10
-4.8513357048
 20
-40.9603304974
 11
-4.9513357048
 21
-40.9603304974
  0
LINE
  5
310
100
AcDbEntity
  8
DRAFT
100
AcDbLine
 62
7
  6
CONTINUOUS
 10
4.0486642952
 20
-40.9097146642
 11
3.9486642952
 21
-40.9097146642
  0
LINE
  5
311
100
AcDbEntity
  8
DRAFT
100
AcDbLine
 62
7
  6
CONTINUOUS
 10
-4.8513357048
 20
-40.9097146642
 11
-4.9513357048
 21
-40.9097146642
  0
LINE
  5
312
100
AcDbEntity
  8
DRAFT
100
AcDbLine
 62
253
  6
CONTINUOUS
 10
12.2637541653
 20
-40.4036058567
 11
12.2986642952
 21
-40.4036058567
  0
LINE
  5
313
100
AcDbEntity
  8
0
100
AcDbLine
 62
7
  6
CONTINUOUS
 10
-4.9513357048
 20
-40.3536058567
 11
-4.8513357048
 21
-40.3536058567
  0
LINE
  5
314
100
AcDbEntity
  8
0
100
AcDbLine
 62
7
  6
CONTINUOUS
 10
3.9486642952
 20
-40.3536058567
 11
4.0486642952
 21
-40.3536058567
  0
LINE
  5
315
100
AcDbEntity
  8
0
100
AcDbLine
 62
7
  6
CONTINUOUS
 10
-4.9513357048
 20
-39.3536058567
 11
-4.1013357048
 21
-39.3536058567
  0
LINE
  5
316
100
AcDbEntity
  8
0
100
AcDbLine
 62
7
  6
CONTINUOUS
 10
3.1986642952
 20
-39.3536058567
 11
4.0486642952
 21
-39.3536058567
  0
LINE
  5
317
100
AcDbEntity
  8
RACCORDO
100
AcDbLine
 62
253
  6
CONTINUOUS
 10
16.3440862104
 20
-50.4488754671
 11
16.4488166
 21
-50.5536058567
  0
LINE
  5
318
100
AcDbEntity
  8
DRAFT
100
AcDbLine
 62
7
  6
CONTINUOUS
 10
-18.2466053153
 20
-16.2180525324
 11
-18.3076980425
 21
-16.0346253049
  0
LINE
  5
319
100
AcDbEntity
  8
SMUSSO
100
AcDbLine
 62
7
  6
CONTINUOUS
 10
-18.32059235
 20
-13.4959109247
 11
-18.3513357048
 21
-13.4036058567
  0
LINE
  5
31A
100
AcDbEntity
  8
RACCORDO
100
AcDbLine
 62
253
  6
CONTINUOUS
 10
-14.8332815311
 20
-45.89079946
 11
-14.8195204439
 21
-47.2563000859
  0
LINE
  5
31B
100
AcDbEntity
  8
DRAFT
100
AcDbLine
 62
7
  6
CONTINUOUS
 10
-16.9397368477
 20
40.4511245329
 11
-16.9397368477
 21
36.8463941433
  0
LINE
  5
31C
100
AcDbEntity
  8
DRAFT
100
AcDbLine
 62
7
  6
CONTINUOUS
 10
-16.9397368477
 20
31.8463941433
 11
-16.9397368477
 21
28.2416637537
  0
LINE
  5
31D
100
AcDbEntity
  8
DRAFT
100
AcDbLine
 62
7
  6
CONTINUOUS
 10
-16.9397368477
 20
-31.7583362463
 11
-16.9397368477
 21
-28.1536058567
  0
LINE
  5
31E
100
AcDbEntity
  8
DRAFT
100
AcDbLine
 62
7
  6
CONTINUOUS
 10
-16.9397368477
 20
-19.5488754671
 11
-16.9397368477
 21
-23.1536058567
  0
LINE
  5
31F
100
AcDbEntity
  8
DRAFT
100
AcDbLine
 62
7
  6
CONTINUOUS
 10
-16.8963357048
 20
50.8663628723
 11
-16.8963357048
 21
57.8463941433
  0
LINE
  5
320
100
AcDbEntity
  8
DRAFT
100
AcDbLine
 62
7
  6
CONTINUOUS
 10
-16.862934562
 20
36.8463941433
 11
-16.8629454229
 21
31.8463941433
  0
LINE
  5
321
100
AcDbEntity
  8
DRAFT
100
AcDbLine
 62
7
  6
CONTINUOUS
 10
-16.862934562
 20
-28.1536058567
 11
-16.8629454229
 21
-23.1536058567
  0
LINE
  5
322
100
AcDbEntity
  8
0
100
AcDbLine
 62
7
  6
CONTINUOUS
 10
-14.6963357048
 20
57.8463941433
 11
-14.6963357048
 21
51.5463941433
  0
LINE
  5
323
100
AcDbEntity
  8
RACCORDO
100
AcDbLine
 62
7
  6
CONTINUOUS
 10
-14.4791502503
 20
-45.268030616
 11
-14.4791502503
 21
-47.8391810974
  0
LINE
  5
324
100
AcDbEntity
  8
RACCORDO
100
AcDbLine
 62
7
  6
CONTINUOUS
 10
-13.8013357048
 20
-48.3552719066
 11
-13.8013357048
 21
-44.7519398069
  0
LINE
  5
325
100
AcDbEntity
  8
DRAFT
100
AcDbLine
 62
7
  6
CONTINUOUS
 10
-13.2013357048
 20
49.0963941433
 11
-13.2013357048
 21
50.9463941433
  0
LINE
  5
326
100
AcDbEntity
  8
DRAFT
100
AcDbLine
 62
7
  6
CONTINUOUS
 10
-13.166425575
 20
49.0963941433
 11
-13.166425575
 21
50.9463941433
  0
LINE
  5
327
100
AcDbEntity
  8
SMUSSO
100
AcDbLine
 62
7
  6
CONTINUOUS
 10
-13.4551999229
 20
-48.4781401114
 11
-13.4163051896
 21
-44.6186497897
  0
LINE
  5
328
100
AcDbEntity
  8
DRAFT
100
AcDbLine
 62
7
  6
CONTINUOUS
 10
-3.7135542503
 20
-37.2536058567
 11
2.8108828406
 21
-37.2536058567
  0
LINE
  5
329
100
AcDbEntity
  8
DRAFT
100
AcDbLine
 62
7
  6
CONTINUOUS
 10
2.8597570224
 20
-29.6649429237
 11
2.7986642952
 21
-29.6485731767
  0
LINE
  5
32A
100
AcDbEntity
  8
RACCORDO
100
AcDbLine
 62
253
  6
CONTINUOUS
 10
17.3439339056
 20
-49.449027772
 11
17.4486642952
 21
-49.5537581616
  0
LINE
  5
32B
100
AcDbEntity
  8
DRAFT
100
AcDbLine
 62
7
  6
CONTINUOUS
 10
-3.7624284321
 20
-29.6649429237
 11
-4.1013357048
 21
-29.0779383082
  0
LINE
  5
32C
100
AcDbEntity
  8
DRAFT
100
AcDbLine
 62
7
  6
CONTINUOUS
 10
-4.1013357048
 20
-28.9557528537
 11
-3.7013357048
 21
-29.6485731767
  0
LINE
  5
32D
100
AcDbEntity
  8
DRAFT
100
AcDbLine
 62
7
  6
CONTINUOUS
 10
-18.2466053153
 20
-31.7583362463
 11
-16.9397368477
 21
-31.7583362463
  0
LINE
  5
32E
100
AcDbEntity
  8
DRAFT
100
AcDbLine
 62
7
  6
CONTINUOUS
 10
17.3439339056
 20
-31.7583362463
 11
16.037065438
 21
-31.7583362463
  0
LINE
  5
32F
100
AcDbEntity
  8
DRAFT
100
AcDbLine
 62
7
  6
CONTINUOUS
 10
16.037065438
 20
-31.6797884541
 11
16.7462991004
 21
-31.6797884541
  0
LINE
  5
330
100
AcDbEntity
  8
DRAFT
100
AcDbLine
 62
7
  6
CONTINUOUS
 10
-16.9397368477
 20
-31.6797884541
 11
-17.64897051
 21
-31.6797884541
  0
LINE
  5
331
100
AcDbEntity
  8
DRAFT
100
AcDbLine
 62
7
  6
CONTINUOUS
 10
-18.3513357048
 20
-31.6536058567
 11
-17.6751531074
 21
-31.6536058567
  0
LINE
  5
332
100
AcDbEntity
  8
DRAFT
100
AcDbLine
 62
7
  6
CONTINUOUS
 10
17.4486642952
 20
-31.6536058567
 11
16.7724816978
 21
-31.6536058567
  0
LINE
  5
333
100
AcDbEntity
  8
RACCORDO
100
AcDbLine
 62
7
  6
CONTINUOUS
 10
-18.3513357048
 20
-31.5536058567
 11
-17.1660330034
 21
-31.5536058567
  0
LINE
  5
334
100
AcDbEntity
  8
RACCORDO
100
AcDbLine
 62
7
  6
CONTINUOUS
 10
16.2633615938
 20
-31.5536058567
 11
17.4486642952
 21
-31.5536058567
  0
LINE
  5
335
100
AcDbEntity
  8
RACCORDO
100
AcDbLine
 62
253
  6
CONTINUOUS
 10
-18.2500963282
 20
-30.5536058567
 11
-17.1834880684
 21
-30.5536058567
  0
LINE
  5
336
100
AcDbEntity
  8
RACCORDO
100
AcDbLine
 62
253
  6
CONTINUOUS
 10
16.2808166587
 20
-30.5536058567
 11
17.3474249186
 21
-30.5536058567
  0
LINE
  5
337
100
AcDbEntity
  8
0
100
AcDbLine
 62
7
  6
CONTINUOUS
 10
16.2808166587
 20
-28.3536058567
 11
16.6808166587
 21
-28.3536058567
  0
LINE
  5
338
100
AcDbEntity
  8
0
100
AcDbLine
 62
7
  6
CONTINUOUS
 10
-17.1834880684
 20
-28.3536058567
 11
-17.5834880684
 21
-28.3536058567
  0
LINE
  5
339
100
AcDbEntity
  8
DRAFT
100
AcDbLine
 62
7
  6
CONTINUOUS
 10
-17.1520689515
 20
-28.3036058567
 11
-17.0944672372
 21
-28.3036058567
  0
LINE
  5
33A
100
AcDbEntity
  8
DRAFT
100
AcDbLine
 62
7
  6
CONTINUOUS
 10
16.2493975418
 20
-28.3036058567
 11
16.1917958276
 21
-28.3036058567
  0
LINE
  5
33B
100
AcDbEntity
  8
DRAFT
100
AcDbLine
 62
7
  6
CONTINUOUS
 10
17.3788440355
 20
-28.3036058567
 11
17.4364457497
 21
-28.3036058567
  0
LINE
  5
33C
100
AcDbEntity
  8
DRAFT
100
AcDbLine
 62
7
  6
CONTINUOUS
 10
-18.2815154451
 20
-28.3036058567
 11
-18.3391171594
 21
-28.3036058567
  0
LINE
  5
33D
100
AcDbEntity
  8
DRAFT
100
AcDbLine
 62
7
  6
CONTINUOUS
 10
15.9602631523
 20
-28.1536058567
 11
16.2808166587
 21
-28.1536058567
  0
LINE
  5
33E
100
AcDbEntity
  8
DRAFT
100
AcDbLine
 62
7
  6
CONTINUOUS
 10
-16.862934562
 20
-28.1536058567
 11
-17.1834880684
 21
-28.1536058567
  0
LINE
  5
33F
100
AcDbEntity
  8
DRAFT
100
AcDbLine
 62
7
  6
CONTINUOUS
 10
-3.7624284321
 20
-25.0422687898
 11
-3.7013357048
 21
-25.0586385367
  0
LINE
  5
340
100
AcDbEntity
  8
RACCORDO
100
AcDbLine
 62
7
  6
CONTINUOUS
 10
-0.0172694606
 20
-42.9116918881
 11
-0.1186388759
 21
-42.4036058567
  0
LINE
  5
341
100
AcDbEntity
  8
0
100
AcDbLine
 62
7
  6
CONTINUOUS
 10
-4.9513357048
 20
-49.6536058567
 11
-4.9513357048
 21
-39.3536058567
  0
LINE
  5
342
100
AcDbEntity
  8
SMUSSO
100
AcDbLine
 62
7
  6
CONTINUOUS
 10
-4.9513357048
 20
-14.5837909144
 11
-4.9513357048
 21
-16.0346253049
  0
LINE
  5
343
100
AcDbEntity
  8
DRAFT
100
AcDbLine
 62
7
  6
CONTINUOUS
 10
-4.9513357048
 20
-16.9036058567
 11
-4.9513357048
 21
-16.0346253049
  0
LINE
  5
344
100
AcDbEntity
  8
RACCORDO
100
AcDbLine
 62
7
  6
CONTINUOUS
 10
-4.8513357048
 20
-45.2536820091
 11
-4.8513357048
 21
-39.3536058567
  0
LINE
  5
345
100
AcDbEntity
  8
RACCORDO
100
AcDbLine
 62
7
  6
CONTINUOUS
 10
-4.8513357048
 20
-16.9036058567
 11
-4.8513357048
 21
-14.5846636012
  0
LINE
  5
346
100
AcDbEntity
  8
RACCORDO
100
AcDbLine
 62
7
  6
CONTINUOUS
 10
-4.7762789256
 20
-45.1786252299
 11
-4.7762789256
 21
-39.3536058567
  0
LINE
  5
347
100
AcDbEntity
  8
RACCORDO
100
AcDbLine
 62
7
  6
CONTINUOUS
 10
-4.7762789256
 20
-16.9036058567
 11
-4.7762789256
 21
-14.5853186118
  0
LINE
  5
348
100
AcDbEntity
  8
0
100
AcDbLine
 62
7
  6
CONTINUOUS
 10
-4.1013357048
 20
-39.3536058567
 11
-4.1013357048
 21
-16.9036058567
  0
LINE
  5
349
100
AcDbEntity
  8
223010000
100
AcDbLine
 62
7
  6
CONTINUOUS
 10
-3.9513357048
 20
-20.3925177822
 11
-3.9513357048
 21
-14.5925177822
  0
LINE
  5
34A
100
AcDbEntity
  8
223010000
100
AcDbLine
 62
7
  6
CONTINUOUS
 10
-3.9513357048
 20
23.2853060688
 11
-3.9513357048
 21
29.0853060688
  0
LINE
  5
34B
100
AcDbEntity
  8
DRAFT
100
AcDbLine
 62
7
  6
CONTINUOUS
 10
-3.7624284321
 20
-20.394166351
 11
-3.7624284321
 21
-25.0422687898
  0
LINE
  5
34C
100
AcDbEntity
  8
DRAFT
100
AcDbLine
 62
7
  6
CONTINUOUS
 10
-3.7624284321
 20
-29.6649429237
 11
-3.7624284321
 21
-44.2536058567
  0
LINE
  5
34D
100
AcDbEntity
  8
DRAFT
100
AcDbLine
 62
7
  6
CONTINUOUS
 10
-3.7135542503
 20
-42.0536058567
 11
-3.7135542503
 21
-37.2536058567
  0
LINE
  5
34E
100
AcDbEntity
  8
DRAFT
100
AcDbLine
 62
7
  6
CONTINUOUS
 10
-3.7013357048
 20
-25.0586385367
 11
-3.7013357048
 21
-29.6485731767
  0
LINE
  5
34F
100
AcDbEntity
  8
DRAFT
100
AcDbLine
 62
7
  6
CONTINUOUS
 10
-3.6873716529
 20
-20.3948213616
 11
-3.6873716529
 21
-37.2536058567
  0
LINE
  5
350
100
AcDbEntity
  8
DRAFT
100
AcDbLine
 62
7
  6
CONTINUOUS
 10
-3.6873716529
 20
-42.0536058567
 11
-3.6873716529
 21
-44.2536058567
  0
LINE
  5
351
100
AcDbEntity
  8
0
100
AcDbLine
 62
7
  6
CONTINUOUS
 10
-3.6013357048
 20
-20.3925177822
 11
-3.6013357048
 21
-37.2536058567
  0
LINE
  5
352
100
AcDbEntity
  8
RACCORDO
100
AcDbLine
 62
253
  6
CONTINUOUS
 10
-2.8667302311
 20
-48.7515182998
 11
-2.8667302311
 21
-49.6536058567
  0
LINE
  5
353
100
AcDbEntity
  8
DRAFT
100
AcDbLine
 62
7
  6
CONTINUOUS
 10
-3.6873716529
 20
-27.7536058567
 11
-3.6013357048
 21
-27.7536058567
  0
LINE
  5
354
100
AcDbEntity
  8
DRAFT
100
AcDbLine
 62
7
  6
CONTINUOUS
 10
-3.6873716529
 20
-27.6536058567
 11
-3.6013357048
 21
-27.6536058567
  0
LINE
  5
355
100
AcDbEntity
  8
DRAFT
100
AcDbLine
 62
7
  6
CONTINUOUS
 10
2.6986642952
 20
-27.6536058567
 11
2.7847002432
 21
-27.6536058567
  0
LINE
  5
356
100
AcDbEntity
  8
DRAFT
100
AcDbLine
 62
7
  6
CONTINUOUS
 10
-3.6873716529
 20
-25.6536058567
 11
-3.6013357048
 21
-25.6536058567
  0
LINE
  5
357
100
AcDbEntity
  8
DRAFT
100
AcDbLine
 62
7
  6
CONTINUOUS
 10
2.6986642952
 20
-25.6536058567
 11
2.7847002432
 21
-25.6536058567
  0
LINE
  5
358
100
AcDbEntity
  8
DRAFT
100
AcDbLine
 62
7
  6
CONTINUOUS
 10
3.1986642952
 20
-25.7514588597
 11
2.7986642952
 21
-25.0586385367
  0
LINE
  5
359
100
AcDbEntity
  8
DRAFT
100
AcDbLine
 62
7
  6
CONTINUOUS
 10
3.1986642952
 20
-25.6292734052
 11
2.8597570224
 21
-25.0422687898
  0
LINE
  5
35A
100
AcDbEntity
  8
DRAFT
100
AcDbLine
 62
7
  6
CONTINUOUS
 10
-0.3454223295
 20
-48.6814761945
 11
-0.3749284887
 21
-45.7536058567
  0
LINE
  5
35B
100
AcDbEntity
  8
DRAFT
100
AcDbLine
 62
7
  6
CONTINUOUS
 10
-0.3900450183
 20
-44.2536058567
 11
-0.4086887383
 21
-42.4036058567
  0
LINE
  5
35C
100
AcDbEntity
  8
RACCORDO
100
AcDbLine
 62
253
  6
CONTINUOUS
 10
-0.8670348407
 20
-48.7858191639
 11
-0.8670348407
 21
-49.6536058567
  0
LINE
  5
35D
100
AcDbEntity
  8
RACCORDO
100
AcDbLine
 62
7
  6
CONTINUOUS
 10
-0.6272911855
 20
-49.4246527424
 11
-0.6272911855
 21
-49.3033773646
  0
LINE
  5
35E
100
AcDbEntity
  8
RACCORDO
100
AcDbLine
 62
7
  6
CONTINUOUS
 10
-0.0013357048
 20
-43.9078865862
 11
-0.0013357048
 21
-44.2536058567
  0
LINE
  5
35F
100
AcDbEntity
  8
RACCORDO
100
AcDbLine
 62
7
  6
CONTINUOUS
 10
-0.0013357048
 20
-45.7536058567
 11
-0.0013357048
 21
-49.3033773646
  0
LINE
  5
360
100
AcDbEntity
  8
RACCORDO
100
AcDbLine
 62
7
  6
CONTINUOUS
 10
0.6764788407
 20
-43.9078865862
 11
0.6764788407
 21
-44.2536058567
  0
LINE
  5
361
100
AcDbEntity
  8
RACCORDO
100
AcDbLine
 62
7
  6
CONTINUOUS
 10
0.6764788407
 20
-45.7536058567
 11
0.6764788407
 21
-48.8051131531
  0
LINE
  5
362
100
AcDbEntity
  8
223010000
100
AcDbLine
 62
7
  6
CONTINUOUS
 10
1.5486642952
 20
-18.1481836762
 11
1.5486642952
 21
-14.640515555
  0
LINE
  5
363
100
AcDbEntity
  8
223010000
100
AcDbLine
 62
7
  6
CONTINUOUS
 10
1.5486642952
 20
23.3333038416
 11
1.5486642952
 21
26.8409719628
  0
LINE
  5
364
100
AcDbEntity
  8
RACCORDO
100
AcDbLine
 62
7
  6
CONTINUOUS
 10
1.8986642952
 20
-42.4036058567
 11
1.8986642952
 21
-44.2536058567
  0
LINE
  5
365
100
AcDbEntity
  8
RACCORDO
100
AcDbLine
 62
7
  6
CONTINUOUS
 10
1.8986642952
 20
-45.7536058567
 11
1.8986642952
 21
-48.4300531668
  0
LINE
  5
366
100
AcDbEntity
  8
RACCORDO
100
AcDbLine
 62
253
  6
CONTINUOUS
 10
1.0060280874
 20
-48.3300531668
 11
1.0319927155
 21
-45.7536058567
  0
LINE
  5
367
100
AcDbEntity
  8
RACCORDO
100
AcDbLine
 62
253
  6
CONTINUOUS
 10
1.0471092452
 20
-44.2536058567
 11
1.0657529651
 21
-42.4036058567
  0
LINE
  5
368
100
AcDbEntity
  8
RACCORDO
100
AcDbLine
 62
253
  6
CONTINUOUS
 10
1.2059976265
 20
-48.4300531668
 11
1.2329700232
 21
-45.7536058567
  0
LINE
  5
369
100
AcDbEntity
  8
RACCORDO
100
AcDbLine
 62
253
  6
CONTINUOUS
 10
1.2480865529
 20
-44.2536058567
 11
1.2667302728
 21
-42.4036058567
  0
LINE
  5
36A
100
AcDbEntity
  8
DRAFT
100
AcDbLine
 62
7
  6
CONTINUOUS
 10
16.7724816978
 20
28.3463941433
 11
16.7515356199
 21
28.3254480654
  0
LINE
  5
36B
100
AcDbEntity
  8
DRAFT
100
AcDbLine
 62
7
  6
CONTINUOUS
 10
17.3439339056
 20
28.2416637537
 11
17.4486642952
 21
28.3463941433
  0
LINE
  5
36C
100
AcDbEntity
  8
DRAFT
100
AcDbLine
 62
7
  6
CONTINUOUS
 10
-3.7624284321
 20
-29.6649429237
 11
-3.7013357048
 21
-29.6485731767
  0
LINE
  5
36D
100
AcDbEntity
  8
DRAFT
100
AcDbLine
 62
7
  6
CONTINUOUS
 10
2.8597570224
 20
-25.0422687898
 11
2.7986642952
 21
-25.0586385367
  0
LINE
  5
36E
100
AcDbEntity
  8
DRAFT
100
AcDbLine
 62
7
  6
CONTINUOUS
 10
15.9602740132
 20
-23.1536058567
 11
16.2808166587
 21
-23.1536058567
  0
LINE
  5
36F
100
AcDbEntity
  8
DRAFT
100
AcDbLine
 62
7
  6
CONTINUOUS
 10
-16.8629454229
 20
-23.1536058567
 11
-17.1834880684
 21
-23.1536058567
  0
LINE
  5
370
100
AcDbEntity
  8
DRAFT
100
AcDbLine
 62
7
  6
CONTINUOUS
 10
-18.3391171594
 20
-23.0036058567
 11
-18.2815154451
 21
-23.0036058567
  0
LINE
  5
371
100
AcDbEntity
  8
DRAFT
100
AcDbLine
 62
7
  6
CONTINUOUS
 10
17.4364457497
 20
-23.0036058567
 11
17.3788440355
 21
-23.0036058567
  0
LINE
  5
372
100
AcDbEntity
  8
DRAFT
100
AcDbLine
 62
7
  6
CONTINUOUS
 10
16.1917958276
 20
-23.0036058567
 11
16.2493975418
 21
-23.0036058567
  0
LINE
  5
373
100
AcDbEntity
  8
DRAFT
100
AcDbLine
 62
7
  6
CONTINUOUS
 10
-17.0944672372
 20
-23.0036058567
 11
-17.1520689515
 21
-23.0036058567
  0
LINE
  5
374
100
AcDbEntity
  8
0
100
AcDbLine
 62
7
  6
CONTINUOUS
 10
16.2808166587
 20
-22.9536058567
 11
16.6808166587
 21
-22.9536058567
  0
LINE
  5
375
100
AcDbEntity
  8
0
100
AcDbLine
 62
7
  6
CONTINUOUS
 10
-17.1834880684
 20
-22.9536058567
 11
-17.5834880684
 21
-22.9536058567
  0
LINE
  5
376
100
AcDbEntity
  8
RACCORDO
100
AcDbLine
 62
253
  6
CONTINUOUS
 10
-18.2500963282
 20
-20.7536058567
 11
-17.1834880684
 21
-20.7536058567
  0
LINE
  5
377
100
AcDbEntity
  8
RACCORDO
100
AcDbLine
 62
253
  6
CONTINUOUS
 10
16.2808166587
 20
-20.7536058567
 11
17.3474249186
 21
-20.7536058567
  0
LINE
  5
378
100
AcDbEntity
  8
RACCORDO
100
AcDbLine
 62
7
  6
CONTINUOUS
 10
16.2633615938
 20
-19.7536058567
 11
17.4486642952
 21
-19.7536058567
  0
LINE
  5
379
100
AcDbEntity
  8
RACCORDO
100
AcDbLine
 62
7
  6
CONTINUOUS
 10
-17.1660330034
 20
-19.7536058567
 11
-18.3513357048
 21
-19.7536058567
  0
LINE
  5
37A
100
AcDbEntity
  8
DRAFT
100
AcDbLine
 62
7
  6
CONTINUOUS
 10
-18.3513357048
 20
-19.6536058567
 11
-17.6751531074
 21
-19.6536058567
  0
LINE
  5
37B
100
AcDbEntity
  8
DRAFT
100
AcDbLine
 62
7
  6
CONTINUOUS
 10
17.4486642952
 20
-19.6536058567
 11
16.7724816978
 21
-19.6536058567
  0
LINE
  5
37C
100
AcDbEntity
  8
DRAFT
100
AcDbLine
 62
7
  6
CONTINUOUS
 10
16.037065438
 20
-19.6326597788
 11
16.7515356199
 21
-19.6326597788
  0
LINE
  5
37D
100
AcDbEntity
  8
DRAFT
100
AcDbLine
 62
7
  6
CONTINUOUS
 10
-16.9397368477
 20
-19.6326597788
 11
-17.6542070295
 21
-19.6326597788
  0
LINE
  5
37E
100
AcDbEntity
  8
DRAFT
100
AcDbLine
 62
7
  6
CONTINUOUS
 10
-18.2466053153
 20
-19.5488754671
 11
-16.9397368477
 21
-19.5488754671
  0
LINE
  5
37F
100
AcDbEntity
  8
DRAFT
100
AcDbLine
 62
7
  6
CONTINUOUS
 10
17.3439339056
 20
-19.5488754671
 11
16.037065438
 21
-19.5488754671
  0
LINE
  5
380
100
AcDbEntity
  8
223010000
100
AcDbLine
 62
7
  6
CONTINUOUS
 10
-3.9513357048
 20
-20.3925177822
 11
3.0486642952
 21
-20.4536058567
  0
LINE
  5
381
100
AcDbEntity
  8
223010000
100
AcDbLine
 62
253
  6
CONTINUOUS
 10
-3.9513357048
 20
-19.3925558591
 11
3.0486642952
 21
-19.4536439336
  0
LINE
  5
382
100
AcDbEntity
  8
DRAFT
100
AcDbLine
 62
7
  6
CONTINUOUS
 10
2.6986642952
 20
-32.3536058567
 11
2.7841942675
 21
-37.2536146886
  0
LINE
  5
383
100
AcDbEntity
  8
0
100
AcDbLine
 62
7
  6
CONTINUOUS
 10
2.6986642952
 20
-37.2536058567
 11
2.6986642952
 21
-20.4536058567
  0
LINE
  5
384
100
AcDbEntity
  8
DRAFT
100
AcDbLine
 62
7
  6
CONTINUOUS
 10
2.7847002432
 20
-44.2536058567
 11
2.7847002432
 21
-42.0536058567
  0
LINE
  5
385
100
AcDbEntity
  8
DRAFT
100
AcDbLine
 62
7
  6
CONTINUOUS
 10
2.7847002432
 20
-37.2536058567
 11
2.7847002432
 21
-20.4513022773
  0
LINE
  5
386
100
AcDbEntity
  8
DRAFT
100
AcDbLine
 62
7
  6
CONTINUOUS
 10
2.7986642952
 20
-29.6485731767
 11
2.7986642952
 21
-25.0586385367
  0
LINE
  5
387
100
AcDbEntity
  8
DRAFT
100
AcDbLine
 62
7
  6
CONTINUOUS
 10
2.8108828406
 20
-42.0536058567
 11
2.8108828406
 21
-37.2536058567
  0
LINE
  5
388
100
AcDbEntity
  8
DRAFT
100
AcDbLine
 62
7
  6
CONTINUOUS
 10
2.8597570224
 20
-44.2536058567
 11
2.8597570224
 21
-29.6649429237
  0
LINE
  5
389
100
AcDbEntity
  8
DRAFT
100
AcDbLine
 62
7
  6
CONTINUOUS
 10
2.8597570224
 20
-25.0422687898
 11
2.8597570224
 21
-20.4519572879
  0
LINE
  5
38A
100
AcDbEntity
  8
223010000
100
AcDbLine
 62
253
  6
CONTINUOUS
 10
3.0486642952
 20
23.3463941433
 11
3.0486642952
 21
21.5739533797
  0
LINE
  5
38B
100
AcDbEntity
  8
223010000
100
AcDbLine
 62
7
  6
CONTINUOUS
 10
3.0486642951
 20
13.8098710946
 11
3.0486642951
 21
-5.117082808
  0
LINE
  5
38C
100
AcDbEntity
  8
223010000
100
AcDbLine
 62
253
  6
CONTINUOUS
 10
3.0486642952
 20
-12.8811650931
 11
3.0486642952
 21
-14.6536058567
  0
LINE
  5
38D
100
AcDbEntity
  8
223010000
100
AcDbLine
 62
7
  6
CONTINUOUS
 10
3.0486642952
 20
-20.4536058567
 11
3.0486642952
 21
-14.6536058567
  0
LINE
  5
38E
100
AcDbEntity
  8
223010000
100
AcDbLine
 62
7
  6
CONTINUOUS
 10
3.0486642952
 20
-12.8811650931
 11
3.0486642952
 21
-6.0260479219
  0
LINE
  5
38F
100
AcDbEntity
  8
223010000
100
AcDbLine
 62
7
  6
CONTINUOUS
 10
3.0486642952
 20
14.7188362085
 11
3.0486642952
 21
21.5739533797
  0
LINE
  5
390
100
AcDbEntity
  8
223010000
100
AcDbLine
 62
7
  6
CONTINUOUS
 10
3.0486642952
 20
23.3463941433
 11
3.0486642952
 21
29.1463941433
  0
LINE
  5
391
100
AcDbEntity
  8
0
100
AcDbLine
 62
7
  6
CONTINUOUS
 10
3.1986642952
 20
-16.9036058567
 11
3.1986642952
 21
-39.3536058567
  0
LINE
  5
392
100
AcDbEntity
  8
RACCORDO
100
AcDbLine
 62
7
  6
CONTINUOUS
 10
3.873607516
 20
-14.6435267725
 11
3.873607516
 21
-16.9036058567
  0
LINE
  5
393
100
AcDbEntity
  8
RACCORDO
100
AcDbLine
 62
7
  6
CONTINUOUS
 10
3.873607516
 20
-39.3536058567
 11
3.873607516
 21
-45.1786252299
  0
LINE
  5
394
100
AcDbEntity
  8
RACCORDO
100
AcDbLine
 62
7
  6
CONTINUOUS
 10
3.9486642952
 20
-14.6426097353
 11
3.9486642952
 21
-16.9036058567
  0
LINE
  5
395
100
AcDbEntity
  8
RACCORDO
100
AcDbLine
 62
7
  6
CONTINUOUS
 10
3.9486642952
 20
-39.3536058567
 11
3.9486642952
 21
-45.2536820091
  0
LINE
  5
396
100
AcDbEntity
  8
DRAFT
100
AcDbLine
 62
7
  6
CONTINUOUS
 10
4.0486642952
 20
-16.9036058567
 11
4.0486642952
 21
-16.0346253049
  0
LINE
  5
397
100
AcDbEntity
  8
SMUSSO
100
AcDbLine
 62
7
  6
CONTINUOUS
 10
4.0486642952
 20
-16.0346253049
 11
4.0486642952
 21
-14.6413879441
  0
LINE
  5
398
100
AcDbEntity
  8
0
100
AcDbLine
 62
7
  6
CONTINUOUS
 10
4.0486642952
 20
-39.3536058567
 11
4.0486642952
 21
-49.6536058567
  0
LINE
  5
399
100
AcDbEntity
  8
0
100
AcDbLine
 62
7
  6
CONTINUOUS
 10
5.0486642952
 20
-49.1536058567
 11
5.0486642952
 21
-42.2536058567
  0
LINE
  5
39A
100
AcDbEntity
  8
ASSI
100
AcDbLine
 62
7
  6
CONTINUOUS
 10
5.0486642952
 20
50.9463941433
 11
5.0486642952
 21
57.8463941433
  0
LINE
  5
39B
100
AcDbEntity
  8
RACCORDO
100
AcDbLine
 62
7
  6
CONTINUOUS
 10
1.6815901795
 20
-49.0050826922
 11
1.6779283683
 21
-49.4246527424
  0
LINE
  5
39C
100
AcDbEntity
  8
SMUSSO
100
AcDbLine
 62
7
  6
CONTINUOUS
 10
2.0768718567
 20
-48.8829111945
 11
2.070145594
 21
-49.6536058567
  0
LINE
  5
39D
100
AcDbEntity
  8
223010000
100
AcDbLine
 62
7
  6
CONTINUOUS
 10
16.5486642952
 20
-14.4886640358
 11
3.0486642952
 21
-14.6536058567
  0
LINE
  5
39E
100
AcDbEntity
  8
0
100
AcDbLine
 62
7
  6
CONTINUOUS
 10
-4.9513357048
 20
-16.9036058567
 11
-4.1013357048
 21
-16.9036058567
  0
LINE
  5
39F
100
AcDbEntity
  8
0
100
AcDbLine
 62
7
  6
CONTINUOUS
 10
3.1986642952
 20
-16.9036058567
 11
4.0486642952
 21
-16.9036058567
  0
LINE
  5
3A0
100
AcDbEntity
  8
DRAFT
100
AcDbLine
 62
7
  6
CONTINUOUS
 10
17.3439339056
 20
-16.2180525324
 11
4.0486642952
 21
-16.2180525324
  0
LINE
  5
3A1
100
AcDbEntity
  8
DRAFT
100
AcDbLine
 62
7
  6
CONTINUOUS
 10
-4.9513357048
 20
-16.2180525324
 11
-18.2466053153
 21
-16.2180525324
  0
LINE
  5
3A2
100
AcDbEntity
  8
DRAFT
100
AcDbLine
 62
7
  6
CONTINUOUS
 10
17.4050266329
 20
-16.0346253049
 11
4.0486642952
 21
-16.0346253049
  0
LINE
  5
3A3
100
AcDbEntity
  8
DRAFT
100
AcDbLine
 62
7
  6
CONTINUOUS
 10
-4.9513357048
 20
-16.0346253049
 11
-18.3076980425
 21
-16.0346253049
  0
LINE
  5
3A4
100
AcDbEntity
  8
SMUSSO
100
AcDbLine
 62
7
  6
CONTINUOUS
 10
-18.3076980425
 20
-14.2346253049
 11
-17.4513357048
 21
-14.2346253049
  0
LINE
  5
3A5
100
AcDbEntity
  8
SMUSSO
100
AcDbLine
 62
7
  6
CONTINUOUS
 10
16.5486642952
 20
-14.2346253049
 11
17.4050266329
 21
-14.2346253049
  0
LINE
  5
3A6
100
AcDbEntity
  8
223010000
100
AcDbLine
 62
7
  6
CONTINUOUS
 10
3.0486642952
 20
-18.1536058567
 11
1.5486642952
 21
-18.1481836762
  0
LINE
  5
3A7
100
AcDbEntity
  8
223010000
100
AcDbLine
 62
253
  6
CONTINUOUS
 10
1.5486642952
 20
-14.9405041319
 11
-3.9513357048
 21
-14.8925063591
  0
LINE
  5
3A8
100
AcDbEntity
  8
223010000
100
AcDbLine
 62
7
  6
CONTINUOUS
 10
3.0486642952
 20
-14.6536058567
 11
-17.4513357048
 21
-14.474705067
  0
LINE
  5
3A9
100
AcDbEntity
  8
DRAFT
100
AcDbLine
 62
7
  6
CONTINUOUS
 10
16.7724816978
 20
-19.6536058567
 11
16.7515356199
 21
-19.6326597788
  0
LINE
  5
3AA
100
AcDbEntity
  8
DRAFT
100
AcDbLine
 62
7
  6
CONTINUOUS
 10
17.3439339056
 20
-19.5488754671
 11
17.4486642952
 21
-19.6536058567
  0
LINE
  5
3AB
100
AcDbEntity
  8
RACCORDO
100
AcDbLine
 62
7
  6
CONTINUOUS
 10
0.6924125965
 20
-42.9116918881
 11
0.7937820118
 21
-42.4036058567
  0
LINE
  5
3AC
100
AcDbEntity
  8
DRAFT
100
AcDbLine
 62
7
  6
CONTINUOUS
 10
-18.2466053153
 20
-19.5488754671
 11
-18.3513357048
 21
-19.6536058567
  0
LINE
  5
3AD
100
AcDbEntity
  8
DRAFT
100
AcDbLine
 62
7
  6
CONTINUOUS
 10
-17.6751531074
 20
-19.6536058567
 11
-17.6542070295
 21
-19.6326597788
  0
LINE
  5
3AE
100
AcDbEntity
  8
223010000
100
AcDbLine
 62
7
  6
CONTINUOUS
 10
3.0486642952
 20
-11.6536058567
 11
-17.4513357048
 21
-11.8325066464
  0
LINE
  5
3AF
100
AcDbEntity
  8
223010000
100
AcDbLine
 62
7
  6
CONTINUOUS
 10
3.0486642952
 20
-10.6536058567
 11
-17.4513357048
 21
-10.8325066464
  0
LINE
  5
3B0
100
AcDbEntity
  8
223010000
100
AcDbLine
 62
253
  6
CONTINUOUS
 10
3.0486642952
 20
-12.8811650931
 11
-17.4513357048
 21
-13.0367612953
  0
LINE
  5
3B1
100
AcDbEntity
  8
223010000
100
AcDbLine
 62
253
  6
CONTINUOUS
 10
3.0486642952
 20
-11.6926854845
 11
-17.4513357048
 21
-11.8482816866
  0
LINE
  5
3B2
100
AcDbEntity
  8
SMUSSO
100
AcDbLine
 62
7
  6
CONTINUOUS
 10
-18.32059235
 20
-13.4959109247
 11
-17.4513357048
 21
-13.4959109247
  0
LINE
  5
3B3
100
AcDbEntity
  8
SMUSSO
100
AcDbLine
 62
7
  6
CONTINUOUS
 10
16.5486642952
 20
-13.4959109247
 11
17.4179209403
 21
-13.4959109247
  0
LINE
  5
3B4
100
AcDbEntity
  8
DRAFT
100
AcDbLine
 62
7
  6
CONTINUOUS
 10
17.4486642952
 20
-13.4036058567
 11
16.5486642952
 21
-13.4036058567
  0
LINE
  5
3B5
100
AcDbEntity
  8
DRAFT
100
AcDbLine
 62
7
  6
CONTINUOUS
 10
-17.4513357048
 20
-13.4036058567
 11
-18.3513357048
 21
-13.4036058567
  0
LINE
  5
3B6
100
AcDbEntity
  8
223010000
100
AcDbLine
 62
253
  6
CONTINUOUS
 10
16.5486642952
 20
-10.9536058567
 11
-17.4513357048
 21
-10.9536058567
  0
LINE
  5
3B7
100
AcDbEntity
  8
223010000
100
AcDbLine
 62
253
  6
CONTINUOUS
 10
16.5486642952
 20
-13.0246206975
 11
3.0486642952
 21
-12.8811650931
  0
LINE
  5
3B8
100
AcDbEntity
  8
223010000
100
AcDbLine
 62
253
  6
CONTINUOUS
 10
16.5486642952
 20
-11.8361410889
 11
3.0486642952
 21
-11.6926854845
  0
LINE
  5
3B9
100
AcDbEntity
  8
223010000
100
AcDbLine
 62
7
  6
CONTINUOUS
 10
16.5486642952
 20
-11.8185476777
 11
3.0486642952
 21
-11.6536058567
  0
LINE
  5
3BA
100
AcDbEntity
  8
223010000
100
AcDbLine
 62
7
  6
CONTINUOUS
 10
16.5486642952
 20
-10.8185476777
 11
3.0486642952
 21
-10.6536058567
  0
LINE
  5
3BB
100
AcDbEntity
  8
DRAFT
100
AcDbLine
 62
7
  6
CONTINUOUS
 10
12.2637541653
 20
-40.4036058567
 11
12.2637541653
 21
-42.2536058567
  0
LINE
  5
3BC
100
AcDbEntity
  8
DRAFT
100
AcDbLine
 62
7
  6
CONTINUOUS
 10
12.2986642952
 20
-40.4036058567
 11
12.2986642952
 21
-42.2536058567
  0
LINE
  5
3BD
100
AcDbEntity
  8
0
100
AcDbLine
 62
7
  6
CONTINUOUS
 10
13.7936642952
 20
-49.1536058567
 11
13.7936642952
 21
-42.8536058567
  0
LINE
  5
3BE
100
AcDbEntity
  8
DRAFT
100
AcDbLine
 62
7
  6
CONTINUOUS
 10
15.9602740132
 20
-23.1536058567
 11
15.9602631523
 21
-28.1536058567
  0
LINE
  5
3BF
100
AcDbEntity
  8
DRAFT
100
AcDbLine
 62
7
  6
CONTINUOUS
 10
15.9602740132
 20
31.8463941433
 11
15.9602631523
 21
36.8463941433
  0
LINE
  5
3C0
100
AcDbEntity
  8
DRAFT
100
AcDbLine
 62
7
  6
CONTINUOUS
 10
15.9936642952
 20
-42.1735745857
 11
15.9936642952
 21
-49.1536058567
  0
LINE
  5
3C1
100
AcDbEntity
  8
DRAFT
100
AcDbLine
 62
7
  6
CONTINUOUS
 10
16.037065438
 20
31.8463941433
 11
16.037065438
 21
28.2416637537
  0
LINE
  5
3C2
100
AcDbEntity
  8
DRAFT
100
AcDbLine
 62
7
  6
CONTINUOUS
 10
16.037065438
 20
-19.5488754671
 11
16.037065438
 21
-23.1536058567
  0
LINE
  5
3C3
100
AcDbEntity
  8
DRAFT
100
AcDbLine
 62
7
  6
CONTINUOUS
 10
16.037065438
 20
-28.1536058567
 11
16.037065438
 21
-31.7583362463
  0
LINE
  5
3C4
100
AcDbEntity
  8
DRAFT
100
AcDbLine
 62
7
  6
CONTINUOUS
 10
16.037065438
 20
36.8463941433
 11
16.037065438
 21
40.4511245329
  0
LINE
  5
3C5
100
AcDbEntity
  8
DRAFT
100
AcDbLine
 62
7
  6
CONTINUOUS
 10
16.1917958276
 20
-28.3036058567
 11
16.1917958276
 21
-28.1536058567
  0
LINE
  5
3C6
100
AcDbEntity
  8
DRAFT
100
AcDbLine
 62
7
  6
CONTINUOUS
 10
16.1917958276
 20
-23.1536058567
 11
16.1917958276
 21
-23.0036058567
  0
LINE
  5
3C7
100
AcDbEntity
  8
DRAFT
100
AcDbLine
 62
7
  6
CONTINUOUS
 10
16.1917958276
 20
31.6963941433
 11
16.1917958276
 21
31.8463941433
  0
LINE
  5
3C8
100
AcDbEntity
  8
DRAFT
100
AcDbLine
 62
7
  6
CONTINUOUS
 10
16.1917958276
 20
36.8463941433
 11
16.1917958276
 21
36.9963941433
  0
LINE
  5
3C9
100
AcDbEntity
  8
DRAFT
100
AcDbLine
 62
7
  6
CONTINUOUS
 10
16.1970323471
 20
40.3725767407
 11
16.1970323471
 21
40.2463941433
  0
LINE
  5
3CA
100
AcDbEntity
  8
DRAFT
100
AcDbLine
 62
7
  6
CONTINUOUS
 10
16.1970323471
 20
28.4463941433
 11
16.1970323471
 21
28.3254480654
  0
LINE
  5
3CB
100
AcDbEntity
  8
DRAFT
100
AcDbLine
 62
7
  6
CONTINUOUS
 10
16.1970323471
 20
-19.6326597788
 11
16.1970323471
 21
-19.7536058567
  0
LINE
  5
3CC
100
AcDbEntity
  8
DRAFT
100
AcDbLine
 62
7
  6
CONTINUOUS
 10
16.1970323471
 20
-31.5536058567
 11
16.1970323471
 21
-31.6797884541
  0
LINE
  5
3CD
100
AcDbEntity
  8
0
100
AcDbLine
 62
7
  6
CONTINUOUS
 10
16.2683464216
 20
37.0463941433
 11
16.2683464216
 21
31.6463941433
  0
LINE
  5
3CE
100
AcDbEntity
  8
0
100
AcDbLine
 62
7
  6
CONTINUOUS
 10
16.2683464216
 20
-28.3536058567
 11
16.2683464216
 21
-22.9536058567
  0
LINE
  5
3CF
100
AcDbEntity
  8
RACCORDO
100
AcDbLine
 62
7
  6
CONTINUOUS
 10
16.2808166587
 20
-30.5536058567
 11
16.2808166587
 21
-28.3536058567
  0
LINE
  5
3D0
100
AcDbEntity
  8
RACCORDO
100
AcDbLine
 62
7
  6
CONTINUOUS
 10
16.2808166587
 20
-22.9536058567
 11
16.2808166587
 21
-20.7536058567
  0
LINE
  5
3D1
100
AcDbEntity
  8
RACCORDO
100
AcDbLine
 62
7
  6
CONTINUOUS
 10
16.2808166587
 20
29.4463941433
 11
16.2808166587
 21
31.6463941433
  0
LINE
  5
3D2
100
AcDbEntity
  8
RACCORDO
100
AcDbLine
 62
7
  6
CONTINUOUS
 10
16.2808166587
 20
37.0463941433
 11
16.2808166587
 21
39.2463941433
  0
LINE
  5
3D3
100
AcDbEntity
  8
DRAFT
100
AcDbLine
 62
7
  6
CONTINUOUS
 10
-3.7624284321
 20
-25.0422687898
 11
-4.1013357048
 21
-25.6292734052
  0
LINE
  5
3D4
100
AcDbEntity
  8
DRAFT
100
AcDbLine
 62
7
  6
CONTINUOUS
 10
-3.7013357048
 20
-25.0586385367
 11
-4.1013357048
 21
-25.7514588597
  0
LINE
  5
3D5
100
AcDbEntity
  8
DRAFT
100
AcDbLine
 62
7
  6
CONTINUOUS
 10
-18.2466053153
 20
28.2416637537
 11
-18.3513357048
 21
28.3463941433
  0
LINE
  5
3D6
100
AcDbEntity
  8
DRAFT
100
AcDbLine
 62
7
  6
CONTINUOUS
 10
-17.6751531074
 20
28.3463941433
 11
-17.6542070295
 21
28.3254480654
  0
LINE
  5
3D7
100
AcDbEntity
  8
223010000
100
AcDbLine
 62
7
  6
CONTINUOUS
 10
16.5486642952
 20
-14.4886640358
 11
16.5486642952
 21
23.1814523223
  0
LINE
  5
3D8
100
AcDbEntity
  8
DRAFT
100
AcDbLine
 62
7
  6
CONTINUOUS
 10
16.670116503
 20
40.3463941433
 11
16.670116503
 21
40.2463941433
  0
LINE
  5
3D9
100
AcDbEntity
  8
DRAFT
100
AcDbLine
 62
7
  6
CONTINUOUS
 10
16.670116503
 20
28.4463941433
 11
16.670116503
 21
28.3463941433
  0
LINE
  5
3DA
100
AcDbEntity
  8
DRAFT
100
AcDbLine
 62
7
  6
CONTINUOUS
 10
16.670116503
 20
-19.6326597788
 11
16.670116503
 21
-19.7536058567
  0
LINE
  5
3DB
100
AcDbEntity
  8
DRAFT
100
AcDbLine
 62
7
  6
CONTINUOUS
 10
16.670116503
 20
-31.5536058567
 11
16.670116503
 21
-31.6536058567
  0
LINE
  5
3DC
100
AcDbEntity
  8
0
100
AcDbLine
 62
7
  6
CONTINUOUS
 10
16.6808166587
 20
37.0463941433
 11
16.6808166587
 21
31.6463941433
  0
LINE
  5
3DD
100
AcDbEntity
  8
0
100
AcDbLine
 62
7
  6
CONTINUOUS
 10
16.6808166587
 20
-28.3536058567
 11
16.6808166587
 21
-22.9536058567
  0
LINE
  5
3DE
100
AcDbEntity
  8
RACCORDO
100
AcDbLine
 62
7
  6
CONTINUOUS
 10
17.3439339056
 20
-49.449027772
 11
17.3439339056
 21
-31.7583362463
  0
LINE
  5
3DF
100
AcDbEntity
  8
DRAFT
100
AcDbLine
 62
7
  6
CONTINUOUS
 10
17.3439339056
 20
-19.5488754671
 11
17.3439339056
 21
-16.2180525324
  0
LINE
  5
3E0
100
AcDbEntity
  8
DRAFT
100
AcDbLine
 62
7
  6
CONTINUOUS
 10
17.3439339056
 20
22.410840819
 11
17.3439339056
 21
28.2416637537
  0
LINE
  5
3E1
100
AcDbEntity
  8
RACCORDO
100
AcDbLine
 62
7
  6
CONTINUOUS
 10
17.3439339056
 20
40.4511245329
 11
17.3439339056
 21
58.1418160586
  0
LINE
  5
3E2
100
AcDbEntity
  8
RACCORDO
100
AcDbLine
 62
7
  6
CONTINUOUS
 10
17.3474249186
 20
-30.5536058567
 11
17.3474249186
 21
-20.7536058567
  0
LINE
  5
3E3
100
AcDbEntity
  8
RACCORDO
100
AcDbLine
 62
7
  6
CONTINUOUS
 10
17.3474249186
 20
29.4463941433
 11
17.3474249186
 21
39.2463941433
  0
LINE
  5
3E4
100
AcDbEntity
  8
SMUSSO
100
AcDbLine
 62
7
  6
CONTINUOUS
 10
17.4050266329
 20
-14.2346253049
 11
17.4050266329
 21
-16.0346253049
  0
LINE
  5
3E5
100
AcDbEntity
  8
DRAFT
100
AcDbLine
 62
7
  6
CONTINUOUS
 10
17.4364457497
 20
-28.3036058567
 11
17.4364457497
 21
-23.0036058567
  0
LINE
  5
3E6
100
AcDbEntity
  8
DRAFT
100
AcDbLine
 62
7
  6
CONTINUOUS
 10
17.4364457497
 20
31.6963941433
 11
17.4364457497
 21
36.9963941433
  0
LINE
  5
3E7
100
AcDbEntity
  8
RACCORDO
100
AcDbLine
 62
7
  6
CONTINUOUS
 10
17.4486642952
 20
-49.5537581616
 11
17.4486642952
 21
-31.5536058567
  0
LINE
  5
3E8
100
AcDbEntity
  8
DRAFT
100
AcDbLine
 62
7
  6
CONTINUOUS
 10
17.4486642952
 20
-31.5536058567
 11
17.4486642952
 21
-28.1536058567
  0
LINE
  5
3E9
100
AcDbEntity
  8
DRAFT
100
AcDbLine
 62
7
  6
CONTINUOUS
 10
17.4486642952
 20
-23.1536058567
 11
17.4486642952
 21
-16.9598161791
  0
LINE
  5
3EA
100
AcDbEntity
  8
DRAFT
100
AcDbLine
 62
7
  6
CONTINUOUS
 10
17.4486642952
 20
-13.4036058567
 11
17.4486642952
 21
31.8463941433
  0
LINE
  5
3EB
100
AcDbEntity
  8
DRAFT
100
AcDbLine
 62
7
  6
CONTINUOUS
 10
17.4486642952
 20
36.8463941433
 11
17.4486642952
 21
40.2463941433
  0
LINE
  5
3EC
100
AcDbEntity
  8
RACCORDO
100
AcDbLine
 62
7
  6
CONTINUOUS
 10
17.4486642952
 20
40.2463941433
 11
17.4486642952
 21
58.2465464481
  0
LINE
  5
3ED
100
AcDbEntity
  8
SMUSSO
100
AcDbLine
 62
7
  6
CONTINUOUS
 10
17.4179209403
 20
-13.4959109247
 11
17.4050266329
 21
-14.2346253049
  0
LINE
  5
3EE
100
AcDbEntity
  8
DRAFT
100
AcDbLine
 62
7
  6
CONTINUOUS
 10
2.7986642952
 20
-29.6485731767
 11
3.1986642952
 21
-28.9557528537
  0
LINE
  5
3EF
100
AcDbEntity
  8
DRAFT
100
AcDbLine
 62
7
  6
CONTINUOUS
 10
2.8597570224
 20
-29.6649429237
 11
3.1986642952
 21
-29.0779383082
  0
LINE
  5
3F0
100
AcDbEntity
  8
SMUSSO
100
AcDbLine
 62
7
  6
CONTINUOUS
 10
17.4179209403
 20
-13.4959109247
 11
17.4486642952
 21
-13.4036058567
  0
LINE
  5
3F1
100
AcDbEntity
  8
DRAFT
100
AcDbLine
 62
7
  6
CONTINUOUS
 10
17.3439339056
 20
-16.2180525324
 11
17.4050266329
 21
-16.0346253049
  0
LINE
  5
3F2
100
AcDbEntity
  8
DRAFT
100
AcDbLine
 62
7
  6
CONTINUOUS
 10
17.4486642952
 20
22.0963941433
 11
17.3439339056
 21
22.410840819
  0
LINE
  5
3F3
100
AcDbEntity
  8
RACCORDO
100
AcDbLine
 62
253
  6
CONTINUOUS
 10
-18.3513357048
 20
-49.5537581616
 11
-18.2466053153
 21
-49.449027772
  0
LINE
  5
3F4
100
AcDbEntity
  8
RACCORDO
100
AcDbLine
 62
253
  6
CONTINUOUS
 10
-17.3514880097
 20
-50.5536058567
 11
-17.2467576201
 21
-50.4488754671
  0
LINE
  5
3F5
100
AcDbEntity
  8
DRAFT
100
AcDbLine
 62
7
  6
CONTINUOUS
 10
-17.0037008996
 20
-50.5536058567
 11
-16.9513357048
 21
-50.5012406619
  0
LINE
  5
3F6
100
AcDbEntity
  8
RACCORDO
100
AcDbLine
 62
253
  6
CONTINUOUS
 10
-4.8513357048
 20
-45.2536820091
 11
-4.7762789256
 21
-45.1786252299
  0
LINE
  5
3F7
100
AcDbEntity
  8
RACCORDO
100
AcDbLine
 62
253
  6
CONTINUOUS
 10
-4.3514118572
 20
-45.7536058567
 11
-4.2763550781
 21
-45.6785490775
  0
LINE
  5
3F8
100
AcDbEntity
  8
RACCORDO
100
AcDbLine
 62
253
  6
CONTINUOUS
 10
-18.2466053153
 20
58.1418160586
 11
-18.3513357048
 21
58.2465464481
  0
LINE
  5
3F9
100
AcDbEntity
  8
DRAFT
100
AcDbLine
 62
7
  6
CONTINUOUS
 10
16.7724816978
 20
-31.6536058567
 11
16.7462991004
 21
-31.6797884541
  0
LINE
  5
3FA
100
AcDbEntity
  8
223010000
100
AcDbLine
 62
7
  6
CONTINUOUS
 10
16.5486642952
 20
19.5113359642
 11
3.0486642952
 21
19.3463941433
  0
LINE
  5
3FB
100
AcDbEntity
  8
223010000
100
AcDbLine
 62
253
  6
CONTINUOUS
 10
16.5486642952
 20
19.6463941433
 11
-17.4513357048
 21
19.6463941433
  0
LINE
  5
3FC
100
AcDbEntity
  8
223010000
100
AcDbLine
 62
7
  6
CONTINUOUS
 10
3.0486642952
 20
19.3463941433
 11
-17.4513357048
 21
19.525294933
  0
LINE
  5
3FD
100
AcDbEntity
  8
RACCORDO
100
AcDbLine
 62
253
  6
CONTINUOUS
 10
-17.2467576201
 20
59.1416637537
 11
-17.3514880097
 21
59.2463941433
  0
LINE
  5
3FE
100
AcDbEntity
  8
DRAFT
100
AcDbLine
 62
7
  6
CONTINUOUS
 10
17.3439339056
 20
-31.7583362463
 11
17.4486642952
 21
-31.6536058567
  0
LINE
  5
3FF
100
AcDbEntity
  8
RACCORDO
100
AcDbLine
 62
253
  6
CONTINUOUS
 10
0.6764788407
 20
-48.8051131531
 11
1.0015845184
 21
-48.4800074754
  0
LINE
  5
400
100
AcDbEntity
  8
RACCORDO
100
AcDbLine
 62
253
  6
CONTINUOUS
 10
0.8764483797
 20
-49.0050826922
 11
1.2015540574
 21
-48.6799770144
  0
LINE
  5
401
100
AcDbEntity
  8
223010000
100
AcDbLine
 62
7
  6
CONTINUOUS
 10
16.5486642952
 20
20.5113359642
 11
3.0486642952
 21
20.3463941433
  0
LINE
  5
402
100
AcDbEntity
  8
223010000
100
AcDbLine
 62
253
  6
CONTINUOUS
 10
16.5486642952
 20
20.5289293754
 11
3.0486642952
 21
20.3854737711
  0
LINE
  5
403
100
AcDbEntity
  8
223010000
100
AcDbLine
 62
253
  6
CONTINUOUS
 10
16.5486642952
 20
21.7174089841
 11
3.0486642952
 21
21.5739533797
  0
LINE
  5
404
100
AcDbEntity
  8
223010000
100
AcDbLine
 62
7
  6
CONTINUOUS
 10
3.0486642952
 20
23.3463941433
 11
-17.4513357048
 21
23.1674933536
  0
LINE
  5
405
100
AcDbEntity
  8
223010000
100
AcDbLine
 62
253
  6
CONTINUOUS
 10
-3.9513357048
 20
23.5852946457
 11
1.5486642952
 21
23.6332924185
  0
LINE
  5
406
100
AcDbEntity
  8
DRAFT
100
AcDbLine
 62
7
  6
CONTINUOUS
 10
17.4486642952
 20
22.0963941433
 11
16.5486642952
 21
22.0963941433
  0
LINE
  5
407
100
AcDbEntity
  8
DRAFT
100
AcDbLine
 62
7
  6
CONTINUOUS
 10
-17.4513357048
 20
22.0963941433
 11
-18.3513357048
 21
22.0963941433
  0
LINE
  5
408
100
AcDbEntity
  8
DRAFT
100
AcDbLine
 62
7
  6
CONTINUOUS
 10
17.3439339056
 20
22.410840819
 11
16.5486642952
 21
22.410840819
  0
LINE
  5
409
100
AcDbEntity
  8
DRAFT
100
AcDbLine
 62
7
  6
CONTINUOUS
 10
-17.4513357048
 20
22.410840819
 11
-18.2466053153
 21
22.410840819
  0
LINE
  5
40A
100
AcDbEntity
  8
223010000
100
AcDbLine
 62
253
  6
CONTINUOUS
 10
3.0486642952
 20
20.3854737711
 11
-17.4513357048
 21
20.5410699732
  0
LINE
  5
40B
100
AcDbEntity
  8
223010000
100
AcDbLine
 62
253
  6
CONTINUOUS
 10
3.0486642952
 20
21.5739533797
 11
-17.4513357048
 21
21.7295495819
  0
LINE
  5
40C
100
AcDbEntity
  8
223010000
100
AcDbLine
 62
7
  6
CONTINUOUS
 10
3.0486642952
 20
20.3463941433
 11
-17.4513357048
 21
20.525294933
  0
LINE
  5
40D
100
AcDbEntity
  8
223010000
100
AcDbLine
 62
7
  6
CONTINUOUS
 10
16.5486642952
 20
23.1814523223
 11
3.0486642952
 21
23.3463941433
  0
LINE
  5
40E
100
AcDbEntity
  8
223010000
100
AcDbLine
 62
253
  6
CONTINUOUS
 10
-3.9513357048
 20
28.0853441457
 11
3.0486642952
 21
28.1464322202
  0
LINE
  5
40F
100
AcDbEntity
  8
223010000
100
AcDbLine
 62
7
  6
CONTINUOUS
 10
-3.9513357048
 20
29.0853060688
 11
3.0486642952
 21
29.1463941433
  0
LINE
  5
410
100
AcDbEntity
  8
223010000
100
AcDbLine
 62
7
  6
CONTINUOUS
 10
3.0486642952
 20
26.8463941433
 11
1.5486642952
 21
26.8409719628
  0
LINE
  5
411
100
AcDbEntity
  8
DRAFT
100
AcDbLine
 62
7
  6
CONTINUOUS
 10
-18.2466053153
 20
28.2416637537
 11
-16.9397368477
 21
28.2416637537
  0
LINE
  5
412
100
AcDbEntity
  8
DRAFT
100
AcDbLine
 62
7
  6
CONTINUOUS
 10
17.3439339056
 20
28.2416637537
 11
16.037065438
 21
28.2416637537
  0
LINE
  5
413
100
AcDbEntity
  8
DRAFT
100
AcDbLine
 62
7
  6
CONTINUOUS
 10
16.037065438
 20
28.3254480654
 11
16.7515356199
 21
28.3254480654
  0
LINE
  5
414
100
AcDbEntity
  8
DRAFT
100
AcDbLine
 62
7
  6
CONTINUOUS
 10
-16.9397368477
 20
28.3254480654
 11
-17.6542070295
 21
28.3254480654
  0
LINE
  5
415
100
AcDbEntity
  8
DRAFT
100
AcDbLine
 62
7
  6
CONTINUOUS
 10
-18.3513357048
 20
28.3463941433
 11
-17.6751531074
 21
28.3463941433
  0
LINE
  5
416
100
AcDbEntity
  8
DRAFT
100
AcDbLine
 62
7
  6
CONTINUOUS
 10
17.4486642952
 20
28.3463941433
 11
16.7724816978
 21
28.3463941433
  0
LINE
  5
417
100
AcDbEntity
  8
RACCORDO
100
AcDbLine
 62
7
  6
CONTINUOUS
 10
-18.3513357048
 20
28.4463941433
 11
-17.1660330034
 21
28.4463941433
  0
LINE
  5
418
100
AcDbEntity
  8
RACCORDO
100
AcDbLine
 62
7
  6
CONTINUOUS
 10
16.2633615938
 20
28.4463941433
 11
17.4486642952
 21
28.4463941433
  0
LINE
  5
419
100
AcDbEntity
  8
DRAFT
100
AcDbLine
 62
7
  6
CONTINUOUS
 10
16.7724816978
 20
40.3463941433
 11
16.7462991004
 21
40.3725767407
  0
LINE
  5
41A
100
AcDbEntity
  8
DRAFT
100
AcDbLine
 62
7
  6
CONTINUOUS
 10
17.3439339056
 20
40.4511245329
 11
17.4486642952
 21
40.3463941433
  0
LINE
  5
41B
100
AcDbEntity
  8
RACCORDO
100
AcDbLine
 62
253
  6
CONTINUOUS
 10
-18.2500963282
 20
29.4463941433
 11
-17.1834880684
 21
29.4463941433
  0
LINE
  5
41C
100
AcDbEntity
  8
RACCORDO
100
AcDbLine
 62
253
  6
CONTINUOUS
 10
16.2808166587
 20
29.4463941433
 11
17.3474249186
 21
29.4463941433
  0
LINE
  5
41D
100
AcDbEntity
  8
0
100
AcDbLine
 62
7
  6
CONTINUOUS
 10
16.2808166587
 20
31.6463941433
 11
16.6808166587
 21
31.6463941433
  0
LINE
  5
41E
100
AcDbEntity
  8
0
100
AcDbLine
 62
7
  6
CONTINUOUS
 10
-17.1834880684
 20
31.6463941433
 11
-17.5834880684
 21
31.6463941433
  0
LINE
  5
41F
100
AcDbEntity
  8
DRAFT
100
AcDbLine
 62
7
  6
CONTINUOUS
 10
-17.1520689515
 20
31.6963941433
 11
-17.0944672372
 21
31.6963941433
  0
LINE
  5
420
100
AcDbEntity
  8
DRAFT
100
AcDbLine
 62
7
  6
CONTINUOUS
 10
16.2493975418
 20
31.6963941433
 11
16.1917958276
 21
31.6963941433
  0
LINE
  5
421
100
AcDbEntity
  8
DRAFT
100
AcDbLine
 62
7
  6
CONTINUOUS
 10
17.3788440355
 20
31.6963941433
 11
17.4364457497
 21
31.6963941433
  0
LINE
  5
422
100
AcDbEntity
  8
DRAFT
100
AcDbLine
 62
7
  6
CONTINUOUS
 10
-18.2815154451
 20
31.6963941433
 11
-18.3391171594
 21
31.6963941433
  0
LINE
  5
423
100
AcDbEntity
  8
DRAFT
100
AcDbLine
 62
7
  6
CONTINUOUS
 10
15.9602740132
 20
31.8463941433
 11
16.2808166587
 21
31.8463941433
  0
LINE
  5
424
100
AcDbEntity
  8
DRAFT
100
AcDbLine
 62
7
  6
CONTINUOUS
 10
-16.8629454229
 20
31.8463941433
 11
-17.1834880684
 21
31.8463941433
  0
LINE
  5
425
100
AcDbEntity
  8
DRAFT
100
AcDbLine
 62
7
  6
CONTINUOUS
 10
5.9962991004
 20
59.2463941433
 11
6.0486642952
 21
59.1940289485
  0
LINE
  5
426
100
AcDbEntity
  8
DRAFT
100
AcDbLine
 62
7
  6
CONTINUOUS
 10
15.9602631523
 20
36.8463941433
 11
16.2808166587
 21
36.8463941433
  0
LINE
  5
427
100
AcDbEntity
  8
DRAFT
100
AcDbLine
 62
7
  6
CONTINUOUS
 10
-16.862934562
 20
36.8463941433
 11
-17.1834880684
 21
36.8463941433
  0
LINE
  5
428
100
AcDbEntity
  8
DRAFT
100
AcDbLine
 62
7
  6
CONTINUOUS
 10
-18.3391171594
 20
36.9963941433
 11
-18.2815154451
 21
36.9963941433
  0
LINE
  5
429
100
AcDbEntity
  8
DRAFT
100
AcDbLine
 62
7
  6
CONTINUOUS
 10
17.4364457497
 20
36.9963941433
 11
17.3788440355
 21
36.9963941433
  0
LINE
  5
42A
100
AcDbEntity
  8
DRAFT
100
AcDbLine
 62
7
  6
CONTINUOUS
 10
16.1917958276
 20
36.9963941433
 11
16.2493975418
 21
36.9963941433
  0
LINE
  5
42B
100
AcDbEntity
  8
DRAFT
100
AcDbLine
 62
7
  6
CONTINUOUS
 10
-17.0944672372
 20
36.9963941433
 11
-17.1520689515
 21
36.9963941433
  0
LINE
  5
42C
100
AcDbEntity
  8
0
100
AcDbLine
 62
7
  6
CONTINUOUS
 10
16.2808166587
 20
37.0463941433
 11
16.6808166587
 21
37.0463941433
  0
LINE
  5
42D
100
AcDbEntity
  8
0
100
AcDbLine
 62
7
  6
CONTINUOUS
 10
-17.1834880684
 20
37.0463941433
 11
-17.5834880684
 21
37.0463941433
  0
LINE
  5
42E
100
AcDbEntity
  8
SMUSSO
100
AcDbLine
 62
7
  6
CONTINUOUS
 10
1.6815901795
 20
-49.0050826922
 11
2.0768718567
 21
-48.8829111945
  0
LINE
  5
42F
100
AcDbEntity
  8
RACCORDO
100
AcDbLine
 62
253
  6
CONTINUOUS
 10
-18.2500963282
 20
39.2463941433
 11
-17.1834880684
 21
39.2463941433
  0
LINE
  5
430
100
AcDbEntity
  8
RACCORDO
100
AcDbLine
 62
253
  6
CONTINUOUS
 10
16.2808166587
 20
39.2463941433
 11
17.3474249186
 21
39.2463941433
  0
LINE
  5
431
100
AcDbEntity
  8
RACCORDO
100
AcDbLine
 62
7
  6
CONTINUOUS
 10
16.2633615938
 20
40.2463941433
 11
17.4486642952
 21
40.2463941433
  0
LINE
  5
432
100
AcDbEntity
  8
RACCORDO
100
AcDbLine
 62
7
  6
CONTINUOUS
 10
-17.1660330034
 20
40.2463941433
 11
-18.3513357048
 21
40.2463941433
  0
LINE
  5
433
100
AcDbEntity
  8
DRAFT
100
AcDbLine
 62
7
  6
CONTINUOUS
 10
-18.3513357048
 20
40.3463941433
 11
-17.6751531074
 21
40.3463941433
  0
LINE
  5
434
100
AcDbEntity
  8
DRAFT
100
AcDbLine
 62
7
  6
CONTINUOUS
 10
17.4486642952
 20
40.3463941433
 11
16.7724816978
 21
40.3463941433
  0
LINE
  5
435
100
AcDbEntity
  8
DRAFT
100
AcDbLine
 62
7
  6
CONTINUOUS
 10
16.037065438
 20
40.3725767407
 11
16.7462991004
 21
40.3725767407
  0
LINE
  5
436
100
AcDbEntity
  8
DRAFT
100
AcDbLine
 62
7
  6
CONTINUOUS
 10
-16.9397368477
 20
40.3725767407
 11
-17.64897051
 21
40.3725767407
  0
LINE
  5
437
100
AcDbEntity
  8
DRAFT
100
AcDbLine
 62
7
  6
CONTINUOUS
 10
-18.2466053153
 20
40.4511245329
 11
-16.9397368477
 21
40.4511245329
  0
LINE
  5
438
100
AcDbEntity
  8
DRAFT
100
AcDbLine
 62
7
  6
CONTINUOUS
 10
17.3439339056
 20
40.4511245329
 11
16.037065438
 21
40.4511245329
  0
LINE
  5
439
100
AcDbEntity
  8
DRAFT
100
AcDbLine
 62
253
  6
CONTINUOUS
 10
-13.166425575
 20
49.0963941433
 11
-13.2013357048
 21
49.0963941433
  0
LINE
  5
43A
100
AcDbEntity
  8
DRAFT
100
AcDbLine
 62
7
  6
CONTINUOUS
 10
5.0486642952
 20
50.9463941433
 11
-13.166425575
 21
50.9463941433
  0
LINE
  5
43B
100
AcDbEntity
  8
DRAFT
100
AcDbLine
 62
7
  6
CONTINUOUS
 10
-13.2013357048
 20
50.9463941433
 11
-16.8963357048
 21
50.9463941433
  0
LINE
  5
43C
100
AcDbEntity
  8
0
100
AcDbLine
 62
7
  6
CONTINUOUS
 10
-16.8963357048
 20
51.5463941433
 11
-14.6963357048
 21
51.5463941433
  0
LINE
  5
43D
100
AcDbEntity
  8
0
100
AcDbLine
 62
7
  6
CONTINUOUS
 10
12.0486642952
 20
53.2463941433
 11
10.0486642952
 21
53.2463941433
  0
LINE
  5
43E
100
AcDbEntity
  8
0
100
AcDbLine
 62
7
  6
CONTINUOUS
 10
10.0486642952
 20
57.2463941433
 11
12.0486642952
 21
57.2463941433
  0
LINE
  5
43F
100
AcDbEntity
  8
ASSI
100
AcDbLine
 62
7
  6
CONTINUOUS
 10
5.0486642952
 20
57.8463941433
 11
-16.8963357048
 21
57.8463941433
  0
LINE
  5
440
100
AcDbEntity
  8
RACCORDO
100
AcDbLine
 62
7
  6
CONTINUOUS
 10
16.3440862104
 20
59.1416637537
 11
-17.2467576201
 21
59.1416637537
  0
LINE
  5
441
100
AcDbEntity
  8
DRAFT
100
AcDbLine
 62
7
  6
CONTINUOUS
 10
16.0486642952
 20
59.1940289485
 11
6.0486642952
 21
59.1940289485
  0
LINE
  5
442
100
AcDbEntity
  8
RACCORDO
100
AcDbLine
 62
7
  6
CONTINUOUS
 10
16.4488166
 20
59.2463941433
 11
16.10102949
 21
59.2463941433
  0
LINE
  5
443
100
AcDbEntity
  8
RACCORDO
100
AcDbLine
 62
7
  6
CONTINUOUS
 10
5.9962991004
 20
59.2463941433
 11
-17.3514880097
 21
59.2463941433
  0
CIRCLE
  5
444
100
AcDbEntity
  8
DRAFT
100
AcDbCircle
 62
7
  6
CONTINUOUS
 10
-15.4513357048
 20
-40.4036058567
 40
2.2849101299
  0
ARC
  5
445
100
AcDbEntity
  8
0
100
AcDbCircle
 62
7
  6
CONTINUOUS
 10
-12.9513357048
 20
-46.5536058567
 40
2.0
100
AcDbArc
 50
90.0
 51
270.0
  0
ARC
  5
446
100
AcDbEntity
  8
0
100
AcDbCircle
 62
7
  6
CONTINUOUS
 10
-10.9513357048
 20
-46.5536058567
 40
2.0
100
AcDbArc
 50
270.0
 51
90.0
  0
CIRCLE
  5
447
100
AcDbEntity
  8
DRAFT
100
AcDbCircle
 62
7
  6
CONTINUOUS
 10
-15.4513357048
 20
-40.4036058567
 40
1.3198202597
  0
CIRCLE
  5
448
100
AcDbEntity
  8
DRAFT
100
AcDbCircle
 62
7
  6
CONTINUOUS
 10
-15.4513357048
 20
-40.4036058567
 40
1.25
  0
CIRCLE
  5
449
100
AcDbEntity
  8
DRAFT
100
AcDbCircle
 62
7
  6
CONTINUOUS
 10
-15.4513357048
 20
-40.4036058567
 40
1.0
  0
ARC
  5
44A
100
AcDbEntity
  8
DRAFT
100
AcDbCircle
 62
7
  6
CONTINUOUS
 10
-15.4513357048
 20
49.0963941433
 40
2.2849101299
100
AcDbArc
 50
129.2281521339
 51
360.0
  0
ARC
  5
44B
100
AcDbEntity
  8
DRAFT
100
AcDbCircle
 62
7
  6
CONTINUOUS
 10
-15.4513357048
 20
49.0963941433
 40
2.25
100
AcDbArc
 50
315.7114030901
 51
360.0
  0
CIRCLE
  5
44C
100
AcDbEntity
  8
DRAFT
100
AcDbCircle
 62
7
  6
CONTINUOUS
 10
-15.4513357048
 20
49.0963941433
 40
1.3198202597
  0
CIRCLE
  5
44D
100
AcDbEntity
  8
DRAFT
100
AcDbCircle
 62
7
  6
CONTINUOUS
 10
-15.4513357048
 20
49.0963941433
 40
1.25
  0
CIRCLE
  5
44E
100
AcDbEntity
  8
DRAFT
100
AcDbCircle
 62
7
  6
CONTINUOUS
 10
-15.4513357048
 20
49.0963941433
 40
1.0
  0
ARC
  5
44F
100
AcDbEntity
  8
DRAFT
100
AcDbCircle
 62
7
  6
CONTINUOUS
 10
14.5486642952
 20
-40.4036058567
 40
2.2849101299
100
AcDbArc
 50
309.2281521339
 51
180.0
  0
ARC
  5
450
100
AcDbEntity
  8
DRAFT
100
AcDbCircle
 62
7
  6
CONTINUOUS
 10
14.5486642952
 20
-40.4036058567
 40
2.25
100
AcDbArc
 50
135.7114030901
 51
180.0
  0
CIRCLE
  5
451
100
AcDbEntity
  8
DRAFT
100
AcDbCircle
 62
7
  6
CONTINUOUS
 10
14.5486642952
 20
-40.4036058567
 40
1.3198202597
  0
CIRCLE
  5
452
100
AcDbEntity
  8
DRAFT
100
AcDbCircle
 62
7
  6
CONTINUOUS
 10
14.5486642952
 20
-40.4036058567
 40
1.25
  0
CIRCLE
  5
453
100
AcDbEntity
  8
DRAFT
100
AcDbCircle
 62
7
  6
CONTINUOUS
 10
14.5486642952
 20
-40.4036058567
 40
1.0
  0
ARC
  5
454
100
AcDbEntity
  8
RACCORDO
100
AcDbCircle
 62
253
  6
CONTINUOUS
 10
1.2016267136
 20
-48.4799348192
 40
0.2000425599
100
AcDbArc
 50
180.02081007
 51
269.97918993
  0
CIRCLE
  5
455
100
AcDbEntity
  8
DRAFT
100
AcDbCircle
 62
7
  6
CONTINUOUS
 10
14.5486642952
 20
49.0963941433
 40
2.2849101299
  0
ARC
  5
456
100
AcDbEntity
  8
0
100
AcDbCircle
 62
7
  6
CONTINUOUS
 10
12.0486642952
 20
55.2463941433
 40
2.0
100
AcDbArc
 50
270.0
 51
90.0
  0
ARC
  5
457
100
AcDbEntity
  8
0
100
AcDbCircle
 62
7
  6
CONTINUOUS
 10
10.0486642952
 20
55.2463941433
 40
2.0
100
AcDbArc
 50
90.0
 51
270.0
  0
CIRCLE
  5
458
100
AcDbEntity
  8
DRAFT
100
AcDbCircle
 62
7
  6
CONTINUOUS
 10
14.5486642952
 20
49.0963941433
 40
1.3198202597
  0
CIRCLE
  5
459
100
AcDbEntity
  8
DRAFT
100
AcDbCircle
 62
7
  6
CONTINUOUS
 10
14.5486642952
 20
49.0963941433
 40
1.25
  0
CIRCLE
  5
45A
100
AcDbEntity
  8
DRAFT
100
AcDbCircle
 62
7
  6
CONTINUOUS
 10
14.5486642952
 20
49.0963941433
 40
1.0
  0
SPLINE
  5
45B
100
AcDbEntity
  8
RACCORDO
100
AcDbSpline
 62
253
  6
CONTINUOUS
 70
0
 71
3
 72
12
 73
8
 74
6
 42
0.0000001
 43
0.0000001
 44
0.0000000001
 12
-0.2402506824
 22
0.0018158764
 32
0.0
 13
-0.0072581938
 23
0.2401478845
 33
0.0
 40
0.0
 40
0.0
 40
0.0
 40
0.0
 40
0.2557741523
 40
0.4937659976
 40
0.6992342062
 40
0.8652420492
 40
1.0
 40
1.0
 40
1.0
 40
1.0
 10
1.2059976265
 20
-48.4300531668
 30
0.0
 10
1.1855143216
 20
-48.4298983488
 30
0.0
 10
1.1459252005
 20
-48.4265983157
 30
0.0
 10
1.0912996137
 20
-48.413003758
 30
0.0
 10
1.0468676603
 20
-48.3918792363
 30
0.0
 10
1.015673286
 20
-48.3646963024
 30
0.0
 10
1.0063541205
 20
-48.3408404458
 30
0.0
 10
1.0060280874
 20
-48.3300531668
 30
0.0
 11
1.2059976265
 21
-48.4300531668
 31
0.0
 11
1.1447718421
 21
-48.424789038
 31
0.0
 11
1.0894254087
 21
-48.4104276723
 31
0.0
 11
1.0452730987
 21
-48.3883481544
 31
0.0
 11
1.0165547422
 21
-48.3606707222
 31
0.0
 11
1.0060280874
 21
-48.3300531668
 31
0.0
  0
SPLINE
  5
45C
100
AcDbEntity
  8
RACCORDO
100
AcDbSpline
 62
253
  6
CONTINUOUS
 70
0
 71
3
 72
12
 73
8
 74
6
 42
0.0000001
 43
0.0000001
 44
0.0000000001
 12
0.1065145265
 22
0.1057328909
 32
0.0
 13
0.0015118335
 23
0.1500749911
 33
0.0
 40
0.0
 40
0.0
 40
0.0
 40
0.0
 40
0.0499465933
 40
0.18184373
 40
0.3903674135
 40
0.6667766637
 40
1.0
 40
1.0
 40
1.0
 40
1.0
 10
1.0015845184
 20
-48.4800074754
 30
0.0
 10
1.0033578643
 20
-48.4782471428
 30
0.0
 10
1.0016463263
 20
-48.4676521599
 30
0.0
 10
1.0046972984
 20
-48.4494918396
 30
0.0
 10
1.0043845126
 20
-48.4179264109
 30
0.0
 10
1.0056230698
 20
-48.3773031772
 30
0.0
 10
1.0058601614
 20
-48.3467226633
 30
0.0
 10
1.0060280874
 20
-48.3300531668
 30
0.0
 11
1.0015845184
 21
-48.4800074754
 31
0.0
 11
1.002653999
 21
-48.4725880449
 31
0.0
 11
1.0036730883
 21
-48.4528188281
 31
0.0
 11
1.0046001453
 21
-48.4215367842
 31
0.0
 11
1.0053960807
 21
-48.3800601999
 31
0.0
 11
1.0060280874
 21
-48.3300531668
 31
0.0
  0
SPLINE
  5
45D
100
AcDbEntity
  8
RACCORDO
100
AcDbSpline
 62
253
  6
CONTINUOUS
 70
0
 71
3
 72
12
 73
8
 74
6
 42
0.0000001
 43
0.0000001
 44
0.0000000001
 12
0.1290126338
 22
0.2141406967
 32
0.0
 13
0.0015117073
 23
0.2499964248
 33
0.0
 40
0.0
 40
0.0
 40
0.0
 40
0.0
 40
0.0496100644
 40
0.1814835137
 40
0.3901459392
 40
0.6667947098
 40
1.0
 40
1.0
 40
1.0
 40
1.0
 10
1.2015540574
 20
-48.6799770144
 30
0.0
 10
1.2036874991
 20
-48.6764358365
 30
0.0
 10
1.2011533937
 20
-48.6600703655
 30
0.0
 10
1.2049431398
 20
-48.6286877068
 30
0.0
 10
1.204235043
 20
-48.5766665194
 30
0.0
 10
1.205639068
 20
-48.5087098
 30
0.0
 10
1.2058297235
 20
-48.4578198773
 30
0.0
 10
1.2059976265
 20
-48.4300531668
 30
0.0
 11
1.2015540574
 21
-48.6799770144
 31
0.0
 11
1.2026231515
 21
-48.6676206125
 31
0.0
 11
1.203642586
 21
-48.6346678839
 31
0.0
 11
1.2045698666
 21
-48.582510312
 31
0.0
 11
1.2053660205
 21
-48.5133524265
 31
0.0
 11
1.2059976265
 21
-48.4300531668
 31
0.0
  0
SPLINE
  5
45E
100
AcDbEntity
  8
223010000
100
AcDbSpline
 62
253
  6
CONTINUOUS
 70
0
 71
3
 72
10
 73
6
 74
4
 42
0.0000001
 43
0.0000001
 44
0.0000000001
 12
13.4999897843
 22
0.1521890355
 32
0.0
 13
13.5000100394
 23
0.1503815659
 33
0.0
 40
0.0
 40
0.0
 40
0.0
 40
0.0
 40
0.334010634
 40
0.6673439598
 40
1.0
 40
1.0
 40
1.0
 40
1.0
 10
3.0486642952
 20
14.7188056671
 30
0.0
 10
4.5517110106
 20
14.7357499192
 30
0.0
 10
7.55475733
 20
14.7695355732
 30
0.0
 10
12.0547573537
 20
14.8199602848
 30
0.0
 10
15.0517110012
 20
14.8534098903
 30
0.0
 10
16.5486642952
 20
14.8700850024
 30
0.0
 11
3.0486642952
 21
14.7188056671
 31
0.0
 11
7.5578055945
 21
14.7695360379
 31
0.0
 11
12.0578055112
 21
14.8199611901
 31
0.0
 11
16.5486642952
 21
14.8700850024
 31
0.0
  0
SPLINE
  5
45F
100
AcDbEntity
  8
223010000
100
AcDbSpline
 62
253
  6
CONTINUOUS
 70
0
 71
3
 72
10
 73
6
 74
4
 42
0.0000001
 43
0.0000001
 44
0.0000000001
 12
13.4999904671
 22
0.1533431151
 32
0.0
 13
13.5000093861
 23
0.1516683801
 33
0.0
 40
0.0
 40
0.0
 40
0.0
 40
0.0
 40
0.3340106202
 40
0.6673439475
 40
1.0
 40
1.0
 40
1.0
 40
1.0
 10
3.0486642951
 20
13.8098735245
 30
0.0
 10
4.5517110245
 20
13.8269462675
 30
0.0
 10
7.5547573873
 20
13.8609938192
 30
0.0
 10
12.0547574076
 20
13.9118259768
 30
0.0
 10
15.0517110181
 20
13.945556586
 30
0.0
 10
16.5486642952
 20
13.9623743876
 30
0.0
 11
3.0486642951
 21
13.8098735245
 31
0.0
 11
7.5578055581
 21
13.8609970561
 31
0.0
 11
12.0578054919
 21
13.9118295746
 31
0.0
 11
16.5486642952
 21
13.9623743876
 31
0.0
  0
SPLINE
  5
460
100
AcDbEntity
  8
223010000
100
AcDbSpline
 62
253
  6
CONTINUOUS
 70
0
 71
3
 72
10
 73
6
 74
4
 42
0.0000001
 43
0.0000001
 44
0.0000000001
 12
13.4999904671
 22
-0.1533431151
 32
0.0
 13
13.5000093861
 23
-0.1516683801
 33
0.0
 40
0.0
 40
0.0
 40
0.0
 40
0.0
 40
0.3340106202
 40
0.6673439475
 40
1.0
 40
1.0
 40
1.0
 40
1.0
 10
3.0486642951
 20
-5.1170852379
 30
0.0
 10
4.5517110245
 20
-5.1341579809
 30
0.0
 10
7.5547573873
 20
-5.1682055326
 30
0.0
 10
12.0547574076
 20
-5.2190376903
 30
0.0
 10
15.0517110181
 20
-5.2527682995
 30
0.0
 10
16.5486642952
 20
-5.269586101
 30
0.0
 11
3.0486642951
 21
-5.1170852379
 31
0.0
 11
7.5578055581
 21
-5.1682087696
 31
0.0
 11
12.0578054919
 21
-5.219041288
 31
0.0
 11
16.5486642952
 21
-5.269586101
 31
0.0
  0
SPLINE
  5
461
100
AcDbEntity
  8
223010000
100
AcDbSpline
 62
253
  6
CONTINUOUS
 70
0
 71
3
 72
10
 73
6
 74
4
 42
0.0000001
 43
0.0000001
 44
0.0000000001
 12
13.4999897843
 22
-0.1521890355
 32
0.0
 13
13.5000100394
 23
-0.1503815659
 33
0.0
 40
0.0
 40
0.0
 40
0.0
 40
0.0
 40
0.334010634
 40
0.6673439598
 40
1.0
 40
1.0
 40
1.0
 40
1.0
 10
3.0486642952
 20
-6.0260173806
 30
0.0
 10
4.5517110106
 20
-6.0429616326
 30
0.0
 10
7.55475733
 20
-6.0767472866
 30
0.0
 10
12.0547573537
 20
-6.1271719982
 30
0.0
 10
15.0517110012
 20
-6.1606216037
 30
0.0
 10
16.5486642952
 20
-6.1772967158
 30
0.0
 11
3.0486642952
 21
-6.0260173806
 31
0.0
 11
7.5578055945
 21
-6.0767477513
 31
0.0
 11
12.0578055112
 21
-6.1271729036
 31
0.0
 11
16.5486642952
 21
-6.1772967158
 31
0.0
  0
SPLINE
  5
462
100
AcDbEntity
  8
223010000
100
AcDbSpline
 62
253
  6
CONTINUOUS
 70
0
 71
3
 72
10
 73
6
 74
4
 42
0.0000001
 43
0.0000001
 44
0.0000000001
 12
20.5000078669
 22
0.1643527666
 32
0.0
 13
20.4999919994
 23
0.1663201779
 33
0.0
 40
0.0
 40
0.0
 40
0.0
 40
0.0
 40
0.3325993834
 40
0.6659327168
 40
1.0
 40
1.0
 40
1.0
 40
1.0
 10
-17.4513357048
 20
-5.2824130625
 30
0.0
 10
-15.1785723795
 20
-5.2641918529
 30
0.0
 10
-10.628030973
 20
-5.2276379622
 30
0.0
 10
-3.7946976213
 20
-5.1725297402
 30
0.0
 10
0.7658720839
 20
-5.135603518
 30
0.0
 10
3.0486642951
 20
-5.117082808
 30
0.0
 11
-17.4513357048
 21
-5.2824130625
 31
0.0
 11
-10.6330465893
 21
-5.2276422099
 31
0.0
 11
-3.7997132415
 21
-5.1725335274
 31
0.0
 11
3.0486642951
 21
-5.117082808
 31
0.0
  0
SPLINE
  5
463
100
AcDbEntity
  8
223010000
100
AcDbSpline
 62
253
  6
CONTINUOUS
 70
0
 71
3
 72
10
 73
6
 74
4
 42
0.0000001
 43
0.0000001
 44
0.0000000001
 12
20.5000078669
 22
-0.1643527666
 32
0.0
 13
20.4999919994
 23
-0.1663201779
 33
0.0
 40
0.0
 40
0.0
 40
0.0
 40
0.0
 40
0.3325993834
 40
0.6659327168
 40
1.0
 40
1.0
 40
1.0
 40
1.0
 10
-17.4513357048
 20
13.975201349
 30
0.0
 10
-15.1785723795
 20
13.9569801394
 30
0.0
 10
-10.628030973
 20
13.9204262487
 30
0.0
 10
-3.7946976213
 20
13.8653180268
 30
0.0
 10
0.7658720839
 20
13.8283918046
 30
0.0
 10
3.0486642951
 20
13.8098710946
 30
0.0
 11
-17.4513357048
 21
13.975201349
 31
0.0
 11
-10.6330465893
 21
13.9204304964
 31
0.0
 11
-3.7997132415
 21
13.865321814
 31
0.0
 11
3.0486642951
 21
13.8098710946
 31
0.0
  0
SPLINE
  5
464
100
AcDbEntity
  8
223010000
100
AcDbSpline
 62
253
  6
CONTINUOUS
 70
0
 71
3
 72
10
 73
6
 74
4
 42
0.0000001
 43
0.0000001
 44
0.0000000001
 12
20.5000084121
 22
0.1629454139
 32
0.0
 13
20.4999914279
 23
0.1650683529
 33
0.0
 40
0.0
 40
0.0
 40
0.0
 40
0.0
 40
0.3325993774
 40
0.6659327107
 40
1.0
 40
1.0
 40
1.0
 40
1.0
 10
-17.4513357048
 20
-6.1900472137
 30
0.0
 10
-15.1785723602
 20
-6.1719820327
 30
0.0
 10
-10.6280309126
 20
-6.1357351012
 30
0.0
 10
-3.7946975577
 20
-6.0810708766
 30
0.0
 10
0.765872106
 20
-6.0444292343
 30
0.0
 10
3.0486642952
 20
-6.0260479219
 30
0.0
 11
-17.4513357048
 21
-6.1900472137
 31
0.0
 11
-10.6330465897
 21
-6.1357361955
 31
0.0
 11
-3.7997132412
 21
-6.0810714088
 31
0.0
 11
3.0486642952
 21
-6.0260479219
 31
0.0
  0
SPLINE
  5
465
100
AcDbEntity
  8
223010000
100
AcDbSpline
 62
7
  6
CONTINUOUS
 70
0
 71
3
 72
10
 73
6
 74
4
 42
0.0000001
 43
0.0000001
 44
0.0000000001
 12
0.0014464913
 22
0.9089649801
 32
0.0
 13
0.0000000005
 23
0.9089661311
 33
0.0
 40
0.0
 40
0.0
 40
0.0
 40
0.0
 40
0.1603303669
 40
0.5175039793
 40
1.0
 40
1.0
 40
1.0
 40
1.0
 10
3.0486642952
 20
13.8098710946
 30
0.0
 10
3.0487416007
 20
13.8584493242
 30
0.0
 10
3.0495374701
 20
14.0152457306
 30
0.0
 10
3.0490881499
 20
14.3182356669
 30
0.0
 10
3.0486642951
 20
14.5726453614
 30
0.0
 10
3.0486642952
 20
14.7188362085
 30
0.0
 11
3.0486642952
 21
13.8098710946
 31
0.0
 11
3.0491360342
 21
13.9556052044
 31
0.0
 11
3.0491360325
 21
14.280263921
 31
0.0
 11
3.0486642952
 21
14.7188362085
 31
0.0
  0
SPLINE
  5
466
100
AcDbEntity
  8
223010000
100
AcDbSpline
 62
253
  6
CONTINUOUS
 70
0
 71
3
 72
10
 73
6
 74
4
 42
0.0000001
 43
0.0000001
 44
0.0000000001
 12
20.5000084121
 22
-0.1629454139
 32
0.0
 13
20.4999914279
 23
-0.1650683529
 33
0.0
 40
0.0
 40
0.0
 40
0.0
 40
0.0
 40
0.3325993774
 40
0.6659327107
 40
1.0
 40
1.0
 40
1.0
 40
1.0
 10
-17.4513357048
 20
14.8828355003
 30
0.0
 10
-15.1785723602
 20
14.8647703193
 30
0.0
 10
-10.6280309126
 20
14.8285233878
 30
0.0
 10
-3.7946975577
 20
14.7738591632
 30
0.0
 10
0.765872106
 20
14.7372175209
 30
0.0
 10
3.0486642952
 20
14.7188362085
 30
0.0
 11
-17.4513357048
 21
14.8828355003
 31
0.0
 11
-10.6330465897
 21
14.8285244821
 31
0.0
 11
-3.7997132412
 21
14.7738596954
 31
0.0
 11
3.0486642952
 21
14.7188362085
 31
0.0
  0
SPLINE
  5
467
100
AcDbEntity
  8
223010000
100
AcDbSpline
 62
7
  6
CONTINUOUS
 70
0
 71
3
 72
10
 73
6
 74
4
 42
0.0000001
 43
0.0000001
 44
0.0000000001
 12
-0.0000000005
 22
0.9089661311
 32
0.0
 13
-0.0014464914
 23
0.9089649801
 33
0.0
 40
0.0
 40
0.0
 40
0.0
 40
0.0
 40
0.4824960207
 40
0.8396696331
 40
1.0
 40
1.0
 40
1.0
 40
1.0
 10
3.0486642952
 20
-6.0260479219
 30
0.0
 10
3.0486642951
 20
-5.8798570748
 30
0.0
 10
3.0490881499
 20
-5.6254473803
 30
0.0
 10
3.0495374701
 20
-5.322457444
 30
0.0
 10
3.0487416007
 20
-5.1656610376
 30
0.0
 10
3.0486642952
 20
-5.117082808
 30
0.0
 11
3.0486642952
 21
-6.0260479219
 31
0.0
 11
3.0491360325
 21
-5.5874756344
 31
0.0
 11
3.0491360342
 21
-5.2628169178
 31
0.0
 11
3.0486642952
 21
-5.117082808
 31
0.0
  0
ELLIPSE
  5
468
100
AcDbEntity
  8
RACCORDO
100
AcDbEllipse
 62
7
  6
CONTINUOUS
 10
1.9073918276
 20
-48.1800531668
 30
0.0
 11
0.0043647635
 21
0.4999999956
 31
0.0
 40
0.0151153781
 41
-4.1886582547
 42
-3.158913996
  0
ELLIPSE
  5
469
100
AcDbEntity
  8
RACCORDO
100
AcDbEllipse
 62
7
  6
CONTINUOUS
 10
0.8765093063
 20
-48.8050522265
 30
0.0
 11
0.1414644378
 21
0.1414644378
 31
0.0
 40
0.9996954599
 41
-3.9268385238
 42
-2.3563467835
  0
ELLIPSE
  5
46A
100
AcDbEntity
  8
RACCORDO
100
AcDbEllipse
 62
7
  6
CONTINUOUS
 10
-2.8667302311
 20
-48.7864284296
 30
0.0
 11
2.0
 21
0.0
 31
0.0
 40
0.0174550649
 41
0.0174532925
 42
1.5707963268
  0
ELLIPSE
  5
46B
100
AcDbEntity
  8
RACCORDO
100
AcDbEllipse
 62
7
  6
CONTINUOUS
 10
1.7004575372
 20
-49.4246527424
 30
0.0
 11
0.0035021214
 21
0.3999999514
 31
0.0
 40
0.0563186189
 41
-4.7118958938
 42
-4.1018608606
  0
ELLIPSE
  5
46C
100
AcDbEntity
  8
RACCORDO
100
AcDbEllipse
 62
7
  6
CONTINUOUS
 10
-0.6342732114
 20
-49.3033773646
 30
0.0
 11
0.0
 21
0.4
 31
0.0
 40
0.0174550649
 41
-1.5707963268
 42
-0.0
  0
ELLIPSE
  5
46D
100
AcDbEntity
  8
RACCORDO
100
AcDbEllipse
 62
7
  6
CONTINUOUS
 10
-0.6342732114
 20
-49.4246527424
 30
0.0
 11
0.0
 21
0.4
 31
0.0
 40
0.0174550649
 41
-2.1808292462
 42
-1.5707963268
  0
ELLIPSE
  5
46E
100
AcDbEntity
  8
RACCORDO
100
AcDbEllipse
 62
7
  6
CONTINUOUS
 10
-0.0187907698
 20
-43.9078865862
 30
0.0
 11
0.0
 21
1.0
 31
0.0
 40
0.0174550649
 41
-1.5707963268
 42
-0.0872664626
  0
ELLIPSE
  5
46F
100
AcDbEntity
  8
RACCORDO
100
AcDbEllipse
 62
7
  6
CONTINUOUS
 10
0.6939339056
 20
-43.9078865862
 30
0.0
 11
0.0
 21
1.0
 31
0.0
 40
0.0174550649
 41
0.0872664626
 42
1.5707963268
  0
ELLIPSE
  5
470
100
AcDbEntity
  8
RACCORDO
100
AcDbEllipse
 62
7
  6
CONTINUOUS
 10
-0.0083177308
 20
-49.3033773646
 30
0.0
 11
0.0
 21
0.4
 31
0.0
 40
0.0174550649
 41
-1.5707963268
 42
-0.0
  0
ELLIPSE
  5
471
100
AcDbEntity
  8
RACCORDO
100
AcDbEllipse
 62
7
  6
CONTINUOUS
 10
-4.3512595408
 20
-45.2535296927
 30
0.0
 11
0.3536610946
 21
0.3536610946
 31
0.0
 40
0.9996954599
 41
-3.9268385237
 42
-2.3563467834
  0
ELLIPSE
  5
472
100
AcDbEntity
  8
RACCORDO
100
AcDbEllipse
 62
7
  6
CONTINUOUS
 10
3.4485881312
 20
-45.2535296927
 30
0.0
 11
-0.3536610946
 21
0.3536610946
 31
0.0
 40
0.9996954599
 41
-3.9268385237
 42
-2.3563467834
  0
ELLIPSE
  5
473
100
AcDbEntity
  8
RACCORDO
100
AcDbEllipse
 62
7
  6
CONTINUOUS
 10
-4.2762027616
 20
-45.1784729135
 30
0.0
 11
-0.3536610946
 21
-0.3536610946
 31
-0.0
 40
0.9996954599
 41
-0.7852458701
 42
0.7852458701
  0
ELLIPSE
  5
474
100
AcDbEntity
  8
RACCORDO
100
AcDbEllipse
 62
7
  6
CONTINUOUS
 10
3.373531352
 20
-45.1784729135
 30
0.0
 11
0.3536610946
 21
-0.3536610946
 31
-0.0
 40
0.9996954599
 41
-0.7852458701
 42
0.7852458701
  0
ELLIPSE
  5
475
100
AcDbEntity
  8
RACCORDO
100
AcDbEllipse
 62
7
  6
CONTINUOUS
 10
16.2633615938
 20
29.4463941433
 30
0.0
 11
-0.0
 21
1.0
 31
0.0
 40
0.0174550649
 41
3.1415926536
 42
4.7123889804
  0
ELLIPSE
  5
476
100
AcDbEntity
  8
RACCORDO
100
AcDbEllipse
 62
7
  6
CONTINUOUS
 10
16.2633615938
 20
-20.7536058567
 30
0.0
 11
0.0
 21
1.0
 31
0.0
 40
0.0174550649
 41
4.7123889804
 42
6.2831853072
  0
ELLIPSE
  5
477
100
AcDbEntity
  8
RACCORDO
100
AcDbEllipse
 62
7
  6
CONTINUOUS
 10
16.2633615938
 20
-30.5536058567
 30
0.0
 11
0.0
 21
1.0
 31
0.0
 40
0.0174550649
 41
3.1415926536
 42
4.7123889804
  0
ELLIPSE
  5
478
100
AcDbEntity
  8
RACCORDO
100
AcDbEllipse
 62
7
  6
CONTINUOUS
 10
16.2633615938
 20
39.2463941433
 30
0.0
 11
-0.0
 21
1.0
 31
0.0
 40
0.0174550649
 41
4.7123889804
 42
6.2831853072
  0
ELLIPSE
  5
479
100
AcDbEntity
  8
RACCORDO
100
AcDbEllipse
 62
7
  6
CONTINUOUS
 10
-17.1660330034
 20
-30.5536058567
 30
0.0
 11
0.0
 21
1.0
 31
0.0
 40
0.0174550649
 41
1.5707963268
 42
3.1415926536
  0
ELLIPSE
  5
47A
100
AcDbEntity
  8
RACCORDO
100
AcDbEllipse
 62
7
  6
CONTINUOUS
 10
-17.1660330034
 20
-20.7536058567
 30
0.0
 11
0.0
 21
1.0
 31
0.0
 40
0.0174550649
 41
6.2831853072
 42
7.853981634
  0
ELLIPSE
  5
47B
100
AcDbEntity
  8
RACCORDO
100
AcDbEllipse
 62
7
  6
CONTINUOUS
 10
-17.1660330034
 20
29.4463941433
 30
0.0
 11
-0.0
 21
1.0
 31
0.0
 40
0.0174550649
 41
1.5707963268
 42
3.1415926536
  0
ELLIPSE
  5
47C
100
AcDbEntity
  8
RACCORDO
100
AcDbEllipse
 62
7
  6
CONTINUOUS
 10
-17.1660330034
 20
39.2463941433
 30
0.0
 11
-0.0
 21
1.0
 31
0.0
 40
0.0174550649
 41
6.2831853072
 42
7.853981634
  0
ELLIPSE
  5
47D
100
AcDbEntity
  8
RACCORDO
100
AcDbEllipse
 62
7
  6
CONTINUOUS
 10
-18.2675513932
 20
-30.5536058567
 30
0.0
 11
-0.0
 21
1.0
 31
0.0
 40
0.0174550649
 41
-3.1415926536
 42
-1.5707963268
  0
ELLIPSE
  5
47E
100
AcDbEntity
  8
RACCORDO
100
AcDbEllipse
 62
7
  6
CONTINUOUS
 10
17.3648799835
 20
29.4463941433
 30
0.0
 11
-0.0
 21
1.0
 31
0.0
 40
0.0174550649
 41
-4.7123889804
 42
-3.1415926536
  0
ELLIPSE
  5
47F
100
AcDbEntity
  8
RACCORDO
100
AcDbEllipse
 62
7
  6
CONTINUOUS
 10
-18.2675513932
 20
-20.7536058567
 30
0.0
 11
-0.0
 21
1.0
 31
0.0
 40
0.0174550649
 41
-1.5707963268
 42
-0.0
  0
ELLIPSE
  5
480
100
AcDbEntity
  8
RACCORDO
100
AcDbEllipse
 62
7
  6
CONTINUOUS
 10
17.3648799835
 20
-30.5536058567
 30
0.0
 11
-0.0
 21
1.0
 31
0.0
 40
0.0174550649
 41
-4.7123889804
 42
-3.1415926536
  0
ELLIPSE
  5
481
100
AcDbEntity
  8
RACCORDO
100
AcDbEllipse
 62
7
  6
CONTINUOUS
 10
-18.2675513932
 20
29.4463941433
 30
0.0
 11
-0.0
 21
1.0
 31
0.0
 40
0.0174550649
 41
-3.1415926536
 42
-1.5707963268
  0
ELLIPSE
  5
482
100
AcDbEntity
  8
RACCORDO
100
AcDbEllipse
 62
7
  6
CONTINUOUS
 10
-18.2675513932
 20
39.2463941433
 30
0.0
 11
-0.0
 21
1.0
 31
0.0
 40
0.0174550649
 41
-1.5707963268
 42
-0.0
  0
ELLIPSE
  5
483
100
AcDbEntity
  8
RACCORDO
100
AcDbEllipse
 62
7
  6
CONTINUOUS
 10
17.3648799835
 20
39.2463941433
 30
0.0
 11
-0.0
 21
1.0
 31
0.0
 40
0.0174550649
 41
0.0
 42
1.5707963268
  0
ELLIPSE
  5
484
100
AcDbEntity
  8
RACCORDO
100
AcDbEllipse
 62
7
  6
CONTINUOUS
 10
17.3648799835
 20
-20.7536058567
 30
0.0
 11
0.0
 21
1.0
 31
0.0
 40
0.0174550649
 41
0.0
 42
1.5707963268
  0
ELLIPSE
  5
485
100
AcDbEntity
  8
RACCORDO
100
AcDbEllipse
 62
7
  6
CONTINUOUS
 10
-17.3511833768
 20
-49.5534535287
 30
0.0
 11
0.7073221892
 21
0.7073221892
 31
0.0
 40
0.9996954599
 41
2.3563467834
 42
3.9268385237
  0
ELLIPSE
  5
486
100
AcDbEntity
  8
RACCORDO
100
AcDbEllipse
 62
7
  6
CONTINUOUS
 10
16.4485119671
 20
-49.5534535287
 30
0.0
 11
0.7073221892
 21
-0.7073221892
 31
0.0
 40
0.9996954599
 41
-0.7852458701
 42
0.7852458702
  0
ELLIPSE
  5
487
100
AcDbEntity
  8
RACCORDO
100
AcDbEllipse
 62
7
  6
CONTINUOUS
 10
-17.3511833768
 20
58.2462418152
 30
0.0
 11
-0.7073221892
 21
0.7073221892
 31
0.0
 40
0.9996954599
 41
-0.7852458701
 42
0.7852458702
  0
ELLIPSE
  5
488
100
AcDbEntity
  8
RACCORDO
100
AcDbEllipse
 62
7
  6
CONTINUOUS
 10
16.4485119671
 20
58.2462418152
 30
0.0
 11
0.7073221892
 21
0.7073221892
 31
0.0
 40
0.9996954599
 41
-0.7852458701
 42
0.7852458702
  0
ELLIPSE
  5
489
100
AcDbEntity
  8
RACCORDO
100
AcDbEllipse
 62
7
  6
CONTINUOUS
 10
-17.2464529872
 20
-49.4487231391
 30
0.0
 11
0.7073221892
 21
0.7073221892
 31
0.0
 40
0.9996954599
 41
2.3563467834
 42
3.9268385237
  0
ELLIPSE
  5
48A
100
AcDbEntity
  8
RACCORDO
100
AcDbEllipse
 62
7
  6
CONTINUOUS
 10
16.3437815776
 20
-49.4487231391
 30
0.0
 11
0.7073221892
 21
-0.7073221892
 31
-0.0
 40
0.9996954599
 41
-0.7852458701
 42
0.7852458701
  0
ELLIPSE
  5
48B
100
AcDbEntity
  8
RACCORDO
100
AcDbEllipse
 62
7
  6
CONTINUOUS
 10
-17.2464529872
 20
58.1415114257
 30
0.0
 11
-0.7073221892
 21
0.7073221892
 31
0.0
 40
0.9996954599
 41
-0.7852458701
 42
0.7852458701
  0
ELLIPSE
  5
48C
100
AcDbEntity
  8
RACCORDO
100
AcDbEllipse
 62
7
  6
CONTINUOUS
 10
16.3437815776
 20
58.1415114257
 30
0.0
 11
-0.7073221892
 21
-0.7073221892
 31
-0.0
 40
0.9996954599
 41
2.3563467834
 42
3.9268385237
  0
ENDSEC
  0
SECTION
  2
OBJECTS
  0
DICTIONARY
  5
C
100
AcDbDictionary
280
0
281
1
  3
ACAD_GROUP
350
D
  3
ACAD_MLINESTYLE
350
17
  3
ACAD_LAYOUT
350
1A
  3
ACAD_PLOTSETTINGS
350
19
  3
ACAD_PLOTSTYLENAME
350
E
  0
DICTIONARY
  5
D
102
{ACAD_REACTORS
330
C
102
}
100
AcDbDictionary
280
0
281
1
  0
ACDBDICTIONARYWDFLT
  5
E
102
{ACAD_REACTORS
330
C
102
}
100
AcDbDictionary
281
1
  3
Normal
350
F
100
AcDbDictionaryWithDefault
340
F
  0
DICTIONARY
  5
17
102
{ACAD_REACTORS
330
C
102
}
100
AcDbDictionary
280
0
281
1
  3
Standard
350
18
  0
DICTIONARY
  5
19
102
{ACAD_REACTORS
330
C
102
}
100
AcDbDictionary
281
1
  0
DICTIONARY
  5
1A
102
{ACAD_REACTORS
330
C
102
}
100
AcDbDictionary
281
1
  3
Model
350
48D
  3
Layout1
350
48E
  0
ACDBPLACEHOLDER
  5
F
102
{ACAD_REACTORS
330
E
102
}
  0
MLINESTYLE
  5
18
102
{ACAD_REACTORS
330
17
102
}
100
AcDbMlineStyle
  2
STANDARD
 70
0
  3

 62
256
 51
90.0
 52
90.0
 71
2
 49
0.5
 62
256
  6
BYLAYER
 49
-0.5
 62
256
  6
BYLAYER
  0
LAYOUT
  5
48D
102
{ACAD_REACTORS
330
1A
102
}
100
AcDbPlotSettings
  1

  2
none_device
  4
ISO_A4_(297.00_x_210.00_MM)
  6

 40
0.0
 41
0.0
 42
0.0
 43
0.0
 44
297.0
 45
210.0
 46
0.0
 47
0.0
 48
0.0
 49
0.0
140
0.0
141
0.0
142
1.0
143
1.0
 70
1024
 72
1
 73
0
 74
0
  7

 75
0
147
1.0
148
0.0
149
0.0
100
AcDbLayout
  1
Model
 70
0
 71
0
 10
0.0
 20
0.0
 11
297.0
 21
210.0
 12
0.0
 22
0.0
 32
0.0
 14
0.0
 24
0.0
 34
0.0
 15
0.0
 25
0.0
 35
0.0
146
0.0
 13
0.0
 23
0.0
 33
0.0
 16
1.0
 26
0.0
 36
0.0
 17
0.0
 27
1.0
 37
0.0
 76
0
330
2BC
345
0
346
0
  0
LAYOUT
  5
48E
102
{ACAD_REACTORS
330
1A
102
}
100
AcDbPlotSettings
  1

  2
none_device
  4
ISO_A4_(297.00_x_210.00_MM)
  6

 40
0.0
 41
0.0
 42
0.0
 43
0.0
 44
297.0
 45
210.0
 46
0.0
 47
0.0
 48
0.0
 49
0.0
140
0.0
141
0.0
142
1.0
143
1.0
 70
0
 72
1
 73
0
 74
0
  7

 75
0
147
1.0
148
0.0
149
0.0
100
AcDbLayout
  1
Layout1
 70
0
 71
1
 10
0.0
 20
0.0
 11
297.0
 21
210.0
 12
0.0
 22
0.0
 32
0.0
 14
0.0
 24
0.0
 34
0.0
 15
0.0
 25
0.0
 35
0.0
146
0.0
 13
0.0
 23
0.0
 33
0.0
 16
1.0
 26
0.0
 36
0.0
 17
0.0
 27
1.0
 37
0.0
 76
0
330
2BD
345
0
346
0
  0
ENDSEC
  0
EOF
