  0
SECTION
  2
HEADER
  9
$ACADVER
  1
AC1021
  9
$DWGCODEPAGE
  3
ANSI_1252
  9
$EXTMAX
 10
297.0
 20
210.0
 30
0.0
  9
$EXTMIN
 10
0.0
 20
0.0
 30
0.0
  9
$LIMMIN
 10
0.0
 20
0.0
  9
$LIMMAX
 10
297.0
 20
210.0
  9
$VIEWCTR
 10
148.5
 20
105.0
  9
$VIEWSIZE
 40
210.0
  9
$CLAYER
  8
0
  9
$LTSCALE
 40
16.335
  9
$CELTYPE
  6
BYLAYER
  9
$DIMSCALE
 40
1.0
  9
$DIMASZ
 40
3.0
  9
$DIMEXO
 40
0.5
  9
$DIMDLI
 40
11.286
  9
$DIMEXE
 40
1.5
  9
$DIMCEN
 40
2.673
  9
$DIMLFAC
 40
1.0
  9
$DIMBLK
  1
_FILLED
  9
$DIMALT
 70
0
  9
$DIMALTF
 40
0.0393700787
  9
$DIMTXT
 40
3.0
  9
$DIMTOL
 70
1
  9
$DIMLIM
 70
0
  9
$DIMTFAC
 40
1.0
  9
$DIMTP
 40
0.01
  9
$DIMTM
 40
0.01
  9
$DIMGAP
 40
0.625
  9
$DIMDSEP
 70
44
  9
$AUNITS
 70
0
  9
$PDMODE
 70
3
  9
$PDSIZE
 40
3.0
  9
$HANDSEED
  5
4CE
  9
$TILEMODE
 70
1
  9
$MEASUREMENT
 70
1
  9
$INSUNITS
 70
4
  0
ENDSEC
  0
SECTION
  2
CLASSES
  0
CLASS
  1
ACDBDICTIONARYWDFLT
  2
AcDbDictionaryWithDefault
  3
AutoCAD 2000
 90
0
 91
1
280
0
281
0
  0
CLASS
  1
ACDBPLACEHOLDER
  2
AcDbPlaceHolder
  3
AutoCAD 2000
 90
0
 91
1
280
0
281
0
  0
CLASS
  1
LAYOUT
  2
AcDbLayout
  3
AutoCAD 2000
 90
0
 91
0
280
0
281
0
  0
ENDSEC
  0
SECTION
  2
TABLES
  0
TABLE
  2
VPORT
  5
8
100
AcDbSymbolTable
 70
2
  0
VPORT
  5
1F4
100
AcDbSymbolTableRecord
100
AcDbViewportTableRecord
  2
*ACTIVE
 70
0
 10
0.0
 20
0.0
 11
1.0
 21
1.0
 12
148.5
 22
105.0
 13
0.0
 23
0.0
 14
1.0
 24
1.0
 15
0.0
 25
0.0
 16
0.0
 26
0.0
 36
1.0
 17
0.0
 27
0.0
 37
0.0
 40
210.0
 41
1.4142857143
 42
50.0
 43
0.0
 44
0.0
 50
0.0
 51
0.0
 71
0
 72
100
 73
1
 74
1
 75
0
 76
0
 77
0
 78
0
  0
ENDTAB
  0
TABLE
  2
LTYPE
  5
5
100
AcDbSymbolTable
 70
6
  0
LTYPE
  5
14
100
AcDbSymbolTableRecord
100
AcDbLinetypeTableRecord
  2
BYBLOCK
 70
0
  3

 72
65
 73
0
 40
0.0
  0
LTYPE
  5
15
100
AcDbSymbolTableRecord
100
AcDbLinetypeTableRecord
  2
BYLAYER
 70
0
  3

 72
65
 73
0
 40
0.0
  0
LTYPE
  5
16
100
AcDbSymbolTableRecord
100
AcDbLinetypeTableRecord
  2
CONTINUOUS
 70
64
  3
Solid line
 72
65
 73
0
 40
0.0
  0
LTYPE
  5
1F5
100
AcDbSymbolTableRecord
100
AcDbLinetypeTableRecord
  2
CENTER
 70
64
  3
____ _ ____ _ ____ _ ____ _ ____ _ ____ _ ____
 72
65
 73
4
 40
0.6
 49
0.375
 74
0
 49
-0.075
 74
0
 49
0.075
 74
0
 49
-0.075
 74
0
  0
LTYPE
  5
1F6
100
AcDbSymbolTableRecord
100
AcDbLinetypeTableRecord
  2
HIDDEN
 70
64
  3
- - - - - - - - - - - - - - - - - - - -
 72
65
 73
2
 40
0.2
 49
0.1
 74
0
 49
-0.1
 74
0
  0
LTYPE
  5
1F7
100
AcDbSymbolTableRecord
100
AcDbLinetypeTableRecord
  2
PHANTOM
 70
64
  3
_____ _ _ _____ _ _ _____ _ _ _____
 72
65
 73
6
 40
0.8
 49
0.45
 74
0
 49
-0.05
 74
0
 49
0.1
 74
0
 49
-0.05
 74
0
 49
0.1
 74
0
 49
-0.05
 74
0
  0
LTYPE
  5
1F8
100
AcDbSymbolTableRecord
100
AcDbLinetypeTableRecord
  2
DOT
 70
64
  3
. . . . . . . . . . . . . . . . . . . .
 72
65
 73
2
 40
0.2
 49
0.1
 74
0
 49
-0.1
 74
0
  0
LTYPE
  5
1F9
100
AcDbSymbolTableRecord
100
AcDbLinetypeTableRecord
  2
DASHED
 70
64
  3
- - - - - - - - - - - - - - - - - - - -
 72
65
 73
2
 40
0.2
 49
0.1
 74
0
 49
-0.1
 74
0
  0
ENDTAB
  0
TABLE
  2
LAYER
  5
2
100
AcDbSymbolTable
 70
36
  0
LAYER
  5
10
100
AcDbSymbolTableRecord
100
AcDbLayerTableRecord
  2
0
 70
0
 62
7
  6
CONTINUOUS
370
-3
390
F
  0
LAYER
  5
1FA
100
AcDbSymbolTableRecord
100
AcDbLayerTableRecord
  2
DEFAULT_1
 70
0
 62
7
  6
CENTER
370
-3
390
F
  0
LAYER
  5
1FB
100
AcDbSymbolTableRecord
100
AcDbLayerTableRecord
  2
DEFAULT_2
 70
0
 62
7
  6
HIDDEN
370
-3
390
F
  0
LAYER
  5
1FC
100
AcDbSymbolTableRecord
100
AcDbLayerTableRecord
  2
DEFAULT_3
 70
0
 62
7
  6
PHANTOM
370
-3
390
F
  0
LAYER
  5
1FD
100
AcDbSymbolTableRecord
100
AcDbLayerTableRecord
  2
ASSI
 70
0
 62
7
  6
CONTINUOUS
370
-3
390
F
  0
LAYER
  5
1FE
100
AcDbSymbolTableRecord
100
AcDbLayerTableRecord
  2
COORDINATE
 70
0
 62
7
  6
CONTINUOUS
370
-3
390
F
  0
LAYER
  5
1FF
100
AcDbSymbolTableRecord
100
AcDbLayerTableRecord
  2
COSMETICI
 70
0
 62
7
  6
CONTINUOUS
370
-3
390
F
  0
LAYER
  5
200
100
AcDbSymbolTableRecord
100
AcDbLayerTableRecord
  2
CURVE
 70
0
 62
7
  6
CONTINUOUS
370
-3
390
F
  0
LAYER
  5
201
100
AcDbSymbolTableRecord
100
AcDbLayerTableRecord
  2
INTF_7
 70
0
 62
7
  6
CONTINUOUS
370
-3
390
F
  0
LAYER
  5
202
100
AcDbSymbolTableRecord
100
AcDbLayerTableRecord
  2
NOTE
 70
0
 62
7
  6
CONTINUOUS
370
-3
390
F
  0
LAYER
  5
203
100
AcDbSymbolTableRecord
100
AcDbLayerTableRecord
  2
PIANI
 70
0
 62
7
  6
CONTINUOUS
370
-3
390
F
  0
LAYER
  5
204
100
AcDbSymbolTableRecord
100
AcDbLayerTableRecord
  2
PUNTI
 70
0
 62
7
  6
CONTINUOUS
370
-3
390
F
  0
LAYER
  5
205
100
AcDbSymbolTableRecord
100
AcDbLayerTableRecord
  2
RGB__255__255__255__
 70
0
 62
7
  6
CONTINUOUS
370
-3
390
F
  0
LAYER
  5
206
100
AcDbSymbolTableRecord
100
AcDbLayerTableRecord
  2
SCRITTE
 70
0
 62
7
  6
CONTINUOUS
370
-3
390
F
  0
LAYER
  5
207
100
AcDbSymbolTableRecord
100
AcDbLayerTableRecord
  2
SIMBOLI
 70
0
 62
7
  6
CONTINUOUS
370
-3
390
F
  0
LAYER
  5
208
100
AcDbSymbolTableRecord
100
AcDbLayerTableRecord
  2
SNAPLINE
 70
0
 62
7
  6
CONTINUOUS
370
-3
390
F
  0
LAYER
  5
209
100
AcDbSymbolTableRecord
100
AcDbLayerTableRecord
  2
SUPERFICI
 70
0
 62
7
  6
CONTINUOUS
370
-3
390
F
  0
ENDTAB
  0
TABLE
  2
STYLE
  5
3
100
AcDbSymbolTable
 70
1
  0
STYLE
  5
11
100
AcDbSymbolTableRecord
100
AcDbTextStyleTableRecord
  2
STANDARD
 70
0
 40
0.0
 41
0.8
 50
0.0
 71
0
 42
0.2
  3
txt
  4

  0
STYLE
  5
20A
100
AcDbSymbolTableRecord
100
AcDbTextStyleTableRecord
  2
TEXTSTYLE_1
 70
0
 40
0.0
 41
0.8
 50
0.0
 71
0
 42
0.2
  3
gdt
  4

  0
ENDTAB
  0
TABLE
  2
VIEW
  5
6
100
AcDbSymbolTable
 70
0
  0
ENDTAB
  0
TABLE
  2
UCS
  5
7
100
AcDbSymbolTable
 70
0
  0
ENDTAB
  0
TABLE
  2
APPID
  5
9
100
AcDbSymbolTable
 70
1
  0
APPID
  5
20B
100
AcDbSymbolTableRecord
100
AcDbRegAppTableRecord
  2
ACAD
 70
0
  0
ENDTAB
  0
TABLE
  2
BLOCK_RECORD
  5
1
100
AcDbSymbolTable
 70
0
  0
BLOCK_RECORD
  5
20C
100
AcDbSymbolTableRecord
100
AcDbBlockTableRecord
  2
*Model_Space
  0
BLOCK_RECORD
  5
20D
100
AcDbSymbolTableRecord
100
AcDbBlockTableRecord
  2
*Paper_Space
  0
ENDTAB
  0
TABLE
  2
DIMSTYLE
  5
A
100
AcDbSymbolTable
 70
1
100
AcDbDimStyleTable
 71
0
  0
DIMSTYLE
105
20E
100
AcDbSymbolTableRecord
100
AcDbDimStyleTableRecord
  2
STANDARD
 70
0
  3

  4

 40
1.0
 41
3.0
 42
0.5
 43
0.38
 44
1.5
 45
0.0
 46
0.0
 47
0.01
 48
0.01
140
3.0
141
0.09
142
0.0
143
25.4
144
1.0
145
0.0
146
1.0
147
0.625
 71
1.0
 72
0.0
 73
0
 74
0
 75
0
 76
0
 77
1
 78
8
170
0
171
2
172
0
173
0
174
0
175
0
176
0
177
0
178
0
270
2
271
2
272
2
273
2
274
2
275
0
280
0
281
0
282
0
283
1
284
8
285
0
286
0
287
3
288
0
340
11
278
44
  0
ENDTAB
  0
ENDSEC
  0
SECTION
  2
BLOCKS
  0
BLOCK
  5
20
100
AcDbEntity
  8
0
100
AcDbBlockBegin
  2
*Model_Space
 70
0
 10
0.0
 20
0.0
 30
0.0
  3
*Model_Space
  1

  0
ENDBLK
  5
21
100
AcDbEntity
  8
0
100
AcDbBlockEnd
  0
BLOCK
  5
1C
100
AcDbEntity
  8
0
100
AcDbBlockBegin
  2
*Paper_Space
 70
0
 10
0.0
 20
0.0
 30
0.0
  3
*Paper_Space
  1

  0
ENDBLK
  5
1D
100
AcDbEntity
  8
0
100
AcDbBlockEnd
  0
ENDSEC
  0
SECTION
  2
ENTITIES
  0
LINE
  5
20F
100
AcDbEntity
  8
0
100
AcDbLine
 62
7
  6
CONTINUOUS
 10
-12.5758478542
 20
-19.9954423259
 11
-15.2020944533
 21
-19.5323641925
  0
LINE
  5
210
100
AcDbEntity
  8
0
100
AcDbLine
 62
253
  6
CONTINUOUS
 10
-12.5237534009
 20
-19.7
 11
-15.15
 21
-19.2369218666
  0
LINE
  5
211
100
AcDbEntity
  8
0
100
AcDbLine
 62
7
  6
CONTINUOUS
 10
-12.85
 20
-16.72
 11
-13.2215779374
 21
-16.3484220626
  0
LINE
  5
212
100
AcDbEntity
  8
0
100
AcDbLine
 62
7
  6
CONTINUOUS
 10
-11.25
 20
-17.92
 11
-10.85
 21
-18.32
  0
LINE
  5
213
100
AcDbEntity
  8
0
100
AcDbLine
 62
7
  6
CONTINUOUS
 10
-19.55
 20
-4.9
 11
-19.55
 21
13.5
  0
LINE
  5
214
100
AcDbEntity
  8
0
100
AcDbLine
 62
253
  6
CONTINUOUS
 10
-19.25
 20
13.4999972542
 11
-19.25
 21
-4.8999886427
  0
LINE
  5
215
100
AcDbEntity
  8
0
100
AcDbLine
 62
7
  6
CONTINUOUS
 10
-18.75
 20
9.3
 11
-18.75
 21
1.7
  0
LINE
  5
216
100
AcDbEntity
  8
0
100
AcDbLine
 62
7
  6
CONTINUOUS
 10
-18.65
 20
2.0
 11
-18.65
 21
9.0
  0
LINE
  5
217
100
AcDbEntity
  8
0
100
AcDbLine
 62
7
  6
CONTINUOUS
 10
12.95
 20
-20.0
 11
-12.5237534009
 21
-20.0
  0
LINE
  5
218
100
AcDbEntity
  8
0
100
AcDbLine
 62
253
  6
CONTINUOUS
 10
-12.5237534009
 20
-19.7
 11
12.9499972543
 21
-19.7
  0
LINE
  5
219
100
AcDbEntity
  8
0
100
AcDbLine
 62
253
  6
CONTINUOUS
 10
-15.45
 20
-19.2369218666
 11
-15.15
 21
-19.2369218666
  0
LINE
  5
21A
100
AcDbEntity
  8
0
100
AcDbLine
 62
253
  6
CONTINUOUS
 10
-6.65
 20
-18.9
 11
-15.45
 21
-18.9
  0
LINE
  5
21B
100
AcDbEntity
  8
0
100
AcDbLine
 62
7
  6
CONTINUOUS
 10
-5.25
 20
-18.8
 11
12.95
 21
-18.8
  0
LINE
  5
21C
100
AcDbEntity
  8
0
100
AcDbLine
 62
7
  6
CONTINUOUS
 10
-15.15
 20
-18.6
 11
-6.95
 21
-18.6
  0
LINE
  5
21D
100
AcDbEntity
  8
0
100
AcDbLine
 62
7
  6
CONTINUOUS
 10
13.0492735283
 20
-18.6
 11
-4.75
 21
-18.6
  0
LINE
  5
21E
100
AcDbEntity
  8
0
100
AcDbLine
 62
7
  6
CONTINUOUS
 10
-7.05
 20
-18.42
 11
-17.05
 21
-18.42
  0
LWPOLYLINE
  5
21F
100
AcDbEntity
  8
0
100
AcDbPolyline
 62
7
  6
CONTINUOUS
 90
4
 70
0
 10
-6.95
 20
-18.6
 10
-6.9483353295
 20
-18.6015307027
 10
-6.9437815282
 20
-18.6061033861
 10
-6.9363385961
 20
-18.6136657902
  0
LINE
  5
220
100
AcDbEntity
  8
0
100
AcDbLine
 62
7
  6
CONTINUOUS
 10
-10.85
 20
-16.3752569235
 11
-10.8658507028
 21
-16.3603258094
  0
LINE
  5
221
100
AcDbEntity
  8
0
100
AcDbLine
 62
7
  6
CONTINUOUS
 10
-10.8658507028
 20
-16.3603258094
 11
-10.8784002891
 21
-16.3484002891
  0
LINE
  5
222
100
AcDbEntity
  8
0
100
AcDbLine
 62
7
  6
CONTINUOUS
 10
-18.35
 20
13.5
 11
-18.35
 21
9.0
  0
LINE
  5
223
100
AcDbEntity
  8
0
100
AcDbLine
 62
7
  6
CONTINUOUS
 10
-18.35
 20
2.0
 11
-18.35
 21
-5.7
  0
LINE
  5
224
100
AcDbEntity
  8
0
100
AcDbLine
 62
7
  6
CONTINUOUS
 10
-18.15
 20
-5.2
 11
-18.15
 21
2.0
  0
LINE
  5
225
100
AcDbEntity
  8
0
100
AcDbLine
 62
7
  6
CONTINUOUS
 10
-18.15
 20
9.0
 11
-18.15
 21
13.6
  0
LINE
  5
226
100
AcDbEntity
  8
0
100
AcDbLine
 62
253
  6
CONTINUOUS
 10
-18.1366025404
 20
3.0
 11
-18.1366025404
 21
8.0
  0
LINE
  5
227
100
AcDbEntity
  8
0
100
AcDbLine
 62
253
  6
CONTINUOUS
 10
-17.8767949192
 20
8.0
 11
-17.8767949192
 21
3.0
  0
LINE
  5
228
100
AcDbEntity
  8
0
100
AcDbLine
 62
253
  6
CONTINUOUS
 10
-17.85
 20
13.5999940773
 11
-17.85
 21
9.0
  0
LINE
  5
229
100
AcDbEntity
  8
0
100
AcDbLine
 62
253
  6
CONTINUOUS
 10
-17.85
 20
2.0
 11
-17.85
 21
-5.5
  0
LINE
  5
22A
100
AcDbEntity
  8
0
100
AcDbLine
 62
253
  6
CONTINUOUS
 10
-17.5499999999
 20
-6.6
 11
-17.5499999999
 21
-6.9
  0
LINE
  5
22B
100
AcDbEntity
  8
0
100
AcDbLine
 62
7
  6
CONTINUOUS
 10
-17.05
 20
-7.02
 11
-17.05
 21
-18.42
  0
LINE
  5
22C
100
AcDbEntity
  8
0
100
AcDbLine
 62
7
  6
CONTINUOUS
 10
-10.85
 20
-18.32
 11
-13.25
 21
-18.32
  0
LINE
  5
22D
100
AcDbEntity
  8
0
100
AcDbLine
 62
253
  6
CONTINUOUS
 10
-5.05
 20
-18.3
 11
13.0499940774
 21
-18.3
  0
LINE
  5
22E
100
AcDbEntity
  8
0
100
AcDbLine
 62
7
  6
CONTINUOUS
 10
-11.25
 20
-17.92
 11
-12.85
 21
-17.92
  0
LINE
  5
22F
100
AcDbEntity
  8
0
100
AcDbLine
 62
7
  6
CONTINUOUS
 10
-7.05
 20
-17.6
 11
-6.95
 21
-17.6
  0
LINE
  5
230
100
AcDbEntity
  8
0
100
AcDbLine
 62
7
  6
CONTINUOUS
 10
-5.25
 20
-16.8
 11
-6.95
 21
-16.8
  0
LINE
  5
231
100
AcDbEntity
  8
0
100
AcDbLine
 62
7
  6
CONTINUOUS
 10
-12.85
 20
-16.72
 11
-11.25
 21
-16.72
  0
LINE
  5
232
100
AcDbEntity
  8
0
100
AcDbLine
 62
7
  6
CONTINUOUS
 10
-12.85
 20
-11.02
 11
-13.2215779374
 21
-10.6484220626
  0
LINE
  5
233
100
AcDbEntity
  8
0
100
AcDbLine
 62
7
  6
CONTINUOUS
 10
-11.25
 20
-12.22
 11
-10.85
 21
-12.62
  0
LINE
  5
234
100
AcDbEntity
  8
0
100
AcDbLine
 62
7
  6
CONTINUOUS
 10
-6.9363385961
 20
-18.6136657902
 11
-6.8568148996
 21
-18.6931016506
  0
LWPOLYLINE
  5
235
100
AcDbEntity
  8
0
100
AcDbPolyline
 62
7
  6
CONTINUOUS
 90
3
 70
0
 10
-6.8568148996
 20
-18.6931016506
 10
-6.8332488231
 20
-18.7167490919
 10
-6.7789310933
 20
-18.7709171755
  0
LWPOLYLINE
  5
236
100
AcDbEntity
  8
0
100
AcDbPolyline
 62
7
  6
CONTINUOUS
 90
5
 70
0
 10
-6.7789310933
 20
-18.7709171755
 10
-6.748979768
 20
-18.8010200245
 10
-6.7176210356
 20
-18.8328164101
 10
-6.6846277797
 20
-18.8659386796
 10
-6.65
 20
-18.9
  0
LINE
  5
237
100
AcDbEntity
  8
0
100
AcDbLine
 62
7
  6
CONTINUOUS
 10
-16.05
 20
-6.9
 11
-16.05
 21
-7.02
  0
LINE
  5
238
100
AcDbEntity
  8
0
100
AcDbLine
 62
7
  6
CONTINUOUS
 10
-15.95
 20
-15.6284860937
 11
-15.95
 21
-14.0284860937
  0
LINE
  5
239
100
AcDbEntity
  8
0
100
AcDbLine
 62
7
  6
CONTINUOUS
 10
-15.95
 20
-9.9284860937
 11
-15.95
 21
-8.3284860937
  0
LINE
  5
23A
100
AcDbEntity
  8
0
100
AcDbLine
 62
7
  6
CONTINUOUS
 10
-15.45
 20
-19.2369218666
 11
-15.45
 21
-18.42
  0
LINE
  5
23B
100
AcDbEntity
  8
0
100
AcDbLine
 62
253
  6
CONTINUOUS
 10
-15.15
 20
-18.6
 11
-15.15
 21
-19.2369218666
  0
LINE
  5
23C
100
AcDbEntity
  8
0
100
AcDbLine
 62
7
  6
CONTINUOUS
 10
-14.75
 20
-8.3284860937
 11
-14.75
 21
-9.9284860937
  0
LINE
  5
23D
100
AcDbEntity
  8
0
100
AcDbLine
 62
7
  6
CONTINUOUS
 10
-14.75
 20
-14.0284860937
 11
-14.75
 21
-15.6284860937
  0
LWPOLYLINE
  5
23E
100
AcDbEntity
  8
0
100
AcDbPolyline
 62
7
  6
CONTINUOUS
 90
10
 70
0
 10
-10.8784002891
 20
-16.3484002891
 10
-10.9333358761
 20
-16.3491960133
 10
-10.9882561404
 20
-16.3490013477
 10
-11.0431610822
 20
-16.3478162924
 10
-11.0980693424
 20
-16.3456374316
 10
-11.15296228
 20
-16.3424681811
 10
-11.2077839723
 20
-16.338318788
 10
-11.2625157784
 20
-16.333192668
 10
-11.3171763391
 20
-16.3270864053
 10
-11.3717656544
 20
-16.32
  0
LINE
  5
23F
100
AcDbEntity
  8
0
100
AcDbLine
 62
7
  6
CONTINUOUS
 10
19.55
 20
-16.5
 11
19.45
 21
-16.5
  0
LINE
  5
240
100
AcDbEntity
  8
0
100
AcDbLine
 62
7
  6
CONTINUOUS
 10
-5.05
 20
-16.5
 11
-7.05
 21
-16.5
  0
LINE
  5
241
100
AcDbEntity
  8
0
100
AcDbLine
 62
7
  6
CONTINUOUS
 10
-12.7281852221
 20
-16.32
 11
-11.3717656544
 21
-16.32
  0
LINE
  5
242
100
AcDbEntity
  8
0
100
AcDbLine
 62
253
  6
CONTINUOUS
 10
-6.75
 20
-16.2
 11
-4.75
 21
-16.2
  0
LINE
  5
243
100
AcDbEntity
  8
0
100
AcDbLine
 62
253
  6
CONTINUOUS
 10
19.45
 20
-15.75
 11
19.55
 21
-15.75
  0
LINE
  5
244
100
AcDbEntity
  8
0
100
AcDbLine
 62
7
  6
CONTINUOUS
 10
-8.15
 20
-15.6284860937
 11
-9.35
 21
-15.6284860937
  0
LINE
  5
245
100
AcDbEntity
  8
0
100
AcDbLine
 62
7
  6
CONTINUOUS
 10
-10.35
 20
-15.6284860937
 11
-11.55
 21
-15.6284860937
  0
LINE
  5
246
100
AcDbEntity
  8
0
100
AcDbLine
 62
7
  6
CONTINUOUS
 10
-12.55
 20
-15.6284860937
 11
-13.75
 21
-15.6284860937
  0
LINE
  5
247
100
AcDbEntity
  8
0
100
AcDbLine
 62
7
  6
CONTINUOUS
 10
-14.75
 20
-15.6284860937
 11
-15.95
 21
-15.6284860937
  0
LINE
  5
248
100
AcDbEntity
  8
0
100
AcDbLine
 62
7
  6
CONTINUOUS
 10
15.25
 20
-15.5
 11
1.45
 21
-15.5
  0
LINE
  5
249
100
AcDbEntity
  8
0
100
AcDbLine
 62
7
  6
CONTINUOUS
 10
-9.7177055206
 20
-15.2359735481
 11
-9.9822944794
 21
-15.2359735481
  0
LINE
  5
24A
100
AcDbEntity
  8
0
100
AcDbLine
 62
7
  6
CONTINUOUS
 10
-11.9177055206
 20
-15.2359735481
 11
-12.1822944794
 21
-15.2359735481
  0
LINE
  5
24B
100
AcDbEntity
  8
0
100
AcDbLine
 62
7
  6
CONTINUOUS
 10
-14.1177055206
 20
-15.2359735481
 11
-14.3822944794
 21
-15.2359735481
  0
LINE
  5
24C
100
AcDbEntity
  8
0
100
AcDbLine
 62
7
  6
CONTINUOUS
 10
-1.4478723943
 20
-15.2729174614
 11
-4.0010638028
 21
-14.23125
  0
LINE
  5
24D
100
AcDbEntity
  8
0
100
AcDbLine
 62
7
  6
CONTINUOUS
 10
-10.85
 20
-10.6752569235
 11
-10.8658507028
 21
-10.6603258094
  0
LINE
  5
24E
100
AcDbEntity
  8
0
100
AcDbLine
 62
7
  6
CONTINUOUS
 10
-10.8658507028
 20
-10.6603258094
 11
-10.8784002891
 21
-10.6484002891
  0
LINE
  5
24F
100
AcDbEntity
  8
0
100
AcDbLine
 62
7
  6
CONTINUOUS
 10
-13.75
 20
-15.6284860937
 11
-13.75
 21
-14.0284860937
  0
LINE
  5
250
100
AcDbEntity
  8
0
100
AcDbLine
 62
7
  6
CONTINUOUS
 10
-13.75
 20
-9.9284860937
 11
-13.75
 21
-8.3284860937
  0
LINE
  5
251
100
AcDbEntity
  8
0
100
AcDbLine
 62
7
  6
CONTINUOUS
 10
-13.25
 20
-18.32
 11
-13.25
 21
-16.3752569235
  0
LINE
  5
252
100
AcDbEntity
  8
0
100
AcDbLine
 62
7
  6
CONTINUOUS
 10
-13.25
 20
-12.62
 11
-13.25
 21
-10.6752569235
  0
LINE
  5
253
100
AcDbEntity
  8
0
100
AcDbLine
 62
253
  6
CONTINUOUS
 10
-13.1500000001
 20
18.6
 11
-13.1500000001
 21
18.3
  0
LINE
  5
254
100
AcDbEntity
  8
0
100
AcDbLine
 62
253
  6
CONTINUOUS
 10
-13.05
 20
20.0
 11
-13.05
 21
19.7
  0
LINE
  5
255
100
AcDbEntity
  8
0
100
AcDbLine
 62
7
  6
CONTINUOUS
 10
-12.85
 20
-17.92
 11
-12.85
 21
-16.72
  0
LINE
  5
256
100
AcDbEntity
  8
0
100
AcDbLine
 62
7
  6
CONTINUOUS
 10
-12.85
 20
-12.22
 11
-12.85
 21
-11.02
  0
LINE
  5
257
100
AcDbEntity
  8
0
100
AcDbLine
 62
7
  6
CONTINUOUS
 10
-14.25
 20
-9.5359735481
 11
-14.2499710185
 21
-10.2204733829
  0
LINE
  5
258
100
AcDbEntity
  8
0
100
AcDbLine
 62
7
  6
CONTINUOUS
 10
-14.25
 20
-15.2359735481
 11
-14.2499710185
 21
-15.9204733829
  0
LINE
  5
259
100
AcDbEntity
  8
0
100
AcDbLine
 62
7
  6
CONTINUOUS
 10
-14.250000029
 20
-8.7209979852
 11
-14.2499874398
 21
-8.0364569584
  0
LINE
  5
25A
100
AcDbEntity
  8
0
100
AcDbLine
 62
7
  6
CONTINUOUS
 10
-14.250000029
 20
-14.4209979852
 11
-14.2499874398
 21
-13.7364569584
  0
LINE
  5
25B
100
AcDbEntity
  8
0
100
AcDbLine
 62
7
  6
CONTINUOUS
 10
-3.15
 20
14.2583333582
 11
-1.1819148302
 21
14.9875
  0
LINE
  5
25C
100
AcDbEntity
  8
0
100
AcDbLine
 62
7
  6
CONTINUOUS
 10
-0.65
 20
14.83125
 11
-2.8840425476
 21
14.05
  0
LWPOLYLINE
  5
25D
100
AcDbEntity
  8
0
100
AcDbPolyline
 62
7
  6
CONTINUOUS
 90
10
 70
0
 10
-12.7281852221
 20
-16.32
 10
-12.7826369222
 20
-16.3270718433
 10
-12.8372066605
 20
-16.3331690154
 10
-12.8918944367
 20
-16.3382915162
 10
-12.9467343975
 20
-16.3424443961
 10
-13.0016923964
 20
-16.3456226047
 10
-13.0566659937
 20
-16.3478109908
 10
-13.1116210431
 20
-16.349004504
 10
-13.166591691
 20
-16.3492081946
 10
-13.2215779374
 20
-16.3484220626
  0
LINE
  5
25E
100
AcDbEntity
  8
0
100
AcDbLine
 62
7
  6
CONTINUOUS
 10
-9.7177055206
 20
-14.4209986393
 11
-9.9822944794
 21
-14.4209986393
  0
LINE
  5
25F
100
AcDbEntity
  8
0
100
AcDbLine
 62
7
  6
CONTINUOUS
 10
-11.9177055206
 20
-14.4209986393
 11
-12.1822944794
 21
-14.4209986393
  0
LINE
  5
260
100
AcDbEntity
  8
0
100
AcDbLine
 62
7
  6
CONTINUOUS
 10
-14.1177055206
 20
-14.4209986393
 11
-14.3822944794
 21
-14.4209986393
  0
LINE
  5
261
100
AcDbEntity
  8
0
100
AcDbLine
 62
7
  6
CONTINUOUS
 10
-15.95
 20
-14.0284860937
 11
-14.75
 21
-14.0284860937
  0
LINE
  5
262
100
AcDbEntity
  8
0
100
AcDbLine
 62
7
  6
CONTINUOUS
 10
-13.75
 20
-14.0284860937
 11
-12.55
 21
-14.0284860937
  0
LINE
  5
263
100
AcDbEntity
  8
0
100
AcDbLine
 62
7
  6
CONTINUOUS
 10
-11.55
 20
-14.0284860937
 11
-10.35
 21
-14.0284860937
  0
LINE
  5
264
100
AcDbEntity
  8
0
100
AcDbLine
 62
7
  6
CONTINUOUS
 10
-9.35
 20
-14.0284860937
 11
-8.15
 21
-14.0284860937
  0
LINE
  5
265
100
AcDbEntity
  8
0
100
AcDbLine
 62
7
  6
CONTINUOUS
 10
14.85
 20
-14.0
 11
8.85
 21
-14.0
  0
LINE
  5
266
100
AcDbEntity
  8
0
100
AcDbLine
 62
253
  6
CONTINUOUS
 10
17.75
 20
-13.6
 11
18.05
 21
-13.6
  0
LINE
  5
267
100
AcDbEntity
  8
0
100
AcDbLine
 62
253
  6
CONTINUOUS
 10
19.15
 20
-13.5
 11
19.45
 21
-13.5
  0
LINE
  5
268
100
AcDbEntity
  8
0
100
AcDbLine
 62
7
  6
CONTINUOUS
 10
-2.1393616736
 20
-13.1895825386
 11
-3.15
 21
-13.1895825386
  0
LINE
  5
269
100
AcDbEntity
  8
0
100
AcDbLine
 62
7
  6
CONTINUOUS
 10
-3.15
 20
-12.9291674614
 11
-2.1393616736
 21
-12.9291674614
  0
LINE
  5
26A
100
AcDbEntity
  8
0
100
AcDbLine
 62
7
  6
CONTINUOUS
 10
-4.0010638028
 20
-13.91875
 11
-2.9372340493
 21
-14.3354174614
  0
LINE
  5
26B
100
AcDbEntity
  8
0
100
AcDbLine
 62
7
  6
CONTINUOUS
 10
-2.5648936123
 20
-14.4916674614
 11
-1.4478723943
 21
-14.9604174614
  0
LINE
  5
26C
100
AcDbEntity
  8
0
100
AcDbLine
 62
7
  6
CONTINUOUS
 10
-12.55
 20
-8.3284860937
 11
-12.55
 21
-9.9284860937
  0
LINE
  5
26D
100
AcDbEntity
  8
0
100
AcDbLine
 62
7
  6
CONTINUOUS
 10
-12.55
 20
-14.0284860937
 11
-12.55
 21
-15.6284860937
  0
LINE
  5
26E
100
AcDbEntity
  8
0
100
AcDbLine
 62
253
  6
CONTINUOUS
 10
-12.5237534009
 20
-19.7
 11
-12.5237534009
 21
-20.0
  0
LINE
  5
26F
100
AcDbEntity
  8
0
100
AcDbLine
 62
7
  6
CONTINUOUS
 10
-11.55
 20
-15.6284860937
 11
-11.55
 21
-14.0284860937
  0
LINE
  5
270
100
AcDbEntity
  8
0
100
AcDbLine
 62
7
  6
CONTINUOUS
 10
-11.55
 20
-9.9284860937
 11
-11.55
 21
-8.3284860937
  0
LINE
  5
271
100
AcDbEntity
  8
0
100
AcDbLine
 62
7
  6
CONTINUOUS
 10
-11.25
 20
-11.02
 11
-11.25
 21
-12.22
  0
LINE
  5
272
100
AcDbEntity
  8
0
100
AcDbLine
 62
7
  6
CONTINUOUS
 10
-11.25
 20
-16.72
 11
-11.25
 21
-17.92
  0
LINE
  5
273
100
AcDbEntity
  8
0
100
AcDbLine
 62
7
  6
CONTINUOUS
 10
-12.05
 20
-8.7209986393
 11
-12.0500205846
 21
-8.0364903458
  0
LINE
  5
274
100
AcDbEntity
  8
0
100
AcDbLine
 62
7
  6
CONTINUOUS
 10
-12.05
 20
-9.5359735481
 11
-12.0499794154
 21
-10.2204818416
  0
LINE
  5
275
100
AcDbEntity
  8
0
100
AcDbLine
 62
7
  6
CONTINUOUS
 10
-12.05
 20
-14.4209986393
 11
-12.0500205846
 21
-13.7364903458
  0
LINE
  5
276
100
AcDbEntity
  8
0
100
AcDbLine
 62
7
  6
CONTINUOUS
 10
-12.05
 20
-15.2359735481
 11
-12.0499794154
 21
-15.9204818416
  0
LINE
  5
277
100
AcDbEntity
  8
0
100
AcDbLine
 62
253
  6
CONTINUOUS
 10
-15.15
 20
-19.2369218666
 11
-15.2020944533
 21
-19.5323641925
  0
LINE
  5
278
100
AcDbEntity
  8
0
100
AcDbLine
 62
7
  6
CONTINUOUS
 10
-2.7244680986
 20
12.1229165673
 11
-2.8308510646
 21
12.0708334327
  0
LINE
  5
279
100
AcDbEntity
  8
0
100
AcDbLine
 62
7
  6
CONTINUOUS
 10
-3.15
 20
10.9770834327
 11
-3.0436170247
 21
11.0291665673
  0
LINE
  5
27A
100
AcDbEntity
  8
0
100
AcDbLine
 62
7
  6
CONTINUOUS
 10
-3.0436170247
 20
11.0291665673
 11
-2.8840425476
 21
11.08125
  0
LINE
  5
27B
100
AcDbEntity
  8
0
100
AcDbLine
 62
7
  6
CONTINUOUS
 10
-2.9904255323
 20
10.76875
 11
-3.15
 21
10.7166665673
  0
LINE
  5
27C
100
AcDbEntity
  8
0
100
AcDbLine
 62
7
  6
CONTINUOUS
 10
-1.8734042585
 20
-13.1375
 11
-2.1393616736
 21
-13.1895825386
  0
LINE
  5
27D
100
AcDbEntity
  8
0
100
AcDbLine
 62
7
  6
CONTINUOUS
 10
-2.1393616736
 20
-12.9291674614
 11
-1.8734042585
 21
-12.8770825386
  0
LINE
  5
27E
100
AcDbEntity
  8
0
100
AcDbLine
 62
7
  6
CONTINUOUS
 10
-7.05
 20
-12.72
 11
-17.05
 21
-12.72
  0
LINE
  5
27F
100
AcDbEntity
  8
0
100
AcDbLine
 62
7
  6
CONTINUOUS
 10
-10.85
 20
-12.62
 11
-13.25
 21
-12.62
  0
LINE
  5
280
100
AcDbEntity
  8
0
100
AcDbLine
 62
7
  6
CONTINUOUS
 10
-11.25
 20
-12.22
 11
-12.85
 21
-12.22
  0
LINE
  5
281
100
AcDbEntity
  8
0
100
AcDbLine
 62
7
  6
CONTINUOUS
 10
-1.4478723943
 20
-11.9916674614
 11
-1.7138298094
 21
-11.9916674614
  0
LINE
  5
282
100
AcDbEntity
  8
0
100
AcDbLine
 62
7
  6
CONTINUOUS
 10
-1.9265957415
 20
-11.9916674614
 11
-3.15
 21
-11.9916674614
  0
LINE
  5
283
100
AcDbEntity
  8
0
100
AcDbLine
 62
7
  6
CONTINUOUS
 10
-3.15
 20
-11.73125
 11
-1.4478723943
 21
-11.73125
  0
LINE
  5
284
100
AcDbEntity
  8
0
100
AcDbLine
 62
7
  6
CONTINUOUS
 10
-1.8734042585
 20
-11.2104174614
 11
-2.7244680986
 21
-11.2104174614
  0
LINE
  5
285
100
AcDbEntity
  8
0
100
AcDbLine
 62
7
  6
CONTINUOUS
 10
-12.85
 20
-11.02
 11
-11.25
 21
-11.02
  0
LINE
  5
286
100
AcDbEntity
  8
0
100
AcDbLine
 62
7
  6
CONTINUOUS
 10
-2.5648936123
 20
-10.95
 11
-2.2457447141
 21
-10.95
  0
LINE
  5
287
100
AcDbEntity
  8
0
100
AcDbLine
 62
7
  6
CONTINUOUS
 10
-2.0329787076
 20
-10.95
 11
-1.8734042585
 21
-10.95
  0
LINE
  5
288
100
AcDbEntity
  8
0
100
AcDbLine
 62
7
  6
CONTINUOUS
 10
-2.8840425476
 20
-10.95
 11
-2.9904255323
 21
-10.8979174614
  0
LINE
  5
289
100
AcDbEntity
  8
0
100
AcDbLine
 62
7
  6
CONTINUOUS
 10
-2.6712765783
 20
-10.8979174614
 11
-2.5648936123
 21
-10.95
  0
LINE
  5
28A
100
AcDbEntity
  8
0
100
AcDbLine
 62
7
  6
CONTINUOUS
 10
-7.036406178
 20
-9.7135895127
 11
-6.9075148958
 21
-9.8424693507
  0
LWPOLYLINE
  5
28B
100
AcDbEntity
  8
0
100
AcDbPolyline
 62
7
  6
CONTINUOUS
 90
6
 70
0
 10
-6.9075148958
 20
-9.8424693507
 10
-6.8793507433
 20
-9.8708020849
 10
-6.8492110649
 20
-9.9007891589
 10
-6.8173568091
 20
-9.9322050995
 10
-6.7841568318
 20
-9.9652753799
 10
-6.75
 20
-10.0
  0
LWPOLYLINE
  5
28C
100
AcDbEntity
  8
0
100
AcDbPolyline
 62
7
  6
CONTINUOUS
 90
4
 70
0
 10
-7.05
 20
-9.7
 10
-7.0484788219
 20
-9.7016472375
 10
-7.0439316954
 20
-9.706177075
 10
-7.036406178
 20
-9.7135895127
  0
LINE
  5
28D
100
AcDbEntity
  8
0
100
AcDbLine
 62
7
  6
CONTINUOUS
 10
-10.85
 20
-10.6752569235
 11
-10.85
 21
-12.62
  0
LINE
  5
28E
100
AcDbEntity
  8
0
100
AcDbLine
 62
7
  6
CONTINUOUS
 10
-10.85
 20
-16.3752569235
 11
-10.85
 21
-18.32
  0
LINE
  5
28F
100
AcDbEntity
  8
0
100
AcDbLine
 62
7
  6
CONTINUOUS
 10
-10.35
 20
-8.3284860937
 11
-10.35
 21
-9.9284860937
  0
LINE
  5
290
100
AcDbEntity
  8
0
100
AcDbLine
 62
7
  6
CONTINUOUS
 10
-10.35
 20
-14.0284860937
 11
-10.35
 21
-15.6284860937
  0
LINE
  5
291
100
AcDbEntity
  8
0
100
AcDbLine
 62
7
  6
CONTINUOUS
 10
-9.35
 20
-15.6284860937
 11
-9.35
 21
-14.0284860937
  0
LINE
  5
292
100
AcDbEntity
  8
0
100
AcDbLine
 62
7
  6
CONTINUOUS
 10
-9.35
 20
-9.9284860937
 11
-9.35
 21
-8.3284860937
  0
LINE
  5
293
100
AcDbEntity
  8
0
100
AcDbLine
 62
7
  6
CONTINUOUS
 10
-9.85
 20
-8.7209986393
 11
-9.8500289815
 21
-8.0364988045
  0
LINE
  5
294
100
AcDbEntity
  8
0
100
AcDbLine
 62
7
  6
CONTINUOUS
 10
-9.85
 20
-14.4209986393
 11
-9.8500289815
 21
-13.7364988045
  0
LINE
  5
295
100
AcDbEntity
  8
0
100
AcDbLine
 62
7
  6
CONTINUOUS
 10
-9.849999971
 20
-9.5359742023
 11
-9.8500125602
 21
-10.220515229
  0
LINE
  5
296
100
AcDbEntity
  8
0
100
AcDbLine
 62
7
  6
CONTINUOUS
 10
-9.849999971
 20
-15.2359742023
 11
-9.8500125602
 21
-15.920515229
  0
LINE
  5
297
100
AcDbEntity
  8
0
100
AcDbLine
 62
7
  6
CONTINUOUS
 10
-3.0436170246
 20
12.175
 11
-2.8840425476
 21
12.33125
  0
LINE
  5
298
100
AcDbEntity
  8
0
100
AcDbLine
 62
7
  6
CONTINUOUS
 10
-2.9904255323
 20
10.0395831346
 11
-2.8308510646
 21
10.1958331347
  0
LINE
  5
299
100
AcDbEntity
  8
0
100
AcDbLine
 62
7
  6
CONTINUOUS
 10
-1.8734042585
 20
11.08125
 11
-1.7670212925
 21
11.1333334327
  0
LINE
  5
29A
100
AcDbEntity
  8
0
100
AcDbLine
 62
7
  6
CONTINUOUS
 10
-2.8308510646
 20
10.1958331347
 11
-2.7244680986
 21
10.2479168653
  0
LINE
  5
29B
100
AcDbEntity
  8
0
100
AcDbLine
 62
7
  6
CONTINUOUS
 10
-2.4585106462
 20
10.0395831347
 11
-2.7244680986
 21
9.9354168653
  0
LINE
  5
29C
100
AcDbEntity
  8
0
100
AcDbLine
 62
7
  6
CONTINUOUS
 10
-1.7138298094
 20
10.8729165673
 11
-1.8734042585
 21
10.8208334327
  0
LINE
  5
29D
100
AcDbEntity
  8
0
100
AcDbLine
 62
7
  6
CONTINUOUS
 10
-2.7244680986
 20
-11.2104174614
 11
-2.9904255323
 21
-11.2625
  0
LWPOLYLINE
  5
29E
100
AcDbEntity
  8
0
100
AcDbPolyline
 62
7
  6
CONTINUOUS
 90
10
 70
0
 10
-10.8784002891
 20
-10.6484002891
 10
-10.9333358761
 20
-10.6491960133
 10
-10.9882561404
 20
-10.6490013477
 10
-11.0431610822
 20
-10.6478162924
 10
-11.0980693424
 20
-10.6456374316
 10
-11.15296228
 20
-10.6424681811
 10
-11.2077839723
 20
-10.638318788
 10
-11.2625157784
 20
-10.633192668
 10
-11.3171763391
 20
-10.6270864053
 10
-11.3717656544
 20
-10.62
  0
LINE
  5
29F
100
AcDbEntity
  8
0
100
AcDbLine
 62
7
  6
CONTINUOUS
 10
-12.7281852221
 20
-10.62
 11
-11.3717656544
 21
-10.62
  0
LINE
  5
2A0
100
AcDbEntity
  8
0
100
AcDbLine
 62
253
  6
CONTINUOUS
 10
-4.75
 20
-10.0
 11
-6.75
 21
-10.0
  0
LINE
  5
2A1
100
AcDbEntity
  8
0
100
AcDbLine
 62
7
  6
CONTINUOUS
 10
-8.15
 20
-9.9284860937
 11
-9.35
 21
-9.9284860937
  0
LINE
  5
2A2
100
AcDbEntity
  8
0
100
AcDbLine
 62
7
  6
CONTINUOUS
 10
-10.35
 20
-9.9284860937
 11
-11.55
 21
-9.9284860937
  0
LINE
  5
2A3
100
AcDbEntity
  8
0
100
AcDbLine
 62
7
  6
CONTINUOUS
 10
-12.55
 20
-9.9284860937
 11
-13.75
 21
-9.9284860937
  0
LINE
  5
2A4
100
AcDbEntity
  8
0
100
AcDbLine
 62
7
  6
CONTINUOUS
 10
-14.75
 20
-9.9284860937
 11
-15.95
 21
-9.9284860937
  0
LINE
  5
2A5
100
AcDbEntity
  8
0
100
AcDbLine
 62
7
  6
CONTINUOUS
 10
-2.6180850953
 20
-9.9083325386
 11
-2.7244680986
 21
-9.9083325386
  0
LINE
  5
2A6
100
AcDbEntity
  8
0
100
AcDbLine
 62
7
  6
CONTINUOUS
 10
-7.05
 20
-9.7
 11
-5.05
 21
-9.7
  0
LINE
  5
2A7
100
AcDbEntity
  8
0
100
AcDbLine
 62
7
  6
CONTINUOUS
 10
-2.6712765783
 20
-9.6479174614
 11
-2.5117021292
 21
-9.6479174614
  0
LINE
  5
2A8
100
AcDbEntity
  8
0
100
AcDbLine
 62
7
  6
CONTINUOUS
 10
-1.8734042585
 20
-9.6479174614
 11
-1.7670212924
 21
-9.6479174614
  0
LINE
  5
2A9
100
AcDbEntity
  8
0
100
AcDbLine
 62
7
  6
CONTINUOUS
 10
-9.7177055206
 20
-9.5359735481
 11
-9.9822944794
 21
-9.5359735481
  0
LINE
  5
2AA
100
AcDbEntity
  8
0
100
AcDbLine
 62
7
  6
CONTINUOUS
 10
-11.9177055206
 20
-9.5359735481
 11
-12.1822944794
 21
-9.5359735481
  0
LINE
  5
2AB
100
AcDbEntity
  8
0
100
AcDbLine
 62
7
  6
CONTINUOUS
 10
-14.1177055206
 20
-9.5359735481
 11
-14.3822944794
 21
-9.5359735481
  0
LINE
  5
2AC
100
AcDbEntity
  8
0
100
AcDbLine
 62
7
  6
CONTINUOUS
 10
-6.95
 20
-9.5
 11
-5.25
 21
-9.5
  0
LINE
  5
2AD
100
AcDbEntity
  8
0
100
AcDbLine
 62
7
  6
CONTINUOUS
 10
-1.8734042585
 20
-9.23125
 11
-3.15
 21
-9.23125
  0
LINE
  5
2AE
100
AcDbEntity
  8
0
100
AcDbLine
 62
7
  6
CONTINUOUS
 10
-2.4585106462
 20
-9.9604174614
 11
-2.6180850953
 21
-9.9083325386
  0
LINE
  5
2AF
100
AcDbEntity
  8
0
100
AcDbLine
 62
7
  6
CONTINUOUS
 10
-2.5117021292
 20
-9.6479174614
 11
-2.2989361972
 21
-9.7520825386
  0
LINE
  5
2B0
100
AcDbEntity
  8
0
100
AcDbLine
 62
7
  6
CONTINUOUS
 10
-1.7670212924
 20
-9.9604174614
 11
-1.8734042585
 21
-9.9083325386
  0
LINE
  5
2B1
100
AcDbEntity
  8
0
100
AcDbLine
 62
7
  6
CONTINUOUS
 10
-1.7670212924
 20
-9.6479174614
 11
-1.6606383264
 21
-9.7
  0
LWPOLYLINE
  5
2B2
100
AcDbEntity
  8
0
100
AcDbPolyline
 62
7
  6
CONTINUOUS
 90
4
 70
0
 10
-5.05
 20
-9.7
 10
-5.0483527625
 20
-9.7015211781
 10
-5.043822925
 20
-9.7060683046
 10
-5.0364104873
 20
-9.713593822
  0
LINE
  5
2B3
100
AcDbEntity
  8
0
100
AcDbLine
 62
7
  6
CONTINUOUS
 10
-1.8202127755
 20
-12.0958325386
 11
-1.9265957415
 21
-11.9916674614
  0
LINE
  5
2B4
100
AcDbEntity
  8
0
100
AcDbLine
 62
7
  6
CONTINUOUS
 10
-1.7138298094
 20
-11.9916674614
 11
-1.6074468434
 21
-12.0958325386
  0
LINE
  5
2B5
100
AcDbEntity
  8
0
100
AcDbLine
 62
7
  6
CONTINUOUS
 10
-2.8308510646
 20
-10.7416674614
 11
-2.6712765783
 21
-10.8979174614
  0
LINE
  5
2B6
100
AcDbEntity
  8
0
100
AcDbLine
 62
7
  6
CONTINUOUS
 10
-5.0364104873
 20
-9.713593822
 11
-4.9570833741
 21
-9.7928331906
  0
LWPOLYLINE
  5
2B7
100
AcDbEntity
  8
0
100
AcDbPolyline
 62
7
  6
CONTINUOUS
 90
3
 70
0
 10
-4.9570833741
 20
-9.7928331906
 10
-4.9335326242
 20
-9.8164650246
 10
-4.8791979151
 20
-9.8706492567
  0
LWPOLYLINE
  5
2B8
100
AcDbEntity
  8
0
100
AcDbPolyline
 62
7
  6
CONTINUOUS
 90
5
 70
0
 10
-4.8791979151
 20
-9.8706492567
 10
-4.8492108411
 20
-9.9007889351
 10
-4.8177949005
 20
-9.9326431909
 10
-4.7847246201
 20
-9.9658431682
 10
-4.75
 20
-10.0
  0
LINE
  5
2B9
100
AcDbEntity
  8
0
100
AcDbLine
 62
7
  6
CONTINUOUS
 10
-8.15
 20
-8.3284860937
 11
-8.15
 21
-9.9284860937
  0
LINE
  5
2BA
100
AcDbEntity
  8
0
100
AcDbLine
 62
7
  6
CONTINUOUS
 10
-8.15
 20
-14.0284860937
 11
-8.15
 21
-15.6284860937
  0
LINE
  5
2BB
100
AcDbEntity
  8
0
100
AcDbLine
 62
253
  6
CONTINUOUS
 10
-12.5758478542
 20
-19.9954423259
 11
-12.5237534009
 21
-19.7
  0
LINE
  5
2BC
100
AcDbEntity
  8
0
100
AcDbLine
 62
7
  6
CONTINUOUS
 10
-3.0968085123
 20
12.0708334327
 11
-3.0436170246
 21
12.175
  0
LINE
  5
2BD
100
AcDbEntity
  8
0
100
AcDbLine
 62
7
  6
CONTINUOUS
 10
-2.8308510646
 20
12.0708334327
 11
-2.9372340493
 21
11.8625
  0
LINE
  5
2BE
100
AcDbEntity
  8
0
100
AcDbLine
 62
7
  6
CONTINUOUS
 10
-3.0968085123
 20
9.8833331346
 11
-2.9904255323
 21
10.0395831346
  0
LINE
  5
2BF
100
AcDbEntity
  8
0
100
AcDbLine
 62
7
  6
CONTINUOUS
 10
-2.7244680986
 20
9.9354168653
 11
-2.8308510646
 21
9.7791668653
  0
LINE
  5
2C0
100
AcDbEntity
  8
0
100
AcDbLine
 62
7
  6
CONTINUOUS
 10
-1.5010638773
 20
11.1333334327
 11
-1.6074468434
 21
10.9770834327
  0
LINE
  5
2C1
100
AcDbEntity
  8
0
100
AcDbLine
 62
7
  6
CONTINUOUS
 10
-1.6074468434
 20
10.9770834327
 11
-1.7138298094
 21
10.8729165673
  0
LINE
  5
2C2
100
AcDbEntity
  8
0
100
AcDbLine
 62
7
  6
CONTINUOUS
 10
-2.9372340493
 20
7.95625
 11
-2.8308510646
 21
8.0604168653
  0
LINE
  5
2C3
100
AcDbEntity
  8
0
100
AcDbLine
 62
7
  6
CONTINUOUS
 10
-1.5542553604
 20
9.05
 11
-1.6606383264
 21
8.9458331347
  0
LINE
  5
2C4
100
AcDbEntity
  8
0
100
AcDbLine
 62
7
  6
CONTINUOUS
 10
-2.6712765783
 20
7.8520831347
 11
-2.8308510646
 21
7.6958331347
  0
LINE
  5
2C5
100
AcDbEntity
  8
0
100
AcDbLine
 62
7
  6
CONTINUOUS
 10
-2.0329787076
 20
8.89375
 11
-1.8734042585
 21
8.9979168653
  0
LINE
  5
2C6
100
AcDbEntity
  8
0
100
AcDbLine
 62
7
  6
CONTINUOUS
 10
-1.6606383264
 20
8.9458331347
 11
-1.7670212924
 21
8.89375
  0
LINE
  5
2C7
100
AcDbEntity
  8
0
100
AcDbLine
 62
7
  6
CONTINUOUS
 10
-2.8308510646
 20
8.0604168653
 11
-2.6180850953
 21
8.1645831347
  0
LINE
  5
2C8
100
AcDbEntity
  8
0
100
AcDbLine
 62
7
  6
CONTINUOUS
 10
-2.5648936123
 20
7.9041668654
 11
-2.6712765783
 21
7.8520831347
  0
LINE
  5
2C9
100
AcDbEntity
  8
0
100
AcDbLine
 62
7
  6
CONTINUOUS
 10
-2.4053191632
 20
7.95625
 11
-2.5648936123
 21
7.9041668654
  0
LINE
  5
2CA
100
AcDbEntity
  8
0
100
AcDbLine
 62
7
  6
CONTINUOUS
 10
-2.8840425476
 20
-9.7
 11
-2.6712765783
 21
-9.6479174614
  0
LWPOLYLINE
  5
2CB
100
AcDbEntity
  8
0
100
AcDbPolyline
 62
7
  6
CONTINUOUS
 90
10
 70
0
 10
-12.7281852221
 20
-10.62
 10
-12.7826369222
 20
-10.6270718433
 10
-12.8372066605
 20
-10.6331690154
 10
-12.8918944367
 20
-10.6382915162
 10
-12.9467343975
 20
-10.6424443961
 10
-13.0016923964
 20
-10.6456226047
 10
-13.0566659937
 20
-10.6478109908
 10
-13.1116210431
 20
-10.649004504
 10
-13.166591691
 20
-10.6492081946
 10
-13.2215779374
 20
-10.6484220626
  0
LINE
  5
2CC
100
AcDbEntity
  8
0
100
AcDbLine
 62
7
  6
CONTINUOUS
 10
-3.15
 20
-8.9708325386
 11
-1.8734042585
 21
-8.9708325386
  0
LINE
  5
2CD
100
AcDbEntity
  8
0
100
AcDbLine
 62
7
  6
CONTINUOUS
 10
-9.7177055206
 20
-8.7209986393
 11
-9.9822944794
 21
-8.7209986393
  0
LINE
  5
2CE
100
AcDbEntity
  8
0
100
AcDbLine
 62
7
  6
CONTINUOUS
 10
-11.9177055206
 20
-8.7209986393
 11
-12.1822944794
 21
-8.7209986393
  0
LINE
  5
2CF
100
AcDbEntity
  8
0
100
AcDbLine
 62
7
  6
CONTINUOUS
 10
-14.1177055206
 20
-8.7209986393
 11
-14.3822944794
 21
-8.7209986393
  0
LINE
  5
2D0
100
AcDbEntity
  8
0
100
AcDbLine
 62
7
  6
CONTINUOUS
 10
-1.8734042585
 20
-8.3979174614
 11
-3.15
 21
-8.3979174614
  0
LINE
  5
2D1
100
AcDbEntity
  8
0
100
AcDbLine
 62
7
  6
CONTINUOUS
 10
-15.95
 20
-8.3284860937
 11
-14.75
 21
-8.3284860937
  0
LINE
  5
2D2
100
AcDbEntity
  8
0
100
AcDbLine
 62
7
  6
CONTINUOUS
 10
-13.75
 20
-8.3284860937
 11
-12.55
 21
-8.3284860937
  0
LINE
  5
2D3
100
AcDbEntity
  8
0
100
AcDbLine
 62
7
  6
CONTINUOUS
 10
-11.55
 20
-8.3284860937
 11
-10.35
 21
-8.3284860937
  0
LINE
  5
2D4
100
AcDbEntity
  8
0
100
AcDbLine
 62
7
  6
CONTINUOUS
 10
-9.35
 20
-8.3284860937
 11
-8.15
 21
-8.3284860937
  0
LINE
  5
2D5
100
AcDbEntity
  8
0
100
AcDbLine
 62
7
  6
CONTINUOUS
 10
-3.15
 20
-8.1375
 11
-1.8734042585
 21
-8.1375
  0
LINE
  5
2D6
100
AcDbEntity
  8
0
100
AcDbLine
 62
7
  6
CONTINUOUS
 10
8.85
 20
-8.0
 11
14.85
 21
-8.0
  0
LINE
  5
2D7
100
AcDbEntity
  8
0
100
AcDbLine
 62
7
  6
CONTINUOUS
 10
-1.4478723943
 20
-7.5645825386
 11
-1.6074468434
 21
-7.5645825386
  0
LINE
  5
2D8
100
AcDbEntity
  8
0
100
AcDbLine
 62
7
  6
CONTINUOUS
 10
-1.8202127755
 20
-7.5645825386
 11
-3.15
 21
-7.5645825386
  0
LINE
  5
2D9
100
AcDbEntity
  8
0
100
AcDbLine
 62
7
  6
CONTINUOUS
 10
-3.15
 20
-7.3041674614
 11
-1.4478723943
 21
-7.3041674614
  0
LINE
  5
2DA
100
AcDbEntity
  8
0
100
AcDbLine
 62
7
  6
CONTINUOUS
 10
-1.7670212924
 20
-8.45
 11
-1.8734042585
 21
-8.3979174614
  0
LINE
  5
2DB
100
AcDbEntity
  8
0
100
AcDbLine
 62
7
  6
CONTINUOUS
 10
-2.3521276802
 20
-10.0645825386
 11
-2.4585106462
 21
-9.9604174614
  0
LINE
  5
2DC
100
AcDbEntity
  8
0
100
AcDbLine
 62
7
  6
CONTINUOUS
 10
-2.2989361972
 20
-9.7520825386
 11
-2.1925531566
 21
-9.85625
  0
LINE
  5
2DD
100
AcDbEntity
  8
0
100
AcDbLine
 62
7
  6
CONTINUOUS
 10
-1.6606383264
 20
-9.7
 11
-1.5542553604
 21
-9.8041674614
  0
LINE
  5
2DE
100
AcDbEntity
  8
0
100
AcDbLine
 62
7
  6
CONTINUOUS
 10
-1.7138298094
 20
-8.5020825386
 11
-1.7670212924
 21
-8.45
  0
LINE
  5
2DF
100
AcDbEntity
  8
0
100
AcDbLine
 62
7
  6
CONTINUOUS
 10
-2.9904255323
 20
-10.8979174614
 11
-3.0968085123
 21
-10.7416674614
  0
LINE
  5
2E0
100
AcDbEntity
  8
0
100
AcDbLine
 62
7
  6
CONTINUOUS
 10
-1.7138298094
 20
-12.2520825386
 11
-1.8202127755
 21
-12.0958325386
  0
LINE
  5
2E1
100
AcDbEntity
  8
0
100
AcDbLine
 62
7
  6
CONTINUOUS
 10
-1.6074468434
 20
-12.0958325386
 11
-1.5010638773
 21
-12.2520825386
  0
LINE
  5
2E2
100
AcDbEntity
  8
0
100
AcDbLine
 62
7
  6
CONTINUOUS
 10
-7.05
 20
-18.42
 11
-7.05
 21
-6.9
  0
LINE
  5
2E3
100
AcDbEntity
  8
0
100
AcDbLine
 62
7
  6
CONTINUOUS
 10
-6.95
 20
-18.6
 11
-6.95
 21
-16.5
  0
LINE
  5
2E4
100
AcDbEntity
  8
0
100
AcDbLine
 62
7
  6
CONTINUOUS
 10
-6.95
 20
-9.7
 11
-6.95
 21
-6.9
  0
LINE
  5
2E5
100
AcDbEntity
  8
0
100
AcDbLine
 62
253
  6
CONTINUOUS
 10
-6.75
 20
-10.0
 11
-6.75
 21
-16.2
  0
LINE
  5
2E6
100
AcDbEntity
  8
0
100
AcDbLine
 62
253
  6
CONTINUOUS
 10
-6.65
 20
-6.6
 11
-6.65
 21
-9.5
  0
LINE
  5
2E7
100
AcDbEntity
  8
0
100
AcDbLine
 62
253
  6
CONTINUOUS
 10
-6.65
 20
-16.8
 11
-6.65
 21
-18.9
  0
LINE
  5
2E8
100
AcDbEntity
  8
0
100
AcDbLine
 62
7
  6
CONTINUOUS
 10
-6.05
 20
-9.5
 11
-6.05
 21
-9.7
  0
LINE
  5
2E9
100
AcDbEntity
  8
0
100
AcDbLine
 62
7
  6
CONTINUOUS
 10
-6.05
 20
-16.5
 11
-6.05
 21
-16.8
  0
LINE
  5
2EA
100
AcDbEntity
  8
0
100
AcDbLine
 62
7
  6
CONTINUOUS
 10
-5.65
 20
-9.5
 11
-5.65
 21
-9.7
  0
LINE
  5
2EB
100
AcDbEntity
  8
0
100
AcDbLine
 62
7
  6
CONTINUOUS
 10
-5.65
 20
-16.5
 11
-5.65
 21
-16.8
  0
LINE
  5
2EC
100
AcDbEntity
  8
0
100
AcDbLine
 62
7
  6
CONTINUOUS
 10
-3.15
 20
11.8625
 11
-3.0968085123
 21
12.0708334327
  0
LINE
  5
2ED
100
AcDbEntity
  8
0
100
AcDbLine
 62
7
  6
CONTINUOUS
 10
-3.15
 20
9.675
 11
-3.0968085123
 21
9.8833331346
  0
LINE
  5
2EE
100
AcDbEntity
  8
0
100
AcDbLine
 62
7
  6
CONTINUOUS
 10
-3.0968085123
 20
7.64375
 11
-3.0436170246
 21
7.8
  0
LINE
  5
2EF
100
AcDbEntity
  8
0
100
AcDbLine
 62
7
  6
CONTINUOUS
 10
-1.7670212925
 20
11.1333334327
 11
-1.7138298094
 21
11.2375
  0
LINE
  5
2F0
100
AcDbEntity
  8
0
100
AcDbLine
 62
7
  6
CONTINUOUS
 10
-2.8308510646
 20
7.6958331347
 11
-2.8840425476
 21
7.5916668654
  0
LINE
  5
2F1
100
AcDbEntity
  8
0
100
AcDbLine
 62
7
  6
CONTINUOUS
 10
-1.5010638773
 20
9.1541668653
 11
-1.5542553604
 21
9.05
  0
LINE
  5
2F2
100
AcDbEntity
  8
0
100
AcDbLine
 62
7
  6
CONTINUOUS
 10
-3.0436170246
 20
7.8
 11
-2.9372340493
 21
7.95625
  0
LINE
  5
2F3
100
AcDbEntity
  8
0
100
AcDbLine
 62
7
  6
CONTINUOUS
 10
-1.8734042585
 20
8.9979168653
 11
-1.7670212924
 21
9.1541668653
  0
LINE
  5
2F4
100
AcDbEntity
  8
0
100
AcDbLine
 62
7
  6
CONTINUOUS
 10
-1.8202127755
 20
6.9145831347
 11
-1.7138298094
 21
7.0708331347
  0
LINE
  5
2F5
100
AcDbEntity
  8
0
100
AcDbLine
 62
7
  6
CONTINUOUS
 10
-1.6606383264
 20
6.7583331347
 11
-1.8734042585
 21
6.6020831347
  0
LINE
  5
2F6
100
AcDbEntity
  8
0
100
AcDbLine
 62
7
  6
CONTINUOUS
 10
-1.9797872245
 20
6.8104168653
 11
-1.8202127755
 21
6.9145831347
  0
LINE
  5
2F7
100
AcDbEntity
  8
0
100
AcDbLine
 62
7
  6
CONTINUOUS
 10
-7.05
 20
-7.02
 11
-17.05
 21
-7.02
  0
LINE
  5
2F8
100
AcDbEntity
  8
0
100
AcDbLine
 62
7
  6
CONTINUOUS
 10
-6.95
 20
-6.9
 11
-17.55
 21
-6.9
  0
LINE
  5
2F9
100
AcDbEntity
  8
0
100
AcDbLine
 62
7
  6
CONTINUOUS
 10
-1.4478723943
 20
-6.8875
 11
-1.7138298094
 21
-6.8875
  0
LINE
  5
2FA
100
AcDbEntity
  8
0
100
AcDbLine
 62
253
  6
CONTINUOUS
 10
-17.5499886427
 20
-6.6
 11
-6.65
 21
-6.6
  0
LINE
  5
2FB
100
AcDbEntity
  8
0
100
AcDbLine
 62
7
  6
CONTINUOUS
 10
-1.4478723943
 20
-6.2104174614
 11
-1.7670212924
 21
-6.2104174614
  0
LINE
  5
2FC
100
AcDbEntity
  8
0
100
AcDbLine
 62
7
  6
CONTINUOUS
 10
-2.0861701906
 20
-6.2104174614
 11
-3.15
 21
-6.2104174614
  0
LINE
  5
2FD
100
AcDbEntity
  8
0
100
AcDbLine
 62
7
  6
CONTINUOUS
 10
-3.15
 20
-5.95
 11
-1.4478723943
 21
-5.95
  0
LINE
  5
2FE
100
AcDbEntity
  8
0
100
AcDbLine
 62
7
  6
CONTINUOUS
 10
-5.25
 20
-5.7
 11
-18.35
 21
-5.7
  0
LINE
  5
2FF
100
AcDbEntity
  8
0
100
AcDbLine
 62
7
  6
CONTINUOUS
 10
-2.0861701906
 20
-5.5333325386
 11
-2.2989361972
 21
-5.5333325386
  0
LINE
  5
300
100
AcDbEntity
  8
0
100
AcDbLine
 62
7
  6
CONTINUOUS
 10
-5.05
 20
-5.5
 11
-17.85
 21
-5.5
  0
LINE
  5
301
100
AcDbEntity
  8
0
100
AcDbLine
 62
7
  6
CONTINUOUS
 10
-2.6180850953
 20
-5.5333325386
 11
-2.8308510646
 21
-5.48125
  0
LINE
  5
302
100
AcDbEntity
  8
0
100
AcDbLine
 62
7
  6
CONTINUOUS
 10
-2.7776595816
 20
-5.2208325386
 11
-2.6180850953
 21
-5.2729174614
  0
LINE
  5
303
100
AcDbEntity
  8
0
100
AcDbLine
 62
7
  6
CONTINUOUS
 10
-1.8734042585
 20
-6.3666674614
 11
-2.0861701906
 21
-6.2104174614
  0
LINE
  5
304
100
AcDbEntity
  8
0
100
AcDbLine
 62
7
  6
CONTINUOUS
 10
-1.6606383264
 20
-8.3458325386
 11
-1.5010638773
 21
-8.5020825386
  0
LINE
  5
305
100
AcDbEntity
  8
0
100
AcDbLine
 62
7
  6
CONTINUOUS
 10
-1.7138298094
 20
-7.66875
 11
-1.8202127755
 21
-7.5645825386
  0
LINE
  5
306
100
AcDbEntity
  8
0
100
AcDbLine
 62
7
  6
CONTINUOUS
 10
-1.6074468434
 20
-7.5645825386
 11
-1.5010638773
 21
-7.66875
  0
LINE
  5
307
100
AcDbEntity
  8
0
100
AcDbLine
 62
7
  6
CONTINUOUS
 10
-2.8308510646
 20
-5.48125
 11
-2.9904255323
 21
-5.325
  0
LINE
  5
308
100
AcDbEntity
  8
0
100
AcDbLine
 62
7
  6
CONTINUOUS
 10
-1.7670212924
 20
-6.2104174614
 11
-1.6606383264
 21
-6.3145825386
  0
LINE
  5
309
100
AcDbEntity
  8
0
100
AcDbLine
 62
7
  6
CONTINUOUS
 10
-2.2989361972
 20
-10.16875
 11
-2.3521276802
 21
-10.0645825386
  0
LINE
  5
30A
100
AcDbEntity
  8
0
100
AcDbLine
 62
7
  6
CONTINUOUS
 10
-2.1925531566
 20
-9.85625
 11
-2.0861701906
 21
-10.0645825386
  0
LINE
  5
30B
100
AcDbEntity
  8
0
100
AcDbLine
 62
7
  6
CONTINUOUS
 10
-1.7138298094
 20
-10.0645825386
 11
-1.7670212924
 21
-9.9604174614
  0
LINE
  5
30C
100
AcDbEntity
  8
0
100
AcDbLine
 62
7
  6
CONTINUOUS
 10
-1.5542553604
 20
-9.8041674614
 11
-1.5010638773
 21
-9.9083325386
  0
LINE
  5
30D
100
AcDbEntity
  8
0
100
AcDbLine
 62
7
  6
CONTINUOUS
 10
-1.6606383264
 20
-8.60625
 11
-1.7138298094
 21
-8.5020825386
  0
LINE
  5
30E
100
AcDbEntity
  8
0
100
AcDbLine
 62
7
  6
CONTINUOUS
 10
-2.9372340493
 20
-10.48125
 11
-2.8308510646
 21
-10.7416674614
  0
LINE
  5
30F
100
AcDbEntity
  8
0
100
AcDbLine
 62
7
  6
CONTINUOUS
 10
-5.25
 20
-18.8
 11
-5.25
 21
-16.5
  0
LINE
  5
310
100
AcDbEntity
  8
0
100
AcDbLine
 62
7
  6
CONTINUOUS
 10
-5.25
 20
-9.7
 11
-5.25
 21
-5.6658901784
  0
LINE
  5
311
100
AcDbEntity
  8
0
100
AcDbLine
 62
7
  6
CONTINUOUS
 10
-5.05
 20
-18.3
 11
-5.05
 21
-16.5
  0
LINE
  5
312
100
AcDbEntity
  8
0
100
AcDbLine
 62
7
  6
CONTINUOUS
 10
-5.05
 20
-9.7
 11
-5.05
 21
-5.5
  0
LINE
  5
313
100
AcDbEntity
  8
0
100
AcDbLine
 62
253
  6
CONTINUOUS
 10
-4.75
 20
-5.2
 11
-4.75
 21
-10.0
  0
LINE
  5
314
100
AcDbEntity
  8
0
100
AcDbLine
 62
253
  6
CONTINUOUS
 10
-4.75
 20
-16.2
 11
-4.75
 21
-18.6
  0
LINE
  5
315
100
AcDbEntity
  8
0
100
AcDbLine
 62
7
  6
CONTINUOUS
 10
-4.0010638028
 20
-14.23125
 11
-4.0010638028
 21
-13.91875
  0
LINE
  5
316
100
AcDbEntity
  8
0
100
AcDbLine
 62
7
  6
CONTINUOUS
 10
-3.15
 20
7.33125
 11
-3.0968085123
 21
7.64375
  0
LINE
  5
317
100
AcDbEntity
  8
0
100
AcDbLine
 62
7
  6
CONTINUOUS
 10
-2.8308510646
 20
9.7791668653
 11
-2.8840425476
 21
9.5708331347
  0
LINE
  5
318
100
AcDbEntity
  8
0
100
AcDbLine
 62
7
  6
CONTINUOUS
 10
-2.8840425476
 20
7.5916668654
 11
-2.9372340493
 21
7.3833331347
  0
LINE
  5
319
100
AcDbEntity
  8
0
100
AcDbLine
 62
7
  6
CONTINUOUS
 10
-1.7138298094
 20
11.2375
 11
-1.6606383264
 21
11.4458334327
  0
LINE
  5
31A
100
AcDbEntity
  8
0
100
AcDbLine
 62
7
  6
CONTINUOUS
 10
-1.7670212924
 20
9.1541668653
 11
-1.7138298094
 21
9.3625
  0
LINE
  5
31B
100
AcDbEntity
  8
0
100
AcDbLine
 62
7
  6
CONTINUOUS
 10
-1.4478723943
 20
9.3625
 11
-1.5010638773
 21
9.1541668653
  0
LINE
  5
31C
100
AcDbEntity
  8
0
100
AcDbLine
 62
7
  6
CONTINUOUS
 10
-1.5010638773
 20
7.01875
 11
-1.6606383264
 21
6.7583331347
  0
LINE
  5
31D
100
AcDbEntity
  8
0
100
AcDbLine
 62
7
  6
CONTINUOUS
 10
-1.8734042585
 20
-5.48125
 11
-2.0861701906
 21
-5.5333325386
  0
LINE
  5
31E
100
AcDbEntity
  8
0
100
AcDbLine
 62
7
  6
CONTINUOUS
 10
-2.0861701906
 20
-5.2729174614
 11
-1.9797872245
 21
-5.2729174614
  0
LINE
  5
31F
100
AcDbEntity
  8
0
100
AcDbLine
 62
253
  6
CONTINUOUS
 10
-18.15
 20
-5.2
 11
-4.75
 21
-5.2
  0
LINE
  5
320
100
AcDbEntity
  8
0
100
AcDbLine
 62
253
  6
CONTINUOUS
 10
-19.55
 20
-4.9
 11
-19.25
 21
-4.9
  0
LINE
  5
321
100
AcDbEntity
  8
0
100
AcDbLine
 62
7
  6
CONTINUOUS
 10
-18.15
 20
-4.9
 11
-18.35
 21
-4.9
  0
LINE
  5
322
100
AcDbEntity
  8
0
100
AcDbLine
 62
7
  6
CONTINUOUS
 10
-2.0329787076
 20
-4.1791662693
 11
-2.0861701906
 21
-4.1791662693
  0
LINE
  5
323
100
AcDbEntity
  8
0
100
AcDbLine
 62
7
  6
CONTINUOUS
 10
-2.2989361972
 20
-4.1270837307
 11
-2.4053191632
 21
-4.1270837307
  0
LINE
  5
324
100
AcDbEntity
  8
0
100
AcDbLine
 62
7
  6
CONTINUOUS
 10
18.25
 20
-3.8
 11
18.65
 21
-3.8
  0
LINE
  5
325
100
AcDbEntity
  8
0
100
AcDbLine
 62
7
  6
CONTINUOUS
 10
18.55
 20
-3.5
 11
17.75
 21
-3.5
  0
LINE
  5
326
100
AcDbEntity
  8
0
100
AcDbLine
 62
7
  6
CONTINUOUS
 10
-2.2989361972
 20
-3.8666662693
 11
-1.9797872245
 21
-3.91875
  0
LINE
  5
327
100
AcDbEntity
  8
0
100
AcDbLine
 62
7
  6
CONTINUOUS
 10
-2.5648936123
 20
-3.45
 11
-2.7776595816
 21
-3.3979162693
  0
LINE
  5
328
100
AcDbEntity
  8
0
100
AcDbLine
 62
7
  6
CONTINUOUS
 10
-2.6712765783
 20
-3.0854162693
 11
-2.5117021292
 21
-3.1375
  0
LINE
  5
329
100
AcDbEntity
  8
0
100
AcDbLine
 62
7
  6
CONTINUOUS
 10
-1.9265957415
 20
-4.23125
 11
-2.0329787076
 21
-4.1791662693
  0
LINE
  5
32A
100
AcDbEntity
  8
0
100
AcDbLine
 62
7
  6
CONTINUOUS
 10
-1.9797872245
 20
-3.91875
 11
-1.7670212924
 21
-4.0229162693
  0
LINE
  5
32B
100
AcDbEntity
  8
0
100
AcDbLine
 62
7
  6
CONTINUOUS
 10
-2.7776595816
 20
-3.3979162693
 11
-2.9904255323
 21
-3.1895837307
  0
LINE
  5
32C
100
AcDbEntity
  8
0
100
AcDbLine
 62
7
  6
CONTINUOUS
 10
-1.7670212924
 20
-4.3875
 11
-1.9265957415
 21
-4.23125
  0
LINE
  5
32D
100
AcDbEntity
  8
0
100
AcDbLine
 62
7
  6
CONTINUOUS
 10
-1.7670212924
 20
-4.0229162693
 11
-1.6606383264
 21
-4.1270837307
  0
LINE
  5
32E
100
AcDbEntity
  8
0
100
AcDbLine
 62
7
  6
CONTINUOUS
 10
-2.8840425476
 20
-5.0645825386
 11
-2.7776595816
 21
-5.2208325386
  0
LINE
  5
32F
100
AcDbEntity
  8
0
100
AcDbLine
 62
7
  6
CONTINUOUS
 10
-1.6606383264
 20
-6.3145825386
 11
-1.5542553604
 21
-6.4708325386
  0
LINE
  5
330
100
AcDbEntity
  8
0
100
AcDbLine
 62
7
  6
CONTINUOUS
 10
-2.7776595816
 20
-2.9291662693
 11
-2.6712765783
 21
-3.0854162693
  0
LINE
  5
331
100
AcDbEntity
  8
0
100
AcDbLine
 62
7
  6
CONTINUOUS
 10
-1.6606383264
 20
-4.1270837307
 11
-1.5542553604
 21
-4.2833337307
  0
LINE
  5
332
100
AcDbEntity
  8
0
100
AcDbLine
 62
7
  6
CONTINUOUS
 10
-2.9904255323
 20
-5.325
 11
-3.0968085123
 21
-5.1166674614
  0
LINE
  5
333
100
AcDbEntity
  8
0
100
AcDbLine
 62
7
  6
CONTINUOUS
 10
-1.7670212924
 20
-6.575
 11
-1.8734042585
 21
-6.3666674614
  0
LINE
  5
334
100
AcDbEntity
  8
0
100
AcDbLine
 62
7
  6
CONTINUOUS
 10
-2.9904255323
 20
-3.1895837307
 11
-3.0968085123
 21
-2.98125
  0
LINE
  5
335
100
AcDbEntity
  8
0
100
AcDbLine
 62
7
  6
CONTINUOUS
 10
-1.7138298094
 20
-4.4916662693
 11
-1.7670212924
 21
-4.3875
  0
LINE
  5
336
100
AcDbEntity
  8
0
100
AcDbLine
 62
7
  6
CONTINUOUS
 10
-1.5010638773
 20
-8.5020825386
 11
-1.4478723943
 21
-8.6583325386
  0
LINE
  5
337
100
AcDbEntity
  8
0
100
AcDbLine
 62
7
  6
CONTINUOUS
 10
-1.6606383264
 20
-7.825
 11
-1.7138298094
 21
-7.66875
  0
LINE
  5
338
100
AcDbEntity
  8
0
100
AcDbLine
 62
7
  6
CONTINUOUS
 10
-1.5010638773
 20
-7.66875
 11
-1.4478723943
 21
-7.825
  0
LINE
  5
339
100
AcDbEntity
  8
0
100
AcDbLine
 62
7
  6
CONTINUOUS
 10
-1.5542553604
 20
-6.4708325386
 11
-1.5010638773
 21
-6.6270825386
  0
LINE
  5
33A
100
AcDbEntity
  8
0
100
AcDbLine
 62
7
  6
CONTINUOUS
 10
-2.2457447141
 20
-10.3770825386
 11
-2.2989361972
 21
-10.16875
  0
LINE
  5
33B
100
AcDbEntity
  8
0
100
AcDbLine
 62
7
  6
CONTINUOUS
 10
-1.6606383264
 20
-12.4604174614
 11
-1.7138298094
 21
-12.2520825386
  0
LINE
  5
33C
100
AcDbEntity
  8
0
100
AcDbLine
 62
7
  6
CONTINUOUS
 10
-1.5010638773
 20
-12.2520825386
 11
-1.4478723943
 21
-12.4604174614
  0
LINE
  5
33D
100
AcDbEntity
  8
0
100
AcDbLine
 62
7
  6
CONTINUOUS
 10
-1.6606383264
 20
-10.2729174614
 11
-1.7138298094
 21
-10.0645825386
  0
LINE
  5
33E
100
AcDbEntity
  8
0
100
AcDbLine
 62
7
  6
CONTINUOUS
 10
-3.0968085123
 20
-10.7416674614
 11
-3.15
 21
-10.48125
  0
LINE
  5
33F
100
AcDbEntity
  8
0
100
AcDbLine
 62
7
  6
CONTINUOUS
 10
-3.0968085123
 20
-2.98125
 11
-3.15
 21
-2.7208337307
  0
LINE
  5
340
100
AcDbEntity
  8
0
100
AcDbLine
 62
7
  6
CONTINUOUS
 10
-2.0861701906
 20
-10.0645825386
 11
-2.0329787076
 21
-10.3770825386
  0
LINE
  5
341
100
AcDbEntity
  8
0
100
AcDbLine
 62
7
  6
CONTINUOUS
 10
-3.0968085123
 20
-5.1166674614
 11
-3.15
 21
-4.7520825386
  0
LINE
  5
342
100
AcDbEntity
  8
0
100
AcDbLine
 62
7
  6
CONTINUOUS
 10
-2.9372340493
 20
-4.7
 11
-2.8840425476
 21
-5.0645825386
  0
LINE
  5
343
100
AcDbEntity
  8
0
100
AcDbLine
 62
7
  6
CONTINUOUS
 10
-3.15
 20
-13.1895825386
 11
-3.15
 21
-12.9291674614
  0
LINE
  5
344
100
AcDbEntity
  8
0
100
AcDbLine
 62
7
  6
CONTINUOUS
 10
-3.15
 20
-11.9916674614
 11
-3.15
 21
-11.73125
  0
LINE
  5
345
100
AcDbEntity
  8
0
100
AcDbLine
 62
7
  6
CONTINUOUS
 10
-3.15
 20
-11.3145825386
 11
-3.15
 21
-11.0541674614
  0
LINE
  5
346
100
AcDbEntity
  8
0
100
AcDbLine
 62
7
  6
CONTINUOUS
 10
-3.15
 20
-10.48125
 11
-3.15
 21
-10.16875
  0
LINE
  5
347
100
AcDbEntity
  8
0
100
AcDbLine
 62
7
  6
CONTINUOUS
 10
-3.15
 20
-9.23125
 11
-3.15
 21
-8.9708325386
  0
LINE
  5
348
100
AcDbEntity
  8
0
100
AcDbLine
 62
7
  6
CONTINUOUS
 10
-3.15
 20
-8.3979174614
 11
-3.15
 21
-8.1375
  0
LINE
  5
349
100
AcDbEntity
  8
0
100
AcDbLine
 62
7
  6
CONTINUOUS
 10
-3.15
 20
-7.5645825386
 11
-3.15
 21
-7.3041674614
  0
LINE
  5
34A
100
AcDbEntity
  8
0
100
AcDbLine
 62
7
  6
CONTINUOUS
 10
-3.15
 20
-6.2104174614
 11
-3.15
 21
-5.95
  0
LINE
  5
34B
100
AcDbEntity
  8
0
100
AcDbLine
 62
7
  6
CONTINUOUS
 10
-3.15
 20
-2.7208337307
 11
-3.15
 21
-2.2520837307
  0
LINE
  5
34C
100
AcDbEntity
  8
0
100
AcDbLine
 62
7
  6
CONTINUOUS
 10
-3.15
 20
1.4979162693
 11
-3.15
 21
1.7583337307
  0
LINE
  5
34D
100
AcDbEntity
  8
0
100
AcDbLine
 62
7
  6
CONTINUOUS
 10
-3.15
 20
2.6958337307
 11
-3.15
 21
2.95625
  0
LINE
  5
34E
100
AcDbEntity
  8
0
100
AcDbLine
 62
7
  6
CONTINUOUS
 10
-3.15
 20
3.3729162693
 11
-3.15
 21
3.6333337307
  0
LINE
  5
34F
100
AcDbEntity
  8
0
100
AcDbLine
 62
7
  6
CONTINUOUS
 10
-3.15
 20
8.6333331347
 11
-3.15
 21
8.89375
  0
LINE
  5
350
100
AcDbEntity
  8
0
100
AcDbLine
 62
7
  6
CONTINUOUS
 10
-3.15
 20
9.3625
 11
-3.15
 21
9.675
  0
LINE
  5
351
100
AcDbEntity
  8
0
100
AcDbLine
 62
7
  6
CONTINUOUS
 10
-3.15
 20
10.7166665673
 11
-3.15
 21
10.9770834327
  0
LINE
  5
352
100
AcDbEntity
  8
0
100
AcDbLine
 62
7
  6
CONTINUOUS
 10
-3.15
 20
11.55
 11
-3.15
 21
11.8625
  0
LINE
  5
353
100
AcDbEntity
  8
0
100
AcDbLine
 62
7
  6
CONTINUOUS
 10
-3.15
 20
12.8
 11
-3.15
 21
13.1125
  0
LINE
  5
354
100
AcDbEntity
  8
0
100
AcDbLine
 62
7
  6
CONTINUOUS
 10
-3.15
 20
13.8416667163
 11
-3.15
 21
14.2583333582
  0
LINE
  5
355
100
AcDbEntity
  8
0
100
AcDbLine
 62
7
  6
CONTINUOUS
 10
-3.15
 20
14.9875
 11
-3.15
 21
15.3
  0
LINE
  5
356
100
AcDbEntity
  8
0
100
AcDbLine
 62
7
  6
CONTINUOUS
 10
-2.9372340493
 20
11.8625
 11
-2.9372340493
 21
11.55
  0
LINE
  5
357
100
AcDbEntity
  8
0
100
AcDbLine
 62
7
  6
CONTINUOUS
 10
-2.9372340493
 20
-10.16875
 11
-2.9372340493
 21
-10.48125
  0
LINE
  5
358
100
AcDbEntity
  8
0
100
AcDbLine
 62
7
  6
CONTINUOUS
 10
-2.8840425476
 20
9.5708331347
 11
-2.8840425476
 21
9.3625
  0
LINE
  5
359
100
AcDbEntity
  8
0
100
AcDbLine
 62
7
  6
CONTINUOUS
 10
-2.8308510646
 20
-2.2520837307
 11
-2.8308510646
 21
-2.7208337307
  0
LINE
  5
35A
100
AcDbEntity
  8
0
100
AcDbLine
 62
7
  6
CONTINUOUS
 10
-2.6180850953
 20
6.8104168653
 11
-2.6180850953
 21
6.55
  0
LINE
  5
35B
100
AcDbEntity
  8
0
100
AcDbLine
 62
7
  6
CONTINUOUS
 10
-2.6180850953
 20
-5.2729174614
 11
-2.6180850953
 21
-5.5333325386
  0
LINE
  5
35C
100
AcDbEntity
  8
0
100
AcDbLine
 62
7
  6
CONTINUOUS
 10
-2.2989361972
 20
-5.5333325386
 11
-2.2989361972
 21
-4.1270837307
  0
LINE
  5
35D
100
AcDbEntity
  8
0
100
AcDbLine
 62
7
  6
CONTINUOUS
 10
-2.2989361972
 20
6.55
 11
-2.2989361972
 21
7.95625
  0
LINE
  5
35E
100
AcDbEntity
  8
0
100
AcDbLine
 62
7
  6
CONTINUOUS
 10
-2.2457447141
 20
-10.95
 11
-2.2457447141
 21
-10.3770825386
  0
LINE
  5
35F
100
AcDbEntity
  8
0
100
AcDbLine
 62
7
  6
CONTINUOUS
 10
-2.2457447141
 20
11.08125
 11
-2.2457447141
 21
11.6541665673
  0
LINE
  5
360
100
AcDbEntity
  8
0
100
AcDbLine
 62
7
  6
CONTINUOUS
 10
-2.0861701906
 20
7.9041668653
 11
-2.0861701906
 21
6.8104168653
  0
LINE
  5
361
100
AcDbEntity
  8
0
100
AcDbLine
 62
7
  6
CONTINUOUS
 10
-2.0861701906
 20
-4.1791662693
 11
-2.0861701906
 21
-5.2729174614
  0
LINE
  5
362
100
AcDbEntity
  8
0
100
AcDbLine
 62
7
  6
CONTINUOUS
 10
-2.0861701906
 20
-3.1375
 11
-2.0861701906
 21
-2.66875
  0
LINE
  5
363
100
AcDbEntity
  8
0
100
AcDbLine
 62
7
  6
CONTINUOUS
 10
-2.0329787076
 20
11.6541665673
 11
-2.0329787076
 21
11.08125
  0
LINE
  5
364
100
AcDbEntity
  8
0
100
AcDbLine
 62
7
  6
CONTINUOUS
 10
-2.0329787076
 20
-10.3770825386
 11
-2.0329787076
 21
-10.95
  0
LINE
  5
365
100
AcDbEntity
  8
0
100
AcDbLine
 62
7
  6
CONTINUOUS
 10
-1.8734042585
 20
-9.9083325386
 11
-1.8734042585
 21
-9.6479174614
  0
LINE
  5
366
100
AcDbEntity
  8
0
100
AcDbLine
 62
7
  6
CONTINUOUS
 10
-1.8734042585
 20
12.1229165673
 11
-1.8734042585
 21
12.3833334327
  0
LINE
  5
367
100
AcDbEntity
  8
0
100
AcDbLine
 62
7
  6
CONTINUOUS
 10
-1.7670212924
 20
-2.66875
 11
-1.7670212924
 21
-3.45
  0
LINE
  5
368
100
AcDbEntity
  8
0
100
AcDbLine
 62
7
  6
CONTINUOUS
 10
-1.7138298094
 20
9.3625
 11
-1.7138298094
 21
9.675
  0
LINE
  5
369
100
AcDbEntity
  8
0
100
AcDbLine
 62
7
  6
CONTINUOUS
 10
-1.6606383264
 20
-10.5854174614
 11
-1.6606383264
 21
-10.2729174614
  0
LINE
  5
36A
100
AcDbEntity
  8
0
100
AcDbLine
 62
7
  6
CONTINUOUS
 10
-1.6606383264
 20
-8.7625
 11
-1.6606383264
 21
-8.60625
  0
LINE
  5
36B
100
AcDbEntity
  8
0
100
AcDbLine
 62
7
  6
CONTINUOUS
 10
-1.6606383264
 20
-7.9291674614
 11
-1.6606383264
 21
-7.825
  0
LINE
  5
36C
100
AcDbEntity
  8
0
100
AcDbLine
 62
7
  6
CONTINUOUS
 10
-1.6606383264
 20
11.4458334327
 11
-1.6606383264
 21
11.7583334327
  0
LINE
  5
36D
100
AcDbEntity
  8
0
100
AcDbLine
 62
7
  6
CONTINUOUS
 10
-1.4478723943
 20
11.4458334327
 11
-1.5010638773
 21
11.1333334327
  0
LINE
  5
36E
100
AcDbEntity
  8
0
100
AcDbLine
 62
7
  6
CONTINUOUS
 10
-1.7138298094
 20
7.0708331347
 11
-1.6606383264
 21
7.3833331347
  0
LINE
  5
36F
100
AcDbEntity
  8
0
100
AcDbLine
 62
7
  6
CONTINUOUS
 10
-1.4478723943
 20
7.33125
 11
-1.5010638773
 21
7.01875
  0
LINE
  5
370
100
AcDbEntity
  8
0
100
AcDbLine
 62
7
  6
CONTINUOUS
 10
-3.15
 20
-4.7520825386
 11
-3.0968085123
 21
-4.4395837307
  0
LINE
  5
371
100
AcDbEntity
  8
0
100
AcDbLine
 62
7
  6
CONTINUOUS
 10
-3.15
 20
-2.2520837307
 11
-3.0968085123
 21
-1.9916662693
  0
LINE
  5
372
100
AcDbEntity
  8
0
100
AcDbLine
 62
7
  6
CONTINUOUS
 10
-2.7776595816
 20
-2.04375
 11
-2.8308510646
 21
-2.2520837307
  0
LINE
  5
373
100
AcDbEntity
  8
0
100
AcDbLine
 62
7
  6
CONTINUOUS
 10
-1.7138298094
 20
2.01875
 11
-1.6606383264
 21
2.2270837307
  0
LINE
  5
374
100
AcDbEntity
  8
0
100
AcDbLine
 62
7
  6
CONTINUOUS
 10
-2.8840425476
 20
-4.4916662693
 11
-2.9372340493
 21
-4.7
  0
LINE
  5
375
100
AcDbEntity
  8
0
100
AcDbLine
 62
7
  6
CONTINUOUS
 10
-1.4478723943
 20
2.01875
 11
-1.5010638773
 21
1.8625
  0
LINE
  5
376
100
AcDbEntity
  8
0
100
AcDbLine
 62
7
  6
CONTINUOUS
 10
-1.7670212924
 20
1.9145837307
 11
-1.7138298094
 21
2.01875
  0
LINE
  5
377
100
AcDbEntity
  8
0
100
AcDbLine
 62
7
  6
CONTINUOUS
 10
-3.0968085123
 20
-1.9916662693
 11
-2.9904255323
 21
-1.7833337307
  0
LINE
  5
378
100
AcDbEntity
  8
0
100
AcDbLine
 62
7
  6
CONTINUOUS
 10
-1.5010638773
 20
1.8625
 11
-1.6074468434
 21
1.70625
  0
LINE
  5
379
100
AcDbEntity
  8
0
100
AcDbLine
 62
7
  6
CONTINUOUS
 10
-1.8734042585
 20
1.8104162693
 11
-1.7670212924
 21
1.9145837307
  0
LINE
  5
37A
100
AcDbEntity
  8
0
100
AcDbLine
 62
7
  6
CONTINUOUS
 10
-1.6074468434
 20
1.70625
 11
-1.7138298094
 21
1.6020837307
  0
LINE
  5
37B
100
AcDbEntity
  8
0
100
AcDbLine
 62
7
  6
CONTINUOUS
 10
-1.7138298094
 20
1.6020837307
 11
-1.8734042585
 21
1.55
  0
LINE
  5
37C
100
AcDbEntity
  8
0
100
AcDbLine
 62
7
  6
CONTINUOUS
 10
-1.0223403811
 20
-3.3979162693
 11
-1.2882979453
 21
-3.45
  0
LINE
  5
37D
100
AcDbEntity
  8
0
100
AcDbLine
 62
7
  6
CONTINUOUS
 10
-2.6180850953
 20
-3.91875
 11
-2.2989361972
 21
-3.8666662693
  0
LINE
  5
37E
100
AcDbEntity
  8
0
100
AcDbLine
 62
7
  6
CONTINUOUS
 10
-1.7670212924
 20
-3.45
 11
-2.5648936123
 21
-3.45
  0
LINE
  5
37F
100
AcDbEntity
  8
0
100
AcDbLine
 62
7
  6
CONTINUOUS
 10
-2.5117021292
 20
-3.1375
 11
-2.0861701906
 21
-3.1375
  0
LINE
  5
380
100
AcDbEntity
  8
0
100
AcDbLine
 62
7
  6
CONTINUOUS
 10
-2.0861701906
 20
-2.66875
 11
-1.7670212924
 21
-2.66875
  0
LINE
  5
381
100
AcDbEntity
  8
0
100
AcDbLine
 62
7
  6
CONTINUOUS
 10
17.7767949192
 20
-2.5
 11
18.55
 21
-2.5
  0
LINE
  5
382
100
AcDbEntity
  8
0
100
AcDbLine
 62
7
  6
CONTINUOUS
 10
18.65
 20
-1.8
 11
18.55
 21
-1.8
  0
LINE
  5
383
100
AcDbEntity
  8
0
100
AcDbLine
 62
7
  6
CONTINUOUS
 10
-1.5010638773
 20
-1.73125
 11
-2.2989361972
 21
-1.73125
  0
LINE
  5
384
100
AcDbEntity
  8
0
100
AcDbLine
 62
7
  6
CONTINUOUS
 10
-1.5010638773
 20
-1.41875
 11
-1.2351063132
 21
-1.4708337307
  0
LINE
  5
385
100
AcDbEntity
  8
0
100
AcDbLine
 62
7
  6
CONTINUOUS
 10
-1.2882979453
 20
-1.7833337307
 11
-1.5010638773
 21
-1.73125
  0
LINE
  5
386
100
AcDbEntity
  8
0
100
AcDbLine
 62
7
  6
CONTINUOUS
 10
-1.2351063132
 20
-1.4708337307
 11
-1.0223403811
 21
-1.575
  0
LINE
  5
387
100
AcDbEntity
  8
0
100
AcDbLine
 62
7
  6
CONTINUOUS
 10
-1.1287233472
 20
-1.8875
 11
-1.2882979453
 21
-1.7833337307
  0
LINE
  5
388
100
AcDbEntity
  8
0
100
AcDbLine
 62
7
  6
CONTINUOUS
 10
-1.0223403811
 20
-1.575
 11
-0.8095744491
 21
-1.7833337307
  0
LINE
  5
389
100
AcDbEntity
  8
0
100
AcDbLine
 62
7
  6
CONTINUOUS
 10
-1.0223403811
 20
-2.04375
 11
-1.1287233472
 21
-1.8875
  0
LINE
  5
38A
100
AcDbEntity
  8
0
100
AcDbLine
 62
7
  6
CONTINUOUS
 10
-1.5542553604
 20
-4.2833337307
 11
-1.5010638773
 21
-4.4395837307
  0
LINE
  5
38B
100
AcDbEntity
  8
0
100
AcDbLine
 62
7
  6
CONTINUOUS
 10
-2.8308510646
 20
-2.7208337307
 11
-2.7776595816
 21
-2.9291662693
  0
LINE
  5
38C
100
AcDbEntity
  8
0
100
AcDbLine
 62
7
  6
CONTINUOUS
 10
-1.6606383264
 20
-4.7
 11
-1.7138298094
 21
-4.4916662693
  0
LINE
  5
38D
100
AcDbEntity
  8
0
100
AcDbLine
 62
7
  6
CONTINUOUS
 10
-1.5010638773
 20
-6.6270825386
 11
-1.4478723943
 21
-6.8875
  0
LINE
  5
38E
100
AcDbEntity
  8
0
100
AcDbLine
 62
7
  6
CONTINUOUS
 10
-1.7138298094
 20
-6.8875
 11
-1.7670212924
 21
-6.575
  0
LINE
  5
38F
100
AcDbEntity
  8
0
100
AcDbLine
 62
7
  6
CONTINUOUS
 10
-1.5010638773
 20
-4.4395837307
 11
-1.4478723943
 21
-4.7520825386
  0
LINE
  5
390
100
AcDbEntity
  8
0
100
AcDbLine
 62
7
  6
CONTINUOUS
 10
-1.5010638773
 20
-9.9083325386
 11
-1.4478723943
 21
-10.2729174614
  0
LINE
  5
391
100
AcDbEntity
  8
0
100
AcDbLine
 62
7
  6
CONTINUOUS
 10
-3.0968085123
 20
6.9666668653
 11
-3.15
 21
7.33125
  0
LINE
  5
392
100
AcDbEntity
  8
0
100
AcDbLine
 62
7
  6
CONTINUOUS
 10
-2.9372340493
 20
7.3833331347
 11
-2.8840425476
 21
7.01875
  0
LINE
  5
393
100
AcDbEntity
  8
0
100
AcDbLine
 62
7
  6
CONTINUOUS
 10
-1.4478723943
 20
11.7583334327
 11
-1.4478723943
 21
11.4458334327
  0
LINE
  5
394
100
AcDbEntity
  8
0
100
AcDbLine
 62
7
  6
CONTINUOUS
 10
-1.4478723943
 20
9.675
 11
-1.4478723943
 21
9.3625
  0
LINE
  5
395
100
AcDbEntity
  8
0
100
AcDbLine
 62
7
  6
CONTINUOUS
 10
-1.4478723943
 20
3.6333337307
 11
-1.4478723943
 21
3.3729162693
  0
LINE
  5
396
100
AcDbEntity
  8
0
100
AcDbLine
 62
7
  6
CONTINUOUS
 10
-1.4478723943
 20
2.95625
 11
-1.4478723943
 21
2.6958337307
  0
LINE
  5
397
100
AcDbEntity
  8
0
100
AcDbLine
 62
7
  6
CONTINUOUS
 10
-1.4478723943
 20
2.2270837307
 11
-1.4478723943
 21
2.01875
  0
LINE
  5
398
100
AcDbEntity
  8
0
100
AcDbLine
 62
7
  6
CONTINUOUS
 10
-1.4478723943
 20
-5.95
 11
-1.4478723943
 21
-6.2104174614
  0
LINE
  5
399
100
AcDbEntity
  8
0
100
AcDbLine
 62
7
  6
CONTINUOUS
 10
-1.4478723943
 20
-7.3041674614
 11
-1.4478723943
 21
-7.5645825386
  0
LINE
  5
39A
100
AcDbEntity
  8
0
100
AcDbLine
 62
7
  6
CONTINUOUS
 10
-1.4478723943
 20
-7.825
 11
-1.4478723943
 21
-8.0333325386
  0
LINE
  5
39B
100
AcDbEntity
  8
0
100
AcDbLine
 62
7
  6
CONTINUOUS
 10
-1.4478723943
 20
-8.6583325386
 11
-1.4478723943
 21
-8.8666674614
  0
LINE
  5
39C
100
AcDbEntity
  8
0
100
AcDbLine
 62
7
  6
CONTINUOUS
 10
-1.4478723943
 20
-10.2729174614
 11
-1.4478723943
 21
-10.5854174614
  0
LINE
  5
39D
100
AcDbEntity
  8
0
100
AcDbLine
 62
7
  6
CONTINUOUS
 10
-1.4478723943
 20
-11.73125
 11
-1.4478723943
 21
-11.9916674614
  0
LINE
  5
39E
100
AcDbEntity
  8
0
100
AcDbLine
 62
7
  6
CONTINUOUS
 10
-1.4478723943
 20
-12.4604174614
 11
-1.4478723943
 21
-12.66875
  0
LINE
  5
39F
100
AcDbEntity
  8
0
100
AcDbLine
 62
7
  6
CONTINUOUS
 10
-1.4478723943
 20
-13.60625
 11
-1.4478723943
 21
-13.91875
  0
LINE
  5
3A0
100
AcDbEntity
  8
0
100
AcDbLine
 62
7
  6
CONTINUOUS
 10
-1.4478723943
 20
-14.9604174614
 11
-1.4478723943
 21
-15.2729174614
  0
LINE
  5
3A1
100
AcDbEntity
  8
0
100
AcDbLine
 62
7
  6
CONTINUOUS
 10
-1.2882979453
 20
-3.45
 11
-1.2882979453
 21
-3.1375
  0
LINE
  5
3A2
100
AcDbEntity
  8
0
100
AcDbLine
 62
7
  6
CONTINUOUS
 10
-0.9691488981
 20
-2.7208337307
 11
-0.9691488981
 21
-2.2520837307
  0
LINE
  5
3A3
100
AcDbEntity
  8
0
100
AcDbLine
 62
7
  6
CONTINUOUS
 10
-0.9159574151
 20
3.3729162693
 11
-0.9159574151
 21
3.6333337307
  0
LINE
  5
3A4
100
AcDbEntity
  8
0
100
AcDbLine
 62
7
  6
CONTINUOUS
 10
-0.65
 20
15.3
 11
-0.65
 21
14.83125
  0
LINE
  5
3A5
100
AcDbEntity
  8
0
100
AcDbLine
 62
7
  6
CONTINUOUS
 10
-0.65
 20
13.26875
 11
-0.65
 21
12.8
  0
LINE
  5
3A6
100
AcDbEntity
  8
0
100
AcDbLine
 62
7
  6
CONTINUOUS
 10
-0.65
 20
8.89375
 11
-0.65
 21
8.6333331347
  0
LINE
  5
3A7
100
AcDbEntity
  8
0
100
AcDbLine
 62
7
  6
CONTINUOUS
 10
-0.65
 20
3.6333337307
 11
-0.65
 21
3.3729162693
  0
LINE
  5
3A8
100
AcDbEntity
  8
0
100
AcDbLine
 62
7
  6
CONTINUOUS
 10
-0.65
 20
-2.2520837307
 11
-0.65
 21
-2.7208337307
  0
LINE
  5
3A9
100
AcDbEntity
  8
0
100
AcDbLine
 62
7
  6
CONTINUOUS
 10
-0.55
 20
18.8
 11
-0.55
 21
18.6
  0
LINE
  5
3AA
100
AcDbEntity
  8
0
100
AcDbLine
 62
7
  6
CONTINUOUS
 10
-0.15
 20
-13.9
 11
-0.15
 21
13.9
  0
LINE
  5
3AB
100
AcDbEntity
  8
0
100
AcDbLine
 62
7
  6
CONTINUOUS
 10
-1.7138298094
 20
-5.0125
 11
-1.6606383264
 21
-4.7
  0
LINE
  5
3AC
100
AcDbEntity
  8
0
100
AcDbLine
 62
7
  6
CONTINUOUS
 10
-1.4478723943
 20
-4.7520825386
 11
-1.5010638773
 21
-5.0645825386
  0
LINE
  5
3AD
100
AcDbEntity
  8
0
100
AcDbLine
 62
7
  6
CONTINUOUS
 10
-0.65
 20
-2.7208337307
 11
-0.703191483
 21
-2.98125
  0
LINE
  5
3AE
100
AcDbEntity
  8
0
100
AcDbLine
 62
7
  6
CONTINUOUS
 10
-3.15
 20
-10.16875
 11
-3.0968085123
 21
-9.9604174614
  0
LINE
  5
3AF
100
AcDbEntity
  8
0
100
AcDbLine
 62
7
  6
CONTINUOUS
 10
-1.0223403811
 20
-2.9291662693
 11
-0.9691488981
 21
-2.7208337307
  0
LINE
  5
3B0
100
AcDbEntity
  8
0
100
AcDbLine
 62
7
  6
CONTINUOUS
 10
-3.0968085123
 20
-4.4395837307
 11
-3.0436170246
 21
-4.2833337307
  0
LINE
  5
3B1
100
AcDbEntity
  8
0
100
AcDbLine
 62
7
  6
CONTINUOUS
 10
-2.8308510646
 20
-4.3875
 11
-2.8840425476
 21
-4.4916662693
  0
LINE
  5
3B2
100
AcDbEntity
  8
0
100
AcDbLine
 62
7
  6
CONTINUOUS
 10
-2.6712765783
 20
-1.8875
 11
-2.7776595816
 21
-2.04375
  0
LINE
  5
3B3
100
AcDbEntity
  8
0
100
AcDbLine
 62
7
  6
CONTINUOUS
 10
-3.0436170246
 20
-4.2833337307
 11
-2.9372340493
 21
-4.1270837307
  0
LWPOLYLINE
  5
3B4
100
AcDbEntity
  8
0
100
AcDbPolyline
 62
7
  6
CONTINUOUS
 90
4
 70
0
 10
-6.95
 20
-6.9
 10
-6.9484692973
 20
-6.8983353295
 10
-6.9438966139
 20
-6.8937815282
 10
-6.9363342098
 20
-6.8863385961
  0
LWPOLYLINE
  5
3B5
100
AcDbEntity
  8
0
100
AcDbPolyline
 62
7
  6
CONTINUOUS
 90
4
 70
0
 10
-5.05
 20
-5.5
 10
-5.0484788219
 20
-5.4983527625
 10
-5.0439316954
 20
-5.493822925
 10
-5.036406178
 20
-5.4864104873
  0
LINE
  5
3B6
100
AcDbEntity
  8
0
100
AcDbLine
 62
7
  6
CONTINUOUS
 10
-12.85
 20
-12.22
 11
-13.25
 21
-12.62
  0
LINE
  5
3B7
100
AcDbEntity
  8
0
100
AcDbLine
 62
7
  6
CONTINUOUS
 10
-11.25
 20
-11.02
 11
-10.8784002891
 21
-10.6484002891
  0
LINE
  5
3B8
100
AcDbEntity
  8
0
100
AcDbLine
 62
7
  6
CONTINUOUS
 10
-6.9363342098
 20
-6.8863385961
 11
-6.8568983494
 21
-6.8068148996
  0
LWPOLYLINE
  5
3B9
100
AcDbEntity
  8
0
100
AcDbPolyline
 62
7
  6
CONTINUOUS
 90
3
 70
0
 10
-6.8568983494
 20
-6.8068148996
 10
-6.8332509081
 20
-6.783248823
 10
-6.7790828245
 20
-6.7289310933
  0
LWPOLYLINE
  5
3BA
100
AcDbEntity
  8
0
100
AcDbPolyline
 62
7
  6
CONTINUOUS
 90
5
 70
0
 10
-6.7790828245
 20
-6.7289310933
 10
-6.7489799755
 20
-6.698979768
 10
-6.7171835899
 20
-6.6676210356
 10
-6.6840613204
 20
-6.6346277797
 10
-6.65
 20
-6.6
  0
LINE
  5
3BB
100
AcDbEntity
  8
0
100
AcDbLine
 62
7
  6
CONTINUOUS
 10
-2.9904255323
 20
-1.7833337307
 11
-2.7776595816
 21
-1.575
  0
LINE
  5
3BC
100
AcDbEntity
  8
0
100
AcDbLine
 62
7
  6
CONTINUOUS
 10
-13.2215997109
 20
-10.6484002891
 11
-13.2373048779
 21
-10.6633099253
  0
LINE
  5
3BD
100
AcDbEntity
  8
0
100
AcDbLine
 62
7
  6
CONTINUOUS
 10
-13.2373048779
 20
-10.6633099253
 11
-13.25
 21
-10.6752569235
  0
LINE
  5
3BE
100
AcDbEntity
  8
0
100
AcDbLine
 62
7
  6
CONTINUOUS
 10
-2.5117021292
 20
-1.7833337307
 11
-2.6712765783
 21
-1.8875
  0
LINE
  5
3BF
100
AcDbEntity
  8
0
100
AcDbLine
 62
7
  6
CONTINUOUS
 10
-2.7776595816
 20
-1.575
 11
-2.5648936123
 21
-1.4708337307
  0
LINE
  5
3C0
100
AcDbEntity
  8
0
100
AcDbLine
 62
7
  6
CONTINUOUS
 10
-2.2989361972
 20
-1.73125
 11
-2.5117021292
 21
-1.7833337307
  0
LINE
  5
3C1
100
AcDbEntity
  8
0
100
AcDbLine
 62
7
  6
CONTINUOUS
 10
-2.5648936123
 20
-1.4708337307
 11
-2.2989361972
 21
-1.41875
  0
LINE
  5
3C2
100
AcDbEntity
  8
0
100
AcDbLine
 62
7
  6
CONTINUOUS
 10
-2.2989361972
 20
-1.41875
 11
-1.5010638773
 21
-1.41875
  0
LINE
  5
3C3
100
AcDbEntity
  8
0
100
AcDbLine
 62
7
  6
CONTINUOUS
 10
-1.7138298094
 20
2.4354162693
 11
-1.8202127755
 21
2.5916662693
  0
LINE
  5
3C4
100
AcDbEntity
  8
0
100
AcDbLine
 62
7
  6
CONTINUOUS
 10
-1.6074468434
 20
2.5916662693
 11
-1.5010638773
 21
2.4354162693
  0
LINE
  5
3C5
100
AcDbEntity
  8
0
100
AcDbLine
 62
7
  6
CONTINUOUS
 10
-0.8095744491
 20
-1.7833337307
 11
-0.703191483
 21
-1.9916662693
  0
LINE
  5
3C6
100
AcDbEntity
  8
0
100
AcDbLine
 62
7
  6
CONTINUOUS
 10
-0.9691488981
 20
-2.2520837307
 11
-1.0223403811
 21
-2.04375
  0
LINE
  5
3C7
100
AcDbEntity
  8
0
100
AcDbLine
 62
7
  6
CONTINUOUS
 10
-1.6606383264
 20
2.2270837307
 11
-1.7138298094
 21
2.4354162693
  0
LINE
  5
3C8
100
AcDbEntity
  8
0
100
AcDbLine
 62
7
  6
CONTINUOUS
 10
-1.5010638773
 20
2.4354162693
 11
-1.4478723943
 21
2.2270837307
  0
LINE
  5
3C9
100
AcDbEntity
  8
0
100
AcDbLine
 62
7
  6
CONTINUOUS
 10
-3.0968085123
 20
9.1541668653
 11
-3.15
 21
9.3625
  0
LINE
  5
3CA
100
AcDbEntity
  8
0
100
AcDbLine
 62
7
  6
CONTINUOUS
 10
-2.8840425476
 20
9.3625
 11
-2.8308510646
 21
9.1541668653
  0
LINE
  5
3CB
100
AcDbEntity
  8
0
100
AcDbLine
 62
7
  6
CONTINUOUS
 10
-1.6606383264
 20
7.3833331347
 11
-1.7138298094
 21
7.5916668653
  0
LINE
  5
3CC
100
AcDbEntity
  8
0
100
AcDbLine
 62
7
  6
CONTINUOUS
 10
-0.703191483
 20
-1.9916662693
 11
-0.65
 21
-2.2520837307
  0
LINE
  5
3CD
100
AcDbEntity
  8
0
100
AcDbLine
 62
7
  6
CONTINUOUS
 10
-3.0968085123
 20
11.2895834327
 11
-3.15
 21
11.55
  0
LINE
  5
3CE
100
AcDbEntity
  8
0
100
AcDbLine
 62
7
  6
CONTINUOUS
 10
-1.5010638773
 20
7.64375
 11
-1.4478723943
 21
7.33125
  0
LINE
  5
3CF
100
AcDbEntity
  8
0
100
AcDbLine
 62
7
  6
CONTINUOUS
 10
-2.0861701906
 20
11.9666665673
 11
-2.0329787076
 21
11.6541665673
  0
LINE
  5
3D0
100
AcDbEntity
  8
0
100
AcDbLine
 62
7
  6
CONTINUOUS
 10
0.45
 20
18.6
 11
0.45
 21
18.8
  0
LINE
  5
3D1
100
AcDbEntity
  8
0
100
AcDbLine
 62
7
  6
CONTINUOUS
 10
-1.4478723943
 20
-10.5854174614
 11
-1.5010638773
 21
-10.8979174614
  0
LINE
  5
3D2
100
AcDbEntity
  8
0
100
AcDbLine
 62
7
  6
CONTINUOUS
 10
-1.7138298094
 20
-10.79375
 11
-1.6606383264
 21
-10.5854174614
  0
LINE
  5
3D3
100
AcDbEntity
  8
0
100
AcDbLine
 62
7
  6
CONTINUOUS
 10
-1.7138298094
 20
-12.66875
 11
-1.6606383264
 21
-12.4604174614
  0
LINE
  5
3D4
100
AcDbEntity
  8
0
100
AcDbLine
 62
7
  6
CONTINUOUS
 10
-1.4478723943
 20
-8.0333325386
 11
-1.5010638773
 21
-8.1895825386
  0
LINE
  5
3D5
100
AcDbEntity
  8
0
100
AcDbLine
 62
7
  6
CONTINUOUS
 10
-1.4478723943
 20
-8.8666674614
 11
-1.5010638773
 21
-9.0229174614
  0
LINE
  5
3D6
100
AcDbEntity
  8
0
100
AcDbLine
 62
7
  6
CONTINUOUS
 10
-0.703191483
 20
-2.98125
 11
-0.8095744491
 21
-3.1895837307
  0
LINE
  5
3D7
100
AcDbEntity
  8
0
100
AcDbLine
 62
7
  6
CONTINUOUS
 10
-3.0968085123
 20
-9.9604174614
 11
-3.0436170246
 21
-9.85625
  0
LINE
  5
3D8
100
AcDbEntity
  8
0
100
AcDbLine
 62
7
  6
CONTINUOUS
 10
-2.8308510646
 20
-9.9604174614
 11
-2.9372340493
 21
-10.16875
  0
LINE
  5
3D9
100
AcDbEntity
  8
0
100
AcDbLine
 62
7
  6
CONTINUOUS
 10
-1.5010638773
 20
-5.0645825386
 11
-1.6606383264
 21
-5.325
  0
LINE
  5
3DA
100
AcDbEntity
  8
0
100
AcDbLine
 62
7
  6
CONTINUOUS
 10
-1.1287233472
 20
-3.0854162693
 11
-1.0223403811
 21
-2.9291662693
  0
LINE
  5
3DB
100
AcDbEntity
  8
0
100
AcDbLine
 62
7
  6
CONTINUOUS
 10
-1.8202127755
 20
-5.16875
 11
-1.7138298094
 21
-5.0125
  0
LINE
  5
3DC
100
AcDbEntity
  8
0
100
AcDbLine
 62
7
  6
CONTINUOUS
 10
-5.036406178
 20
-5.4864104873
 11
-4.9571668094
 21
-5.4070833741
  0
LWPOLYLINE
  5
3DD
100
AcDbEntity
  8
0
100
AcDbPolyline
 62
7
  6
CONTINUOUS
 90
3
 70
0
 10
-4.9571668094
 20
-5.4070833741
 10
-4.9335349754
 20
-5.3835326242
 10
-4.8793507433
 20
-5.3291979151
  0
LWPOLYLINE
  5
3DE
100
AcDbEntity
  8
0
100
AcDbPolyline
 62
7
  6
CONTINUOUS
 90
5
 70
0
 10
-4.8793507433
 20
-5.3291979151
 10
-4.8492110649
 20
-5.2992108411
 10
-4.8173568091
 20
-5.2677949005
 10
-4.7841568318
 20
-5.2347246201
 10
-4.75
 20
-5.2
  0
LINE
  5
3DF
100
AcDbEntity
  8
0
100
AcDbLine
 62
7
  6
CONTINUOUS
 10
-2.9372340493
 20
-4.1270837307
 11
-2.8308510646
 21
-4.0229162693
  0
LINE
  5
3E0
100
AcDbEntity
  8
0
100
AcDbLine
 62
7
  6
CONTINUOUS
 10
-2.6712765783
 20
-4.23125
 11
-2.8308510646
 21
-4.3875
  0
LINE
  5
3E1
100
AcDbEntity
  8
0
100
AcDbLine
 62
7
  6
CONTINUOUS
 10
-0.8095744491
 20
-3.1895837307
 11
-1.0223403811
 21
-3.3979162693
  0
LINE
  5
3E2
100
AcDbEntity
  8
0
100
AcDbLine
 62
7
  6
CONTINUOUS
 10
-1.8734042585
 20
1.55
 11
-2.1393616736
 21
1.4979162693
  0
LINE
  5
3E3
100
AcDbEntity
  8
0
100
AcDbLine
 62
7
  6
CONTINUOUS
 10
-2.1393616736
 20
1.4979162693
 11
-3.15
 21
1.4979162693
  0
LINE
  5
3E4
100
AcDbEntity
  8
0
100
AcDbLine
 62
7
  6
CONTINUOUS
 10
-18.75
 20
1.7
 11
-18.35
 21
1.7
  0
LINE
  5
3E5
100
AcDbEntity
  8
0
100
AcDbLine
 62
7
  6
CONTINUOUS
 10
-3.15
 20
1.7583337307
 11
-2.1393616736
 21
1.7583337307
  0
LINE
  5
3E6
100
AcDbEntity
  8
0
100
AcDbLine
 62
7
  6
CONTINUOUS
 10
18.65
 20
1.8
 11
18.55
 21
1.8
  0
LINE
  5
3E7
100
AcDbEntity
  8
0
100
AcDbLine
 62
7
  6
CONTINUOUS
 10
-17.85
 20
2.0
 11
-18.65
 21
2.0
  0
LINE
  5
3E8
100
AcDbEntity
  8
0
100
AcDbLine
 62
7
  6
CONTINUOUS
 10
-1.8202127755
 20
2.5916662693
 11
-1.9265957415
 21
2.6958337307
  0
LINE
  5
3E9
100
AcDbEntity
  8
0
100
AcDbLine
 62
7
  6
CONTINUOUS
 10
-1.7138298094
 20
2.6958337307
 11
-1.6074468434
 21
2.5916662693
  0
LINE
  5
3EA
100
AcDbEntity
  8
0
100
AcDbLine
 62
7
  6
CONTINUOUS
 10
-2.8840425476
 20
7.01875
 11
-2.7776595816
 21
6.8625
  0
LINE
  5
3EB
100
AcDbEntity
  8
0
100
AcDbLine
 62
7
  6
CONTINUOUS
 10
-2.9904255323
 20
6.7583331347
 11
-3.0968085123
 21
6.9666668653
  0
LINE
  5
3EC
100
AcDbEntity
  8
0
100
AcDbLine
 62
7
  6
CONTINUOUS
 10
-3.0436170246
 20
9.05
 11
-3.0968085123
 21
9.1541668653
  0
LINE
  5
3ED
100
AcDbEntity
  8
0
100
AcDbLine
 62
7
  6
CONTINUOUS
 10
-1.7138298094
 20
7.5916668653
 11
-1.7670212924
 21
7.6958331347
  0
LINE
  5
3EE
100
AcDbEntity
  8
0
100
AcDbLine
 62
7
  6
CONTINUOUS
 10
-2.9372340493
 20
11.55
 11
-2.8308510646
 21
11.2895834327
  0
LINE
  5
3EF
100
AcDbEntity
  8
0
100
AcDbLine
 62
7
  6
CONTINUOUS
 10
-1.5542553604
 20
7.8
 11
-1.5010638773
 21
7.64375
  0
LINE
  5
3F0
100
AcDbEntity
  8
0
100
AcDbLine
 62
7
  6
CONTINUOUS
 10
-2.2457447141
 20
11.6541665673
 11
-2.2989361972
 21
11.8625
  0
LINE
  5
3F1
100
AcDbEntity
  8
0
100
AcDbLine
 62
7
  6
CONTINUOUS
 10
-1.5010638773
 20
9.8833331347
 11
-1.4478723943
 21
9.675
  0
LINE
  5
3F2
100
AcDbEntity
  8
0
100
AcDbLine
 62
7
  6
CONTINUOUS
 10
-1.6606383264
 20
11.7583334327
 11
-1.7138298094
 21
11.9666665673
  0
LINE
  5
3F3
100
AcDbEntity
  8
0
100
AcDbLine
 62
7
  6
CONTINUOUS
 10
-1.5010638773
 20
12.1229165673
 11
-1.4478723943
 21
11.7583334327
  0
LINE
  5
3F4
100
AcDbEntity
  8
0
100
AcDbLine
 62
7
  6
CONTINUOUS
 10
2.15
 20
-18.6
 11
2.15
 21
-18.8
  0
LINE
  5
3F5
100
AcDbEntity
  8
0
100
AcDbLine
 62
7
  6
CONTINUOUS
 10
3.15
 20
-18.8
 11
3.15
 21
-18.6
  0
LINE
  5
3F6
100
AcDbEntity
  8
0
100
AcDbLine
 62
7
  6
CONTINUOUS
 10
-1.4478723943
 20
-12.66875
 11
-1.5010638773
 21
-12.825
  0
LINE
  5
3F7
100
AcDbEntity
  8
0
100
AcDbLine
 62
7
  6
CONTINUOUS
 10
-1.7138298094
 20
-8.0333325386
 11
-1.6606383264
 21
-7.9291674614
  0
LINE
  5
3F8
100
AcDbEntity
  8
0
100
AcDbLine
 62
7
  6
CONTINUOUS
 10
-1.7138298094
 20
-8.8666674614
 11
-1.6606383264
 21
-8.7625
  0
LINE
  5
3F9
100
AcDbEntity
  8
0
100
AcDbLine
 62
7
  6
CONTINUOUS
 10
-1.7670212925
 20
-10.8979174614
 11
-1.7138298094
 21
-10.79375
  0
LINE
  5
3FA
100
AcDbEntity
  8
0
100
AcDbLine
 62
7
  6
CONTINUOUS
 10
-12.85
 20
-17.92
 11
-13.25
 21
-18.32
  0
LINE
  5
3FB
100
AcDbEntity
  8
0
100
AcDbLine
 62
7
  6
CONTINUOUS
 10
-11.25
 20
-16.72
 11
-10.8784002891
 21
-16.3484002891
  0
LINE
  5
3FC
100
AcDbEntity
  8
0
100
AcDbLine
 62
7
  6
CONTINUOUS
 10
-13.2215997109
 20
-16.3484002891
 11
-13.2373048779
 21
-16.3633099253
  0
LINE
  5
3FD
100
AcDbEntity
  8
0
100
AcDbLine
 62
7
  6
CONTINUOUS
 10
-13.2373048779
 20
-16.3633099253
 11
-13.25
 21
-16.3752569235
  0
LINE
  5
3FE
100
AcDbEntity
  8
0
100
AcDbLine
 62
7
  6
CONTINUOUS
 10
-1.6606383264
 20
-5.325
 11
-1.8734042585
 21
-5.48125
  0
LINE
  5
3FF
100
AcDbEntity
  8
0
100
AcDbLine
 62
7
  6
CONTINUOUS
 10
-1.9797872245
 20
-5.2729174614
 11
-1.8202127755
 21
-5.16875
  0
LINE
  5
400
100
AcDbEntity
  8
0
100
AcDbLine
 62
7
  6
CONTINUOUS
 10
-2.8308510646
 20
-4.0229162693
 11
-2.6180850953
 21
-3.91875
  0
LINE
  5
401
100
AcDbEntity
  8
0
100
AcDbLine
 62
7
  6
CONTINUOUS
 10
-2.5648936123
 20
-4.1791662693
 11
-2.6712765783
 21
-4.23125
  0
LINE
  5
402
100
AcDbEntity
  8
0
100
AcDbLine
 62
7
  6
CONTINUOUS
 10
-1.2882979453
 20
-3.1375
 11
-1.1287233472
 21
-3.0854162693
  0
LINE
  5
403
100
AcDbEntity
  8
0
100
AcDbLine
 62
7
  6
CONTINUOUS
 10
-2.4053191632
 20
-4.1270837307
 11
-2.5648936123
 21
-4.1791662693
  0
LINE
  5
404
100
AcDbEntity
  8
0
100
AcDbLine
 62
7
  6
CONTINUOUS
 10
-2.1393616736
 20
1.7583337307
 11
-1.8734042585
 21
1.8104162693
  0
LINE
  5
405
100
AcDbEntity
  8
0
100
AcDbLine
 62
7
  6
CONTINUOUS
 10
18.55
 20
2.5
 11
17.7767949192
 21
2.5
  0
LINE
  5
406
100
AcDbEntity
  8
0
100
AcDbLine
 62
7
  6
CONTINUOUS
 10
-1.4478723943
 20
2.6958337307
 11
-1.7138298094
 21
2.6958337307
  0
LINE
  5
407
100
AcDbEntity
  8
0
100
AcDbLine
 62
7
  6
CONTINUOUS
 10
-1.9265957415
 20
2.6958337307
 11
-3.15
 21
2.6958337307
  0
LINE
  5
408
100
AcDbEntity
  8
0
100
AcDbLine
 62
7
  6
CONTINUOUS
 10
-3.15
 20
2.95625
 11
-1.4478723943
 21
2.95625
  0
LINE
  5
409
100
AcDbEntity
  8
0
100
AcDbLine
 62
7
  6
CONTINUOUS
 10
-18.65
 20
3.0
 11
-17.8767949192
 21
3.0
  0
LINE
  5
40A
100
AcDbEntity
  8
0
100
AcDbLine
 62
7
  6
CONTINUOUS
 10
-0.65
 20
3.3729162693
 11
-0.9159574151
 21
3.3729162693
  0
LINE
  5
40B
100
AcDbEntity
  8
0
100
AcDbLine
 62
7
  6
CONTINUOUS
 10
-1.4478723943
 20
3.3729162693
 11
-3.15
 21
3.3729162693
  0
LINE
  5
40C
100
AcDbEntity
  8
0
100
AcDbLine
 62
7
  6
CONTINUOUS
 10
17.75
 20
3.5
 11
18.55
 21
3.5
  0
LINE
  5
40D
100
AcDbEntity
  8
0
100
AcDbLine
 62
7
  6
CONTINUOUS
 10
-3.15
 20
3.6333337307
 11
-1.4478723943
 21
3.6333337307
  0
LINE
  5
40E
100
AcDbEntity
  8
0
100
AcDbLine
 62
7
  6
CONTINUOUS
 10
-0.9159574151
 20
3.6333337307
 11
-0.65
 21
3.6333337307
  0
LINE
  5
40F
100
AcDbEntity
  8
0
100
AcDbLine
 62
7
  6
CONTINUOUS
 10
-18.75
 20
3.7
 11
-18.65
 21
3.7
  0
LINE
  5
410
100
AcDbEntity
  8
0
100
AcDbLine
 62
7
  6
CONTINUOUS
 10
18.25
 20
3.8
 11
18.65
 21
3.8
  0
LINE
  5
411
100
AcDbEntity
  8
0
100
AcDbLine
 62
7
  6
CONTINUOUS
 10
-2.8308510646
 20
6.6020831347
 11
-2.9904255323
 21
6.7583331347
  0
LINE
  5
412
100
AcDbEntity
  8
0
100
AcDbLine
 62
7
  6
CONTINUOUS
 10
-2.8308510646
 20
9.1541668653
 11
-2.7244680986
 21
8.9979168653
  0
LINE
  5
413
100
AcDbEntity
  8
0
100
AcDbLine
 62
7
  6
CONTINUOUS
 10
-1.6606383264
 20
7.95625
 11
-1.5542553604
 21
7.8
  0
LINE
  5
414
100
AcDbEntity
  8
0
100
AcDbLine
 62
7
  6
CONTINUOUS
 10
-2.9904255323
 20
11.1333334327
 11
-3.0968085123
 21
11.2895834327
  0
LINE
  5
415
100
AcDbEntity
  8
0
100
AcDbLine
 62
7
  6
CONTINUOUS
 10
-1.7138298094
 20
9.675
 11
-1.8202127755
 21
9.8833331347
  0
LINE
  5
416
100
AcDbEntity
  8
0
100
AcDbLine
 62
7
  6
CONTINUOUS
 10
-2.2989361972
 20
11.8625
 11
-2.3521276802
 21
11.9666665673
  0
LINE
  5
417
100
AcDbEntity
  8
0
100
AcDbLine
 62
7
  6
CONTINUOUS
 10
-2.1925531566
 20
12.175
 11
-2.0861701906
 21
11.9666665673
  0
LINE
  5
418
100
AcDbEntity
  8
0
100
AcDbLine
 62
7
  6
CONTINUOUS
 10
-1.7138298094
 20
11.9666665673
 11
-1.7670212925
 21
12.0708334327
  0
LINE
  5
419
100
AcDbEntity
  8
0
100
AcDbLine
 62
7
  6
CONTINUOUS
 10
-1.7670212925
 20
-12.7729174614
 11
-1.7138298094
 21
-12.66875
  0
LINE
  5
41A
100
AcDbEntity
  8
0
100
AcDbLine
 62
7
  6
CONTINUOUS
 10
-1.5010638773
 20
-10.8979174614
 11
-1.6074468434
 21
-11.0541674614
  0
LINE
  5
41B
100
AcDbEntity
  8
0
100
AcDbLine
 62
7
  6
CONTINUOUS
 10
-1.7670212924
 20
-8.0854174614
 11
-1.7138298094
 21
-8.0333325386
  0
LINE
  5
41C
100
AcDbEntity
  8
0
100
AcDbLine
 62
7
  6
CONTINUOUS
 10
-1.5010638773
 20
-8.1895825386
 11
-1.6606383264
 21
-8.3458325386
  0
LINE
  5
41D
100
AcDbEntity
  8
0
100
AcDbLine
 62
7
  6
CONTINUOUS
 10
-3.0436170246
 20
-9.85625
 11
-2.8840425476
 21
-9.7
  0
LINE
  5
41E
100
AcDbEntity
  8
0
100
AcDbLine
 62
7
  6
CONTINUOUS
 10
-1.7670212924
 20
-8.91875
 11
-1.7138298094
 21
-8.8666674614
  0
LINE
  5
41F
100
AcDbEntity
  8
0
100
AcDbLine
 62
7
  6
CONTINUOUS
 10
-1.5010638773
 20
-9.0229174614
 11
-1.6074468434
 21
-9.1270825386
  0
LINE
  5
420
100
AcDbEntity
  8
0
100
AcDbLine
 62
7
  6
CONTINUOUS
 10
-2.6180850953
 20
6.55
 11
-2.8308510646
 21
6.6020831347
  0
LINE
  5
421
100
AcDbEntity
  8
0
100
AcDbLine
 62
7
  6
CONTINUOUS
 10
-2.7776595816
 20
6.8625
 11
-2.6180850953
 21
6.8104168653
  0
LINE
  5
422
100
AcDbEntity
  8
0
100
AcDbLine
 62
7
  6
CONTINUOUS
 10
-1.7670212924
 20
7.6958331347
 11
-1.9265957415
 21
7.8520831347
  0
LINE
  5
423
100
AcDbEntity
  8
0
100
AcDbLine
 62
7
  6
CONTINUOUS
 10
-2.9372340493
 20
8.9458331347
 11
-3.0436170246
 21
9.05
  0
LINE
  5
424
100
AcDbEntity
  8
0
100
AcDbLine
 62
7
  6
CONTINUOUS
 10
-1.7670212924
 20
8.0604168653
 11
-1.6606383264
 21
7.95625
  0
LINE
  5
425
100
AcDbEntity
  8
0
100
AcDbLine
 62
7
  6
CONTINUOUS
 10
-1.6074468434
 20
10.0395831346
 11
-1.5010638773
 21
9.8833331347
  0
LINE
  5
426
100
AcDbEntity
  8
0
100
AcDbLine
 62
7
  6
CONTINUOUS
 10
-1.5542553604
 20
12.2270834327
 11
-1.5010638773
 21
12.1229165673
  0
LINE
  5
427
100
AcDbEntity
  8
0
100
AcDbLine
 62
7
  6
CONTINUOUS
 10
-1.5010638773
 20
-12.825
 11
-1.6074468434
 21
-12.98125
  0
LWPOLYLINE
  5
428
100
AcDbEntity
  8
0
100
AcDbPolyline
 62
7
  6
CONTINUOUS
 90
4
 70
0
 10
-5.05
 20
-16.5
 10
-5.0484788219
 20
-16.4983527625
 10
-5.0439316954
 20
-16.493822925
 10
-5.036406178
 20
-16.4864104873
  0
LINE
  5
429
100
AcDbEntity
  8
0
100
AcDbLine
 62
7
  6
CONTINUOUS
 10
-7.0364104873
 20
-16.486406178
 11
-6.9075306493
 21
-16.3575148958
  0
LWPOLYLINE
  5
42A
100
AcDbEntity
  8
0
100
AcDbPolyline
 62
7
  6
CONTINUOUS
 90
6
 70
0
 10
-6.9075306493
 20
-16.3575148958
 10
-6.8791979151
 20
-16.3293507433
 10
-6.8492108411
 20
-16.2992110649
 10
-6.8177949005
 20
-16.2673568091
 10
-6.7847246201
 20
-16.2341568318
 10
-6.75
 20
-16.2
  0
LINE
  5
42B
100
AcDbEntity
  8
0
100
AcDbLine
 62
7
  6
CONTINUOUS
 10
-1.6074468434
 20
-11.0541674614
 11
-1.7138298094
 21
-11.1583325386
  0
LWPOLYLINE
  5
42C
100
AcDbEntity
  8
0
100
AcDbPolyline
 62
7
  6
CONTINUOUS
 90
4
 70
0
 10
-7.05
 20
-16.5
 10
-7.0483527625
 20
-16.4984788219
 10
-7.043822925
 20
-16.4939316954
 10
-7.0364104873
 20
-16.486406178
  0
LINE
  5
42D
100
AcDbEntity
  8
0
100
AcDbLine
 62
7
  6
CONTINUOUS
 10
-1.8734042585
 20
-8.1375
 11
-1.7670212924
 21
-8.0854174614
  0
LINE
  5
42E
100
AcDbEntity
  8
0
100
AcDbLine
 62
7
  6
CONTINUOUS
 10
-1.8734042585
 20
-8.9708325386
 11
-1.7670212924
 21
-8.91875
  0
LINE
  5
42F
100
AcDbEntity
  8
0
100
AcDbLine
 62
7
  6
CONTINUOUS
 10
-2.7244680986
 20
-9.9083325386
 11
-2.8308510646
 21
-9.9604174614
  0
LINE
  5
430
100
AcDbEntity
  8
0
100
AcDbLine
 62
7
  6
CONTINUOUS
 10
-1.8734042585
 20
6.6020831347
 11
-2.0861701906
 21
6.55
  0
LINE
  5
431
100
AcDbEntity
  8
0
100
AcDbLine
 62
7
  6
CONTINUOUS
 10
-2.0861701906
 20
6.55
 11
-2.2989361972
 21
6.55
  0
LINE
  5
432
100
AcDbEntity
  8
0
100
AcDbLine
 62
7
  6
CONTINUOUS
 10
-2.0861701906
 20
6.8104168653
 11
-1.9797872245
 21
6.8104168653
  0
LINE
  5
433
100
AcDbEntity
  8
0
100
AcDbLine
 62
7
  6
CONTINUOUS
 10
-18.75
 20
7.3
 11
-18.65
 21
7.3
  0
LINE
  5
434
100
AcDbEntity
  8
0
100
AcDbLine
 62
7
  6
CONTINUOUS
 10
-1.9265957415
 20
7.8520831347
 11
-2.0329787076
 21
7.9041668653
  0
LINE
  5
435
100
AcDbEntity
  8
0
100
AcDbLine
 62
7
  6
CONTINUOUS
 10
-1.9797872245
 20
8.1645831347
 11
-1.7670212924
 21
8.0604168653
  0
LINE
  5
436
100
AcDbEntity
  8
0
100
AcDbLine
 62
7
  6
CONTINUOUS
 10
-2.8308510646
 20
8.89375
 11
-2.9372340493
 21
8.9458331347
  0
LINE
  5
437
100
AcDbEntity
  8
0
100
AcDbLine
 62
7
  6
CONTINUOUS
 10
-2.7244680986
 20
8.9979168653
 11
-2.5648936123
 21
8.89375
  0
LINE
  5
438
100
AcDbEntity
  8
0
100
AcDbLine
 62
7
  6
CONTINUOUS
 10
-1.8202127755
 20
9.8833331347
 11
-1.9797872245
 21
9.9875
  0
LINE
  5
439
100
AcDbEntity
  8
0
100
AcDbLine
 62
7
  6
CONTINUOUS
 10
-1.7670212924
 20
10.1958331347
 11
-1.6074468434
 21
10.0395831346
  0
LINE
  5
43A
100
AcDbEntity
  8
0
100
AcDbLine
 62
7
  6
CONTINUOUS
 10
-2.8308510646
 20
11.2895834327
 11
-2.6712765783
 21
11.1333334327
  0
LINE
  5
43B
100
AcDbEntity
  8
0
100
AcDbLine
 62
7
  6
CONTINUOUS
 10
-2.3521276802
 20
11.9666665673
 11
-2.4585106462
 21
12.0708334327
  0
LINE
  5
43C
100
AcDbEntity
  8
0
100
AcDbLine
 62
7
  6
CONTINUOUS
 10
-2.2989361972
 20
12.2791665673
 11
-2.1925531566
 21
12.175
  0
LINE
  5
43D
100
AcDbEntity
  8
0
100
AcDbLine
 62
7
  6
CONTINUOUS
 10
-1.6606383264
 20
12.33125
 11
-1.5542553604
 21
12.2270834327
  0
LINE
  5
43E
100
AcDbEntity
  8
0
100
AcDbLine
 62
7
  6
CONTINUOUS
 10
8.85
 20
-14.0
 11
8.85
 21
-8.0
  0
LINE
  5
43F
100
AcDbEntity
  8
0
100
AcDbLine
 62
7
  6
CONTINUOUS
 10
-5.036406178
 20
-16.4864104873
 11
-4.9571668094
 21
-16.4070833741
  0
LWPOLYLINE
  5
440
100
AcDbEntity
  8
0
100
AcDbPolyline
 62
7
  6
CONTINUOUS
 90
3
 70
0
 10
-4.9571668094
 20
-16.4070833741
 10
-4.9335349754
 20
-16.3835326242
 10
-4.8793507433
 20
-16.3291979151
  0
LWPOLYLINE
  5
441
100
AcDbEntity
  8
0
100
AcDbPolyline
 62
7
  6
CONTINUOUS
 90
5
 70
0
 10
-4.8793507433
 20
-16.3291979151
 10
-4.8492110649
 20
-16.2992108411
 10
-4.8173568091
 20
-16.2677949005
 10
-4.7841568318
 20
-16.2347246201
 10
-4.75
 20
-16.2
  0
LINE
  5
442
100
AcDbEntity
  8
0
100
AcDbLine
 62
7
  6
CONTINUOUS
 10
-1.8734042585
 20
-12.8770825386
 11
-1.7670212925
 21
-12.7729174614
  0
LINE
  5
443
100
AcDbEntity
  8
0
100
AcDbLine
 62
7
  6
CONTINUOUS
 10
-1.6074468434
 20
-12.98125
 11
-1.7138298094
 21
-13.0854174614
  0
LINE
  5
444
100
AcDbEntity
  8
0
100
AcDbLine
 62
7
  6
CONTINUOUS
 10
-3.15
 20
-11.0541674614
 11
-3.0436170247
 21
-11.0020825386
  0
LINE
  5
445
100
AcDbEntity
  8
0
100
AcDbLine
 62
7
  6
CONTINUOUS
 10
-1.8734042585
 20
-10.95
 11
-1.7670212925
 21
-10.8979174614
  0
LINE
  5
446
100
AcDbEntity
  8
0
100
AcDbLine
 62
7
  6
CONTINUOUS
 10
-1.6074468434
 20
-9.1270825386
 11
-1.8734042585
 21
-9.23125
  0
LINE
  5
447
100
AcDbEntity
  8
0
100
AcDbLine
 62
7
  6
CONTINUOUS
 10
-3.0436170247
 20
-11.0020825386
 11
-2.8840425476
 21
-10.95
  0
LINE
  5
448
100
AcDbEntity
  8
0
100
AcDbLine
 62
7
  6
CONTINUOUS
 10
-2.6180850953
 20
8.1645831347
 11
-2.2989361972
 21
8.2166668653
  0
LINE
  5
449
100
AcDbEntity
  8
0
100
AcDbLine
 62
7
  6
CONTINUOUS
 10
-2.0329787076
 20
7.9041668653
 11
-2.0861701906
 21
7.9041668653
  0
LINE
  5
44A
100
AcDbEntity
  8
0
100
AcDbLine
 62
7
  6
CONTINUOUS
 10
-2.2989361972
 20
7.95625
 11
-2.4053191632
 21
7.95625
  0
LINE
  5
44B
100
AcDbEntity
  8
0
100
AcDbLine
 62
7
  6
CONTINUOUS
 10
-17.8767949192
 20
8.0
 11
-18.65
 21
8.0
  0
LINE
  5
44C
100
AcDbEntity
  8
0
100
AcDbLine
 62
7
  6
CONTINUOUS
 10
-0.65
 20
8.6333331347
 11
-3.15
 21
8.6333331347
  0
LINE
  5
44D
100
AcDbEntity
  8
0
100
AcDbLine
 62
7
  6
CONTINUOUS
 10
-3.15
 20
8.89375
 11
-2.8308510646
 21
8.89375
  0
LINE
  5
44E
100
AcDbEntity
  8
0
100
AcDbLine
 62
7
  6
CONTINUOUS
 10
-2.5648936123
 20
8.89375
 11
-2.0329787076
 21
8.89375
  0
LINE
  5
44F
100
AcDbEntity
  8
0
100
AcDbLine
 62
7
  6
CONTINUOUS
 10
-1.7670212924
 20
8.89375
 11
-0.65
 21
8.89375
  0
LINE
  5
450
100
AcDbEntity
  8
0
100
AcDbLine
 62
7
  6
CONTINUOUS
 10
-18.65
 20
9.0
 11
-17.85
 21
9.0
  0
LINE
  5
451
100
AcDbEntity
  8
0
100
AcDbLine
 62
7
  6
CONTINUOUS
 10
-18.75
 20
9.3
 11
-18.35
 21
9.3
  0
LINE
  5
452
100
AcDbEntity
  8
0
100
AcDbLine
 62
7
  6
CONTINUOUS
 10
-2.2989361972
 20
8.2166668653
 11
-1.9797872245
 21
8.1645831347
  0
LINE
  5
453
100
AcDbEntity
  8
0
100
AcDbLine
 62
7
  6
CONTINUOUS
 10
-2.0861701906
 20
10.3
 11
-1.8734042585
 21
10.2479168654
  0
LINE
  5
454
100
AcDbEntity
  8
0
100
AcDbLine
 62
7
  6
CONTINUOUS
 10
-1.9797872245
 20
9.9875
 11
-2.1393616736
 21
10.0395831347
  0
LINE
  5
455
100
AcDbEntity
  8
0
100
AcDbLine
 62
7
  6
CONTINUOUS
 10
-1.8734042585
 20
10.2479168654
 11
-1.7670212924
 21
10.1958331347
  0
LINE
  5
456
100
AcDbEntity
  8
0
100
AcDbLine
 62
7
  6
CONTINUOUS
 10
-2.8840425476
 20
11.08125
 11
-2.9904255323
 21
11.1333334327
  0
LINE
  5
457
100
AcDbEntity
  8
0
100
AcDbLine
 62
7
  6
CONTINUOUS
 10
-2.6712765783
 20
11.1333334327
 11
-2.5648936123
 21
11.08125
  0
LINE
  5
458
100
AcDbEntity
  8
0
100
AcDbLine
 62
7
  6
CONTINUOUS
 10
-2.9904255323
 20
-11.2625
 11
-3.15
 21
-11.3145825386
  0
LINE
  5
459
100
AcDbEntity
  8
0
100
AcDbLine
 62
7
  6
CONTINUOUS
 10
-1.7138298094
 20
-11.1583325386
 11
-1.8734042585
 21
-11.2104174614
  0
LINE
  5
45A
100
AcDbEntity
  8
0
100
AcDbLine
 62
7
  6
CONTINUOUS
 10
-2.7244680986
 20
10.2479168653
 11
-2.5117021292
 21
10.3
  0
LINE
  5
45B
100
AcDbEntity
  8
0
100
AcDbLine
 62
7
  6
CONTINUOUS
 10
-2.7244680986
 20
10.8208334327
 11
-2.9904255323
 21
10.76875
  0
LINE
  5
45C
100
AcDbEntity
  8
0
100
AcDbLine
 62
7
  6
CONTINUOUS
 10
-2.1393616736
 20
10.0395831347
 11
-2.4585106462
 21
10.0395831347
  0
LINE
  5
45D
100
AcDbEntity
  8
0
100
AcDbLine
 62
7
  6
CONTINUOUS
 10
-2.5117021292
 20
10.3
 11
-2.0861701906
 21
10.3
  0
LINE
  5
45E
100
AcDbEntity
  8
0
100
AcDbLine
 62
7
  6
CONTINUOUS
 10
-1.8734042585
 20
10.8208334327
 11
-2.7244680986
 21
10.8208334327
  0
LINE
  5
45F
100
AcDbEntity
  8
0
100
AcDbLine
 62
7
  6
CONTINUOUS
 10
-2.5648936123
 20
11.08125
 11
-2.2457447141
 21
11.08125
  0
LINE
  5
460
100
AcDbEntity
  8
0
100
AcDbLine
 62
7
  6
CONTINUOUS
 10
-2.0329787076
 20
11.08125
 11
-1.8734042585
 21
11.08125
  0
LINE
  5
461
100
AcDbEntity
  8
0
100
AcDbLine
 62
7
  6
CONTINUOUS
 10
-2.4585106462
 20
12.0708334327
 11
-2.6180850953
 21
12.1229165673
  0
LINE
  5
462
100
AcDbEntity
  8
0
100
AcDbLine
 62
7
  6
CONTINUOUS
 10
-2.5117021292
 20
12.3833334327
 11
-2.2989361972
 21
12.2791665673
  0
LINE
  5
463
100
AcDbEntity
  8
0
100
AcDbLine
 62
7
  6
CONTINUOUS
 10
-1.7670212925
 20
12.0708334327
 11
-1.8734042585
 21
12.1229165673
  0
LINE
  5
464
100
AcDbEntity
  8
0
100
AcDbLine
 62
7
  6
CONTINUOUS
 10
-1.7670212924
 20
12.3833334327
 11
-1.6606383264
 21
12.33125
  0
LINE
  5
465
100
AcDbEntity
  8
0
100
AcDbLine
 62
253
  6
CONTINUOUS
 10
12.95
 20
-20.0
 11
12.95
 21
-19.7
  0
LINE
  5
466
100
AcDbEntity
  8
0
100
AcDbLine
 62
253
  6
CONTINUOUS
 10
12.95
 20
19.7
 11
12.95
 21
20.0
  0
LINE
  5
467
100
AcDbEntity
  8
0
100
AcDbLine
 62
253
  6
CONTINUOUS
 10
13.0500000001
 20
-18.6
 11
13.0500000001
 21
-18.3
  0
LINE
  5
468
100
AcDbEntity
  8
0
100
AcDbLine
 62
253
  6
CONTINUOUS
 10
13.05
 20
18.3
 11
13.05
 21
18.6
  0
LINE
  5
469
100
AcDbEntity
  8
0
100
AcDbLine
 62
7
  6
CONTINUOUS
 10
-1.4478723943
 20
-13.91875
 11
-2.5648936123
 21
-14.4916674614
  0
LINE
  5
46A
100
AcDbEntity
  8
0
100
AcDbLine
 62
7
  6
CONTINUOUS
 10
-2.9372340493
 20
-14.3354174614
 11
-1.4478723943
 21
-13.60625
  0
LINE
  5
46B
100
AcDbEntity
  8
0
100
AcDbLine
 62
7
  6
CONTINUOUS
 10
-1.7138298094
 20
-13.0854174614
 11
-1.8734042585
 21
-13.1375
  0
LINE
  5
46C
100
AcDbEntity
  8
0
100
AcDbLine
 62
7
  6
CONTINUOUS
 10
-2.8840425476
 20
12.33125
 11
-2.6712765783
 21
12.3833334327
  0
LINE
  5
46D
100
AcDbEntity
  8
0
100
AcDbLine
 62
7
  6
CONTINUOUS
 10
-2.6180850953
 20
12.1229165673
 11
-2.7244680986
 21
12.1229165673
  0
LINE
  5
46E
100
AcDbEntity
  8
0
100
AcDbLine
 62
7
  6
CONTINUOUS
 10
-2.6712765783
 20
12.3833334327
 11
-2.5117021292
 21
12.3833334327
  0
LINE
  5
46F
100
AcDbEntity
  8
0
100
AcDbLine
 62
7
  6
CONTINUOUS
 10
-1.8734042585
 20
12.3833334327
 11
-1.7670212924
 21
12.3833334327
  0
LINE
  5
470
100
AcDbEntity
  8
0
100
AcDbLine
 62
7
  6
CONTINUOUS
 10
-0.65
 20
12.8
 11
-3.15
 21
12.8
  0
LINE
  5
471
100
AcDbEntity
  8
0
100
AcDbLine
 62
7
  6
CONTINUOUS
 10
-3.15
 20
13.1125
 11
-1.1819148302
 21
13.1125
  0
LINE
  5
472
100
AcDbEntity
  8
0
100
AcDbLine
 62
7
  6
CONTINUOUS
 10
-2.8840425476
 20
14.05
 11
-0.65
 21
13.26875
  0
LINE
  5
473
100
AcDbEntity
  8
0
100
AcDbLine
 62
7
  6
CONTINUOUS
 10
-1.1819148302
 20
13.1125
 11
-3.15
 21
13.8416667163
  0
LINE
  5
474
100
AcDbEntity
  8
0
100
AcDbLine
 62
7
  6
CONTINUOUS
 10
14.85
 20
-8.0
 11
14.85
 21
-14.0
  0
LINE
  5
475
100
AcDbEntity
  8
0
100
AcDbLine
 62
253
  6
CONTINUOUS
 10
19.45
 20
13.5
 11
19.15
 21
13.5
  0
LINE
  5
476
100
AcDbEntity
  8
0
100
AcDbLine
 62
253
  6
CONTINUOUS
 10
-19.25
 20
13.5
 11
-19.55
 21
13.5
  0
LINE
  5
477
100
AcDbEntity
  8
0
100
AcDbLine
 62
253
  6
CONTINUOUS
 10
18.05
 20
13.6000000001
 11
17.75
 21
13.6000000001
  0
LINE
  5
478
100
AcDbEntity
  8
0
100
AcDbLine
 62
253
  6
CONTINUOUS
 10
-17.85
 20
13.6
 11
-18.15
 21
13.6
  0
LINE
  5
479
100
AcDbEntity
  8
0
100
AcDbLine
 62
7
  6
CONTINUOUS
 10
-1.1819148302
 20
14.9875
 11
-3.15
 21
14.9875
  0
LINE
  5
47A
100
AcDbEntity
  8
0
100
AcDbLine
 62
7
  6
CONTINUOUS
 10
16.85
 20
13.9
 11
16.85
 21
-13.9
  0
LINE
  5
47B
100
AcDbEntity
  8
0
100
AcDbLine
 62
7
  6
CONTINUOUS
 10
-3.15
 20
15.3
 11
-0.65
 21
15.3
  0
LINE
  5
47C
100
AcDbEntity
  8
0
100
AcDbLine
 62
7
  6
CONTINUOUS
 10
1.45
 20
15.5
 11
15.25
 21
15.5
  0
LINE
  5
47D
100
AcDbEntity
  8
0
100
AcDbLine
 62
253
  6
CONTINUOUS
 10
19.55
 20
15.75
 11
19.45
 21
15.75
  0
LINE
  5
47E
100
AcDbEntity
  8
0
100
AcDbLine
 62
7
  6
CONTINUOUS
 10
19.45
 20
16.5
 11
19.55
 21
16.5
  0
LINE
  5
47F
100
AcDbEntity
  8
0
100
AcDbLine
 62
253
  6
CONTINUOUS
 10
17.75
 20
-13.5999940773
 11
17.75
 21
-3.5
  0
LINE
  5
480
100
AcDbEntity
  8
0
100
AcDbLine
 62
253
  6
CONTINUOUS
 10
17.75
 20
3.5
 11
17.75
 21
13.5999940774
  0
LINE
  5
481
100
AcDbEntity
  8
0
100
AcDbLine
 62
253
  6
CONTINUOUS
 10
17.7767949192
 20
-2.5
 11
17.7767949192
 21
2.5
  0
LINE
  5
482
100
AcDbEntity
  8
0
100
AcDbLine
 62
253
  6
CONTINUOUS
 10
18.0366025404
 20
2.5
 11
18.0366025404
 21
-2.5
  0
LINE
  5
483
100
AcDbEntity
  8
0
100
AcDbLine
 62
7
  6
CONTINUOUS
 10
18.05
 20
13.6
 11
18.05
 21
3.5
  0
LINE
  5
484
100
AcDbEntity
  8
0
100
AcDbLine
 62
7
  6
CONTINUOUS
 10
18.05
 20
-3.5
 11
18.05
 21
-13.6
  0
LINE
  5
485
100
AcDbEntity
  8
0
100
AcDbLine
 62
7
  6
CONTINUOUS
 10
18.25
 20
-13.5
 11
18.25
 21
-3.5
  0
LINE
  5
486
100
AcDbEntity
  8
0
100
AcDbLine
 62
7
  6
CONTINUOUS
 10
18.25
 20
3.5
 11
18.25
 21
13.5
  0
LINE
  5
487
100
AcDbEntity
  8
0
100
AcDbLine
 62
7
  6
CONTINUOUS
 10
18.55
 20
-3.5
 11
18.55
 21
3.5
  0
LINE
  5
488
100
AcDbEntity
  8
0
100
AcDbLine
 62
7
  6
CONTINUOUS
 10
18.65
 20
-3.8
 11
18.65
 21
3.8
  0
LINE
  5
489
100
AcDbEntity
  8
0
100
AcDbLine
 62
253
  6
CONTINUOUS
 10
13.0499940773
 20
18.3
 11
-13.1499940774
 21
18.3
  0
LINE
  5
48A
100
AcDbEntity
  8
0
100
AcDbLine
 62
7
  6
CONTINUOUS
 10
-13.1492735283
 20
18.6
 11
13.0492735283
 21
18.6
  0
LINE
  5
48B
100
AcDbEntity
  8
0
100
AcDbLine
 62
7
  6
CONTINUOUS
 10
12.95
 20
18.8
 11
-13.05
 21
18.8
  0
LINE
  5
48C
100
AcDbEntity
  8
0
100
AcDbLine
 62
253
  6
CONTINUOUS
 10
19.15
 20
-13.4999972542
 11
19.15
 21
13.4999972543
  0
LINE
  5
48D
100
AcDbEntity
  8
0
100
AcDbLine
 62
7
  6
CONTINUOUS
 10
19.45
 20
-16.5
 11
19.45
 21
16.5
  0
LINE
  5
48E
100
AcDbEntity
  8
0
100
AcDbLine
 62
7
  6
CONTINUOUS
 10
19.55
 20
-16.5
 11
19.55
 21
16.5
  0
LINE
  5
48F
100
AcDbEntity
  8
0
100
AcDbLine
 62
253
  6
CONTINUOUS
 10
12.9499972542
 20
19.7
 11
-13.0499972543
 21
19.7
  0
LINE
  5
490
100
AcDbEntity
  8
0
100
AcDbLine
 62
7
  6
CONTINUOUS
 10
-13.05
 20
20.0
 11
12.95
 21
20.0
  0
ARC
  5
491
100
AcDbEntity
  8
0
100
AcDbCircle
 62
7
  6
CONTINUOUS
 10
-13.15
 20
-14.8284860937
 40
1.55
100
AcDbArc
 50
224.79117516
 51
266.3009289368
  0
ARC
  5
492
100
AcDbEntity
  8
0
100
AcDbCircle
 62
7
  6
CONTINUOUS
 10
-13.15
 20
-14.8284860937
 40
1.55
100
AcDbArc
 50
285.7896766632
 51
315.208679213
  0
ARC
  5
493
100
AcDbEntity
  8
0
100
AcDbCircle
 62
7
  6
CONTINUOUS
 10
-13.15
 20
-14.8284860937
 40
1.55
100
AcDbArc
 50
44.7913255294
 51
135.2086728101
  0
ARC
  5
494
100
AcDbEntity
  8
0
100
AcDbCircle
 62
7
  6
CONTINUOUS
 10
-15.35
 20
-14.8284860937
 40
1.55
100
AcDbArc
 50
44.7912915504
 51
315.2086967928
  0
CIRCLE
  5
495
100
AcDbEntity
  8
0
100
AcDbCircle
 62
7
  6
CONTINUOUS
 10
-13.15
 20
-14.8284860937
 40
1.05
  0
CIRCLE
  5
496
100
AcDbEntity
  8
0
100
AcDbCircle
 62
7
  6
CONTINUOUS
 10
-15.35
 20
-14.8284860937
 40
1.05
  0
ARC
  5
497
100
AcDbEntity
  8
0
100
AcDbCircle
 62
7
  6
CONTINUOUS
 10
-15.15
 20
-18.9
 40
0.3
100
AcDbArc
 50
90.0
 51
180.0
  0
ARC
  5
498
100
AcDbEntity
  8
0
100
AcDbCircle
 62
7
  6
CONTINUOUS
 10
-15.15
 20
-19.2369218666
 40
0.3
100
AcDbArc
 50
180.0
 51
260.0000000002
  0
ARC
  5
499
100
AcDbEntity
  8
0
100
AcDbCircle
 62
7
  6
CONTINUOUS
 10
-12.5237534009
 20
-19.7
 40
0.3
100
AcDbArc
 50
259.9999999999
 51
270.0
  0
ARC
  5
49A
100
AcDbEntity
  8
0
100
AcDbCircle
 62
7
  6
CONTINUOUS
 10
-17.55
 20
-4.9
 40
2.0
100
AcDbArc
 50
180.0
 51
270.0
  0
ARC
  5
49B
100
AcDbEntity
  8
0
100
AcDbCircle
 62
253
  6
CONTINUOUS
 10
-17.55
 20
-4.9
 40
1.699998714
100
AcDbArc
 50
179.9996172211
 51
270.0003827789
  0
ARC
  5
49C
100
AcDbEntity
  8
0
100
AcDbCircle
 62
7
  6
CONTINUOUS
 10
-13.15
 20
-9.1284860937
 40
1.55
100
AcDbArc
 50
224.79117516
 51
266.3009289368
  0
ARC
  5
49D
100
AcDbEntity
  8
0
100
AcDbCircle
 62
7
  6
CONTINUOUS
 10
-13.15
 20
-9.1284860937
 40
1.55
100
AcDbArc
 50
285.7896766632
 51
315.208679213
  0
ARC
  5
49E
100
AcDbEntity
  8
0
100
AcDbCircle
 62
7
  6
CONTINUOUS
 10
-13.15
 20
-9.1284860937
 40
1.55
100
AcDbArc
 50
44.7913255294
 51
135.2086728101
  0
ARC
  5
49F
100
AcDbEntity
  8
0
100
AcDbCircle
 62
7
  6
CONTINUOUS
 10
-15.35
 20
-9.1284860937
 40
1.55
100
AcDbArc
 50
44.7912915504
 51
315.2086967928
  0
CIRCLE
  5
4A0
100
AcDbEntity
  8
0
100
AcDbCircle
 62
7
  6
CONTINUOUS
 10
-13.15
 20
-9.1284860937
 40
1.05
  0
CIRCLE
  5
4A1
100
AcDbEntity
  8
0
100
AcDbCircle
 62
7
  6
CONTINUOUS
 10
-15.35
 20
-9.1284860937
 40
1.05
  0
ARC
  5
4A2
100
AcDbEntity
  8
0
100
AcDbCircle
 62
7
  6
CONTINUOUS
 10
-17.85
 20
-5.2
 40
0.3
100
AcDbArc
 50
180.0
 51
270.0
  0
ARC
  5
4A3
100
AcDbEntity
  8
0
100
AcDbCircle
 62
7
  6
CONTINUOUS
 10
-10.95
 20
-14.8284860937
 40
1.55
100
AcDbArc
 50
273.6990710632
 51
315.2086735849
  0
ARC
  5
4A4
100
AcDbEntity
  8
0
100
AcDbCircle
 62
7
  6
CONTINUOUS
 10
-8.75
 20
-14.8284860937
 40
1.55
100
AcDbArc
 50
224.7913007845
 51
135.2087084487
  0
ARC
  5
4A5
100
AcDbEntity
  8
0
100
AcDbCircle
 62
7
  6
CONTINUOUS
 10
-10.95
 20
-14.8284860937
 40
1.55
100
AcDbArc
 50
44.7913271905
 51
135.2086871656
  0
ARC
  5
4A6
100
AcDbEntity
  8
0
100
AcDbCircle
 62
7
  6
CONTINUOUS
 10
-10.95
 20
-14.8284860937
 40
1.55
100
AcDbArc
 50
224.7912280809
 51
254.2103233368
  0
CIRCLE
  5
4A7
100
AcDbEntity
  8
0
100
AcDbCircle
 62
7
  6
CONTINUOUS
 10
-8.75
 20
-14.8284860937
 40
1.05
  0
CIRCLE
  5
4A8
100
AcDbEntity
  8
0
100
AcDbCircle
 62
7
  6
CONTINUOUS
 10
-10.95
 20
-14.8284860937
 40
1.05
  0
ARC
  5
4A9
100
AcDbEntity
  8
0
100
AcDbCircle
 62
7
  6
CONTINUOUS
 10
-4.75
 20
-18.3
 40
0.3
100
AcDbArc
 50
180.0
 51
270.0
  0
ARC
  5
4AA
100
AcDbEntity
  8
0
100
AcDbCircle
 62
7
  6
CONTINUOUS
 10
-10.95
 20
-9.1284860937
 40
1.55
100
AcDbArc
 50
273.6990710632
 51
315.2086735849
  0
ARC
  5
4AB
100
AcDbEntity
  8
0
100
AcDbCircle
 62
7
  6
CONTINUOUS
 10
-8.75
 20
-9.1284860937
 40
1.55
100
AcDbArc
 50
224.7913007845
 51
135.2087084487
  0
ARC
  5
4AC
100
AcDbEntity
  8
0
100
AcDbCircle
 62
7
  6
CONTINUOUS
 10
-10.95
 20
-9.1284860937
 40
1.55
100
AcDbArc
 50
44.7913271905
 51
135.2086871656
  0
ARC
  5
4AD
100
AcDbEntity
  8
0
100
AcDbCircle
 62
7
  6
CONTINUOUS
 10
-10.95
 20
-9.1284860937
 40
1.55
100
AcDbArc
 50
224.7912280809
 51
254.2103233368
  0
CIRCLE
  5
4AE
100
AcDbEntity
  8
0
100
AcDbCircle
 62
7
  6
CONTINUOUS
 10
-8.75
 20
-9.1284860937
 40
1.05
  0
CIRCLE
  5
4AF
100
AcDbEntity
  8
0
100
AcDbCircle
 62
7
  6
CONTINUOUS
 10
-10.95
 20
-9.1284860937
 40
1.05
  0
ARC
  5
4B0
100
AcDbEntity
  8
0
100
AcDbCircle
 62
7
  6
CONTINUOUS
 10
-5.8
 20
-6.5
 40
1.0
100
AcDbArc
 50
41.3646902393
 51
90.0
  0
ARC
  5
4B1
100
AcDbEntity
  8
0
100
AcDbCircle
 62
7
  6
CONTINUOUS
 10
-13.05
 20
13.5
 40
6.5
100
AcDbArc
 50
90.0
 51
180.0
  0
ARC
  5
4B2
100
AcDbEntity
  8
0
100
AcDbCircle
 62
253
  6
CONTINUOUS
 10
-13.05
 20
13.5
 40
6.1999997594
100
AcDbArc
 50
89.9999746264
 51
180.0000253742
  0
ARC
  5
4B3
100
AcDbEntity
  8
0
100
AcDbCircle
 62
7
  6
CONTINUOUS
 10
-13.05
 20
13.5
 40
5.3
100
AcDbArc
 50
90.0
 51
180.0
  0
ARC
  5
4B4
100
AcDbEntity
  8
0
100
AcDbCircle
 62
7
  6
CONTINUOUS
 10
-13.15
 20
13.6
 40
5.0
100
AcDbArc
 50
89.9916737138
 51
180.0
  0
ARC
  5
4B5
100
AcDbEntity
  8
0
100
AcDbCircle
 62
253
  6
CONTINUOUS
 10
-13.15
 20
13.6
 40
4.6999994157
100
AcDbArc
 50
89.9999278001
 51
180.0000722018
  0
ARC
  5
4B6
100
AcDbEntity
  8
0
100
AcDbCircle
 62
7
  6
CONTINUOUS
 10
-18.35
 20
13.0
 40
0.5
100
AcDbArc
 50
66.4136308203
 51
90.0
  0
ARC
  5
4B7
100
AcDbEntity
  8
0
100
AcDbCircle
 62
7
  6
CONTINUOUS
 10
-18.35
 20
13.0
 40
0.5
100
AcDbArc
 50
270.0
 51
293.5863691797
  0
ARC
  5
4B8
100
AcDbEntity
  8
0
100
AcDbCircle
 62
7
  6
CONTINUOUS
 10
-18.35
 20
-2.0
 40
0.5
100
AcDbArc
 50
66.4136308203
 51
90.0
  0
ARC
  5
4B9
100
AcDbEntity
  8
0
100
AcDbCircle
 62
7
  6
CONTINUOUS
 10
-18.35
 20
-2.0
 40
0.5
100
AcDbArc
 50
270.0
 51
293.5863691797
  0
ARC
  5
4BA
100
AcDbEntity
  8
0
100
AcDbCircle
 62
7
  6
CONTINUOUS
 10
12.95
 20
-13.5
 40
6.5
100
AcDbArc
 50
270.0
 51
360.0
  0
ARC
  5
4BB
100
AcDbEntity
  8
0
100
AcDbCircle
 62
253
  6
CONTINUOUS
 10
12.95
 20
-13.5
 40
6.1999997594
100
AcDbArc
 50
269.9999746264
 51
0.0000253742
  0
ARC
  5
4BC
100
AcDbEntity
  8
0
100
AcDbCircle
 62
7
  6
CONTINUOUS
 10
12.95
 20
-13.5
 40
5.3
100
AcDbArc
 50
270.0
 51
360.0
  0
ARC
  5
4BD
100
AcDbEntity
  8
0
100
AcDbCircle
 62
7
  6
CONTINUOUS
 10
13.05
 20
-13.6
 40
5.0
100
AcDbArc
 50
269.9916737138
 51
360.0
  0
ARC
  5
4BE
100
AcDbEntity
  8
0
100
AcDbCircle
 62
253
  6
CONTINUOUS
 10
13.05
 20
-13.6
 40
4.6999994157
100
AcDbArc
 50
269.9999278001
 51
0.0000722018
  0
ARC
  5
4BF
100
AcDbEntity
  8
0
100
AcDbCircle
 62
7
  6
CONTINUOUS
 10
1.45
 20
-13.9
 40
1.6
100
AcDbArc
 50
180.0
 51
270.0
  0
ARC
  5
4C0
100
AcDbEntity
  8
0
100
AcDbCircle
 62
7
  6
CONTINUOUS
 10
15.25
 20
-13.9
 40
1.6
100
AcDbArc
 50
270.0
 51
360.0
  0
ARC
  5
4C1
100
AcDbEntity
  8
0
100
AcDbCircle
 62
7
  6
CONTINUOUS
 10
18.25
 20
-13.0
 40
0.5
100
AcDbArc
 50
246.4136308203
 51
270.0
  0
ARC
  5
4C2
100
AcDbEntity
  8
0
100
AcDbCircle
 62
7
  6
CONTINUOUS
 10
18.25
 20
-13.0
 40
0.5
100
AcDbArc
 50
90.0
 51
113.5863691797
  0
ARC
  5
4C3
100
AcDbEntity
  8
0
100
AcDbCircle
 62
7
  6
CONTINUOUS
 10
12.95
 20
13.5
 40
6.5
100
AcDbArc
 50
0.0
 51
90.0
  0
ARC
  5
4C4
100
AcDbEntity
  8
0
100
AcDbCircle
 62
253
  6
CONTINUOUS
 10
12.95
 20
13.5
 40
6.1999997594
100
AcDbArc
 50
359.9999746264
 51
90.0000253742
  0
ARC
  5
4C5
100
AcDbEntity
  8
0
100
AcDbCircle
 62
7
  6
CONTINUOUS
 10
12.95
 20
13.5
 40
5.3
100
AcDbArc
 50
0.0
 51
90.0
  0
ARC
  5
4C6
100
AcDbEntity
  8
0
100
AcDbCircle
 62
7
  6
CONTINUOUS
 10
13.05
 20
13.6
 40
5.0
100
AcDbArc
 50
0.0
 51
90.0083262862
  0
ARC
  5
4C7
100
AcDbEntity
  8
0
100
AcDbCircle
 62
253
  6
CONTINUOUS
 10
13.05
 20
13.6
 40
4.6999994157
100
AcDbArc
 50
359.9999278001
 51
90.0000722018
  0
ARC
  5
4C8
100
AcDbEntity
  8
0
100
AcDbCircle
 62
7
  6
CONTINUOUS
 10
15.25
 20
13.9
 40
1.6
100
AcDbArc
 50
0.0
 51
90.0
  0
ARC
  5
4C9
100
AcDbEntity
  8
0
100
AcDbCircle
 62
7
  6
CONTINUOUS
 10
1.45
 20
13.9
 40
1.6
100
AcDbArc
 50
90.0
 51
180.0
  0
ARC
  5
4CA
100
AcDbEntity
  8
0
100
AcDbCircle
 62
7
  6
CONTINUOUS
 10
18.25
 20
13.0
 40
0.5
100
AcDbArc
 50
246.4136308203
 51
270.0
  0
ARC
  5
4CB
100
AcDbEntity
  8
0
100
AcDbCircle
 62
7
  6
CONTINUOUS
 10
18.25
 20
13.0
 40
0.5
100
AcDbArc
 50
90.0
 51
113.5863691797
  0
ENDSEC
  0
SECTION
  2
OBJECTS
  0
DICTIONARY
  5
C
100
AcDbDictionary
280
0
281
1
  3
ACAD_GROUP
350
D
  3
ACAD_MLINESTYLE
350
17
  3
ACAD_LAYOUT
350
1A
  3
ACAD_PLOTSETTINGS
350
19
  3
ACAD_PLOTSTYLENAME
350
E
  0
DICTIONARY
  5
D
102
{ACAD_REACTORS
330
C
102
}
100
AcDbDictionary
280
0
281
1
  0
ACDBDICTIONARYWDFLT
  5
E
102
{ACAD_REACTORS
330
C
102
}
100
AcDbDictionary
281
1
  3
Normal
350
F
100
AcDbDictionaryWithDefault
340
F
  0
DICTIONARY
  5
17
102
{ACAD_REACTORS
330
C
102
}
100
AcDbDictionary
280
0
281
1
  3
Standard
350
18
  0
DICTIONARY
  5
19
102
{ACAD_REACTORS
330
C
102
}
100
AcDbDictionary
281
1
  0
DICTIONARY
  5
1A
102
{ACAD_REACTORS
330
C
102
}
100
AcDbDictionary
281
1
  3
Model
350
4CC
  3
Layout1
350
4CD
  0
ACDBPLACEHOLDER
  5
F
102
{ACAD_REACTORS
330
E
102
}
  0
MLINESTYLE
  5
18
102
{ACAD_REACTORS
330
17
102
}
100
AcDbMlineStyle
  2
STANDARD
 70
0
  3

 62
256
 51
90.0
 52
90.0
 71
2
 49
0.5
 62
256
  6
BYLAYER
 49
-0.5
 62
256
  6
BYLAYER
  0
LAYOUT
  5
4CC
102
{ACAD_REACTORS
330
1A
102
}
100
AcDbPlotSettings
  1

  2
none_device
  4
ISO_A4_(297.00_x_210.00_MM)
  6

 40
0.0
 41
0.0
 42
0.0
 43
0.0
 44
297.0
 45
210.0
 46
0.0
 47
0.0
 48
0.0
 49
0.0
140
0.0
141
0.0
142
1.0
143
1.0
 70
1024
 72
1
 73
0
 74
0
  7

 75
0
147
1.0
148
0.0
149
0.0
100
AcDbLayout
  1
Model
 70
0
 71
0
 10
0.0
 20
0.0
 11
297.0
 21
210.0
 12
0.0
 22
0.0
 32
0.0
 14
0.0
 24
0.0
 34
0.0
 15
0.0
 25
0.0
 35
0.0
146
0.0
 13
0.0
 23
0.0
 33
0.0
 16
1.0
 26
0.0
 36
0.0
 17
0.0
 27
1.0
 37
0.0
 76
0
330
20C
345
0
346
0
  0
LAYOUT
  5
4CD
102
{ACAD_REACTORS
330
1A
102
}
100
AcDbPlotSettings
  1

  2
none_device
  4
ISO_A4_(297.00_x_210.00_MM)
  6

 40
0.0
 41
0.0
 42
0.0
 43
0.0
 44
297.0
 45
210.0
 46
0.0
 47
0.0
 48
0.0
 49
0.0
140
0.0
141
0.0
142
1.0
143
1.0
 70
0
 72
1
 73
0
 74
0
  7

 75
0
147
1.0
148
0.0
149
0.0
100
AcDbLayout
  1
Layout1
 70
0
 71
1
 10
0.0
 20
0.0
 11
297.0
 21
210.0
 12
0.0
 22
0.0
 32
0.0
 14
0.0
 24
0.0
 34
0.0
 15
0.0
 25
0.0
 35
0.0
146
0.0
 13
0.0
 23
0.0
 33
0.0
 16
1.0
 26
0.0
 36
0.0
 17
0.0
 27
1.0
 37
0.0
 76
0
330
20D
345
0
346
0
  0
ENDSEC
  0
EOF
