  0
SECTION
  2
HEADER
  9
$ACADVER
  1
AC1015
  9
$DWGCODEPAGE
  3
ANSI_1252
  9
$EXTMAX
 10
297.0
 20
210.0
 30
0.0
  9
$EXTMIN
 10
0.0
 20
0.0
 30
0.0
  9
$LIMMIN
 10
0.0
 20
0.0
  9
$LIMMAX
 10
297.0
 20
210.0
  9
$VIEWCTR
 10
148.5
 20
105.0
  9
$VIEWSIZE
 40
210.0
  9
$CLAYER
  8
0
  9
$LTSCALE
 40
16.335
  9
$CELTYPE
  6
BYLAYER
  9
$DIMSCALE
 40
1.0
  9
$DIMASZ
 40
3.0
  9
$DIMEXO
 40
0.5
  9
$DIMDLI
 40
11.286
  9
$DIMEXE
 40
1.5
  9
$DIMCEN
 40
2.673
  9
$DIMLFAC
 40
1.0
  9
$DIMBLK
  1
_FILLED
  9
$DIMTXT
 40
3.0
  9
$DIMTOL
 70
1
  9
$DIMLIM
 70
0
  9
$DIMTFAC
 40
1.0
  9
$DIMTP
 40
0.01
  9
$DIMTM
 40
0.01
  9
$DIMGAP
 40
0.625
  9
$DIMDSEP
 70
44
  9
$PDMODE
 70
3
  9
$PDSIZE
 40
3.0
  9
$HANDSEED
  5
759
  9
$TILEMODE
 70
1
  9
$MEASUREMENT
 70
1
  9
$INSUNITS
 70
4
  0
ENDSEC
  0
SECTION
  2
CLASSES
  0
CLASS
  1
ACDBDICTIONARYWDFLT
  2
AcDbDictionaryWithDefault
  3
AutoCAD 2000
 90
0
280
0
281
0
  0
CLASS
  1
ACDBPLACEHOLDER
  2
AcDbPlaceHolder
  3
AutoCAD 2000
 90
0
280
0
281
0
  0
CLASS
  1
LAYOUT
  2
AcDbLayout
  3
AutoCAD 2000
 90
0
280
0
281
0
  0
ENDSEC
  0
SECTION
  2
TABLES
  0
TABLE
  2
VPORT
  5
8
100
AcDbSymbolTable
 70
2
  0
VPORT
  5
1F4
100
AcDbSymbolTableRecord
100
AcDbViewportTableRecord
  2
*ACTIVE
 70
0
 10
0.0
 20
0.0
 11
1.0
 21
1.0
 12
148.5
 22
105.0
 13
0.0
 23
0.0
 14
1.0
 24
1.0
 15
0.0
 25
0.0
 16
0.0
 26
0.0
 36
1.0
 17
0.0
 27
0.0
 37
0.0
 40
210.0
 41
1.4142857143
 42
50.0
 43
0.0
 44
0.0
 50
0.0
 51
0.0
 71
0
 72
100
 73
1
 74
1
 75
0
 76
0
 77
0
 78
0
  0
ENDTAB
  0
TABLE
  2
LTYPE
  5
5
100
AcDbSymbolTable
 70
6
  0
LTYPE
  5
14
100
AcDbSymbolTableRecord
100
AcDbLinetypeTableRecord
  2
BYBLOCK
 70
0
  3

 72
65
 73
0
 40
0.0
  0
LTYPE
  5
15
100
AcDbSymbolTableRecord
100
AcDbLinetypeTableRecord
  2
BYLAYER
 70
0
  3

 72
65
 73
0
 40
0.0
  0
LTYPE
  5
16
100
AcDbSymbolTableRecord
100
AcDbLinetypeTableRecord
  2
CONTINUOUS
 70
64
  3
Solid line
 72
65
 73
0
 40
0.0
  0
LTYPE
  5
1F5
100
AcDbSymbolTableRecord
100
AcDbLinetypeTableRecord
  2
CENTER
 70
64
  3
____ _ ____ _ ____ _ ____ _ ____ _ ____ _ ____
 72
65
 73
4
 40
0.6
 49
0.375
 74
0
 49
-0.075
 74
0
 49
0.075
 74
0
 49
-0.075
 74
0
  0
LTYPE
  5
1F6
100
AcDbSymbolTableRecord
100
AcDbLinetypeTableRecord
  2
HIDDEN
 70
64
  3
- - - - - - - - - - - - - - - - - - - -
 72
65
 73
2
 40
0.2
 49
0.1
 74
0
 49
-0.1
 74
0
  0
LTYPE
  5
1F7
100
AcDbSymbolTableRecord
100
AcDbLinetypeTableRecord
  2
PHANTOM
 70
64
  3
_____ _ _ _____ _ _ _____ _ _ _____
 72
65
 73
6
 40
0.8
 49
0.45
 74
0
 49
-0.05
 74
0
 49
0.1
 74
0
 49
-0.05
 74
0
 49
0.1
 74
0
 49
-0.05
 74
0
  0
LTYPE
  5
1F8
100
AcDbSymbolTableRecord
100
AcDbLinetypeTableRecord
  2
DOT
 70
64
  3
. . . . . . . . . . . . . . . . . . . .
 72
65
 73
2
 40
0.2
 49
0.1
 74
0
 49
-0.1
 74
0
  0
LTYPE
  5
1F9
100
AcDbSymbolTableRecord
100
AcDbLinetypeTableRecord
  2
DASHED
 70
64
  3
- - - - - - - - - - - - - - - - - - - -
 72
65
 73
2
 40
0.2
 49
0.1
 74
0
 49
-0.1
 74
0
  0
ENDTAB
  0
TABLE
  2
LAYER
  5
2
100
AcDbSymbolTable
 70
36
  0
LAYER
  5
10
100
AcDbSymbolTableRecord
100
AcDbLayerTableRecord
  2
0
 70
0
 62
7
  6
CONTINUOUS
370
-3
390
F
  0
LAYER
  5
1FA
100
AcDbSymbolTableRecord
100
AcDbLayerTableRecord
  2
DEFAULT_1
 70
0
 62
7
  6
CENTER
370
-3
390
F
  0
LAYER
  5
1FB
100
AcDbSymbolTableRecord
100
AcDbLayerTableRecord
  2
DEFAULT_2
 70
0
 62
7
  6
HIDDEN
370
-3
390
F
  0
LAYER
  5
1FC
100
AcDbSymbolTableRecord
100
AcDbLayerTableRecord
  2
DEFAULT_3
 70
0
 62
7
  6
PHANTOM
370
-3
390
F
  0
LAYER
  5
1FD
100
AcDbSymbolTableRecord
100
AcDbLayerTableRecord
  2
2CDG913017
 70
0
 62
7
  6
CONTINUOUS
370
-3
390
F
  0
LAYER
  5
1FE
100
AcDbSymbolTableRecord
100
AcDbLayerTableRecord
  2
2CDG913017_1
 70
0
 62
7
  6
CONTINUOUS
370
-3
390
F
  0
LAYER
  5
1FF
100
AcDbSymbolTableRecord
100
AcDbLayerTableRecord
  2
2CDG913017_2
 70
0
 62
7
  6
CONTINUOUS
370
-3
390
F
  0
LAYER
  5
200
100
AcDbSymbolTableRecord
100
AcDbLayerTableRecord
  2
2CDG913017_3
 70
0
 62
7
  6
CONTINUOUS
370
-3
390
F
  0
LAYER
  5
201
100
AcDbSymbolTableRecord
100
AcDbLayerTableRecord
  2
2CDG932113_01
 70
0
 62
7
  6
CONTINUOUS
370
-3
390
F
  0
LAYER
  5
202
100
AcDbSymbolTableRecord
100
AcDbLayerTableRecord
  2
2CDG933113_01_ASM
 70
0
 62
7
  6
CONTINUOUS
370
-3
390
F
  0
LAYER
  5
203
100
AcDbSymbolTableRecord
100
AcDbLayerTableRecord
  2
3F_6-35GER_KLEMME
 70
0
 62
7
  6
CONTINUOUS
370
-3
390
F
  0
LAYER
  5
204
100
AcDbSymbolTableRecord
100
AcDbLayerTableRecord
  2
3F_6-35GER_KLEMME_1
 70
0
 62
7
  6
CONTINUOUS
370
-3
390
F
  0
LAYER
  5
205
100
AcDbSymbolTableRecord
100
AcDbLayerTableRecord
  2
3F_6-35GER_KLEMME_2
 70
0
 62
7
  6
CONTINUOUS
370
-3
390
F
  0
LAYER
  5
206
100
AcDbSymbolTableRecord
100
AcDbLayerTableRecord
  2
3F_6-35GER_KLEMME_3
 70
0
 62
7
  6
CONTINUOUS
370
-3
390
F
  0
LAYER
  5
207
100
AcDbSymbolTableRecord
100
AcDbLayerTableRecord
  2
5F_6-35GER_KLEMME_ASM
 70
0
 62
7
  6
CONTINUOUS
370
-3
390
F
  0
LAYER
  5
208
100
AcDbSymbolTableRecord
100
AcDbLayerTableRecord
  2
5F_6-35GER_KLEMME_ASM_1
 70
0
 62
7
  6
CONTINUOUS
370
-3
390
F
  0
LAYER
  5
209
100
AcDbSymbolTableRecord
100
AcDbLayerTableRecord
  2
5F_6-35GER_KLEMME_ASM_2
 70
0
 62
7
  6
CONTINUOUS
370
-3
390
F
  0
LAYER
  5
20A
100
AcDbSymbolTableRecord
100
AcDbLayerTableRecord
  2
5F_6-35GER_KLEMME_ASM_3
 70
0
 62
7
  6
CONTINUOUS
370
-3
390
F
  0
LAYER
  5
20B
100
AcDbSymbolTableRecord
100
AcDbLayerTableRecord
  2
933079_B0001
 70
0
 62
7
  6
CONTINUOUS
370
-3
390
F
  0
LAYER
  5
20C
100
AcDbSymbolTableRecord
100
AcDbLayerTableRecord
  2
933079_B0001_1
 70
0
 62
7
  6
CONTINUOUS
370
-3
390
F
  0
LAYER
  5
20D
100
AcDbSymbolTableRecord
100
AcDbLayerTableRecord
  2
933079_B0001_2
 70
0
 62
7
  6
CONTINUOUS
370
-3
390
F
  0
LAYER
  5
20E
100
AcDbSymbolTableRecord
100
AcDbLayerTableRecord
  2
933079_B0001_3
 70
0
 62
7
  6
CONTINUOUS
370
-3
390
F
  0
LAYER
  5
20F
100
AcDbSymbolTableRecord
100
AcDbLayerTableRecord
  2
933079_B0001_4
 70
0
 62
7
  6
CONTINUOUS
370
-3
390
F
  0
LAYER
  5
210
100
AcDbSymbolTableRecord
100
AcDbLayerTableRecord
  2
933079_B0001_5
 70
0
 62
7
  6
CONTINUOUS
370
-3
390
F
  0
LAYER
  5
211
100
AcDbSymbolTableRecord
100
AcDbLayerTableRecord
  2
933079_B0001_6
 70
0
 62
7
  6
CONTINUOUS
370
-3
390
F
  0
LAYER
  5
212
100
AcDbSymbolTableRecord
100
AcDbLayerTableRecord
  2
933079_B0001_7
 70
0
 62
7
  6
CONTINUOUS
370
-3
390
F
  0
LAYER
  5
213
100
AcDbSymbolTableRecord
100
AcDbLayerTableRecord
  2
ASM0001
 70
0
 62
7
  6
CONTINUOUS
370
-3
390
F
  0
LAYER
  5
214
100
AcDbSymbolTableRecord
100
AcDbLayerTableRecord
  2
ASM0002
 70
0
 62
7
  6
CONTINUOUS
370
-3
390
F
  0
LAYER
  5
215
100
AcDbSymbolTableRecord
100
AcDbLayerTableRecord
  2
ASM0003
 70
0
 62
7
  6
CONTINUOUS
370
-3
390
F
  0
LAYER
  5
216
100
AcDbSymbolTableRecord
100
AcDbLayerTableRecord
  2
ASM0004
 70
0
 62
7
  6
CONTINUOUS
370
-3
390
F
  0
LAYER
  5
217
100
AcDbSymbolTableRecord
100
AcDbLayerTableRecord
  2
ASSI
 70
0
 62
7
  6
CONTINUOUS
370
-3
390
F
  0
LAYER
  5
218
100
AcDbSymbolTableRecord
100
AcDbLayerTableRecord
  2
BUSKLEMME-KPL_ASM
 70
0
 62
7
  6
CONTINUOUS
370
-3
390
F
  0
LAYER
  5
219
100
AcDbSymbolTableRecord
100
AcDbLayerTableRecord
  2
BUSKLEMME-ROT
 70
0
 62
7
  6
CONTINUOUS
370
-3
390
F
  0
LAYER
  5
21A
100
AcDbSymbolTableRecord
100
AcDbLayerTableRecord
  2
BUSKLEMME-SCHWARZ
 70
0
 62
7
  6
CONTINUOUS
370
-3
390
F
  0
LAYER
  5
21B
100
AcDbSymbolTableRecord
100
AcDbLayerTableRecord
  2
COLOR191
 70
0
 62
7
  6
CONTINUOUS
370
-3
390
F
  0
LAYER
  5
21C
100
AcDbSymbolTableRecord
100
AcDbLayerTableRecord
  2
COLOR198
 70
0
 62
7
  6
CONTINUOUS
370
-3
390
F
  0
LAYER
  5
21D
100
AcDbSymbolTableRecord
100
AcDbLayerTableRecord
  2
COLOR199
 70
0
 62
7
  6
CONTINUOUS
370
-3
390
F
  0
LAYER
  5
21E
100
AcDbSymbolTableRecord
100
AcDbLayerTableRecord
  2
COLOR200
 70
0
 62
7
  6
CONTINUOUS
370
-3
390
F
  0
LAYER
  5
21F
100
AcDbSymbolTableRecord
100
AcDbLayerTableRecord
  2
COLOR201
 70
0
 62
7
  6
CONTINUOUS
370
-3
390
F
  0
LAYER
  5
220
100
AcDbSymbolTableRecord
100
AcDbLayerTableRecord
  2
COLOR202
 70
0
 62
7
  6
CONTINUOUS
370
-3
390
F
  0
LAYER
  5
221
100
AcDbSymbolTableRecord
100
AcDbLayerTableRecord
  2
COLOR203
 70
0
 62
7
  6
CONTINUOUS
370
-3
390
F
  0
LAYER
  5
222
100
AcDbSymbolTableRecord
100
AcDbLayerTableRecord
  2
COLOR204
 70
0
 62
7
  6
CONTINUOUS
370
-3
390
F
  0
LAYER
  5
223
100
AcDbSymbolTableRecord
100
AcDbLayerTableRecord
  2
COLOR205
 70
0
 62
7
  6
CONTINUOUS
370
-3
390
F
  0
LAYER
  5
224
100
AcDbSymbolTableRecord
100
AcDbLayerTableRecord
  2
COLOR206
 70
0
 62
7
  6
CONTINUOUS
370
-3
390
F
  0
LAYER
  5
225
100
AcDbSymbolTableRecord
100
AcDbLayerTableRecord
  2
COLOR207
 70
0
 62
7
  6
CONTINUOUS
370
-3
390
F
  0
LAYER
  5
226
100
AcDbSymbolTableRecord
100
AcDbLayerTableRecord
  2
COLOR208
 70
0
 62
7
  6
CONTINUOUS
370
-3
390
F
  0
LAYER
  5
227
100
AcDbSymbolTableRecord
100
AcDbLayerTableRecord
  2
COLOR209
 70
0
 62
7
  6
CONTINUOUS
370
-3
390
F
  0
LAYER
  5
228
100
AcDbSymbolTableRecord
100
AcDbLayerTableRecord
  2
COLOR30
 70
0
 62
7
  6
CONTINUOUS
370
-3
390
F
  0
LAYER
  5
229
100
AcDbSymbolTableRecord
100
AcDbLayerTableRecord
  2
COLOR64
 70
0
 62
7
  6
CONTINUOUS
370
-3
390
F
  0
LAYER
  5
22A
100
AcDbSymbolTableRecord
100
AcDbLayerTableRecord
  2
COORDINATE
 70
0
 62
7
  6
CONTINUOUS
370
-3
390
F
  0
LAYER
  5
22B
100
AcDbSymbolTableRecord
100
AcDbLayerTableRecord
  2
COPY_PUBLISH
 70
0
 62
7
  6
CONTINUOUS
370
-3
390
F
  0
LAYER
  5
22C
100
AcDbSymbolTableRecord
100
AcDbLayerTableRecord
  2
COSMETICI
 70
0
 62
7
  6
CONTINUOUS
370
-3
390
F
  0
LAYER
  5
22D
100
AcDbSymbolTableRecord
100
AcDbLayerTableRecord
  2
CURVE
 70
0
 62
7
  6
CONTINUOUS
370
-3
390
F
  0
LAYER
  5
22E
100
AcDbSymbolTableRecord
100
AcDbLayerTableRecord
  2
DRAFT
 70
0
 62
7
  6
CONTINUOUS
370
-3
390
F
  0
LAYER
  5
22F
100
AcDbSymbolTableRecord
100
AcDbLayerTableRecord
  2
E415859801_00
 70
0
 62
7
  6
CONTINUOUS
370
-3
390
F
  0
LAYER
  5
230
100
AcDbSymbolTableRecord
100
AcDbLayerTableRecord
  2
FEDER-RASTE
 70
0
 62
7
  6
CONTINUOUS
370
-3
390
F
  0
LAYER
  5
231
100
AcDbSymbolTableRecord
100
AcDbLayerTableRecord
  2
GHQ6306629-
 70
0
 62
7
  6
CONTINUOUS
370
-3
390
F
  0
LAYER
  5
232
100
AcDbSymbolTableRecord
100
AcDbLayerTableRecord
  2
GHQ6306630_121
 70
0
 62
7
  6
CONTINUOUS
370
-3
390
F
  0
LAYER
  5
233
100
AcDbSymbolTableRecord
100
AcDbLayerTableRecord
  2
IMPORT_IGES
 70
0
 62
7
  6
CONTINUOUS
370
-3
390
F
  0
LAYER
  5
234
100
AcDbSymbolTableRecord
100
AcDbLayerTableRecord
  2
INTFCLR_3
 70
0
 62
7
  6
CONTINUOUS
370
-3
390
F
  0
LAYER
  5
235
100
AcDbSymbolTableRecord
100
AcDbLayerTableRecord
  2
INTFCLR_4
 70
0
 62
7
  6
CONTINUOUS
370
-3
390
F
  0
LAYER
  5
236
100
AcDbSymbolTableRecord
100
AcDbLayerTableRecord
  2
INTFCLR_5
 70
0
 62
7
  6
CONTINUOUS
370
-3
390
F
  0
LAYER
  5
237
100
AcDbSymbolTableRecord
100
AcDbLayerTableRecord
  2
INTFCLR_6
 70
0
 62
7
  6
CONTINUOUS
370
-3
390
F
  0
LAYER
  5
238
100
AcDbSymbolTableRecord
100
AcDbLayerTableRecord
  2
INTFCLR_7
 70
0
 62
7
  6
CONTINUOUS
370
-3
390
F
  0
LAYER
  5
239
100
AcDbSymbolTableRecord
100
AcDbLayerTableRecord
  2
INTF_RED
 70
0
 62
7
  6
CONTINUOUS
370
-3
390
F
  0
LAYER
  5
23A
100
AcDbSymbolTableRecord
100
AcDbLayerTableRecord
  2
LICHTLEITER
 70
0
 62
7
  6
CONTINUOUS
370
-3
390
F
  0
LAYER
  5
23B
100
AcDbSymbolTableRecord
100
AcDbLayerTableRecord
  2
NOTE
 70
0
 62
7
  6
CONTINUOUS
370
-3
390
F
  0
LAYER
  5
23C
100
AcDbSymbolTableRecord
100
AcDbLayerTableRecord
  2
PIANI
 70
0
 62
7
  6
CONTINUOUS
370
-3
390
F
  0
LAYER
  5
23D
100
AcDbSymbolTableRecord
100
AcDbLayerTableRecord
  2
PRT0001
 70
0
 62
7
  6
CONTINUOUS
370
-3
390
F
  0
LAYER
  5
23E
100
AcDbSymbolTableRecord
100
AcDbLayerTableRecord
  2
PRT0002
 70
0
 62
7
  6
CONTINUOUS
370
-3
390
F
  0
LAYER
  5
23F
100
AcDbSymbolTableRecord
100
AcDbLayerTableRecord
  2
PRT0003
 70
0
 62
7
  6
CONTINUOUS
370
-3
390
F
  0
LAYER
  5
240
100
AcDbSymbolTableRecord
100
AcDbLayerTableRecord
  2
PRT0004
 70
0
 62
7
  6
CONTINUOUS
370
-3
390
F
  0
LAYER
  5
241
100
AcDbSymbolTableRecord
100
AcDbLayerTableRecord
  2
PRT0005
 70
0
 62
7
  6
CONTINUOUS
370
-3
390
F
  0
LAYER
  5
242
100
AcDbSymbolTableRecord
100
AcDbLayerTableRecord
  2
PRT0006
 70
0
 62
7
  6
CONTINUOUS
370
-3
390
F
  0
LAYER
  5
243
100
AcDbSymbolTableRecord
100
AcDbLayerTableRecord
  2
PUNTI
 70
0
 62
7
  6
CONTINUOUS
370
-3
390
F
  0
LAYER
  5
244
100
AcDbSymbolTableRecord
100
AcDbLayerTableRecord
  2
RACCORDO
 70
0
 62
7
  6
CONTINUOUS
370
-3
390
F
  0
LAYER
  5
245
100
AcDbSymbolTableRecord
100
AcDbLayerTableRecord
  2
RASTE-KPL-SCHEMA_ASM
 70
0
 62
7
  6
CONTINUOUS
370
-3
390
F
  0
LAYER
  5
246
100
AcDbSymbolTableRecord
100
AcDbLayerTableRecord
  2
RASTE-SCHEMA
 70
0
 62
7
  6
CONTINUOUS
370
-3
390
F
  0
LAYER
  5
247
100
AcDbSymbolTableRecord
100
AcDbLayerTableRecord
  2
SIMBOLI
 70
0
 62
7
  6
CONTINUOUS
370
-3
390
F
  0
LAYER
  5
248
100
AcDbSymbolTableRecord
100
AcDbLayerTableRecord
  2
SMUSSO
 70
0
 62
7
  6
CONTINUOUS
370
-3
390
F
  0
LAYER
  5
249
100
AcDbSymbolTableRecord
100
AcDbLayerTableRecord
  2
SNAPLINE
 70
0
 62
7
  6
CONTINUOUS
370
-3
390
F
  0
LAYER
  5
24A
100
AcDbSymbolTableRecord
100
AcDbLayerTableRecord
  2
SUPERFICI
 70
0
 62
7
  6
CONTINUOUS
370
-3
390
F
  0
LAYER
  5
24B
100
AcDbSymbolTableRecord
100
AcDbLayerTableRecord
  2
TRASH
 70
0
 62
7
  6
CONTINUOUS
370
-3
390
F
  0
LAYER
  5
24C
100
AcDbSymbolTableRecord
100
AcDbLayerTableRecord
  2
WHITE
 70
0
 62
7
  6
CONTINUOUS
370
-3
390
F
  0
LAYER
  5
24D
100
AcDbSymbolTableRecord
100
AcDbLayerTableRecord
  2
___SHELL
 70
0
 62
7
  6
CONTINUOUS
370
-3
390
F
  0
ENDTAB
  0
TABLE
  2
STYLE
  5
3
100
AcDbSymbolTable
 70
1
  0
STYLE
  5
11
100
AcDbSymbolTableRecord
100
AcDbTextStyleTableRecord
  2
STANDARD
 70
0
 40
0.0
 41
0.8
 50
0.0
 71
0
 42
0.2
  3
txt
  4

  0
STYLE
  5
24E
100
AcDbSymbolTableRecord
100
AcDbTextStyleTableRecord
  2
TEXTSTYLE_1
 70
0
 40
0.0
 41
0.8
 50
0.0
 71
0
 42
0.2
  3
gdt
  4

  0
ENDTAB
  0
TABLE
  2
VIEW
  5
6
100
AcDbSymbolTable
 70
0
  0
ENDTAB
  0
TABLE
  2
UCS
  5
7
100
AcDbSymbolTable
 70
0
  0
ENDTAB
  0
TABLE
  2
APPID
  5
9
100
AcDbSymbolTable
 70
1
  0
APPID
  5
24F
100
AcDbSymbolTableRecord
100
AcDbRegAppTableRecord
  2
ACAD
 70
0
  0
ENDTAB
  0
TABLE
  2
BLOCK_RECORD
  5
1
100
AcDbSymbolTable
 70
0
  0
BLOCK_RECORD
  5
250
100
AcDbSymbolTableRecord
100
AcDbBlockTableRecord
  2
*Model_Space
  0
BLOCK_RECORD
  5
251
100
AcDbSymbolTableRecord
100
AcDbBlockTableRecord
  2
*Paper_Space
  0
ENDTAB
  0
TABLE
  2
DIMSTYLE
  5
A
100
AcDbSymbolTable
 70
1
100
AcDbDimStyleTable
 71
0
  0
DIMSTYLE
105
252
100
AcDbSymbolTableRecord
100
AcDbDimStyleTableRecord
  2
STANDARD
 70
0
  3

  4

 40
1.0
 41
3.0
 42
0.5
 43
0.38
 44
1.5
 45
0.0
 46
0.0
 47
0.01
 48
0.01
140
3.0
141
0.09
142
0.0
143
25.4
144
1.0
145
0.0
146
1.0
147
0.625
 71
1.0
 72
0.0
 73
0
 74
0
 75
0
 76
0
 77
1
 78
8
170
0
171
2
172
0
173
0
174
0
175
0
176
0
177
0
178
0
270
2
271
2
272
2
273
2
274
2
275
0
280
0
281
0
282
0
283
1
284
8
285
0
286
0
287
3
288
0
340
11
278
44
  0
ENDTAB
  0
ENDSEC
  0
SECTION
  2
BLOCKS
  0
BLOCK
  5
20
100
AcDbEntity
  8
0
100
AcDbBlockBegin
  2
*Model_Space
 70
0
 10
0.0
 20
0.0
 30
0.0
  3
*Model_Space
  1

  0
ENDBLK
  5
21
100
AcDbEntity
  8
0
100
AcDbBlockEnd
  0
BLOCK
  5
1C
100
AcDbEntity
  8
0
100
AcDbBlockBegin
  2
*Paper_Space
 70
0
 10
0.0
 20
0.0
 30
0.0
  3
*Paper_Space
  1

  0
ENDBLK
  5
1D
100
AcDbEntity
  8
0
100
AcDbBlockEnd
  0
ENDSEC
  0
SECTION
  2
ENTITIES
  0
LWPOLYLINE
  5
253
100
AcDbEntity
  8
0
100
AcDbPolyline
 62
253
  6
CONTINUOUS
 90
13
 70
0
 10
-71.925
 20
44.0695865254
 10
-71.9208209494
 20
44.078564642
 10
-71.9084097716
 20
44.0873631465
 10
-71.888055329
 20
44.0958382139
 10
-71.8603324632
 20
44.1038145482
 10
-71.8256828673
 20
44.1112114648
 10
-71.7840584572
 20
44.1180133953
 10
-71.735595694
 20
44.1241186697
 10
-71.6811783693
 20
44.1293455813
 10
-71.6218596996
 20
44.1335526424
 10
-71.5587031048
 20
44.1366390298
 10
-71.4926958385
 20
44.1385323589
 10
-71.425
 20
44.1391731011
  0
LINE
  5
254
100
AcDbEntity
  8
0
100
AcDbLine
 62
7
  6
CONTINUOUS
 10
-61.3672757595
 20
43.0585344644
 11
-61.425
 21
43.0
  0
LWPOLYLINE
  5
255
100
AcDbEntity
  8
0
100
AcDbPolyline
 62
7
  6
CONTINUOUS
 90
3
 70
0
 10
-61.0477481162
 20
43.3773596659
 10
-61.083354251
 20
43.3414914502
 10
-61.1650246156
 20
43.2601100797
  0
LWPOLYLINE
  5
256
100
AcDbEntity
  8
0
100
AcDbPolyline
 62
7
  6
CONTINUOUS
 90
4
 70
0
 10
-61.1650246156
 20
43.2601100797
 10
-61.2102396554
 20
43.214596925
 10
-61.2591353287
 20
43.1658239587
 10
-61.3672757595
 20
43.0585344644
  0
LWPOLYLINE
  5
257
100
AcDbEntity
  8
0
100
AcDbPolyline
 62
7
  6
CONTINUOUS
 90
3
 70
0
 10
-60.9476689115
 20
43.4773390429
 10
-60.9884535303
 20
43.4362910611
 10
-61.0477481162
 20
43.3773596659
  0
LINE
  5
258
100
AcDbEntity
  8
0
100
AcDbLine
 62
7
  6
CONTINUOUS
 10
-60.925
 20
43.5
 11
-60.9476689115
 21
43.4773390429
  0
LINE
  5
259
100
AcDbEntity
  8
0
100
AcDbLine
 62
7
  6
CONTINUOUS
 10
-72.075
 20
14.0
 11
-72.075
 21
8.0
  0
LINE
  5
25A
100
AcDbEntity
  8
0
100
AcDbLine
 62
7
  6
CONTINUOUS
 10
-72.025
 20
15.5
 11
-72.025
 21
-15.5
  0
LINE
  5
25B
100
AcDbEntity
  8
0
100
AcDbLine
 62
7
  6
CONTINUOUS
 10
-71.925
 20
-44.4999999838
 11
-71.925
 21
44.4999999975
  0
LINE
  5
25C
100
AcDbEntity
  8
0
100
AcDbLine
 62
253
  6
CONTINUOUS
 10
-71.425
 20
-45.0
 11
-71.425
 21
45.0
  0
LINE
  5
25D
100
AcDbEntity
  8
0
100
AcDbLine
 62
253
  6
CONTINUOUS
 10
-70.225
 20
-21.2
 11
-70.225
 21
-45.0
  0
LINE
  5
25E
100
AcDbEntity
  8
0
100
AcDbLine
 62
253
  6
CONTINUOUS
 10
-70.225
 20
20.1
 11
-70.225
 21
45.0
  0
LINE
  5
25F
100
AcDbEntity
  8
0
100
AcDbLine
 62
7
  6
CONTINUOUS
 10
-69.725
 20
44.5
 11
-69.725
 21
19.7985958392
  0
LINE
  5
260
100
AcDbEntity
  8
0
100
AcDbLine
 62
7
  6
CONTINUOUS
 10
-69.725
 20
-44.4999999984
 11
-69.725
 21
-21.7
  0
LINE
  5
261
100
AcDbEntity
  8
0
100
AcDbLine
 62
7
  6
CONTINUOUS
 10
-69.525
 20
37.1
 11
-69.525
 21
42.6993658706
  0
LWPOLYLINE
  5
262
100
AcDbEntity
  8
0
100
AcDbPolyline
 62
7
  6
CONTINUOUS
 90
5
 70
0
 10
-69.725
 20
19.7985958394
 10
-69.7258051393
 20
19.795722275
 10
-69.7282438423
 20
19.7908380509
 10
-69.7323470716
 20
19.7839297229
 10
-69.7381430801
 20
19.7751116414
  0
LWPOLYLINE
  5
263
100
AcDbEntity
  8
0
100
AcDbPolyline
 62
7
  6
CONTINUOUS
 90
18
 70
0
 10
-69.7381430801
 20
19.7751116414
 10
-69.7787655113
 20
19.7163455948
 10
-69.7927261238
 20
19.6956979953
 10
-69.8076654815
 20
19.6726185643
 10
-69.8233621247
 20
19.6474203069
 10
-69.8387585401
 20
19.6214426037
 10
-69.8532808057
 20
19.5949558397
 10
-69.8668882826
 20
19.5677400773
 10
-69.8791837191
 20
19.5404209169
 10
-69.889892382
 20
19.5131170195
 10
-69.8989151192
 20
19.4857568369
 10
-69.9061588411
 20
19.458679423
 10
-69.9114785922
 20
19.4321310837
 10
-69.9148540247
 20
19.4058919947
 10
-69.9164278885
 20
19.3795954101
 10
-69.9162443181
 20
19.3531197373
 10
-69.9142440656
 20
19.3265892184
 10
-69.9104491719
 20
19.3
  0
LINE
  5
264
100
AcDbEntity
  8
0
100
AcDbLine
 62
7
  6
CONTINUOUS
 10
-66.925
 20
-20.0
 11
-66.925
 21
-18.3
  0
LINE
  5
265
100
AcDbEntity
  8
0
100
AcDbLine
 62
7
  6
CONTINUOUS
 10
-66.925
 20
15.1
 11
-66.925
 21
18.1
  0
LINE
  5
266
100
AcDbEntity
  8
0
100
AcDbLine
 62
7
  6
CONTINUOUS
 10
-66.725
 20
42.3
 11
-66.725
 21
37.5
  0
LWPOLYLINE
  5
267
100
AcDbEntity
  8
0
100
AcDbPolyline
 62
7
  6
CONTINUOUS
 90
13
 70
0
 10
-71.925
 20
20.0650365942
 10
-71.9206728085
 20
20.0697469301
 10
-71.9078010152
 20
20.0742222489
 10
-71.8866580021
 20
20.0784625504
 10
-71.8576771943
 20
20.0825286095
 10
-71.8213895185
 20
20.0863596514
 10
-71.7783672319
 20
20.0897733511
 10
-71.7293389837
 20
20.0927505538
 10
-71.675144944
 20
20.0953104144
 10
-71.6166123916
 20
20.0973280722
 10
-71.5546893413
 20
20.0987619071
 10
-71.490453508
 20
20.0996535392
 10
-71.4250000553
 20
20.1000029686
  0
LINE
  5
268
100
AcDbEntity
  8
0
100
AcDbLine
 62
7
  6
CONTINUOUS
 10
-69.7257413772
 20
-21.6993183148
 11
-69.725
 21
-21.7
  0
LINE
  5
269
100
AcDbEntity
  8
0
100
AcDbLine
 62
7
  6
CONTINUOUS
 10
-70.0702537736
 20
-21.3546590053
 11
-69.7318011783
 21
-21.6931988217
  0
LWPOLYLINE
  5
26A
100
AcDbEntity
  8
0
100
AcDbPolyline
 62
7
  6
CONTINUOUS
 90
3
 70
0
 10
-70.225
 20
-21.2
 10
-70.1844467607
 20
-21.240874757
 10
-70.0702537736
 20
-21.3546590053
  0
LINE
  5
26B
100
AcDbEntity
  8
0
100
AcDbLine
 62
7
  6
CONTINUOUS
 10
-69.7318011783
 20
-21.6931988217
 11
-69.7257413772
 21
-21.6993183148
  0
LWPOLYLINE
  5
26C
100
AcDbEntity
  8
0
100
AcDbPolyline
 62
7
  6
CONTINUOUS
 90
28
 70
0
 10
-69.9104491719
 20
19.3
 10
-69.9182520956
 20
19.3445159997
 10
-69.9261939025
 20
19.3879454495
 10
-69.9342745926
 20
19.4302883496
 10
-69.9424930846
 20
19.4715510983
 10
-69.9508504597
 20
19.5117272972
 10
-69.9593499616
 20
19.5507977507
 10
-69.9679954424
 20
19.5887567904
 10
-69.9767830501
 20
19.6256100847
 10
-69.985704472
 20
19.6613554439
 10
-69.994754735
 20
19.6960014327
 10
-70.0039388123
 20
19.7295394864
 10
-70.0132633103
 20
19.7619417214
 10
-70.0226262538
 20
19.7930912774
 10
-70.0321296181
 20
19.8231050146
 10
-70.042085936
 20
19.8523056301
 10
-70.0524851791
 20
19.880807541
 10
-70.0633373757
 20
19.9084963302
 10
-70.0749851441
 20
19.9353514435
 10
-70.087633743
 20
19.9616493551
 10
-70.1010779136
 20
19.9871135908
 10
-70.1150444979
 20
20.0108941747
 10
-70.1288597904
 20
20.0333196711
 10
-70.1431974965
 20
20.0540615157
 10
-70.1598055747
 20
20.0712840385
 10
-70.1792666778
 20
20.0843753498
 10
-70.2009981529
 20
20.0939473394
 10
-70.225
 20
20.1000000073
  0
LINE
  5
26D
100
AcDbEntity
  8
0
100
AcDbLine
 62
253
  6
CONTINUOUS
 10
-61.425
 20
43.0
 11
-61.425
 21
45.0
  0
LINE
  5
26E
100
AcDbEntity
  8
0
100
AcDbLine
 62
7
  6
CONTINUOUS
 10
-60.925
 20
44.5
 11
-60.925
 21
43.5
  0
LINE
  5
26F
100
AcDbEntity
  8
0
100
AcDbLine
 62
7
  6
CONTINUOUS
 10
-48.3556145761
 20
28.5753803236
 11
-48.6797271907
 21
28.0892114017
  0
LINE
  5
270
100
AcDbEntity
  8
0
100
AcDbLine
 62
7
  6
CONTINUOUS
 10
-42.5696808815
 20
35.3915348549
 11
-42.6122340679
 21
35.2665348549
  0
LWPOLYLINE
  5
271
100
AcDbEntity
  8
0
100
AcDbPolyline
 62
253
  6
CONTINUOUS
 90
5
 70
0
 10
-71.8580086993
 20
-19.1923906005
 10
-71.8869385905
 20
-19.2505835568
 10
-71.9079627087
 20
-19.3120222223
 10
-71.9207224612
 20
-19.3756563306
 10
-71.925
 20
-19.4403969555
  0
LINE
  5
272
100
AcDbEntity
  8
0
100
AcDbLine
 62
7
  6
CONTINUOUS
 10
-41.8462765932
 20
36.4332008857
 11
-41.5484042287
 21
37.0165339012
  0
LINE
  5
273
100
AcDbEntity
  8
0
100
AcDbLine
 62
7
  6
CONTINUOUS
 10
-41.4207446694
 20
36.9332018394
 11
-41.8462765932
 21
36.1415348549
  0
LINE
  5
274
100
AcDbEntity
  8
0
100
AcDbLine
 62
7
  6
CONTINUOUS
 10
-42.7824468136
 20
30.6832008857
 11
-42.6547872543
 21
30.8915348549
  0
LINE
  5
275
100
AcDbEntity
  8
0
100
AcDbLine
 62
7
  6
CONTINUOUS
 10
-42.0590425253
 20
30.7248678703
 11
-41.931382966
 21
30.9332008857
  0
LINE
  5
276
100
AcDbEntity
  8
0
100
AcDbLine
 62
7
  6
CONTINUOUS
 10
-42.7824468136
 20
28.8498678703
 11
-42.6547872543
 21
29.0582008857
  0
LINE
  5
277
100
AcDbEntity
  8
0
100
AcDbLine
 62
7
  6
CONTINUOUS
 10
-42.0590425253
 20
28.8915348549
 11
-41.931382966
 21
29.0998678703
  0
LINE
  5
278
100
AcDbEntity
  8
0
100
AcDbLine
 62
7
  6
CONTINUOUS
 10
-40.8675531901
 20
30.0998678703
 11
-40.9952127606
 21
29.8915348549
  0
LINE
  5
279
100
AcDbEntity
  8
0
100
AcDbLine
 62
7
  6
CONTINUOUS
 10
-47.1534954008
 20
28.4762115386
 11
-47.4776080155
 21
27.9900426166
  0
LINE
  5
27A
100
AcDbEntity
  8
0
100
AcDbLine
 62
7
  6
CONTINUOUS
 10
-47.8017206301
 20
27.5038736946
 11
-48.1258332448
 21
27.0177047726
  0
LINE
  5
27B
100
AcDbEntity
  8
0
100
AcDbLine
 62
7
  6
CONTINUOUS
 10
-42.4845745087
 20
30.7665348549
 11
-42.5696808815
 21
30.6415348549
  0
LINE
  5
27C
100
AcDbEntity
  8
0
100
AcDbLine
 62
7
  6
CONTINUOUS
 10
-41.7611702204
 20
30.8082008857
 11
-41.8462765932
 21
30.6832008858
  0
LINE
  5
27D
100
AcDbEntity
  8
0
100
AcDbLine
 62
7
  6
CONTINUOUS
 10
-42.4845745087
 20
28.9332008857
 11
-42.5696808815
 21
28.8082008857
  0
LINE
  5
27E
100
AcDbEntity
  8
0
100
AcDbLine
 62
7
  6
CONTINUOUS
 10
-41.1654255211
 20
30.0165348549
 11
-41.0803191483
 21
30.1415348549
  0
LINE
  5
27F
100
AcDbEntity
  8
0
100
AcDbLine
 62
7
  6
CONTINUOUS
 10
-41.7611702204
 20
28.9748678703
 11
-41.8462765932
 21
28.8498678703
  0
LINE
  5
280
100
AcDbEntity
  8
0
100
AcDbLine
 62
7
  6
CONTINUOUS
 10
-42.7824468136
 20
35.4332008857
 11
-42.6547872543
 21
35.5998678703
  0
LINE
  5
281
100
AcDbEntity
  8
0
100
AcDbLine
 62
7
  6
CONTINUOUS
 10
-42.4845745087
 20
35.4748678703
 11
-42.5696808815
 21
35.3915348549
  0
LINE
  5
282
100
AcDbEntity
  8
0
100
AcDbLine
 62
7
  6
CONTINUOUS
 10
-41.931382966
 20
30.9332008857
 11
-41.8037234068
 21
31.0582008857
  0
LINE
  5
283
100
AcDbEntity
  8
0
100
AcDbLine
 62
7
  6
CONTINUOUS
 10
-41.6760638475
 20
30.8915348549
 11
-41.7611702204
 21
30.8082008857
  0
LINE
  5
284
100
AcDbEntity
  8
0
100
AcDbLine
 62
7
  6
CONTINUOUS
 10
-42.6547872543
 20
35.5998678703
 11
-42.4845745087
 21
35.7248678703
  0
LINE
  5
285
100
AcDbEntity
  8
0
100
AcDbLine
 62
7
  6
CONTINUOUS
 10
-50.3520801741
 20
31.3451343644
 11
-49.4756266857
 21
31.92943669
  0
LINE
  5
286
100
AcDbEntity
  8
0
100
AcDbLine
 62
7
  6
CONTINUOUS
 10
-48.5976201252
 20
32.514774397
 11
-46.9252671418
 21
33.629676386
  0
LINE
  5
287
100
AcDbEntity
  8
0
100
AcDbLine
 62
7
  6
CONTINUOUS
 10
-46.6011545271
 20
33.143507464
 11
-48.2735075105
 21
32.0286054751
  0
LINE
  5
288
100
AcDbEntity
  8
0
100
AcDbLine
 62
7
  6
CONTINUOUS
 10
-49.1515140711
 20
31.443267768
 11
-50.0279675595
 21
30.8589654424
  0
LINE
  5
289
100
AcDbEntity
  8
0
100
AcDbLine
 62
7
  6
CONTINUOUS
 10
-44.3406976744
 20
31.0552325581
 11
-45.2171511628
 21
30.4709302326
  0
LINE
  5
28A
100
AcDbEntity
  8
0
100
AcDbLine
 62
7
  6
CONTINUOUS
 10
-42.2718084574
 20
36.9332018394
 11
-42.1441488981
 21
37.0165339012
  0
LINE
  5
28B
100
AcDbEntity
  8
0
100
AcDbLine
 62
7
  6
CONTINUOUS
 10
-48.8274014564
 20
32.0104648436
 11
-48.8274014564
 21
30.957098846
  0
LINE
  5
28C
100
AcDbEntity
  8
0
100
AcDbLine
 62
7
  6
CONTINUOUS
 10
-48.1258332448
 20
27.0177047726
 11
-48.1258332448
 21
28.0710707702
  0
LINE
  5
28D
100
AcDbEntity
  8
0
100
AcDbLine
 62
7
  6
CONTINUOUS
 10
-45.5093023256
 20
27.9900818559
 11
-45.5093023256
 21
30.0
  0
LINE
  5
28E
100
AcDbEntity
  8
0
100
AcDbLine
 62
7
  6
CONTINUOUS
 10
-45.5093023256
 20
31.0552325581
 11
-45.5093023256
 21
32.559165899
  0
LINE
  5
28F
100
AcDbEntity
  8
0
100
AcDbLine
 62
7
  6
CONTINUOUS
 10
-44.925
 20
32.559165899
 11
-44.925
 21
31.0552325581
  0
LINE
  5
290
100
AcDbEntity
  8
0
100
AcDbLine
 62
7
  6
CONTINUOUS
 10
-44.925
 20
30.0
 11
-44.925
 21
27.9900818559
  0
LINE
  5
291
100
AcDbEntity
  8
0
100
AcDbLine
 62
7
  6
CONTINUOUS
 10
-42.825
 20
35.2248678703
 11
-42.7824468136
 21
35.4332008857
  0
LINE
  5
292
100
AcDbEntity
  8
0
100
AcDbLine
 62
7
  6
CONTINUOUS
 10
-42.825
 20
30.4748678703
 11
-42.7824468136
 21
30.6832008857
  0
LINE
  5
293
100
AcDbEntity
  8
0
100
AcDbLine
 62
7
  6
CONTINUOUS
 10
-42.825
 20
28.641534378
 11
-42.7824468136
 21
28.8498678703
  0
LINE
  5
294
100
AcDbEntity
  8
0
100
AcDbLine
 62
7
  6
CONTINUOUS
 10
-42.1015957117
 20
30.5165348549
 11
-42.0590425253
 21
30.7248678703
  0
LINE
  5
295
100
AcDbEntity
  8
0
100
AcDbLine
 62
7
  6
CONTINUOUS
 10
-42.1015957117
 20
28.6832013626
 11
-42.0590425253
 21
28.8915348549
  0
LINE
  5
296
100
AcDbEntity
  8
0
100
AcDbLine
 62
7
  6
CONTINUOUS
 10
-42.825
 20
24.9332013626
 11
-42.7824468136
 21
25.141534378
  0
LINE
  5
297
100
AcDbEntity
  8
0
100
AcDbLine
 62
7
  6
CONTINUOUS
 10
-40.825
 20
30.3082008857
 11
-40.8675531901
 21
30.0998678703
  0
LINE
  5
298
100
AcDbEntity
  8
0
100
AcDbLine
 62
7
  6
CONTINUOUS
 10
-40.825
 20
28.4748678703
 11
-40.8675531901
 21
28.266534378
  0
LINE
  5
299
100
AcDbEntity
  8
0
100
AcDbLine
 62
7
  6
CONTINUOUS
 10
-42.5696808815
 20
30.6415348549
 11
-42.6122340679
 21
30.5165348549
  0
LINE
  5
29A
100
AcDbEntity
  8
0
100
AcDbLine
 62
7
  6
CONTINUOUS
 10
-42.5696808815
 20
28.8082008857
 11
-42.6122340679
 21
28.6832013626
  0
LINE
  5
29B
100
AcDbEntity
  8
0
100
AcDbLine
 62
7
  6
CONTINUOUS
 10
-41.8462765932
 20
30.6832008858
 11
-41.8888297796
 21
30.5582008857
  0
LINE
  5
29C
100
AcDbEntity
  8
0
100
AcDbLine
 62
7
  6
CONTINUOUS
 10
-41.8462765932
 20
28.8498678703
 11
-41.8888297796
 21
28.7248678703
  0
LINE
  5
29D
100
AcDbEntity
  8
0
100
AcDbLine
 62
7
  6
CONTINUOUS
 10
-41.0803191483
 20
30.1415348549
 11
-41.0377659619
 21
30.2665348549
  0
LINE
  5
29E
100
AcDbEntity
  8
0
100
AcDbLine
 62
7
  6
CONTINUOUS
 10
-42.5696808815
 20
25.0998678703
 11
-42.6122340679
 21
24.9748678703
  0
LINE
  5
29F
100
AcDbEntity
  8
0
100
AcDbLine
 62
7
  6
CONTINUOUS
 10
-41.0803191483
 20
28.3082013626
 11
-41.0377659619
 21
28.4332013626
  0
LINE
  5
2A0
100
AcDbEntity
  8
0
100
AcDbLine
 62
7
  6
CONTINUOUS
 10
-41.8462765932
 20
23.3082011242
 11
-42.1441488981
 21
22.7248678703
  0
LINE
  5
2A1
100
AcDbEntity
  8
0
100
AcDbLine
 62
7
  6
CONTINUOUS
 10
-42.2718084574
 20
22.8082011242
 11
-41.8462765932
 21
23.5998678703
  0
LINE
  5
2A2
100
AcDbEntity
  8
0
100
AcDbLine
 62
7
  6
CONTINUOUS
 10
-40.8675531901
 20
28.266534378
 11
-40.9952127606
 21
28.0582013626
  0
LINE
  5
2A3
100
AcDbEntity
  8
0
100
AcDbLine
 62
7
  6
CONTINUOUS
 10
-41.1654255211
 20
28.1832013626
 11
-41.0803191483
 21
28.3082013626
  0
LINE
  5
2A4
100
AcDbEntity
  8
0
100
AcDbLine
 62
7
  6
CONTINUOUS
 10
-42.7824468136
 20
25.141534378
 11
-42.6547872543
 21
25.3082013626
  0
LINE
  5
2A5
100
AcDbEntity
  8
0
100
AcDbLine
 62
7
  6
CONTINUOUS
 10
-41.931382966
 20
29.0998678703
 11
-41.8037234068
 21
29.2248678703
  0
LINE
  5
2A6
100
AcDbEntity
  8
0
100
AcDbLine
 62
7
  6
CONTINUOUS
 10
-41.6760638476
 20
29.0582008857
 11
-41.7611702204
 21
28.9748678703
  0
LINE
  5
2A7
100
AcDbEntity
  8
0
100
AcDbLine
 62
7
  6
CONTINUOUS
 10
-42.4845745087
 20
25.1832013626
 11
-42.5696808815
 21
25.0998678703
  0
LINE
  5
2A8
100
AcDbEntity
  8
0
100
AcDbLine
 62
7
  6
CONTINUOUS
 10
-42.6547872543
 20
30.8915348549
 11
-42.4845745087
 21
31.0165348549
  0
LINE
  5
2A9
100
AcDbEntity
  8
0
100
AcDbLine
 62
7
  6
CONTINUOUS
 10
-42.6547872543
 20
29.0582008857
 11
-42.4845745087
 21
29.1832008857
  0
LINE
  5
2AA
100
AcDbEntity
  8
0
100
AcDbLine
 62
7
  6
CONTINUOUS
 10
-40.9952127606
 20
29.8915348549
 11
-41.1654255212
 21
29.7665348549
  0
LINE
  5
2AB
100
AcDbEntity
  8
0
100
AcDbLine
 62
7
  6
CONTINUOUS
 10
-40.9952127606
 20
28.0582013626
 11
-41.1654255211
 21
27.9332013626
  0
LINE
  5
2AC
100
AcDbEntity
  8
0
100
AcDbLine
 62
7
  6
CONTINUOUS
 10
-42.6547872543
 20
25.3082013626
 11
-42.4845745087
 21
25.4332013626
  0
LINE
  5
2AD
100
AcDbEntity
  8
0
100
AcDbLine
 62
7
  6
CONTINUOUS
 10
-42.3569149494
 20
30.8498678703
 11
-42.4845745087
 21
30.7665348549
  0
LINE
  5
2AE
100
AcDbEntity
  8
0
100
AcDbLine
 62
7
  6
CONTINUOUS
 10
-41.2930851102
 20
29.9332008857
 11
-41.1654255211
 21
30.0165348549
  0
LINE
  5
2AF
100
AcDbEntity
  8
0
100
AcDbLine
 62
7
  6
CONTINUOUS
 10
-42.3569149494
 20
29.0165348549
 11
-42.4845745087
 21
28.9332008857
  0
LINE
  5
2B0
100
AcDbEntity
  8
0
100
AcDbLine
 62
7
  6
CONTINUOUS
 10
-41.2930851102
 20
28.0998678703
 11
-41.1654255211
 21
28.1832013626
  0
LINE
  5
2B1
100
AcDbEntity
  8
0
100
AcDbLine
 62
7
  6
CONTINUOUS
 10
-41.8037234068
 20
35.4332008857
 11
-40.825
 21
35.8082008857
  0
LINE
  5
2B2
100
AcDbEntity
  8
0
100
AcDbLine
 62
7
  6
CONTINUOUS
 10
-40.825
 20
35.5165348549
 11
-41.718617034
 21
35.1832008857
  0
LINE
  5
2B3
100
AcDbEntity
  8
0
100
AcDbLine
 62
7
  6
CONTINUOUS
 10
-42.4845745087
 20
35.7248678703
 11
-42.3569149494
 21
35.7665348549
  0
LINE
  5
2B4
100
AcDbEntity
  8
0
100
AcDbLine
 62
7
  6
CONTINUOUS
 10
-42.3569149494
 20
35.5165348549
 11
-42.4845745087
 21
35.4748678703
  0
LINE
  5
2B5
100
AcDbEntity
  8
0
100
AcDbLine
 62
7
  6
CONTINUOUS
 10
71.575
 20
-45.0
 11
-71.425
 21
-45.0
  0
LWPOLYLINE
  5
2B6
100
AcDbEntity
  8
0
100
AcDbPolyline
 62
253
  6
CONTINUOUS
 90
13
 70
0
 10
-69.725
 20
44.0695865253
 10
-69.7291790506
 20
44.0785646419
 10
-69.7415902284
 20
44.0873631464
 10
-69.7619446711
 20
44.0958382138
 10
-69.7896675368
 20
44.1038145481
 10
-69.8243171328
 20
44.1112114647
 10
-69.8659415429
 20
44.1180133952
 10
-69.9144043061
 20
44.1241186696
 10
-69.9688216308
 20
44.1293455812
 10
-70.0281403005
 20
44.1335526423
 10
-70.0912968952
 20
44.1366390297
 10
-70.1573041616
 20
44.1385323588
 10
-70.225
 20
44.139173101
  0
LINE
  5
2B7
100
AcDbEntity
  8
0
100
AcDbLine
 62
7
  6
CONTINUOUS
 10
-42.825
 20
23.9332011242
 11
-42.825
 21
24.9332013626
  0
LINE
  5
2B8
100
AcDbEntity
  8
0
100
AcDbLine
 62
7
  6
CONTINUOUS
 10
-42.825
 20
26.4748678703
 11
-42.825
 21
26.8082013626
  0
LINE
  5
2B9
100
AcDbEntity
  8
0
100
AcDbLine
 62
7
  6
CONTINUOUS
 10
-42.825
 20
28.4748678703
 11
-42.825
 21
28.641534378
  0
LINE
  5
2BA
100
AcDbEntity
  8
0
100
AcDbLine
 62
7
  6
CONTINUOUS
 10
-42.825
 20
30.3082008857
 11
-42.825
 21
30.4748678703
  0
LINE
  5
2BB
100
AcDbEntity
  8
0
100
AcDbLine
 62
7
  6
CONTINUOUS
 10
-42.825
 20
32.3915348549
 11
-42.825
 21
33.8915348549
  0
LINE
  5
2BC
100
AcDbEntity
  8
0
100
AcDbLine
 62
7
  6
CONTINUOUS
 10
-42.825
 20
34.2248678703
 11
-42.825
 21
35.2248678703
  0
LINE
  5
2BD
100
AcDbEntity
  8
0
100
AcDbLine
 62
7
  6
CONTINUOUS
 10
-42.6122340679
 20
30.5165348549
 11
-42.6122340679
 21
30.2665348549
  0
LINE
  5
2BE
100
AcDbEntity
  8
0
100
AcDbLine
 62
7
  6
CONTINUOUS
 10
-42.6122340679
 20
28.6832013626
 11
-42.6122340679
 21
28.4332013626
  0
LINE
  5
2BF
100
AcDbEntity
  8
0
100
AcDbLine
 62
7
  6
CONTINUOUS
 10
-42.6122340679
 20
24.1832011242
 11
-42.6122340679
 21
24.9748678703
  0
LINE
  5
2C0
100
AcDbEntity
  8
0
100
AcDbLine
 62
7
  6
CONTINUOUS
 10
-42.6122340679
 20
34.4748678703
 11
-42.6122340679
 21
35.2665348549
  0
LINE
  5
2C1
100
AcDbEntity
  8
0
100
AcDbLine
 62
7
  6
CONTINUOUS
 10
-42.5696808815
 20
33.8915348549
 11
-42.5696808815
 21
32.6415348549
  0
LINE
  5
2C2
100
AcDbEntity
  8
0
100
AcDbLine
 62
7
  6
CONTINUOUS
 10
-42.3569149494
 20
31.0582008857
 11
-42.3569149494
 21
30.8498678703
  0
LINE
  5
2C3
100
AcDbEntity
  8
0
100
AcDbLine
 62
7
  6
CONTINUOUS
 10
-42.3569149494
 20
29.2248678703
 11
-42.3569149494
 21
29.0165348549
  0
LINE
  5
2C4
100
AcDbEntity
  8
0
100
AcDbLine
 62
7
  6
CONTINUOUS
 10
-42.1015957117
 20
28.4748678703
 11
-42.1015957117
 21
28.6832013626
  0
LINE
  5
2C5
100
AcDbEntity
  8
0
100
AcDbLine
 62
7
  6
CONTINUOUS
 10
-42.1015957117
 20
30.3082008857
 11
-42.1015957117
 21
30.5165348549
  0
LINE
  5
2C6
100
AcDbEntity
  8
0
100
AcDbLine
 62
7
  6
CONTINUOUS
 10
-42.0164893389
 20
32.6415348549
 11
-42.0164893389
 21
33.7248678703
  0
LINE
  5
2C7
100
AcDbEntity
  8
0
100
AcDbLine
 62
7
  6
CONTINUOUS
 10
-41.9739361525
 20
35.2665348549
 11
-41.9739361525
 21
34.4748678703
  0
LINE
  5
2C8
100
AcDbEntity
  8
0
100
AcDbLine
 62
7
  6
CONTINUOUS
 10
-41.9739361525
 20
24.9748678703
 11
-41.9739361525
 21
24.1832011242
  0
LINE
  5
2C9
100
AcDbEntity
  8
0
100
AcDbLine
 62
7
  6
CONTINUOUS
 10
-41.8888297796
 20
28.4332013626
 11
-41.8888297796
 21
28.7248678703
  0
LINE
  5
2CA
100
AcDbEntity
  8
0
100
AcDbLine
 62
7
  6
CONTINUOUS
 10
-41.8888297796
 20
30.2665348549
 11
-41.8888297796
 21
30.5582008857
  0
LINE
  5
2CB
100
AcDbEntity
  8
0
100
AcDbLine
 62
7
  6
CONTINUOUS
 10
-41.7611702204
 20
33.7248678703
 11
-41.7611702204
 21
32.6415348549
  0
LINE
  5
2CC
100
AcDbEntity
  8
0
100
AcDbLine
 62
7
  6
CONTINUOUS
 10
-41.7611702204
 20
31.4748678703
 11
-41.7611702204
 21
32.0582008857
  0
LINE
  5
2CD
100
AcDbEntity
  8
0
100
AcDbLine
 62
7
  6
CONTINUOUS
 10
-41.718617034
 20
35.1832008857
 11
-41.718617034
 21
34.4748678703
  0
LINE
  5
2CE
100
AcDbEntity
  8
0
100
AcDbLine
 62
7
  6
CONTINUOUS
 10
-41.718617034
 20
24.9332013626
 11
-41.718617034
 21
24.1832011242
  0
LINE
  5
2CF
100
AcDbEntity
  8
0
100
AcDbLine
 62
7
  6
CONTINUOUS
 10
-41.5484042287
 20
32.0582008857
 11
-41.5484042287
 21
31.4748678703
  0
LINE
  5
2D0
100
AcDbEntity
  8
0
100
AcDbLine
 62
7
  6
CONTINUOUS
 10
-41.5058510423
 20
27.016534378
 11
-41.5058510423
 21
26.266534378
  0
LINE
  5
2D1
100
AcDbEntity
  8
0
100
AcDbLine
 62
7
  6
CONTINUOUS
 10
-41.3356382966
 20
27.0582013626
 11
-41.3356382966
 21
26.2248678703
  0
LINE
  5
2D2
100
AcDbEntity
  8
0
100
AcDbLine
 62
7
  6
CONTINUOUS
 10
-41.0377659619
 20
30.5582008858
 11
-41.0377659619
 21
30.2665348549
  0
LINE
  5
2D3
100
AcDbEntity
  8
0
100
AcDbLine
 62
7
  6
CONTINUOUS
 10
-41.0377659619
 20
28.7248678703
 11
-41.0377659619
 21
28.4332013626
  0
LINE
  5
2D4
100
AcDbEntity
  8
0
100
AcDbLine
 62
7
  6
CONTINUOUS
 10
-40.825
 20
35.8082008857
 11
-40.825
 21
35.5165348549
  0
LINE
  5
2D5
100
AcDbEntity
  8
0
100
AcDbLine
 62
7
  6
CONTINUOUS
 10
-40.825
 20
34.4748678703
 11
-40.825
 21
34.2248678703
  0
LINE
  5
2D6
100
AcDbEntity
  8
0
100
AcDbLine
 62
7
  6
CONTINUOUS
 10
-40.825
 20
32.6415348549
 11
-40.825
 21
32.3915348549
  0
LINE
  5
2D7
100
AcDbEntity
  8
0
100
AcDbLine
 62
7
  6
CONTINUOUS
 10
-40.825
 20
30.5165348549
 11
-40.825
 21
30.3082008857
  0
LINE
  5
2D8
100
AcDbEntity
  8
0
100
AcDbLine
 62
7
  6
CONTINUOUS
 10
-40.825
 20
28.6832013626
 11
-40.825
 21
28.4748678703
  0
LINE
  5
2D9
100
AcDbEntity
  8
0
100
AcDbLine
 62
7
  6
CONTINUOUS
 10
-40.825
 20
27.4748678703
 11
-40.825
 21
27.2248678703
  0
LINE
  5
2DA
100
AcDbEntity
  8
0
100
AcDbLine
 62
7
  6
CONTINUOUS
 10
-40.825
 20
26.0582013626
 11
-40.825
 21
25.8082013626
  0
LINE
  5
2DB
100
AcDbEntity
  8
0
100
AcDbLine
 62
7
  6
CONTINUOUS
 10
-40.825
 20
24.1832011242
 11
-40.825
 21
23.9332011242
  0
LINE
  5
2DC
100
AcDbEntity
  8
0
100
AcDbLine
 62
7
  6
CONTINUOUS
 10
-41.4207446694
 20
22.8082011242
 11
-41.5484042287
 21
22.7248678703
  0
LINE
  5
2DD
100
AcDbEntity
  8
0
100
AcDbLine
 62
7
  6
CONTINUOUS
 10
-48.1258332448
 20
28.0710707702
 11
-47.1534954008
 21
28.4762115386
  0
LINE
  5
2DE
100
AcDbEntity
  8
0
100
AcDbLine
 62
7
  6
CONTINUOUS
 10
-41.8037234068
 20
31.0582008857
 11
-41.5909574747
 21
31.1415348549
  0
LINE
  5
2DF
100
AcDbEntity
  8
0
100
AcDbLine
 62
7
  6
CONTINUOUS
 10
-41.1654255212
 20
29.7665348549
 11
-41.378191483
 21
29.6832008857
  0
LINE
  5
2E0
100
AcDbEntity
  8
0
100
AcDbLine
 62
7
  6
CONTINUOUS
 10
-41.8037234068
 20
29.2248678703
 11
-41.5909574747
 21
29.3082008857
  0
LINE
  5
2E1
100
AcDbEntity
  8
0
100
AcDbLine
 62
7
  6
CONTINUOUS
 10
-41.1654255211
 20
27.9332013626
 11
-41.378191483
 21
27.8498678703
  0
LINE
  5
2E2
100
AcDbEntity
  8
0
100
AcDbLine
 62
7
  6
CONTINUOUS
 10
-42.825
 20
26.8082013626
 11
-40.825
 21
27.4748678703
  0
LINE
  5
2E3
100
AcDbEntity
  8
0
100
AcDbLine
 62
7
  6
CONTINUOUS
 10
-42.4845745087
 20
31.0165348549
 11
-42.3569149494
 21
31.0582008857
  0
LINE
  5
2E4
100
AcDbEntity
  8
0
100
AcDbLine
 62
7
  6
CONTINUOUS
 10
-41.5484042287
 20
30.9332008857
 11
-41.6760638475
 21
30.8915348549
  0
LINE
  5
2E5
100
AcDbEntity
  8
0
100
AcDbLine
 62
7
  6
CONTINUOUS
 10
-41.4207446694
 20
29.8915348549
 11
-41.2930851102
 21
29.9332008857
  0
LINE
  5
2E6
100
AcDbEntity
  8
0
100
AcDbLine
 62
7
  6
CONTINUOUS
 10
-42.4845745087
 20
29.1832008857
 11
-42.3569149494
 21
29.2248678703
  0
LINE
  5
2E7
100
AcDbEntity
  8
0
100
AcDbLine
 62
7
  6
CONTINUOUS
 10
-41.5484042287
 20
29.0998678703
 11
-41.6760638476
 21
29.0582008857
  0
LINE
  5
2E8
100
AcDbEntity
  8
0
100
AcDbLine
 62
7
  6
CONTINUOUS
 10
-41.4207446694
 20
28.0582013626
 11
-41.2930851102
 21
28.0998678703
  0
LINE
  5
2E9
100
AcDbEntity
  8
0
100
AcDbLine
 62
7
  6
CONTINUOUS
 10
50.0520825386
 20
-32.0957447141
 11
49.84375
 21
-32.1489361972
  0
LINE
  5
2EA
100
AcDbEntity
  8
0
100
AcDbLine
 62
7
  6
CONTINUOUS
 10
52.1354174614
 20
-31.5106383264
 11
51.9270825386
 21
-31.5638298094
  0
LINE
  5
2EB
100
AcDbEntity
  8
0
100
AcDbLine
 62
7
  6
CONTINUOUS
 10
51.9270825386
 20
-31.3510638773
 11
52.1354174614
 21
-31.2978723943
  0
LINE
  5
2EC
100
AcDbEntity
  8
0
100
AcDbLine
 62
7
  6
CONTINUOUS
 10
49.9479174614
 20
-31.5106383264
 11
49.7395825386
 21
-31.5638298094
  0
LINE
  5
2ED
100
AcDbEntity
  8
0
100
AcDbLine
 62
7
  6
CONTINUOUS
 10
42.3958337307
 20
-32.6808510646
 11
42.6041662693
 21
-32.6276595816
  0
LINE
  5
2EE
100
AcDbEntity
  8
0
100
AcDbLine
 62
7
  6
CONTINUOUS
 10
44.375
 20
-31.5106383264
 11
44.1666662693
 21
-31.5638298094
  0
LINE
  5
2EF
100
AcDbEntity
  8
0
100
AcDbLine
 62
7
  6
CONTINUOUS
 10
41.9270837307
 20
-30.8191488981
 11
41.71875
 21
-30.8723403812
  0
LINE
  5
2F0
100
AcDbEntity
  8
0
100
AcDbLine
 62
7
  6
CONTINUOUS
 10
37.4479162693
 20
-31.5106383264
 11
37.2395837307
 21
-31.5638298094
  0
LINE
  5
2F1
100
AcDbEntity
  8
0
100
AcDbLine
 62
7
  6
CONTINUOUS
 10
37.2395837307
 20
-31.3510638773
 11
37.4479162693
 21
-31.2978723943
  0
LINE
  5
2F2
100
AcDbEntity
  8
0
100
AcDbLine
 62
7
  6
CONTINUOUS
 10
30.5208331346
 20
-32.9468085123
 11
30.3125
 21
-33.0
  0
LINE
  5
2F3
100
AcDbEntity
  8
0
100
AcDbLine
 62
7
  6
CONTINUOUS
 10
30.3125
 20
-32.7340425476
 11
30.5208331346
 21
-32.6808510646
  0
LINE
  5
2F4
100
AcDbEntity
  8
0
100
AcDbLine
 62
7
  6
CONTINUOUS
 10
50.4166674614
 20
-32.9468085123
 11
50.15625
 21
-33.0
  0
LINE
  5
2F5
100
AcDbEntity
  8
0
100
AcDbLine
 62
7
  6
CONTINUOUS
 10
42.65625
 20
-32.9468085123
 11
42.3958337307
 21
-33.0
  0
LINE
  5
2F6
100
AcDbEntity
  8
0
100
AcDbLine
 62
7
  6
CONTINUOUS
 10
46.3020825386
 20
-31.3510638773
 11
46.5625
 21
-31.2978723943
  0
LINE
  5
2F7
100
AcDbEntity
  8
0
100
AcDbLine
 62
7
  6
CONTINUOUS
 10
49.7395825386
 20
-31.9361701906
 11
50.0520825386
 21
-31.8829787076
  0
LINE
  5
2F8
100
AcDbEntity
  8
0
100
AcDbLine
 62
7
  6
CONTINUOUS
 10
46.5625
 20
-31.5638298094
 11
46.25
 21
-31.6170212925
  0
LINE
  5
2F9
100
AcDbEntity
  8
0
100
AcDbLine
 62
7
  6
CONTINUOUS
 10
44.7916674614
 20
-32.9468085123
 11
44.4270825386
 21
-33.0
  0
LINE
  5
2FA
100
AcDbEntity
  8
0
100
AcDbLine
 62
253
  6
CONTINUOUS
 10
69.875
 20
-44.5
 11
-69.725
 21
-44.5
  0
LINE
  5
2FB
100
AcDbEntity
  8
0
100
AcDbLine
 62
253
  6
CONTINUOUS
 10
69.875
 20
-43.9999999839
 11
72.075
 21
-43.9999999731
  0
LINE
  5
2FC
100
AcDbEntity
  8
0
100
AcDbLine
 62
253
  6
CONTINUOUS
 10
-69.725
 20
-43.9999999838
 11
-71.925
 21
-44.0
  0
LINE
  5
2FD
100
AcDbEntity
  8
0
100
AcDbLine
 62
7
  6
CONTINUOUS
 10
69.875
 20
-43.5
 11
-69.725
 21
-43.5
  0
LINE
  5
2FE
100
AcDbEntity
  8
0
100
AcDbLine
 62
253
  6
CONTINUOUS
 10
-69.725
 20
-43.0
 11
-9.225
 21
-43.0
  0
LINE
  5
2FF
100
AcDbEntity
  8
0
100
AcDbLine
 62
253
  6
CONTINUOUS
 10
9.375
 20
-43.0
 11
69.875
 21
-43.0
  0
LINE
  5
300
100
AcDbEntity
  8
0
100
AcDbLine
 62
7
  6
CONTINUOUS
 10
3.075
 20
-41.0
 11
-2.925
 21
-41.0
  0
LINE
  5
301
100
AcDbEntity
  8
0
100
AcDbLine
 62
7
  6
CONTINUOUS
 10
3.075
 20
-39.5
 11
-2.925
 21
-39.5
  0
LINE
  5
302
100
AcDbEntity
  8
0
100
AcDbLine
 62
7
  6
CONTINUOUS
 10
-9.225
 20
-39.3997023889
 11
-5.625
 21
-39.3997023889
  0
LINE
  5
303
100
AcDbEntity
  8
0
100
AcDbLine
 62
7
  6
CONTINUOUS
 10
5.775
 20
-39.3997023889
 11
9.375
 21
-39.3997023889
  0
LINE
  5
304
100
AcDbEntity
  8
0
100
AcDbLine
 62
7
  6
CONTINUOUS
 10
-41.5058510423
 20
27.016534378
 11
-42.6547872543
 21
26.641534378
  0
LINE
  5
305
100
AcDbEntity
  8
0
100
AcDbLine
 62
7
  6
CONTINUOUS
 10
-40.825
 20
27.2248678703
 11
-41.3356382966
 21
27.0582013626
  0
LINE
  5
306
100
AcDbEntity
  8
0
100
AcDbLine
 62
7
  6
CONTINUOUS
 10
-42.4845745087
 20
25.4332013626
 11
-42.3569149494
 21
25.4748678703
  0
LINE
  5
307
100
AcDbEntity
  8
0
100
AcDbLine
 62
7
  6
CONTINUOUS
 10
-42.3569149494
 20
25.2248678703
 11
-42.4845745087
 21
25.1832013626
  0
LINE
  5
308
100
AcDbEntity
  8
0
100
AcDbLine
 62
7
  6
CONTINUOUS
 10
32.2916668653
 20
-31.5106383264
 11
32.0833331346
 21
-31.5638298094
  0
LINE
  5
309
100
AcDbEntity
  8
0
100
AcDbLine
 62
7
  6
CONTINUOUS
 10
28.0208334327
 20
-32.0957447141
 11
27.8125
 21
-32.1489361972
  0
LINE
  5
30A
100
AcDbEntity
  8
0
100
AcDbLine
 62
7
  6
CONTINUOUS
 10
29.7916668653
 20
-31.3510638773
 11
30.0
 21
-31.2978723943
  0
LINE
  5
30B
100
AcDbEntity
  8
0
100
AcDbLine
 62
7
  6
CONTINUOUS
 10
27.9166665673
 20
-31.5106383264
 11
27.7083334327
 21
-31.5638298094
  0
LINE
  5
30C
100
AcDbEntity
  8
0
100
AcDbLine
 62
7
  6
CONTINUOUS
 10
41.6666662693
 20
-30.553191483
 11
41.9270837307
 21
-30.5
  0
LINE
  5
30D
100
AcDbEntity
  8
0
100
AcDbLine
 62
7
  6
CONTINUOUS
 10
28.3854165673
 20
-32.9468085123
 11
28.125
 21
-33.0
  0
LINE
  5
30E
100
AcDbEntity
  8
0
100
AcDbLine
 62
7
  6
CONTINUOUS
 10
44.1145837307
 20
-31.3510638773
 11
44.4270825386
 21
-31.2978723943
  0
LINE
  5
30F
100
AcDbEntity
  8
0
100
AcDbLine
 62
7
  6
CONTINUOUS
 10
32.03125
 20
-31.3510638773
 11
32.34375
 21
-31.2978723943
  0
LINE
  5
310
100
AcDbEntity
  8
0
100
AcDbLine
 62
7
  6
CONTINUOUS
 10
27.7083334327
 20
-31.9361701906
 11
28.0208334327
 21
-31.8829787076
  0
LINE
  5
311
100
AcDbEntity
  8
0
100
AcDbLine
 62
7
  6
CONTINUOUS
 10
44.375
 20
-32.7872340493
 11
44.7395825386
 21
-32.7340425476
  0
LINE
  5
312
100
AcDbEntity
  8
0
100
AcDbLine
 62
7
  6
CONTINUOUS
 10
49.5833325386
 20
-31.3510638773
 11
49.9479174614
 21
-31.2978723943
  0
LINE
  5
313
100
AcDbEntity
  8
0
100
AcDbLine
 62
7
  6
CONTINUOUS
 10
32.7083331346
 20
-32.9468085123
 11
32.34375
 21
-33.0
  0
LINE
  5
314
100
AcDbEntity
  8
0
100
AcDbLine
 62
7
  6
CONTINUOUS
 10
32.2916668653
 20
-32.7872340493
 11
32.65625
 21
-32.7340425476
  0
LINE
  5
315
100
AcDbEntity
  8
0
100
AcDbLine
 62
7
  6
CONTINUOUS
 10
27.5520834327
 20
-31.3510638773
 11
27.9166665673
 21
-31.2978723943
  0
LINE
  5
316
100
AcDbEntity
  8
0
100
AcDbLine
 62
7
  6
CONTINUOUS
 10
-9.225
 20
-36.0
 11
9.375
 21
-36.0
  0
LINE
  5
317
100
AcDbEntity
  8
0
100
AcDbLine
 62
7
  6
CONTINUOUS
 10
53.90625
 20
-33.8510638028
 11
53.59375
 21
-33.8510638028
  0
LINE
  5
318
100
AcDbEntity
  8
0
100
AcDbLine
 62
7
  6
CONTINUOUS
 10
-4.6863590896
 20
-39.9416269712
 11
-5.625
 21
-39.3997023889
  0
LINE
  5
319
100
AcDbEntity
  8
0
100
AcDbLine
 62
7
  6
CONTINUOUS
 10
-42.7824468136
 20
28.266534378
 11
-42.825
 21
28.4748678703
  0
LINE
  5
31A
100
AcDbEntity
  8
0
100
AcDbLine
 62
7
  6
CONTINUOUS
 10
-42.7824468136
 20
30.0998678703
 11
-42.825
 21
30.3082008857
  0
LINE
  5
31B
100
AcDbEntity
  8
0
100
AcDbLine
 62
7
  6
CONTINUOUS
 10
-41.7611702204
 20
25.141534378
 11
-41.718617034
 21
24.9332013626
  0
LINE
  5
31C
100
AcDbEntity
  8
0
100
AcDbLine
 62
7
  6
CONTINUOUS
 10
-42.0590425253
 20
28.266534378
 11
-42.1015957117
 21
28.4748678703
  0
LINE
  5
31D
100
AcDbEntity
  8
0
100
AcDbLine
 62
7
  6
CONTINUOUS
 10
-42.0590425253
 20
30.0998678703
 11
-42.1015957117
 21
30.3082008857
  0
LINE
  5
31E
100
AcDbEntity
  8
0
100
AcDbLine
 62
7
  6
CONTINUOUS
 10
-40.8675531901
 20
28.8915348549
 11
-40.825
 21
28.6832013626
  0
LINE
  5
31F
100
AcDbEntity
  8
0
100
AcDbLine
 62
7
  6
CONTINUOUS
 10
-40.8675531901
 20
30.7248678703
 11
-40.825
 21
30.5165348549
  0
LINE
  5
320
100
AcDbEntity
  8
0
100
AcDbLine
 62
7
  6
CONTINUOUS
 10
-32.425
 20
18.1
 11
-32.425
 21
15.1
  0
LWPOLYLINE
  5
321
100
AcDbEntity
  8
0
100
AcDbPolyline
 62
253
  6
CONTINUOUS
 90
3
 70
0
 10
-1.925
 20
-30.1791939522
 10
-1.9044239496
 20
-30.1760381905
 10
-1.7891847461
 20
-30.1612906945
  0
LINE
  5
322
100
AcDbEntity
  8
0
100
AcDbLine
 62
253
  6
CONTINUOUS
 10
1.9639408249
 20
-29.8470886948
 11
2.0605609466
 21
-29.832592846
  0
LWPOLYLINE
  5
323
100
AcDbEntity
  8
0
100
AcDbPolyline
 62
7
  6
CONTINUOUS
 90
6
 70
0
 10
1.6710164935
 20
-27.6069327561
 10
1.6275449559
 20
-27.6130526259
 10
1.5811842041
 20
-27.6192549775
 10
1.5319695362
 20
-27.6255331896
 10
1.4799115376
 20
-27.6318847884
 10
1.4250672875
 20
-27.6383025018
  0
LWPOLYLINE
  5
324
100
AcDbEntity
  8
0
100
AcDbPolyline
 62
7
  6
CONTINUOUS
 90
4
 70
0
 10
1.6584796215
 20
-29.6087017999
 10
1.613772595
 20
-29.6149049703
 10
1.5661126922
 20
-29.6211914058
 10
1.5155173978
 20
-29.627554706
  0
LWPOLYLINE
  5
325
100
AcDbEntity
  8
0
100
AcDbPolyline
 62
253
  6
CONTINUOUS
 90
4
 70
0
 10
-1.925
 20
-29.1789816208
 10
-1.8064849316
 20
-29.1633763251
 10
-1.6673923016
 20
-29.1477114721
 10
-1.5093247887
 20
-29.1319768339
  0
LWPOLYLINE
  5
326
100
AcDbEntity
  8
0
100
AcDbPolyline
 62
253
  6
CONTINUOUS
 90
4
 70
0
 10
-1.925
 20
-28.1789922978
 10
-1.8083517159
 20
-28.1636242155
 10
-1.6715428192
 20
-28.1481617071
 10
-1.5157630277
 20
-28.132593439
  0
LWPOLYLINE
  5
327
100
AcDbEntity
  8
0
100
AcDbPolyline
 62
7
  6
CONTINUOUS
 90
3
 70
0
 10
-1.515670833
 20
-30.4031373864
 10
-1.4744406147
 20
-30.3979527851
 10
-1.4307787474
 20
-30.3926993133
  0
LWPOLYLINE
  5
328
100
AcDbEntity
  8
0
100
AcDbPolyline
 62
7
  6
CONTINUOUS
 90
15
 70
0
 10
1.5228351915
 20
-29.128629942
 10
1.5778357839
 20
-29.1219962184
 10
1.6303340906
 20
-29.1153805559
 10
1.6802967194
 20
-29.1087814503
 10
1.7277166015
 20
-29.102194353
 10
1.7726783894
 20
-29.0956037674
 10
1.8151246283
 20
-29.0890154874
 10
1.855157745
 20
-29.0824105082
 10
1.8931081048
 20
-29.0757242928
 10
1.929060236
 20
-29.0689227506
 10
1.9629172825
 20
-29.0620018683
 10
1.9948158622
 20
-29.0549066319
 10
2.0247145978
 20
-29.0476128164
 10
2.0528092705
 20
-29.040030572
 10
2.075
 20
-29.0334059539
  0
LINE
  5
329
100
AcDbEntity
  8
0
100
AcDbLine
 62
7
  6
CONTINUOUS
 10
1.5155173978
 20
-29.627554706
 11
1.4619879555
 21
-29.6339924967
  0
LWPOLYLINE
  5
32A
100
AcDbEntity
  8
0
100
AcDbPolyline
 62
7
  6
CONTINUOUS
 90
15
 70
0
 10
1.5162346586
 20
-28.1294179586
 10
1.5717401537
 20
-28.1227521714
 10
1.6247385169
 20
-28.1161047273
 10
1.6751996787
 20
-28.1094746782
 10
1.7231227621
 20
-28.1028573111
 10
1.7685780735
 20
-28.0962369079
 10
1.8114911762
 20
-28.0896178254
 10
1.8519414811
 20
-28.0829816446
 10
1.890247838
 20
-28.0762668932
 10
1.9265050731
 20
-28.0694399323
 10
1.9606268091
 20
-28.0624970777
 10
1.99274097
 20
-28.0553883323
 10
2.0227985936
 20
-28.0480957813
 10
2.0510176058
 20
-28.0405300456
 10
2.075
 20
-28.0334013247
  0
LWPOLYLINE
  5
32B
100
AcDbEntity
  8
0
100
AcDbPolyline
 62
7
  6
CONTINUOUS
 90
14
 70
0
 10
-1.4817070744
 20
-28.8969090553
 10
-1.5273866879
 20
-28.902375197
 10
-1.5710567992
 20
-28.9078331788
 10
-1.612634984
 20
-28.9132791832
 10
-1.6521761306
 20
-28.9187250848
 10
-1.6900047692
 20
-28.9242241231
 10
-1.7262545347
 20
-28.9298116061
 10
-1.7606992025
 20
-28.9354704297
 10
-1.7931759537
 20
-28.9411885569
 10
-1.8236660972
 20
-28.9469760097
 10
-1.8522706404
 20
-28.9528680263
 10
-1.8791865001
 20
-28.9589297591
 10
-1.9043251057
 20
-28.9651698694
 10
-1.925
 20
-28.970833592
  0
LWPOLYLINE
  5
32C
100
AcDbEntity
  8
0
100
AcDbPolyline
 62
7
  6
CONTINUOUS
 90
16
 70
0
 10
1.4733305718
 20
-30.1343699788
 10
1.5301964227
 20
-30.1277511519
 10
1.5845350555
 20
-30.1211580773
 10
1.6363742082
 20
-30.1145834031
 10
1.6856993296
 20
-30.1080266326
 10
1.7325302349
 20
-30.1014827784
 10
1.7769715037
 20
-30.0949334779
 10
1.8189565433
 20
-30.0883841926
 10
1.8585759283
 20
-30.0818158963
 10
1.896165484
 20
-30.075160753
 10
1.9318156033
 20
-30.0683805537
 10
1.9654037421
 20
-30.0614728235
 10
1.9970258765
 20
-30.0543880615
 10
2.0266384354
 20
-30.0471040372
 10
2.0544652625
 20
-30.0395294147
 10
2.075
 20
-30.0333694014
  0
LWPOLYLINE
  5
32D
100
AcDbEntity
  8
0
100
AcDbPolyline
 62
253
  6
CONTINUOUS
 90
3
 70
0
 10
1.6883376214
 20
-29.8802219159
 10
1.8346701434
 20
-29.8636902955
 10
1.9639408249
 20
-29.8470886948
  0
LWPOLYLINE
  5
32E
100
AcDbEntity
  8
0
100
AcDbPolyline
 62
7
  6
CONTINUOUS
 90
14
 70
0
 10
-1.4042687719
 20
-29.8880988725
 10
-1.4628186312
 20
-29.8947041552
 10
-1.5181067899
 20
-29.901239495
 10
-1.5701610016
 20
-29.9077112083
 10
-1.6189779943
 20
-29.914121419
 10
-1.6645738071
 20
-29.9204738871
 10
-1.7070300229
 20
-29.9267813783
 10
-1.7465170733
 20
-29.9330700671
 10
-1.7830518842
 20
-29.9393404776
 10
-1.8168512804
 20
-29.9456282641
 10
-1.8484555709
 20
-29.9520462482
 10
-1.8777977928
 20
-29.9586042911
 10
-1.9051760824
 20
-29.9653995708
 10
-1.925
 20
-29.9709299043
  0
LINE
  5
32F
100
AcDbEntity
  8
0
100
AcDbLine
 62
7
  6
CONTINUOUS
 10
1.4053217277
 20
-29.1419737314
 11
1.5228351915
 21
-29.128629942
  0
LINE
  5
330
100
AcDbEntity
  8
0
100
AcDbLine
 62
7
  6
CONTINUOUS
 10
-1.434500909
 20
-29.3931468891
 11
-1.3405222053
 21
-29.3824746199
  0
LINE
  5
331
100
AcDbEntity
  8
0
100
AcDbLine
 62
7
  6
CONTINUOUS
 10
-1.4307787474
 20
-30.3926993133
 11
-1.33623634
 21
-30.3819919462
  0
LWPOLYLINE
  5
332
100
AcDbEntity
  8
0
100
AcDbPolyline
 62
253
  6
CONTINUOUS
 90
5
 70
0
 10
-1.7891847461
 20
-30.1612906945
 10
-1.655810923
 20
-30.1464885398
 10
-1.5057757613
 20
-30.131626342
 10
-1.340610066
 20
-30.1167031157
 10
-1.1621056984
 20
-30.1017315516
  0
LINE
  5
333
100
AcDbEntity
  8
0
100
AcDbLine
 62
7
  6
CONTINUOUS
 10
1.4619879555
 20
-29.6339924967
 11
1.3462846419
 21
-29.6470782303
  0
LWPOLYLINE
  5
334
100
AcDbEntity
  8
0
100
AcDbPolyline
 62
253
  6
CONTINUOUS
 90
4
 70
0
 10
1.6596894162
 20
-28.8832577403
 10
1.8174304105
 20
-28.8657608427
 10
1.956389187
 20
-28.8481488767
 10
2.075
 20
-28.8304321758
  0
LINE
  5
335
100
AcDbEntity
  8
0
100
AcDbLine
 62
7
  6
CONTINUOUS
 10
1.3976971304
 20
-28.1428231176
 11
1.5162346586
 21
-28.1294179586
  0
LWPOLYLINE
  5
336
100
AcDbEntity
  8
0
100
AcDbPolyline
 62
253
  6
CONTINUOUS
 90
4
 70
0
 10
1.6583658313
 20
-27.8834078447
 10
1.816860626
 20
-27.8658322705
 10
1.9563040946
 20
-27.8481778978
 10
2.075
 20
-27.8304548539
  0
LINE
  5
337
100
AcDbEntity
  8
0
100
AcDbLine
 62
7
  6
CONTINUOUS
 10
-1.3838298849
 20
-28.8858726458
 11
-1.4817070744
 21
-28.8969090553
  0
LINE
  5
338
100
AcDbEntity
  8
0
100
AcDbLine
 62
7
  6
CONTINUOUS
 10
1.4330949434
 20
-28.6373651588
 11
1.3164738492
 21
-28.6503095064
  0
LINE
  5
339
100
AcDbEntity
  8
0
100
AcDbLine
 62
7
  6
CONTINUOUS
 10
1.4250672875
 20
-27.6383025018
 11
1.3071521743
 21
-27.6513236074
  0
LINE
  5
33A
100
AcDbEntity
  8
0
100
AcDbLine
 62
7
  6
CONTINUOUS
 10
1.3521617804
 20
-30.1476909884
 11
1.4733305718
 21
-30.1343699788
  0
LINE
  5
33B
100
AcDbEntity
  8
0
100
AcDbLine
 62
7
  6
CONTINUOUS
 10
-1.3924789408
 20
-28.3882796242
 11
-1.2942991283
 21
-28.3775063473
  0
LINE
  5
33C
100
AcDbEntity
  8
0
100
AcDbLine
 62
7
  6
CONTINUOUS
 10
1.2780227249
 20
-29.1554278308
 11
1.4053217277
 21
-29.1419737314
  0
LINE
  5
33D
100
AcDbEntity
  8
0
100
AcDbLine
 62
7
  6
CONTINUOUS
 10
-1.3405222053
 20
-29.3824746199
 11
-1.2370545222
 21
-29.3715381519
  0
LINE
  5
33E
100
AcDbEntity
  8
0
100
AcDbLine
 62
7
  6
CONTINUOUS
 10
-1.33623634
 20
-30.3819919462
 11
-1.2321660161
 21
-30.3710198654
  0
LINE
  5
33F
100
AcDbEntity
  8
0
100
AcDbLine
 62
7
  6
CONTINUOUS
 10
-1.2775381451
 20
-29.8746803072
 11
-1.4042687719
 21
-29.8880988725
  0
LINE
  5
340
100
AcDbEntity
  8
0
100
AcDbLine
 62
7
  6
CONTINUOUS
 10
-1.2822527457
 20
-27.8751888754
 11
-1.3882042545
 21
-27.8863554893
  0
LINE
  5
341
100
AcDbEntity
  8
0
100
AcDbLine
 62
7
  6
CONTINUOUS
 10
1.2693259938
 20
-28.1563327335
 11
1.3976971304
 21
-28.1428231176
  0
LINE
  5
342
100
AcDbEntity
  8
0
100
AcDbLine
 62
7
  6
CONTINUOUS
 10
1.3462846419
 20
-29.6470782303
 11
1.2193427357
 21
-29.6604292534
  0
LINE
  5
343
100
AcDbEntity
  8
0
100
AcDbLine
 62
7
  6
CONTINUOUS
 10
-1.2772761576
 20
-28.8746717836
 11
-1.3838298849
 21
-28.8858726458
  0
LINE
  5
344
100
AcDbEntity
  8
0
100
AcDbLine
 62
7
  6
CONTINUOUS
 10
1.3164738492
 20
-28.6503095064
 11
1.1891492424
 21
-28.6634983248
  0
LINE
  5
345
100
AcDbEntity
  8
0
100
AcDbLine
 62
253
  6
CONTINUOUS
 10
1.5262993712
 20
-29.8966722819
 11
1.6883376214
 21
-29.8802219159
  0
LINE
  5
346
100
AcDbEntity
  8
0
100
AcDbLine
 62
7
  6
CONTINUOUS
 10
1.3071521743
 20
-27.6513236074
 11
1.1784944489
 21
-27.6645784449
  0
LINE
  5
347
100
AcDbEntity
  8
0
100
AcDbLine
 62
7
  6
CONTINUOUS
 10
1.2212986173
 20
-30.1611375988
 11
1.3521617804
 21
-30.1476909884
  0
LINE
  5
348
100
AcDbEntity
  8
0
100
AcDbLine
 62
7
  6
CONTINUOUS
 10
-1.2942991283
 20
-28.3775063473
 11
-1.1866462172
 21
-28.3664639981
  0
LINE
  5
349
100
AcDbEntity
  8
0
100
AcDbLine
 62
7
  6
CONTINUOUS
 10
-1.2370545222
 20
-29.3715381519
 11
-1.1242066553
 21
-29.3603299117
  0
LINE
  5
34A
100
AcDbEntity
  8
0
100
AcDbLine
 62
7
  6
CONTINUOUS
 10
1.1412507496
 20
-29.169001451
 11
1.2780227249
 21
-29.1554278308
  0
LINE
  5
34B
100
AcDbEntity
  8
0
100
AcDbLine
 62
7
  6
CONTINUOUS
 10
-1.1674954233
 20
-27.8638145129
 11
-1.2822527457
 21
-27.8751888754
  0
LINE
  5
34C
100
AcDbEntity
  8
0
100
AcDbLine
 62
7
  6
CONTINUOUS
 10
-1.2321660161
 20
-30.3710198654
 11
-1.1185994433
 21
-30.359772734
  0
LINE
  5
34D
100
AcDbEntity
  8
0
100
AcDbLine
 62
7
  6
CONTINUOUS
 10
-1.1618847956
 20
-28.863259443
 11
-1.2772761576
 21
-28.8746717836
  0
LINE
  5
34E
100
AcDbEntity
  8
0
100
AcDbLine
 62
7
  6
CONTINUOUS
 10
1.1314852448
 20
-28.169951644
 11
1.2693259938
 21
-28.1563327335
  0
LINE
  5
34F
100
AcDbEntity
  8
0
100
AcDbLine
 62
7
  6
CONTINUOUS
 10
1.2193427357
 20
-29.6604292534
 11
1.0815203558
 21
-29.6740356656
  0
LINE
  5
350
100
AcDbEntity
  8
0
100
AcDbLine
 62
7
  6
CONTINUOUS
 10
-1.1383973293
 20
-29.8609945413
 11
-1.2775381451
 21
-29.8746803072
  0
LINE
  5
351
100
AcDbEntity
  8
0
100
AcDbLine
 62
7
  6
CONTINUOUS
 10
1.1891492424
 20
-28.6634983248
 11
1.0514574093
 21
-28.6769196267
  0
LINE
  5
352
100
AcDbEntity
  8
0
100
AcDbLine
 62
7
  6
CONTINUOUS
 10
1.081130925
 20
-30.1747171937
 11
1.2212986173
 21
-30.1611375988
  0
LINE
  5
353
100
AcDbEntity
  8
0
100
AcDbLine
 62
7
  6
CONTINUOUS
 10
1.1784944489
 20
-27.6645784449
 11
1.039565199
 21
-27.6780533622
  0
LINE
  5
354
100
AcDbEntity
  8
0
100
AcDbLine
 62
7
  6
CONTINUOUS
 10
-1.1866462172
 20
-28.3664639981
 11
-1.0697085528
 21
-28.3551465295
  0
LINE
  5
355
100
AcDbEntity
  8
0
100
AcDbLine
 62
7
  6
CONTINUOUS
 10
-1.1242066553
 20
-29.3603299117
 11
-1.0020240461
 21
-29.3488322447
  0
LINE
  5
356
100
AcDbEntity
  8
0
100
AcDbLine
 62
7
  6
CONTINUOUS
 10
0.9954674145
 20
-29.1826955
 11
1.1412507496
 21
-29.169001451
  0
LINE
  5
357
100
AcDbEntity
  8
0
100
AcDbLine
 62
7
  6
CONTINUOUS
 10
-1.1185994433
 20
-30.359772734
 11
-0.9955954809
 21
-30.3482314138
  0
LINE
  5
358
100
AcDbEntity
  8
0
100
AcDbLine
 62
7
  6
CONTINUOUS
 10
-1.0375165047
 20
-28.8515939791
 11
-1.1618847956
 21
-28.863259443
  0
LINE
  5
359
100
AcDbEntity
  8
0
100
AcDbLine
 62
7
  6
CONTINUOUS
 10
0.984808742
 20
-28.1836796107
 11
1.1314852448
 21
-28.169951644
  0
LINE
  5
35A
100
AcDbEntity
  8
0
100
AcDbLine
 62
7
  6
CONTINUOUS
 10
1.0815203558
 20
-29.6740356656
 11
0.9331527421
 21
-29.687898653
  0
LINE
  5
35B
100
AcDbEntity
  8
0
100
AcDbLine
 62
7
  6
CONTINUOUS
 10
-0.9877987445
 20
-29.8470686717
 11
-1.1383973293
 21
-29.8609945413
  0
LINE
  5
35C
100
AcDbEntity
  8
0
100
AcDbLine
 62
7
  6
CONTINUOUS
 10
-0.9787385476
 20
-27.8462801023
 11
-1.1674954233
 21
-27.8638145129
  0
LWPOLYLINE
  5
35D
100
AcDbEntity
  8
0
100
AcDbPolyline
 62
253
  6
CONTINUOUS
 90
3
 70
0
 10
-1.5157630277
 20
-28.132593439
 10
-1.3425956239
 20
-28.1169075739
 10
-1.1539517162
 20
-28.1010977574
  0
LWPOLYLINE
  5
35E
100
AcDbEntity
  8
0
100
AcDbPolyline
 62
253
  6
CONTINUOUS
 90
3
 70
0
 10
-1.5093247887
 20
-29.1319768339
 10
-1.3341985588
 20
-29.116165438
 10
-1.1438820459
 20
-29.1002661271
  0
LINE
  5
35F
100
AcDbEntity
  8
0
100
AcDbLine
 62
7
  6
CONTINUOUS
 10
1.0514574093
 20
-28.6769196267
 11
0.8265084796
 21
-28.69747878
  0
LINE
  5
360
100
AcDbEntity
  8
0
100
AcDbLine
 62
7
  6
CONTINUOUS
 10
-1.0697085528
 20
-28.3551465295
 11
-0.8771699438
 21
-28.3376161833
  0
LINE
  5
361
100
AcDbEntity
  8
0
100
AcDbLine
 62
7
  6
CONTINUOUS
 10
1.039565199
 20
-27.6780533622
 11
0.8132478988
 21
-27.6986617683
  0
LINE
  5
362
100
AcDbEntity
  8
0
100
AcDbLine
 62
7
  6
CONTINUOUS
 10
0.8545009983
 20
-30.1953441499
 11
1.081130925
 21
-30.1747171937
  0
LINE
  5
363
100
AcDbEntity
  8
0
100
AcDbLine
 62
7
  6
CONTINUOUS
 10
-1.0020240461
 20
-29.3488322447
 11
-0.8015956884
 21
-29.3310076037
  0
LINE
  5
364
100
AcDbEntity
  8
0
100
AcDbLine
 62
7
  6
CONTINUOUS
 10
-0.9955954809
 20
-30.3482314138
 11
-0.7939056845
 21
-30.330331766
  0
LINE
  5
365
100
AcDbEntity
  8
0
100
AcDbLine
 62
7
  6
CONTINUOUS
 10
0.7615072281
 20
-29.2034570021
 11
0.9954674145
 21
-29.1826955
  0
LINE
  5
366
100
AcDbEntity
  8
0
100
AcDbLine
 62
7
  6
CONTINUOUS
 10
-0.8341517669
 20
-28.8335519852
 11
-1.0375165047
 21
-28.8515939791
  0
LINE
  5
367
100
AcDbEntity
  8
0
100
AcDbLine
 62
7
  6
CONTINUOUS
 10
0.7499589754
 20
-28.2044654111
 11
0.984808742
 21
-28.1836796107
  0
LWPOLYLINE
  5
368
100
AcDbEntity
  8
0
100
AcDbPolyline
 62
253
  6
CONTINUOUS
 90
3
 70
0
 10
1.1617651579
 20
-29.9293181876
 10
1.3502270942
 20
-29.9130372634
 10
1.5262993712
 20
-29.8966722819
  0
LINE
  5
369
100
AcDbEntity
  8
0
100
AcDbLine
 62
7
  6
CONTINUOUS
 10
0.9331527421
 20
-29.687898653
 11
0.6922532683
 21
-29.7091477018
  0
LINE
  5
36A
100
AcDbEntity
  8
0
100
AcDbLine
 62
7
  6
CONTINUOUS
 10
-0.7700812998
 20
-27.8280770522
 11
-0.9787385476
 21
-27.8462801023
  0
LINE
  5
36B
100
AcDbEntity
  8
0
100
AcDbLine
 62
7
  6
CONTINUOUS
 10
-0.7432087194
 20
-29.8257763283
 11
-0.9877987445
 21
-29.8470686717
  0
LWPOLYLINE
  5
36C
100
AcDbEntity
  8
0
100
AcDbPolyline
 62
253
  6
CONTINUOUS
 90
4
 70
0
 10
1.0936118834
 20
-28.9349741019
 10
1.2961053706
 20
-28.9178443766
 10
1.4852930057
 20
-28.9006169171
 10
1.6596894162
 20
-28.8832577403
  0
LWPOLYLINE
  5
36D
100
AcDbEntity
  8
0
100
AcDbPolyline
 62
253
  6
CONTINUOUS
 90
4
 70
0
 10
1.0864980834
 20
-27.9355652844
 10
1.2911763643
 20
-27.9182872155
 10
1.4825377734
 20
-27.9008968075
 10
1.6583658313
 20
-27.8834078447
  0
LINE
  5
36E
100
AcDbEntity
  8
0
100
AcDbLine
 62
7
  6
CONTINUOUS
 10
0.8265084796
 20
-28.69747878
 11
0.4975385784
 21
-28.7255442357
  0
LINE
  5
36F
100
AcDbEntity
  8
0
100
AcDbLine
 62
7
  6
CONTINUOUS
 10
-0.8771699438
 20
-28.3376161833
 11
-0.5894309243
 21
-28.3130966953
  0
LINE
  5
370
100
AcDbEntity
  8
0
100
AcDbLine
 62
7
  6
CONTINUOUS
 10
0.5264405094
 20
-30.2232587016
 11
0.8545009983
 21
-30.1953441499
  0
LINE
  5
371
100
AcDbEntity
  8
0
100
AcDbLine
 62
7
  6
CONTINUOUS
 10
0.8132478988
 20
-27.6986617683
 11
0.4835827072
 21
-27.7267117185
  0
LINE
  5
372
100
AcDbEntity
  8
0
100
AcDbLine
 62
7
  6
CONTINUOUS
 10
-0.8015956884
 20
-29.3310076037
 11
-0.424333429
 21
-29.2995728044
  0
LINE
  5
373
100
AcDbEntity
  8
0
100
AcDbLine
 62
7
  6
CONTINUOUS
 10
-0.7939056845
 20
-30.330331766
 11
-0.4141889776
 21
-30.2987364478
  0
LINE
  5
374
100
AcDbEntity
  8
0
100
AcDbLine
 62
7
  6
CONTINUOUS
 10
0.3413270911
 20
-29.2383931452
 11
0.7615072281
 21
-29.2034570021
  0
LINE
  5
375
100
AcDbEntity
  8
0
100
AcDbLine
 62
7
  6
CONTINUOUS
 10
-0.4518791373
 20
-28.8017509015
 11
-0.8341517669
 21
-28.8335519852
  0
LINE
  5
376
100
AcDbEntity
  8
0
100
AcDbLine
 62
7
  6
CONTINUOUS
 10
0.3295320415
 20
-28.2393572451
 11
0.7499589754
 21
-28.2044654111
  0
LINE
  5
377
100
AcDbEntity
  8
0
100
AcDbLine
 62
7
  6
CONTINUOUS
 10
0.6922532683
 20
-29.7091477018
 11
0.2529808947
 21
-29.7454634622
  0
LINE
  5
378
100
AcDbEntity
  8
0
100
AcDbLine
 62
7
  6
CONTINUOUS
 10
-0.2965595583
 20
-27.789281061
 11
-0.7700812998
 21
-27.8280770522
  0
LINE
  5
379
100
AcDbEntity
  8
0
100
AcDbLine
 62
7
  6
CONTINUOUS
 10
-0.4141889776
 20
-30.2987364478
 11
0.5264405094
 21
-30.2232587016
  0
LINE
  5
37A
100
AcDbEntity
  8
0
100
AcDbLine
 62
7
  6
CONTINUOUS
 10
-0.1155123102
 20
-29.7748407613
 11
-0.7432087194
 21
-29.8257763283
  0
LINE
  5
37B
100
AcDbEntity
  8
0
100
AcDbLine
 62
7
  6
CONTINUOUS
 10
0.2529808947
 20
-29.7454634622
 11
-0.1155123102
 21
-29.7748407613
  0
LINE
  5
37C
100
AcDbEntity
  8
0
100
AcDbLine
 62
7
  6
CONTINUOUS
 10
-0.424333429
 20
-29.2995728044
 11
0.3413270911
 21
-29.2383931452
  0
LINE
  5
37D
100
AcDbEntity
  8
0
100
AcDbLine
 62
7
  6
CONTINUOUS
 10
0.4975385784
 20
-28.7255442357
 11
-0.4518791373
 21
-28.8017509015
  0
LINE
  5
37E
100
AcDbEntity
  8
0
100
AcDbLine
 62
7
  6
CONTINUOUS
 10
-0.5894309243
 20
-28.3130966953
 11
0.3295320415
 21
-28.2393572451
  0
LINE
  5
37F
100
AcDbEntity
  8
0
100
AcDbLine
 62
7
  6
CONTINUOUS
 10
0.4835827072
 20
-27.7267117185
 11
-0.2965595583
 21
-27.789281061
  0
LINE
  5
380
100
AcDbEntity
  8
0
100
AcDbLine
 62
253
  6
CONTINUOUS
 10
0.7547646384
 20
-29.9616010734
 11
1.1617651579
 21
-29.9293181876
  0
LINE
  5
381
100
AcDbEntity
  8
0
100
AcDbLine
 62
253
  6
CONTINUOUS
 10
0.6573709082
 20
-28.9689391546
 11
1.0936118834
 21
-28.9349741019
  0
LINE
  5
382
100
AcDbEntity
  8
0
100
AcDbLine
 62
253
  6
CONTINUOUS
 10
0.6465595026
 20
-27.969760391
 11
1.0864980834
 21
-27.9355652844
  0
LINE
  5
383
100
AcDbEntity
  8
0
100
AcDbLine
 62
253
  6
CONTINUOUS
 10
-1.1621056984
 20
-30.1017315516
 11
-0.7712164429
 21
-30.0715074805
  0
LINE
  5
384
100
AcDbEntity
  8
0
100
AcDbLine
 62
253
  6
CONTINUOUS
 10
-1.1539517162
 20
-28.1010977574
 11
-0.7382821076
 21
-28.0690933674
  0
LINE
  5
385
100
AcDbEntity
  8
0
100
AcDbLine
 62
253
  6
CONTINUOUS
 10
-1.1438820459
 20
-29.1002661271
 11
-0.7256994081
 21
-29.068154409
  0
LWPOLYLINE
  5
386
100
AcDbEntity
  8
0
100
AcDbPolyline
 62
253
  6
CONTINUOUS
 90
3
 70
0
 10
-0.7712164429
 20
-30.0715074805
 10
-0.1243175138
 20
-30.0250644094
 10
0.7547646384
 20
-29.9616010734
  0
LINE
  5
387
100
AcDbEntity
  8
0
100
AcDbLine
 62
253
  6
CONTINUOUS
 10
-0.7256994081
 20
-29.068154409
 11
0.6573709082
 21
-28.9689391546
  0
LINE
  5
388
100
AcDbEntity
  8
0
100
AcDbLine
 62
253
  6
CONTINUOUS
 10
-0.7382821076
 20
-28.0690933674
 11
0.6465595026
 21
-27.969760391
  0
LINE
  5
389
100
AcDbEntity
  8
0
100
AcDbLine
 62
7
  6
CONTINUOUS
 10
52.8645825386
 20
-33.0
 11
52.6041674614
 21
-33.0
  0
LINE
  5
38A
100
AcDbEntity
  8
0
100
AcDbLine
 62
7
  6
CONTINUOUS
 10
51.6666674614
 20
-33.0
 11
51.40625
 21
-33.0
  0
LINE
  5
38B
100
AcDbEntity
  8
0
100
AcDbLine
 62
7
  6
CONTINUOUS
 10
50.9895825386
 20
-33.0
 11
50.7291674614
 21
-33.0
  0
LINE
  5
38C
100
AcDbEntity
  8
0
100
AcDbLine
 62
7
  6
CONTINUOUS
 10
50.15625
 20
-33.0
 11
49.84375
 21
-33.0
  0
LINE
  5
38D
100
AcDbEntity
  8
0
100
AcDbLine
 62
7
  6
CONTINUOUS
 10
48.90625
 20
-33.0
 11
48.6458325386
 21
-33.0
  0
LINE
  5
38E
100
AcDbEntity
  8
0
100
AcDbLine
 62
7
  6
CONTINUOUS
 10
48.0729174614
 20
-33.0
 11
47.8125
 21
-33.0
  0
LINE
  5
38F
100
AcDbEntity
  8
0
100
AcDbLine
 62
7
  6
CONTINUOUS
 10
47.2395825386
 20
-33.0
 11
46.9791674614
 21
-33.0
  0
LINE
  5
390
100
AcDbEntity
  8
0
100
AcDbLine
 62
7
  6
CONTINUOUS
 10
45.8854174614
 20
-33.0
 11
45.625
 21
-33.0
  0
LINE
  5
391
100
AcDbEntity
  8
0
100
AcDbLine
 62
7
  6
CONTINUOUS
 10
42.3958337307
 20
-33.0
 11
41.9270837307
 21
-33.0
  0
LINE
  5
392
100
AcDbEntity
  8
0
100
AcDbLine
 62
7
  6
CONTINUOUS
 10
38.1770837307
 20
-33.0
 11
37.9166662693
 21
-33.0
  0
LINE
  5
393
100
AcDbEntity
  8
0
100
AcDbLine
 62
7
  6
CONTINUOUS
 10
36.9791662693
 20
-33.0
 11
36.71875
 21
-33.0
  0
LINE
  5
394
100
AcDbEntity
  8
0
100
AcDbLine
 62
7
  6
CONTINUOUS
 10
36.3020837307
 20
-33.0
 11
36.0416662693
 21
-33.0
  0
LINE
  5
395
100
AcDbEntity
  8
0
100
AcDbLine
 62
7
  6
CONTINUOUS
 10
31.0416668653
 20
-33.0
 11
30.78125
 21
-33.0
  0
LINE
  5
396
100
AcDbEntity
  8
0
100
AcDbLine
 62
7
  6
CONTINUOUS
 10
30.3125
 20
-33.0
 11
30.0
 21
-33.0
  0
LINE
  5
397
100
AcDbEntity
  8
0
100
AcDbLine
 62
7
  6
CONTINUOUS
 10
28.9583334327
 20
-33.0
 11
28.6979165673
 21
-33.0
  0
LINE
  5
398
100
AcDbEntity
  8
0
100
AcDbLine
 62
7
  6
CONTINUOUS
 10
28.125
 20
-33.0
 11
27.8125
 21
-33.0
  0
LINE
  5
399
100
AcDbEntity
  8
0
100
AcDbLine
 62
7
  6
CONTINUOUS
 10
26.875
 20
-33.0
 11
26.5625
 21
-33.0
  0
LINE
  5
39A
100
AcDbEntity
  8
0
100
AcDbLine
 62
7
  6
CONTINUOUS
 10
25.8333332837
 20
-33.0
 11
25.4166666418
 21
-33.0
  0
LINE
  5
39B
100
AcDbEntity
  8
0
100
AcDbLine
 62
7
  6
CONTINUOUS
 10
24.6875
 20
-33.0
 11
24.375
 21
-33.0
  0
LINE
  5
39C
100
AcDbEntity
  8
0
100
AcDbLine
 62
7
  6
CONTINUOUS
 10
50.15625
 20
-32.7872340493
 11
49.84375
 21
-32.7872340493
  0
LINE
  5
39D
100
AcDbEntity
  8
0
100
AcDbLine
 62
7
  6
CONTINUOUS
 10
28.125
 20
-32.7872340493
 11
27.8125
 21
-32.7872340493
  0
LINE
  5
39E
100
AcDbEntity
  8
0
100
AcDbLine
 62
7
  6
CONTINUOUS
 10
30.3125
 20
-32.7340425476
 11
30.1041668653
 21
-32.7340425476
  0
LINE
  5
39F
100
AcDbEntity
  8
0
100
AcDbLine
 62
7
  6
CONTINUOUS
 10
41.9270837307
 20
-32.6808510646
 11
42.3958337307
 21
-32.6808510646
  0
LINE
  5
3A0
100
AcDbEntity
  8
0
100
AcDbLine
 62
7
  6
CONTINUOUS
 10
32.8645831346
 20
-32.4680850953
 11
33.125
 21
-32.4680850953
  0
LINE
  5
3A1
100
AcDbEntity
  8
0
100
AcDbLine
 62
7
  6
CONTINUOUS
 10
44.9479174614
 20
-32.4680850953
 11
45.2083325386
 21
-32.4680850953
  0
LINE
  5
3A2
100
AcDbEntity
  8
0
100
AcDbLine
 62
7
  6
CONTINUOUS
 10
45.2083325386
 20
-32.1489361972
 11
43.8020837307
 21
-32.1489361972
  0
LINE
  5
3A3
100
AcDbEntity
  8
0
100
AcDbLine
 62
7
  6
CONTINUOUS
 10
33.125
 20
-32.1489361972
 11
31.71875
 21
-32.1489361972
  0
LINE
  5
3A4
100
AcDbEntity
  8
0
100
AcDbLine
 62
7
  6
CONTINUOUS
 10
28.0208334327
 20
-32.0957447141
 11
28.59375
 21
-32.0957447141
  0
LINE
  5
3A5
100
AcDbEntity
  8
0
100
AcDbLine
 62
7
  6
CONTINUOUS
 10
50.0520825386
 20
-32.0957447141
 11
50.625
 21
-32.0957447141
  0
LINE
  5
3A6
100
AcDbEntity
  8
0
100
AcDbLine
 62
7
  6
CONTINUOUS
 10
44.9479174614
 20
-31.9361701906
 11
43.8541662693
 21
-31.9361701906
  0
LINE
  5
3A7
100
AcDbEntity
  8
0
100
AcDbLine
 62
7
  6
CONTINUOUS
 10
42.8125
 20
-31.9361701906
 11
42.34375
 21
-31.9361701906
  0
LINE
  5
3A8
100
AcDbEntity
  8
0
100
AcDbLine
 62
7
  6
CONTINUOUS
 10
32.8645831346
 20
-31.9361701906
 11
31.7708331346
 21
-31.9361701906
  0
LINE
  5
3A9
100
AcDbEntity
  8
0
100
AcDbLine
 62
7
  6
CONTINUOUS
 10
28.0208334327
 20
-31.8829787076
 11
28.59375
 21
-31.8829787076
  0
LINE
  5
3AA
100
AcDbEntity
  8
0
100
AcDbLine
 62
7
  6
CONTINUOUS
 10
50.0520825386
 20
-31.8829787076
 11
50.625
 21
-31.8829787076
  0
LINE
  5
3AB
100
AcDbEntity
  8
0
100
AcDbLine
 62
7
  6
CONTINUOUS
 10
49.5833325386
 20
-31.7234042585
 11
49.3229174614
 21
-31.7234042585
  0
LINE
  5
3AC
100
AcDbEntity
  8
0
100
AcDbLine
 62
7
  6
CONTINUOUS
 10
27.5520834327
 20
-31.7234042585
 11
27.2916665673
 21
-31.7234042585
  0
LINE
  5
3AD
100
AcDbEntity
  8
0
100
AcDbLine
 62
7
  6
CONTINUOUS
 10
42.34375
 20
-31.6170212925
 11
43.125
 21
-31.6170212925
  0
LINE
  5
3AE
100
AcDbEntity
  8
0
100
AcDbLine
 62
7
  6
CONTINUOUS
 10
30.0
 20
-31.5638298094
 11
30.3125
 21
-31.5638298094
  0
LINE
  5
3AF
100
AcDbEntity
  8
0
100
AcDbLine
 62
7
  6
CONTINUOUS
 10
50.2604174614
 20
-31.5106383264
 11
49.9479174614
 21
-31.5106383264
  0
LINE
  5
3B0
100
AcDbEntity
  8
0
100
AcDbLine
 62
7
  6
CONTINUOUS
 10
48.4375
 20
-31.5106383264
 11
48.28125
 21
-31.5106383264
  0
LINE
  5
3B1
100
AcDbEntity
  8
0
100
AcDbLine
 62
7
  6
CONTINUOUS
 10
47.6041674614
 20
-31.5106383264
 11
47.5
 21
-31.5106383264
  0
LINE
  5
3B2
100
AcDbEntity
  8
0
100
AcDbLine
 62
7
  6
CONTINUOUS
 10
28.2291665673
 20
-31.5106383264
 11
27.9166665673
 21
-31.5106383264
  0
LINE
  5
3B3
100
AcDbEntity
  8
0
100
AcDbLine
 62
7
  6
CONTINUOUS
 10
27.9166665673
 20
-31.2978723943
 11
28.2291665673
 21
-31.2978723943
  0
LINE
  5
3B4
100
AcDbEntity
  8
0
100
AcDbLine
 62
7
  6
CONTINUOUS
 10
30.0
 20
-31.2978723943
 11
30.3125
 21
-31.2978723943
  0
LINE
  5
3B5
100
AcDbEntity
  8
0
100
AcDbLine
 62
7
  6
CONTINUOUS
 10
36.0416662693
 20
-31.2978723943
 11
36.3020837307
 21
-31.2978723943
  0
LINE
  5
3B6
100
AcDbEntity
  8
0
100
AcDbLine
 62
7
  6
CONTINUOUS
 10
36.71875
 20
-31.2978723943
 11
36.9791662693
 21
-31.2978723943
  0
LINE
  5
3B7
100
AcDbEntity
  8
0
100
AcDbLine
 62
7
  6
CONTINUOUS
 10
37.4479162693
 20
-31.2978723943
 11
37.65625
 21
-31.2978723943
  0
LINE
  5
3B8
100
AcDbEntity
  8
0
100
AcDbLine
 62
7
  6
CONTINUOUS
 10
45.625
 20
-31.2978723943
 11
45.8854174614
 21
-31.2978723943
  0
LINE
  5
3B9
100
AcDbEntity
  8
0
100
AcDbLine
 62
7
  6
CONTINUOUS
 10
46.9791674614
 20
-31.2978723943
 11
47.2395825386
 21
-31.2978723943
  0
LINE
  5
3BA
100
AcDbEntity
  8
0
100
AcDbLine
 62
7
  6
CONTINUOUS
 10
47.5
 20
-31.2978723943
 11
47.7083325386
 21
-31.2978723943
  0
LINE
  5
3BB
100
AcDbEntity
  8
0
100
AcDbLine
 62
7
  6
CONTINUOUS
 10
48.3333325386
 20
-31.2978723943
 11
48.5416674614
 21
-31.2978723943
  0
LINE
  5
3BC
100
AcDbEntity
  8
0
100
AcDbLine
 62
7
  6
CONTINUOUS
 10
49.9479174614
 20
-31.2978723943
 11
50.2604174614
 21
-31.2978723943
  0
LINE
  5
3BD
100
AcDbEntity
  8
0
100
AcDbLine
 62
7
  6
CONTINUOUS
 10
51.40625
 20
-31.2978723943
 11
51.6666674614
 21
-31.2978723943
  0
LINE
  5
3BE
100
AcDbEntity
  8
0
100
AcDbLine
 62
7
  6
CONTINUOUS
 10
52.1354174614
 20
-31.2978723943
 11
52.34375
 21
-31.2978723943
  0
LINE
  5
3BF
100
AcDbEntity
  8
0
100
AcDbLine
 62
7
  6
CONTINUOUS
 10
53.28125
 20
-31.2978723943
 11
53.59375
 21
-31.2978723943
  0
LINE
  5
3C0
100
AcDbEntity
  8
0
100
AcDbLine
 62
7
  6
CONTINUOUS
 10
54.6354174614
 20
-31.2978723943
 11
54.9479174614
 21
-31.2978723943
  0
LINE
  5
3C1
100
AcDbEntity
  8
0
100
AcDbLine
 62
7
  6
CONTINUOUS
 10
43.125
 20
-31.1382979453
 11
42.8125
 21
-31.1382979453
  0
LINE
  5
3C2
100
AcDbEntity
  8
0
100
AcDbLine
 62
7
  6
CONTINUOUS
 10
42.3958337307
 20
-30.8191488981
 11
41.9270837307
 21
-30.8191488981
  0
LINE
  5
3C3
100
AcDbEntity
  8
0
100
AcDbLine
 62
7
  6
CONTINUOUS
 10
2.075
 20
-30.8
 11
-1.925
 21
-30.8
  0
LINE
  5
3C4
100
AcDbEntity
  8
0
100
AcDbLine
 62
7
  6
CONTINUOUS
 10
36.3020837307
 20
-30.7659574151
 11
36.0416662693
 21
-30.7659574151
  0
LINE
  5
3C5
100
AcDbEntity
  8
0
100
AcDbLine
 62
7
  6
CONTINUOUS
 10
24.375
 20
-30.5
 11
24.84375
 21
-30.5
  0
LINE
  5
3C6
100
AcDbEntity
  8
0
100
AcDbLine
 62
7
  6
CONTINUOUS
 10
26.40625
 20
-30.5
 11
26.875
 21
-30.5
  0
LINE
  5
3C7
100
AcDbEntity
  8
0
100
AcDbLine
 62
7
  6
CONTINUOUS
 10
30.78125
 20
-30.5
 11
31.0416668653
 21
-30.5
  0
LINE
  5
3C8
100
AcDbEntity
  8
0
100
AcDbLine
 62
7
  6
CONTINUOUS
 10
36.0416662693
 20
-30.5
 11
36.3020837307
 21
-30.5
  0
LINE
  5
3C9
100
AcDbEntity
  8
0
100
AcDbLine
 62
7
  6
CONTINUOUS
 10
41.9270837307
 20
-30.5
 11
42.3958337307
 21
-30.5
  0
LINE
  5
3CA
100
AcDbEntity
  8
0
100
AcDbLine
 62
7
  6
CONTINUOUS
 10
2.075
 20
-30.33
 11
1.075
 21
-30.33
  0
LINE
  5
3CB
100
AcDbEntity
  8
0
100
AcDbLine
 62
7
  6
CONTINUOUS
 10
-1.497213856
 20
-28.6
 11
-1.925
 21
-28.6
  0
LINE
  5
3CC
100
AcDbEntity
  8
0
100
AcDbLine
 62
7
  6
CONTINUOUS
 10
-0.4299786261
 20
-27.8
 11
-1.925
 21
-27.8
  0
LINE
  5
3CD
100
AcDbEntity
  8
0
100
AcDbLine
 62
7
  6
CONTINUOUS
 10
-0.6607777562
 20
-28.679903403
 11
0.2042217392
 21
-28.749388909
  0
LINE
  5
3CE
100
AcDbEntity
  8
0
100
AcDbLine
 62
7
  6
CONTINUOUS
 10
0.6242863129
 20
-28.2836486672
 11
0.2045264947
 21
-28.2493945877
  0
LINE
  5
3CF
100
AcDbEntity
  8
0
100
AcDbLine
 62
7
  6
CONTINUOUS
 10
0.656459062
 20
-29.286346114
 11
0.2045629786
 21
-29.2493806264
  0
LINE
  5
3D0
100
AcDbEntity
  8
0
100
AcDbLine
 62
7
  6
CONTINUOUS
 10
-0.7320172932
 20
-27.6739466283
 11
0.2042326086
 21
-27.74940042
  0
LINE
  5
3D1
100
AcDbEntity
  8
0
100
AcDbLine
 62
7
  6
CONTINUOUS
 10
-0.8693826023
 20
-29.6621571255
 11
-0.6804036335
 21
-29.6782403677
  0
LINE
  5
3D2
100
AcDbEntity
  8
0
100
AcDbLine
 62
7
  6
CONTINUOUS
 10
-0.8967161511
 20
-28.6597833112
 11
-0.6607777562
 21
-28.679903403
  0
LINE
  5
3D3
100
AcDbEntity
  8
0
100
AcDbLine
 62
7
  6
CONTINUOUS
 10
0.8790223684
 20
-28.3055889798
 11
0.6242863129
 21
-28.2836486672
  0
LINE
  5
3D4
100
AcDbEntity
  8
0
100
AcDbLine
 62
7
  6
CONTINUOUS
 10
0.9068357974
 20
-29.3080487633
 11
0.656459062
 21
-29.286346114
  0
LINE
  5
3D5
100
AcDbEntity
  8
0
100
AcDbLine
 62
7
  6
CONTINUOUS
 10
-0.9643966716
 20
-27.6538082624
 11
-0.7320172932
 21
-27.6739466283
  0
LINE
  5
3D6
100
AcDbEntity
  8
0
100
AcDbLine
 62
7
  6
CONTINUOUS
 10
1.039505099
 20
-28.3201507744
 11
0.8790223684
 21
-28.3055889798
  0
LINE
  5
3D7
100
AcDbEntity
  8
0
100
AcDbLine
 62
7
  6
CONTINUOUS
 10
-1.092360179
 20
-29.642096649
 11
-0.8693826023
 21
-29.6621571255
  0
LINE
  5
3D8
100
AcDbEntity
  8
0
100
AcDbLine
 62
7
  6
CONTINUOUS
 10
1.064047357
 20
-29.3224266345
 11
0.9068357974
 21
-29.3080487633
  0
LINE
  5
3D9
100
AcDbEntity
  8
0
100
AcDbLine
 62
7
  6
CONTINUOUS
 10
-1.1084244433
 20
-27.6406120068
 11
-0.9643966716
 21
-27.6538082624
  0
LINE
  5
3DA
100
AcDbEntity
  8
0
100
AcDbLine
 62
7
  6
CONTINUOUS
 10
-1.1143375881
 20
-28.6400429318
 11
-0.8967161511
 21
-28.6597833112
  0
LWPOLYLINE
  5
3DB
100
AcDbEntity
  8
0
100
AcDbPolyline
 62
253
  6
CONTINUOUS
 90
8
 70
0
 10
-0.5009181508
 20
-28.4374851613
 10
0.4669119058
 20
-28.5265306278
 10
0.6548410917
 20
-28.5446128834
 10
0.8351402175
 20
-28.5627671765
 10
1.0060304423
 20
-28.5810253042
 10
1.1655028538
 20
-28.5993942734
 10
1.3113259897
 20
-28.6178543759
 10
1.4415422933
 20
-28.6363715815
  0
LINE
  5
3DC
100
AcDbEntity
  8
0
100
AcDbLine
 62
7
  6
CONTINUOUS
 10
1.1906324974
 20
-28.3345876817
 11
1.039505099
 21
-28.3201507744
  0
LINE
  5
3DD
100
AcDbEntity
  8
0
100
AcDbLine
 62
7
  6
CONTINUOUS
 10
-1.2282092132
 20
-29.6290299632
 11
-1.092360179
 21
-29.642096649
  0
LINE
  5
3DE
100
AcDbEntity
  8
0
100
AcDbLine
 62
7
  6
CONTINUOUS
 10
1.2118179411
 20
-29.3366699676
 11
1.064047357
 21
-29.3224266345
  0
LINE
  5
3DF
100
AcDbEntity
  8
0
100
AcDbLine
 62
7
  6
CONTINUOUS
 10
-1.2419424082
 20
-27.6276820211
 11
-1.1084244433
 21
-27.6406120068
  0
LINE
  5
3E0
100
AcDbEntity
  8
0
100
AcDbLine
 62
7
  6
CONTINUOUS
 10
-1.2467555663
 20
-28.6271926214
 11
-1.1143375881
 21
-28.6400429318
  0
LWPOLYLINE
  5
3E1
100
AcDbEntity
  8
0
100
AcDbPolyline
 62
253
  6
CONTINUOUS
 90
6
 70
0
 10
0.6972791117
 20
-29.548862852
 10
0.8424123671
 20
-29.5635038195
 10
1.0127713276
 20
-29.5817598694
 10
1.1717013206
 20
-29.6001343727
 10
1.3172375854
 20
-29.6186296327
 10
1.4413257923
 20
-29.6363759193
  0
LINE
  5
3E2
100
AcDbEntity
  8
0
100
AcDbLine
 62
7
  6
CONTINUOUS
 10
1.3312556422
 20
-28.3488597005
 11
1.1906324974
 21
-28.3345876817
  0
LINE
  5
3E3
100
AcDbEntity
  8
0
100
AcDbLine
 62
7
  6
CONTINUOUS
 10
1.3493083506
 20
-29.3507565134
 11
1.2118179411
 21
-29.3366699676
  0
LINE
  5
3E4
100
AcDbEntity
  8
0
100
AcDbLine
 62
7
  6
CONTINUOUS
 10
-1.3648553413
 20
-27.6149702351
 11
-1.2419424082
 21
-27.6276820211
  0
LINE
  5
3E5
100
AcDbEntity
  8
0
100
AcDbLine
 62
7
  6
CONTINUOUS
 10
-1.3686525719
 20
-28.6145523029
 11
-1.2467555663
 21
-28.6271926214
  0
LWPOLYLINE
  5
3E6
100
AcDbEntity
  8
0
100
AcDbPolyline
 62
7
  6
CONTINUOUS
 90
3
 70
0
 10
-1.4114962866
 20
-29.6098516919
 10
-1.3531773432
 20
-29.6161913435
 10
-1.2282092132
 20
-29.6290299632
  0
LWPOLYLINE
  5
3E7
100
AcDbEntity
  8
0
100
AcDbPolyline
 62
7
  6
CONTINUOUS
 90
4
 70
0
 10
-1.5285747351
 20
-27.5962681482
 10
-1.4768049922
 20
-27.602456823
 10
-1.4222326994
 20
-27.6086886586
 10
-1.3648553413
 20
-27.6149702351
  0
LWPOLYLINE
  5
3E8
100
AcDbEntity
  8
0
100
AcDbPolyline
 62
7
  6
CONTINUOUS
 90
4
 70
0
 10
-1.5310511115
 20
-28.5959440211
 10
-1.4796764268
 20
-28.6021021635
 10
-1.4255504197
 20
-28.608302928
 10
-1.3686525719
 20
-28.6145523029
  0
LWPOLYLINE
  5
3E9
100
AcDbEntity
  8
0
100
AcDbPolyline
 62
7
  6
CONTINUOUS
 90
4
 70
0
 10
1.5788228235
 20
-28.3769068111
 10
1.5211933918
 20
-28.3699514438
 10
1.4607060985
 20
-28.362958539
 10
1.3312556422
 20
-28.3488597005
  0
LWPOLYLINE
  5
3EA
100
AcDbEntity
  8
0
100
AcDbPolyline
 62
7
  6
CONTINUOUS
 90
4
 70
0
 10
1.5916404337
 20
-29.3784764306
 10
1.5352164449
 20
-29.3715966904
 10
1.4759871806
 20
-29.3646835921
 10
1.3493083506
 20
-29.3507565134
  0
LINE
  5
3EB
100
AcDbEntity
  8
0
100
AcDbLine
 62
7
  6
CONTINUOUS
 10
1.6452264551
 20
-29.3853212576
 11
1.5916404337
 21
-29.3784764306
  0
LWPOLYLINE
  5
3EC
100
AcDbEntity
  8
0
100
AcDbPolyline
 62
253
  6
CONTINUOUS
 90
6
 70
0
 10
-1.1793940905
 20
-29.3657334271
 10
-1.1561086465
 20
-29.368763097
 10
-1.008632428
 20
-29.3860078382
 10
-0.8472295061
 20
-29.4033558812
 10
-0.6740482485
 20
-29.420811642
 10
-0.3914088292
 20
-29.4476757285
  0
LWPOLYLINE
  5
3ED
100
AcDbEntity
  8
0
100
AcDbPolyline
 62
253
  6
CONTINUOUS
 90
6
 70
0
 10
-1.179450323
 20
-28.3657579955
 10
-1.1588583226
 20
-28.3684431037
 10
-1.0127310853
 20
-28.3855583743
 10
-0.8531276447
 20
-28.4027537511
 10
-0.6818697521
 20
-28.420058248
 10
-0.5009181508
 20
-28.4374851613
  0
LWPOLYLINE
  5
3EE
100
AcDbEntity
  8
0
100
AcDbPolyline
 62
7
  6
CONTINUOUS
 90
3
 70
0
 10
1.6854234506
 20
-28.3907029195
 10
1.6335698117
 20
-28.3838238639
 10
1.5788228235
 20
-28.3769068111
  0
LWPOLYLINE
  5
3EF
100
AcDbEntity
  8
0
100
AcDbPolyline
 62
7
  6
CONTINUOUS
 90
11
 70
0
 10
-1.8987892516
 20
-28.5350188175
 10
-1.8723866082
 20
-28.5414288593
 10
-1.8441463897
 20
-28.5476421642
 10
-1.8137149687
 20
-28.5537558242
 10
-1.7812148482
 20
-28.5597595718
 10
-1.746237411
 20
-28.5657405268
 10
-1.7086356712
 20
-28.5717282221
 10
-1.6684098619
 20
-28.5777262061
 10
-1.6254424594
 20
-28.5837550561
 10
-1.5796576072
 20
-28.5898269596
 10
-1.5310511115
 20
-28.5959440211
  0
LWPOLYLINE
  5
3F0
100
AcDbEntity
  8
0
100
AcDbPolyline
 62
7
  6
CONTINUOUS
 90
12
 70
0
 10
2.0640529904
 20
-29.4620311215
 10
2.0366454553
 20
-29.4542805948
 10
2.0076189755
 20
-29.4468884208
 10
1.9766777806
 20
-29.4397314861
 10
1.9439659573
 20
-29.4328036653
 10
1.9089552912
 20
-29.4259636756
 10
1.8715055951
 20
-29.4191722342
 10
1.8316481966
 20
-29.4124253929
 10
1.7891474622
 20
-29.4056771315
 10
1.7439215289
 20
-29.3989127872
 10
1.6959730229
 20
-29.3921314127
 10
1.6452264551
 20
-29.3853212576
  0
LWPOLYLINE
  5
3F1
100
AcDbEntity
  8
0
100
AcDbPolyline
 62
7
  6
CONTINUOUS
 90
15
 70
0
 10
-1.925
 20
-29.5278566478
 10
-1.9218039569
 20
-29.5288202643
 10
-1.8957163968
 20
-29.5357832317
 10
-1.8688912246
 20
-29.5422069708
 10
-1.8401517562
 20
-29.5484486844
 10
-1.8091405513
 20
-29.5546042845
 10
-1.775987873
 20
-29.5606615402
 10
-1.7402767839
 20
-29.5667053728
 10
-1.7018247705
 20
-29.5727655381
 10
-1.6606154174
 20
-29.5788433856
 10
-1.6165589712
 20
-29.5849547046
 10
-1.569593262
 20
-29.5911109296
 10
-1.5197156211
 20
-29.5973152442
 10
-1.4670019133
 20
-29.6035622002
 10
-1.4114962866
 20
-29.6098516919
  0
LINE
  5
3F2
100
AcDbEntity
  8
0
100
AcDbLine
 62
7
  6
CONTINUOUS
 10
-41.9739361525
 20
24.9748678703
 11
-42.0164893389
 21
25.0998678703
  0
LINE
  5
3F3
100
AcDbEntity
  8
0
100
AcDbLine
 62
7
  6
CONTINUOUS
 10
-42.6122340679
 20
28.4332013626
 11
-42.5696808815
 21
28.3082013626
  0
LINE
  5
3F4
100
AcDbEntity
  8
0
100
AcDbLine
 62
7
  6
CONTINUOUS
 10
-42.6122340679
 20
30.2665348549
 11
-42.5696808815
 21
30.1415348549
  0
LINE
  5
3F5
100
AcDbEntity
  8
0
100
AcDbLine
 62
7
  6
CONTINUOUS
 10
-41.8888297796
 20
28.4332013626
 11
-41.8462765932
 21
28.3082013626
  0
LINE
  5
3F6
100
AcDbEntity
  8
0
100
AcDbLine
 62
7
  6
CONTINUOUS
 10
-41.8888297796
 20
30.2665348549
 11
-41.8462765932
 21
30.1415348549
  0
LINE
  5
3F7
100
AcDbEntity
  8
0
100
AcDbLine
 62
7
  6
CONTINUOUS
 10
-41.0377659619
 20
28.7248678703
 11
-41.0803191483
 21
28.8498678703
  0
LINE
  5
3F8
100
AcDbEntity
  8
0
100
AcDbLine
 62
7
  6
CONTINUOUS
 10
-41.0377659619
 20
30.5582008857
 11
-41.0803191483
 21
30.6832008857
  0
LINE
  5
3F9
100
AcDbEntity
  8
0
100
AcDbLine
 62
7
  6
CONTINUOUS
 10
-41.9739361525
 20
35.2665348549
 11
-42.0164893389
 21
35.3915348549
  0
LINE
  5
3FA
100
AcDbEntity
  8
0
100
AcDbLine
 62
7
  6
CONTINUOUS
 10
-27.425
 20
15.1
 11
-27.425
 21
19.8
  0
LWPOLYLINE
  5
3FB
100
AcDbEntity
  8
0
100
AcDbPolyline
 62
7
  6
CONTINUOUS
 90
9
 70
0
 10
-1.7565706659
 20
-24.4419361283
 10
-1.7378912
 20
-24.437950696
 10
-1.7163966554
 20
-24.4337298343
 10
-1.69217208
 20
-24.4293195855
 10
-1.6650828421
 20
-24.4247203134
 10
-1.6354279929
 20
-24.4200005675
 10
-1.6032475461
 20
-24.415176402
 10
-1.5684924544
 20
-24.4102486455
 10
-1.5313435927
 20
-24.4052483464
  0
LWPOLYLINE
  5
3FC
100
AcDbEntity
  8
0
100
AcDbPolyline
 62
7
  6
CONTINUOUS
 90
15
 70
0
 10
1.8629036752
 20
-23.081176858
 10
1.9021344734
 20
-23.0741559141
 10
1.9389073957
 20
-23.0670520982
 10
1.9732388934
 20
-23.059848953
 10
2.0050744997
 20
-23.0525465469
 10
2.0347206361
 20
-23.045058341
 10
2.0629040011
 20
-23.0371475979
 10
2.089358455
 20
-23.0288116163
 10
2.1146506069
 20
-23.0197702653
 10
2.1407704753
 20
-23.0090007659
 10
2.1677332797
 20
-22.995879396
 10
2.1951791446
 20
-22.9797497755
 10
2.224129269
 20
-22.9585943994
 10
2.2544733031
 20
-22.9296707373
 10
2.275
 20
-22.9039940515
  0
LINE
  5
3FD
100
AcDbEntity
  8
0
100
AcDbLine
 62
253
  6
CONTINUOUS
 10
-1.8083843987
 20
-24.1694510514
 11
-1.9262565322
 21
-24.1896403869
  0
LWPOLYLINE
  5
3FE
100
AcDbEntity
  8
0
100
AcDbPolyline
 62
253
  6
CONTINUOUS
 90
3
 70
0
 10
2.131600716
 20
-22.8206381548
 10
2.025816912
 20
-22.8382699951
 10
1.8989111632
 20
-22.855826499
  0
LWPOLYLINE
  5
3FF
100
AcDbEntity
  8
0
100
AcDbPolyline
 62
7
  6
CONTINUOUS
 90
16
 70
0
 10
-1.7048930192
 20
-22.9265566506
 10
-1.7428758743
 20
-22.9325668889
 10
-1.7783085346
 20
-22.9385846963
 10
-1.8111793244
 20
-22.9446127399
 10
-1.8416815757
 20
-22.9506926572
 10
-1.8703590091
 20
-22.956952994
 10
-1.8970099173
 20
-22.9633755856
 10
-1.9220856212
 20
-22.9701031532
 10
-1.9471354693
 20
-22.9776815152
 10
-1.9719260892
 20
-22.9862826451
 10
-1.99670051
 20
-22.9963071866
 10
-2.0236730684
 20
-23.0093481831
 10
-2.0537233394
 20
-23.0273644516
 10
-2.084491825
 20
-23.0511310253
 10
-2.1132197355
 20
-23.0807666351
 10
-2.125
 20
-23.0976493344
  0
LWPOLYLINE
  5
400
100
AcDbEntity
  8
0
100
AcDbPolyline
 62
253
  6
CONTINUOUS
 90
4
 70
0
 10
2.075
 20
-24.8304888256
 10
1.9583517159
 20
-24.8479259878
 10
1.8215428192
 20
-24.8653263098
 10
1.6657630277
 20
-24.8826784579
  0
LWPOLYLINE
  5
401
100
AcDbEntity
  8
0
100
AcDbPolyline
 62
253
  6
CONTINUOUS
 90
4
 70
0
 10
2.075
 20
-25.8304890034
 10
1.9574894411
 20
-25.8480327595
 10
1.8197204981
 20
-25.8655207293
 10
1.6631410843
 20
-25.8829422008
  0
LWPOLYLINE
  5
402
100
AcDbEntity
  8
0
100
AcDbPolyline
 62
253
  6
CONTINUOUS
 90
5
 70
0
 10
-1.8489929351
 20
-23.1687538067
 10
-1.9593770468
 20
-23.1841846811
 10
-2.047946332
 20
-23.1995738131
 10
-2.1136353251
 20
-23.214930341
 10
-2.125
 20
-23.2190547797
  0
LWPOLYLINE
  5
403
100
AcDbEntity
  8
0
100
AcDbPolyline
 62
7
  6
CONTINUOUS
 90
6
 70
0
 10
1.6563109723
 20
-26.6090462335
 10
1.6114271362
 20
-26.6152550214
 10
1.5636063093
 20
-26.6215464225
 10
1.5128749278
 20
-26.6279140023
 10
1.4592322786
 20
-26.6343556329
 10
1.4026903295
 20
-26.6408682109
  0
LWPOLYLINE
  5
404
100
AcDbEntity
  8
0
100
AcDbPolyline
 62
7
  6
CONTINUOUS
 90
5
 70
0
 10
1.6510665538
 20
-24.6098228013
 10
1.6092251532
 20
-24.6155877545
 10
1.5648526377
 20
-24.6214214967
 10
1.5179500562
 20
-24.6273210644
 10
1.4686036916
 20
-24.633276088
  0
LWPOLYLINE
  5
405
100
AcDbEntity
  8
0
100
AcDbPolyline
 62
7
  6
CONTINUOUS
 90
4
 70
0
 10
1.6467390614
 20
-23.6104492688
 10
1.6071678301
 20
-23.615875679
 10
1.5653799347
 20
-23.6213607067
 10
1.5213981887
 20
-23.6269011262
  0
LWPOLYLINE
  5
406
100
AcDbEntity
  8
0
100
AcDbPolyline
 62
253
  6
CONTINUOUS
 90
4
 70
0
 10
-1.925
 20
-27.1789941264
 10
-1.8074894416
 20
-27.1635310622
 10
-1.669720499
 20
-27.1479889923
 10
-1.5131410855
 20
-27.1323572047
  0
LWPOLYLINE
  5
407
100
AcDbEntity
  8
0
100
AcDbPolyline
 62
7
  6
CONTINUOUS
 90
4
 70
0
 10
-1.5313435927
 20
-24.4052483464
 10
-1.4918601162
 20
-24.4001855916
 10
-1.4500139745
 20
-24.3950573934
 10
-1.4058700861
 20
-24.3898701046
  0
LWPOLYLINE
  5
408
100
AcDbEntity
  8
0
100
AcDbPolyline
 62
7
  6
CONTINUOUS
 90
20
 70
0
 10
-1.5278516074
 20
-23.9024968412
 10
-1.5710780917
 20
-23.9079028659
 10
-1.6122535864
 20
-23.9132965854
 10
-1.6512890876
 20
-23.9186688125
 10
-1.6882998806
 20
-23.9240380867
 10
-1.7236377248
 20
-23.9294638771
 10
-1.7574058257
 20
-23.9349782266
 10
-1.7894333312
 20
-23.9405715092
 10
-1.8197022518
 20
-23.9462588145
 10
-1.8482186784
 20
-23.9520621331
 10
-1.8750483142
 20
-23.9580199901
 10
-1.9004413986
 20
-23.9642252737
 10
-1.9242904584
 20
-23.9706965892
 10
-1.9469721227
 20
-23.9775909865
 10
-1.9696008606
 20
-23.9853857288
 10
-1.9919761981
 20
-23.9942389609
 10
-2.0144466882
 20
-24.0045834505
 10
-2.0387846958
 20
-24.017877863
 10
-2.0652545255
 20
-24.0355507791
 10
-2.0922042614
 20
-24.0582790754
  0
LWPOLYLINE
  5
409
100
AcDbEntity
  8
0
100
AcDbPolyline
 62
7
  6
CONTINUOUS
 90
3
 70
0
 10
-1.494690947
 20
-23.4005610035
 10
-1.4497649119
 20
-23.3950432792
 10
-1.402019989
 20
-23.389438238
  0
LWPOLYLINE
  5
40A
100
AcDbEntity
  8
0
100
AcDbPolyline
 62
7
  6
CONTINUOUS
 90
15
 70
0
 10
1.522996258
 20
-27.1286405103
 10
1.5778689997
 20
-27.1220156069
 10
1.6302480517
 20
-27.1154090473
 10
1.6801105543
 20
-27.1088203695
 10
1.7274680251
 20
-27.1022446154
 10
1.7724124292
 20
-27.0956642459
 10
1.8148721407
 20
-27.0890844081
 10
1.8549312623
 20
-27.082486156
 10
1.8929121511
 20
-27.0758033444
 10
1.9289037979
 20
-27.0689973436
 10
1.9627860619
 20
-27.0620667902
 10
1.9946590349
 20
-27.0549678428
 10
2.0244837601
 20
-27.0476822617
 10
2.0524872047
 20
-27.0401199941
 10
2.075
 20
-27.0333984385
  0
LWPOLYLINE
  5
40B
100
AcDbEntity
  8
0
100
AcDbPolyline
 62
7
  6
CONTINUOUS
 90
15
 70
0
 10
1.5211384161
 20
-25.1288884479
 10
1.5752157588
 20
-25.1223760861
 10
1.6272118676
 20
-25.1158364961
 10
1.6771806651
 20
-25.1092516875
 10
1.7249590484
 20
-25.1026331375
 10
1.7704733242
 20
-25.0959818523
 10
1.8137769269
 20
-25.0892793302
 10
1.8547699429
 20
-25.0825291216
 10
1.8932564322
 20
-25.0757546114
 10
1.9292296042
 20
-25.0689513246
 10
1.9628203406
 20
-25.0620872009
 10
1.9941969504
 20
-25.0551146715
 10
2.0233268959
 20
-25.0480259045
 10
2.0505112057
 20
-25.0407298856
 10
2.075
 20
-25.0334442575
  0
LWPOLYLINE
  5
40C
100
AcDbEntity
  8
0
100
AcDbPolyline
 62
7
  6
CONTINUOUS
 90
14
 70
0
 10
-1.4854443722
 20
-27.8973588701
 10
-1.5307970543
 20
-27.9028086723
 10
-1.5741558219
 20
-27.9082502902
 10
-1.6154515908
 20
-27.9136795229
 10
-1.6547400244
 20
-27.9191084382
 10
-1.6923435452
 20
-27.9245911138
 10
-1.7283881414
 20
-27.9301628934
 10
-1.7626425363
 20
-27.935807014
 10
-1.7949476463
 20
-27.9415135106
 10
-1.8252916789
 20
-27.9472957759
 10
-1.8537581035
 20
-27.9531882638
 10
-1.8805133948
 20
-27.9592510781
 10
-1.9054728143
 20
-27.9654894703
 10
-1.925
 20
-27.9708626274
  0
LWPOLYLINE
  5
40D
100
AcDbEntity
  8
0
100
AcDbPolyline
 62
7
  6
CONTINUOUS
 90
15
 70
0
 10
1.5134374789
 20
-26.1297815871
 10
1.5693343637
 20
-26.1230796842
 10
1.6226693725
 20
-26.1163985218
 10
1.6734218517
 20
-26.1097375215
 10
1.7216031968
 20
-26.103091957
 10
1.7672849295
 20
-26.0964476992
 10
1.8104455889
 20
-26.0898027659
 10
1.8511242944
 20
-26.0831454927
 10
1.8895079665
 20
-26.0764357074
 10
1.925538485
 20
-26.0696707906
 10
1.9593234549
 20
-26.0628170062
 10
1.9913408977
 20
-26.0557525879
 10
2.0216166727
 20
-26.0484293982
 10
2.0501956684
 20
-26.0407845077
 10
2.075
 20
-26.033412939
  0
LINE
  5
40E
100
AcDbEntity
  8
0
100
AcDbLine
 62
7
  6
CONTINUOUS
 10
-1.482510416
 20
-23.8970669171
 11
-1.5278516074
 21
-23.9024968412
  0
LWPOLYLINE
  5
40F
100
AcDbEntity
  8
0
100
AcDbPolyline
 62
7
  6
CONTINUOUS
 90
14
 70
0
 10
-1.4771727178
 20
-25.8964236626
 10
-1.5229162534
 20
-25.9018789472
 10
-1.5665570837
 20
-25.9073097683
 10
-1.6081645393
 20
-25.912729164
 10
-1.6476358728
 20
-25.9181280911
 10
-1.6850726652
 20
-25.9235250415
 10
-1.7208248215
 20
-25.9289810033
 10
-1.7550097558
 20
-25.9345329575
 10
-1.7874145344
 20
-25.9401674393
 10
-1.8179585148
 20
-25.9458869613
 10
-1.8466538213
 20
-25.9517094705
 10
-1.873603078
 20
-25.9576751884
 10
-1.8990530285
 20
-25.9638692503
 10
-1.925
 20
-25.9709035957
  0
LWPOLYLINE
  5
410
100
AcDbEntity
  8
0
100
AcDbPolyline
 62
253
  6
CONTINUOUS
 90
4
 70
0
 10
1.8989111632
 20
-22.855826499
 10
1.7524806011
 20
-22.8732946651
 10
1.5882967658
 20
-22.8906563609
 10
1.4083009413
 20
-22.907880923
  0
LINE
  5
411
100
AcDbEntity
  8
0
100
AcDbLine
 62
7
  6
CONTINUOUS
 10
1.5234350708
 20
-25.626626988
 11
1.4294200965
 21
-25.6378368313
  0
LWPOLYLINE
  5
412
100
AcDbEntity
  8
0
100
AcDbPolyline
 62
7
  6
CONTINUOUS
 90
15
 70
0
 10
1.4789652683
 20
-24.1337970485
 10
1.5381166679
 20
-24.126878194
 10
1.5945868743
 20
-24.1199805731
 10
1.6483363075
 20
-24.1131030005
 10
1.6993514328
 20
-24.1062410954
 10
1.7476290295
 20
-24.0993888185
 10
1.7931497222
 20
-24.0925444005
 10
1.8359753783
 20
-24.0856967609
 10
1.8762672785
 20
-24.0788157168
 10
1.913994475
 20
-24.0719002704
 10
1.9492856765
 20
-24.0649189356
 10
1.9825838274
 20
-24.0577626645
 10
2.0137803803
 20
-24.0504217699
 10
2.0430923621
 20
-24.0428042664
 10
2.0715286284
 20
-24.0345489303
  0
LINE
  5
413
100
AcDbEntity
  8
0
100
AcDbLine
 62
7
  6
CONTINUOUS
 10
1.5213981887
 20
-23.6269011262
 11
1.4269558054
 21
-23.6381365959
  0
LWPOLYLINE
  5
414
100
AcDbEntity
  8
0
100
AcDbPolyline
 62
7
  6
CONTINUOUS
 90
14
 70
0
 10
-1.4379033431
 20
-24.8919235675
 10
-1.490919582
 20
-24.8980515742
 10
-1.5411897522
 20
-24.904131993
 10
-1.5887000693
 20
-24.9101672261
 10
-1.6334753751
 20
-24.9161644231
 10
-1.6755003579
 20
-24.9221252065
 10
-1.714789214
 20
-24.9280523279
 10
-1.7514575203
 20
-24.9339616212
 10
-1.7857073837
 20
-24.9398869523
 10
-1.8175155585
 20
-24.945826682
 10
-1.8470997038
 20
-24.9518254164
 10
-1.8750669136
 20
-24.9580294071
 10
-1.9011726969
 20
-24.9644191342
 10
-1.925
 20
-24.9708999471
  0
LWPOLYLINE
  5
415
100
AcDbEntity
  8
0
100
AcDbPolyline
 62
7
  6
CONTINUOUS
 90
9
 70
0
 10
1.458169798
 20
-23.1361817323
 10
1.5179698345
 20
-23.1292821054
 10
1.5751177055
 20
-23.1224043074
 10
1.6295185668
 20
-23.1155556004
 10
1.68123232
 20
-23.1087242876
 10
1.7304326201
 20
-23.1018805467
 10
1.7771311258
 20
-23.095012807
 10
1.8212627101
 20
-23.0881198
 10
1.8629036752
 20
-23.081176858
  0
LWPOLYLINE
  5
416
100
AcDbEntity
  8
0
100
AcDbPolyline
 62
7
  6
CONTINUOUS
 90
7
 70
0
 10
-1.4185982741
 20
-22.88977294
 10
-1.4733244731
 20
-22.8960083403
 10
-1.5252453114
 20
-22.902198136
 10
-1.5743558299
 20
-22.9083446237
 10
-1.6206873104
 20
-22.9144545622
 10
-1.6641963282
 20
-22.9205244419
 10
-1.7048930192
 20
-22.9265566506
  0
LWPOLYLINE
  5
417
100
AcDbEntity
  8
0
100
AcDbPolyline
 62
7
  6
CONTINUOUS
 90
14
 70
0
 10
-1.4068086202
 20
-26.8884145153
 10
-1.4650745123
 20
-26.8950022152
 10
-1.5200876196
 20
-26.9015203871
 10
-1.5718852088
 20
-26.9079754431
 10
-1.620477045
 20
-26.9143701779
 10
-1.6658824697
 20
-26.9207078967
 10
-1.7081899755
 20
-26.9270015265
 10
-1.7475722795
 20
-26.933279336
 10
-1.7840282339
 20
-26.9395444588
 10
-1.8177518572
 20
-26.945831544
 10
-1.8492696099
 20
-26.9522502718
 10
-1.8785234661
 20
-26.9588109802
 10
-1.9058177874
 20
-26.9656111532
 10
-1.925
 20
-26.9708893754
  0
LINE
  5
418
100
AcDbEntity
  8
0
100
AcDbLine
 62
7
  6
CONTINUOUS
 10
1.4686036916
 20
-24.633276088
 11
1.3627468002
 21
-24.6453408702
  0
LINE
  5
419
100
AcDbEntity
  8
0
100
AcDbLine
 62
7
  6
CONTINUOUS
 10
1.4057013913
 20
-27.1419661147
 11
1.522996258
 21
-27.1286405103
  0
LINE
  5
41A
100
AcDbEntity
  8
0
100
AcDbLine
 62
7
  6
CONTINUOUS
 10
-1.4337158773
 20
-27.3930832973
 11
-1.3397434243
 21
-27.3824096086
  0
LINE
  5
41B
100
AcDbEntity
  8
0
100
AcDbLine
 62
7
  6
CONTINUOUS
 10
1.4639644119
 20
-22.6338467428
 11
1.3554231489
 21
-22.6461771139
  0
LWPOLYLINE
  5
41C
100
AcDbEntity
  8
0
100
AcDbPolyline
 62
253
  6
CONTINUOUS
 90
4
 70
0
 10
1.6634213973
 20
-26.8828979385
 10
1.8199524265
 20
-26.8654785345
 10
1.9576216269
 20
-26.8480006218
 10
2.075
 20
-26.8304749554
  0
LINE
  5
41D
100
AcDbEntity
  8
0
100
AcDbLine
 62
7
  6
CONTINUOUS
 10
1.4059694031
 20
-25.1419581854
 11
1.5211384161
 21
-25.1288884479
  0
LINE
  5
41E
100
AcDbEntity
  8
0
100
AcDbLine
 62
7
  6
CONTINUOUS
 10
-1.3882042545
 20
-27.8863554893
 11
-1.4854443722
 21
-27.8973588701
  0
LINE
  5
41F
100
AcDbEntity
  8
0
100
AcDbLine
 62
7
  6
CONTINUOUS
 10
-1.3855408245
 20
-23.8861226069
 11
-1.482510416
 21
-23.8970669171
  0
LINE
  5
420
100
AcDbEntity
  8
0
100
AcDbLine
 62
7
  6
CONTINUOUS
 10
1.3939640757
 20
-26.1432601042
 11
1.5134374789
 21
-26.1297815871
  0
LINE
  5
421
100
AcDbEntity
  8
0
100
AcDbLine
 62
7
  6
CONTINUOUS
 10
-1.3793805087
 20
-25.8854256096
 11
-1.4771727178
 21
-25.8964236626
  0
LINE
  5
422
100
AcDbEntity
  8
0
100
AcDbLine
 62
7
  6
CONTINUOUS
 10
-1.4136302386
 20
-25.390760671
 11
-1.3169636556
 21
-25.3799713882
  0
LINE
  5
423
100
AcDbEntity
  8
0
100
AcDbLine
 62
7
  6
CONTINUOUS
 10
1.4294200965
 20
-25.6378368313
 11
1.3267617864
 21
-25.6492500021
  0
LINE
  5
424
100
AcDbEntity
  8
0
100
AcDbLine
 62
7
  6
CONTINUOUS
 10
1.4269558054
 20
-23.6381365959
 11
1.3239358116
 21
-23.6495757268
  0
LINE
  5
425
100
AcDbEntity
  8
0
100
AcDbLine
 62
7
  6
CONTINUOUS
 10
-1.4058700861
 20
-24.3898701046
 11
-1.310869121
 21
-24.3793286898
  0
LINE
  5
426
100
AcDbEntity
  8
0
100
AcDbLine
 62
7
  6
CONTINUOUS
 10
1.3528990953
 20
-24.147691472
 11
1.4789652683
 21
-24.1337970485
  0
LINE
  5
427
100
AcDbEntity
  8
0
100
AcDbLine
 62
7
  6
CONTINUOUS
 10
-1.402019989
 20
-23.389438238
 11
-1.298195848
 21
-23.3779843895
  0
LINE
  5
428
100
AcDbEntity
  8
0
100
AcDbLine
 62
7
  6
CONTINUOUS
 10
-1.393078939
 20
-26.3883806913
 11
-1.294989184
 21
-26.3776042519
  0
LINE
  5
429
100
AcDbEntity
  8
0
100
AcDbLine
 62
7
  6
CONTINUOUS
 10
1.3308499801
 20
-23.1500395182
 11
1.458169798
 21
-23.1361817323
  0
LINE
  5
42A
100
AcDbEntity
  8
0
100
AcDbLine
 62
7
  6
CONTINUOUS
 10
1.4026903295
 20
-26.6408682109
 11
1.2810542261
 21
-26.654094233
  0
LINE
  5
42B
100
AcDbEntity
  8
0
100
AcDbLine
 62
7
  6
CONTINUOUS
 10
-1.324135991
 20
-24.8795602925
 11
-1.4379033431
 21
-24.8919235675
  0
LINE
  5
42C
100
AcDbEntity
  8
0
100
AcDbLine
 62
7
  6
CONTINUOUS
 10
-1.3014032826
 20
-22.8772189398
 11
-1.4185982741
 21
-22.88977294
  0
LINE
  5
42D
100
AcDbEntity
  8
0
100
AcDbLine
 62
7
  6
CONTINUOUS
 10
1.3627468002
 20
-24.6453408702
 11
1.247739206
 21
-24.657585566
  0
LINE
  5
42E
100
AcDbEntity
  8
0
100
AcDbLine
 62
7
  6
CONTINUOUS
 10
1.3554231489
 20
-22.6461771139
 11
1.2372936457
 21
-22.6586930613
  0
LINE
  5
42F
100
AcDbEntity
  8
0
100
AcDbLine
 62
7
  6
CONTINUOUS
 10
1.2817378968
 20
-25.1550983772
 11
1.4059694031
 21
-25.1419581854
  0
LINE
  5
430
100
AcDbEntity
  8
0
100
AcDbLine
 62
7
  6
CONTINUOUS
 10
1.2785443951
 20
-27.1554012199
 11
1.4057013913
 21
-27.1419661147
  0
LINE
  5
431
100
AcDbEntity
  8
0
100
AcDbLine
 62
7
  6
CONTINUOUS
 10
-1.3397434243
 20
-27.3824096086
 11
-1.2362173669
 21
-27.3714714088
  0
LINE
  5
432
100
AcDbEntity
  8
0
100
AcDbLine
 62
7
  6
CONTINUOUS
 10
-1.280634477
 20
-26.8750323722
 11
-1.4068086202
 21
-26.8884145153
  0
LINE
  5
433
100
AcDbEntity
  8
0
100
AcDbLine
 62
7
  6
CONTINUOUS
 10
-1.2802518628
 20
-23.8750406183
 11
-1.3855408245
 21
-23.8861226069
  0
LINE
  5
434
100
AcDbEntity
  8
0
100
AcDbLine
 62
7
  6
CONTINUOUS
 10
1.2645270471
 20
-26.1568440311
 11
1.3939640757
 21
-26.1432601042
  0
LINE
  5
435
100
AcDbEntity
  8
0
100
AcDbLine
 62
7
  6
CONTINUOUS
 10
-1.2732188074
 20
-25.8742918775
 11
-1.3793805087
 21
-25.8854256096
  0
LINE
  5
436
100
AcDbEntity
  8
0
100
AcDbLine
 62
7
  6
CONTINUOUS
 10
1.3267617864
 20
-25.6492500021
 11
1.2156314384
 21
-25.6608617669
  0
LINE
  5
437
100
AcDbEntity
  8
0
100
AcDbLine
 62
7
  6
CONTINUOUS
 10
1.3239358116
 20
-23.6495757268
 11
1.2124555178
 21
-23.6612137161
  0
LINE
  5
438
100
AcDbEntity
  8
0
100
AcDbLine
 62
7
  6
CONTINUOUS
 10
-1.3169636556
 20
-25.3799713882
 11
-1.2091408232
 21
-25.3687535422
  0
LINE
  5
439
100
AcDbEntity
  8
0
100
AcDbLine
 62
7
  6
CONTINUOUS
 10
-1.310869121
 20
-24.3793286898
 11
-1.2070405963
 21
-24.3685587232
  0
LINE
  5
43A
100
AcDbEntity
  8
0
100
AcDbLine
 62
7
  6
CONTINUOUS
 10
-1.294989184
 20
-26.3776042519
 11
-1.1874326561
 21
-26.3665648555
  0
LINE
  5
43B
100
AcDbEntity
  8
0
100
AcDbLine
 62
7
  6
CONTINUOUS
 10
1.2168973578
 20
-24.1616606755
 11
1.3528990953
 21
-24.147691472
  0
LINE
  5
43C
100
AcDbEntity
  8
0
100
AcDbLine
 62
7
  6
CONTINUOUS
 10
-1.298195848
 20
-23.3779843895
 11
-1.1834676746
 21
-23.3662131772
  0
LINE
  5
43D
100
AcDbEntity
  8
0
100
AcDbLine
 62
7
  6
CONTINUOUS
 10
1.2810542261
 20
-26.654094233
 11
1.1482865897
 21
-26.667583027
  0
LINE
  5
43E
100
AcDbEntity
  8
0
100
AcDbLine
 62
7
  6
CONTINUOUS
 10
1.1936453782
 20
-23.1639736802
 11
1.3308499801
 21
-23.1500395182
  0
LWPOLYLINE
  5
43F
100
AcDbEntity
  8
0
100
AcDbPolyline
 62
253
  6
CONTINUOUS
 90
4
 70
0
 10
-1.5134213976
 20
-26.1323985314
 10
-1.6699524267
 20
-26.1480281899
 10
-1.8076216269
 20
-26.1635611767
 10
-1.925
 20
-26.1790082471
  0
LWPOLYLINE
  5
440
100
AcDbEntity
  8
0
100
AcDbPolyline
 62
253
  6
CONTINUOUS
 90
4
 70
0
 10
1.6657630277
 20
-24.8826784579
 10
1.4925956242
 20
-24.8999752325
 10
1.303951717
 20
-24.9172056416
 10
1.101834289
 20
-24.93435389
  0
LWPOLYLINE
  5
441
100
AcDbEntity
  8
0
100
AcDbPolyline
 62
253
  6
CONTINUOUS
 90
4
 70
0
 10
1.6631410843
 20
-25.8829422008
 10
1.4893597343
 20
-25.9002756332
 10
1.3001645404
 20
-25.9175236921
 10
1.0972700139
 20
-25.9347117108
  0
LWPOLYLINE
  5
442
100
AcDbEntity
  8
0
100
AcDbPolyline
 62
253
  6
CONTINUOUS
 90
4
 70
0
 10
-1.5083658303
 20
-25.1319392515
 10
-1.6668606253
 20
-25.1477136151
 10
-1.8063040943
 20
-25.1634063357
 10
-1.925
 20
-25.1790275406
  0
LINE
  5
443
100
AcDbEntity
  8
0
100
AcDbLine
 62
7
  6
CONTINUOUS
 10
-1.2002160103
 20
-24.8670291969
 11
-1.324135991
 21
-24.8795602925
  0
LINE
  5
444
100
AcDbEntity
  8
0
100
AcDbLine
 62
253
  6
CONTINUOUS
 10
1.6565413761
 20
-23.8836514245
 11
1.4811839504
 21
-23.9010739807
  0
LINE
  5
445
100
AcDbEntity
  8
0
100
AcDbLine
 62
7
  6
CONTINUOUS
 10
1.247739206
 20
-24.657585566
 11
1.1240134894
 21
-24.6699926296
  0
LINE
  5
446
100
AcDbEntity
  8
0
100
AcDbLine
 62
7
  6
CONTINUOUS
 10
1.2372936457
 20
-22.6586930613
 11
1.1100469109
 21
-22.6713766839
  0
LINE
  5
447
100
AcDbEntity
  8
0
100
AcDbLine
 62
7
  6
CONTINUOUS
 10
-1.1741178505
 20
-22.8645195518
 11
-1.3014032826
 21
-22.8772189398
  0
LINE
  5
448
100
AcDbEntity
  8
0
100
AcDbLine
 62
7
  6
CONTINUOUS
 10
1.1487930361
 20
-25.1683226712
 11
1.2817378968
 21
-25.1550983772
  0
LINE
  5
449
100
AcDbEntity
  8
0
100
AcDbLine
 62
7
  6
CONTINUOUS
 10
1.1419320033
 20
-27.1689556854
 11
1.2785443951
 21
-27.1554012199
  0
LINE
  5
44A
100
AcDbEntity
  8
0
100
AcDbLine
 62
7
  6
CONTINUOUS
 10
-1.2362173669
 20
-27.3714714088
 11
-1.1232099803
 21
-27.3602590427
  0
LINE
  5
44B
100
AcDbEntity
  8
0
100
AcDbLine
 62
7
  6
CONTINUOUS
 10
1.2156314384
 20
-25.6608617669
 11
1.0961916323
 21
-25.6726758582
  0
LINE
  5
44C
100
AcDbEntity
  8
0
100
AcDbLine
 62
7
  6
CONTINUOUS
 10
-1.1668122106
 20
-23.8638010964
 11
-1.2802518628
 21
-23.8750406183
  0
LINE
  5
44D
100
AcDbEntity
  8
0
100
AcDbLine
 62
7
  6
CONTINUOUS
 10
1.2124555178
 20
-23.6612137161
 11
1.0925835439
 21
-23.6730548377
  0
LINE
  5
44E
100
AcDbEntity
  8
0
100
AcDbLine
 62
7
  6
CONTINUOUS
 10
-1.1588382821
 20
-25.8630049139
 11
-1.2732188074
 21
-25.8742918775
  0
LINE
  5
44F
100
AcDbEntity
  8
0
100
AcDbLine
 62
7
  6
CONTINUOUS
 10
1.1256568298
 20
-26.170534995
 11
1.2645270471
 21
-26.1568440311
  0
LINE
  5
450
100
AcDbEntity
  8
0
100
AcDbLine
 62
7
  6
CONTINUOUS
 10
-1.1420455234
 20
-26.8613839946
 11
-1.280634477
 21
-26.8750323722
  0
LINE
  5
451
100
AcDbEntity
  8
0
100
AcDbLine
 62
7
  6
CONTINUOUS
 10
-1.2070405963
 20
-24.3685587232
 11
-1.0945972109
 21
-24.3575566499
  0
LINE
  5
452
100
AcDbEntity
  8
0
100
AcDbLine
 62
7
  6
CONTINUOUS
 10
-1.2091408232
 20
-25.3687535422
 11
-1.0896881296
 21
-25.3570733093
  0
LINE
  5
453
100
AcDbEntity
  8
0
100
AcDbLine
 62
7
  6
CONTINUOUS
 10
-1.1874326561
 20
-26.3665648555
 11
-1.0706166711
 21
-26.3552581187
  0
LINE
  5
454
100
AcDbEntity
  8
0
100
AcDbLine
 62
7
  6
CONTINUOUS
 10
1.0716925379
 20
-24.175687384
 11
1.2168973578
 21
-24.1616606755
  0
LINE
  5
455
100
AcDbEntity
  8
0
100
AcDbLine
 62
7
  6
CONTINUOUS
 10
-1.1834676746
 20
-23.3662131772
 11
-1.0581784357
 21
-23.3541287257
  0
LWPOLYLINE
  5
456
100
AcDbEntity
  8
0
100
AcDbPolyline
 62
253
  6
CONTINUOUS
 90
4
 70
0
 10
-1.3384259089
 20
-24.115829596
 10
-1.512690465
 20
-24.1323595526
 10
-1.6700133697
 20
-24.1503604409
 10
-1.8083843987
 20
-24.1694510514
  0
LINE
  5
457
100
AcDbEntity
  8
0
100
AcDbLine
 62
7
  6
CONTINUOUS
 10
1.1482865897
 20
-26.667583027
 11
1.0048185025
 21
-26.6813267578
  0
LINE
  5
458
100
AcDbEntity
  8
0
100
AcDbLine
 62
7
  6
CONTINUOUS
 10
1.0474284331
 20
-23.1779678629
 11
1.1936453782
 21
-23.1639736802
  0
LINE
  5
459
100
AcDbEntity
  8
0
100
AcDbLine
 62
7
  6
CONTINUOUS
 10
1.1240134894
 20
-24.6699926296
 11
0.9919976844
 21
-24.6825520689
  0
LINE
  5
45A
100
AcDbEntity
  8
0
100
AcDbLine
 62
7
  6
CONTINUOUS
 10
-1.0662015567
 20
-24.8542874559
 11
-1.2002160103
 21
-24.8670291969
  0
LWPOLYLINE
  5
45B
100
AcDbEntity
  8
0
100
AcDbPolyline
 62
253
  6
CONTINUOUS
 90
4
 70
0
 10
-1.4004052378
 20
-23.1220603397
 10
-1.5681354579
 20
-23.1377067983
 10
-1.7181523163
 20
-23.1532677944
 10
-1.8489929351
 20
-23.1687538067
  0
LINE
  5
45C
100
AcDbEntity
  8
0
100
AcDbLine
 62
7
  6
CONTINUOUS
 10
1.1100469109
 20
-22.6713766839
 11
0.974279736
 21
-22.6842137195
  0
LINE
  5
45D
100
AcDbEntity
  8
0
100
AcDbLine
 62
7
  6
CONTINUOUS
 10
1.0074888103
 20
-25.1816455269
 11
1.1487930361
 21
-25.1683226712
  0
LINE
  5
45E
100
AcDbEntity
  8
0
100
AcDbLine
 62
7
  6
CONTINUOUS
 10
0.9963911725
 20
-27.1826333194
 11
1.1419320033
 21
-27.1689556854
  0
LINE
  5
45F
100
AcDbEntity
  8
0
100
AcDbLine
 62
7
  6
CONTINUOUS
 10
-1.1232099803
 20
-27.3602590427
 11
-1.0008656296
 21
-27.3487561928
  0
LINE
  5
460
100
AcDbEntity
  8
0
100
AcDbLine
 62
7
  6
CONTINUOUS
 10
-1.0365941776
 20
-22.8515934022
 11
-1.1741178505
 21
-22.8645195518
  0
LINE
  5
461
100
AcDbEntity
  8
0
100
AcDbLine
 62
7
  6
CONTINUOUS
 10
0.9780048016
 20
-26.1843295925
 11
1.1256568298
 21
-26.170534995
  0
LINE
  5
462
100
AcDbEntity
  8
0
100
AcDbLine
 62
7
  6
CONTINUOUS
 10
-0.9920560914
 20
-26.8474934558
 11
-1.1420455234
 21
-26.8613839946
  0
LINE
  5
463
100
AcDbEntity
  8
0
100
AcDbLine
 62
7
  6
CONTINUOUS
 10
-1.0896881296
 20
-25.3570733093
 11
-0.9576875776
 21
-25.3448473034
  0
LINE
  5
464
100
AcDbEntity
  8
0
100
AcDbLine
 62
7
  6
CONTINUOUS
 10
1.0961916323
 20
-25.6726758582
 11
0.9017780868
 21
-25.6907963221
  0
LINE
  5
465
100
AcDbEntity
  8
0
100
AcDbLine
 62
7
  6
CONTINUOUS
 10
1.0925835439
 20
-23.6730548377
 11
0.8973513771
 21
-23.6912193101
  0
LWPOLYLINE
  5
466
100
AcDbEntity
  8
0
100
AcDbPolyline
 62
253
  6
CONTINUOUS
 90
3
 70
0
 10
1.4811839504
 20
-23.9010739807
 10
1.2906772529
 20
-23.9183857964
 10
1.0868857651
 20
-23.9355890525
  0
LINE
  5
467
100
AcDbEntity
  8
0
100
AcDbLine
 62
7
  6
CONTINUOUS
 10
-0.9818441582
 20
-23.846609635
 11
-1.1668122106
 21
-23.8638010964
  0
LWPOLYLINE
  5
468
100
AcDbEntity
  8
0
100
AcDbPolyline
 62
253
  6
CONTINUOUS
 90
3
 70
0
 10
-1.5131410855
 20
-27.1323572047
 10
-1.3393597358
 20
-27.1166351889
 10
-1.150164542
 20
-27.1008045801
  0
LINE
  5
469
100
AcDbEntity
  8
0
100
AcDbLine
 62
7
  6
CONTINUOUS
 10
-0.9725962196
 20
-25.8457585257
 11
-1.1588382821
 21
-25.8630049139
  0
LINE
  5
46A
100
AcDbEntity
  8
0
100
AcDbLine
 62
7
  6
CONTINUOUS
 10
-1.0945972109
 20
-24.3575566499
 11
-0.9100925241
 21
-24.3405866514
  0
LINE
  5
46B
100
AcDbEntity
  8
0
100
AcDbLine
 62
7
  6
CONTINUOUS
 10
-1.0706166711
 20
-26.3552581187
 11
-0.8785119394
 21
-26.3377655716
  0
LINE
  5
46C
100
AcDbEntity
  8
0
100
AcDbLine
 62
7
  6
CONTINUOUS
 10
0.8387417763
 20
-24.1968050238
 11
1.0716925379
 21
-24.175687384
  0
LINE
  5
46D
100
AcDbEntity
  8
0
100
AcDbLine
 62
7
  6
CONTINUOUS
 10
-1.0581784357
 20
-23.3541287257
 11
-0.8512895972
 21
-23.3354088235
  0
LINE
  5
46E
100
AcDbEntity
  8
0
100
AcDbLine
 62
7
  6
CONTINUOUS
 10
0.9919976844
 20
-24.6825520689
 11
0.7795334494
 21
-24.7016628722
  0
LINE
  5
46F
100
AcDbEntity
  8
0
100
AcDbLine
 62
7
  6
CONTINUOUS
 10
1.0048185025
 20
-26.6813267578
 11
0.7705561445
 21
-26.7024211795
  0
LINE
  5
470
100
AcDbEntity
  8
0
100
AcDbLine
 62
7
  6
CONTINUOUS
 10
0.8134994958
 20
-23.1990290082
 11
1.0474284331
 21
-23.1779678629
  0
LINE
  5
471
100
AcDbEntity
  8
0
100
AcDbLine
 62
253
  6
CONTINUOUS
 10
1.4083009413
 20
-22.907880923
 11
1.2142520933
 21
-22.9249819412
  0
LINE
  5
472
100
AcDbEntity
  8
0
100
AcDbLine
 62
7
  6
CONTINUOUS
 10
0.974279736
 20
-22.6842137195
 11
0.7561128634
 21
-22.7037306445
  0
LINE
  5
473
100
AcDbEntity
  8
0
100
AcDbLine
 62
7
  6
CONTINUOUS
 10
0.7809468599
 20
-25.2018324819
 11
1.0074888103
 21
-25.1816455269
  0
LINE
  5
474
100
AcDbEntity
  8
0
100
AcDbLine
 62
7
  6
CONTINUOUS
 10
-0.8474139221
 20
-24.8347528893
 11
-1.0662015567
 21
-24.8542874559
  0
LINE
  5
475
100
AcDbEntity
  8
0
100
AcDbLine
 62
7
  6
CONTINUOUS
 10
-1.0008656296
 20
-27.3487561928
 11
-0.800316242
 21
-27.3309230552
  0
LINE
  5
476
100
AcDbEntity
  8
0
100
AcDbLine
 62
7
  6
CONTINUOUS
 10
0.7628049016
 20
-27.2033747964
 11
0.9963911725
 21
-27.1826333194
  0
LINE
  5
477
100
AcDbEntity
  8
0
100
AcDbLine
 62
7
  6
CONTINUOUS
 10
0.7419317422
 20
-26.2051852251
 11
0.9780048016
 21
-26.1843295925
  0
LINE
  5
478
100
AcDbEntity
  8
0
100
AcDbLine
 62
7
  6
CONTINUOUS
 10
-0.8129164193
 20
-22.8318025475
 11
-1.0365941776
 21
-22.8515934022
  0
LINE
  5
479
100
AcDbEntity
  8
0
100
AcDbLine
 62
7
  6
CONTINUOUS
 10
0.9017780868
 20
-25.6907963221
 11
0.690312535
 21
-25.7093693461
  0
LINE
  5
47A
100
AcDbEntity
  8
0
100
AcDbLine
 62
7
  6
CONTINUOUS
 10
-0.9576875776
 20
-25.3448473034
 11
-0.7382913606
 21
-25.3256314996
  0
LINE
  5
47B
100
AcDbEntity
  8
0
100
AcDbLine
 62
7
  6
CONTINUOUS
 10
-0.7801184127
 20
-23.8289858225
 11
-0.9818441582
 21
-23.846609635
  0
LINE
  5
47C
100
AcDbEntity
  8
0
100
AcDbLine
 62
253
  6
CONTINUOUS
 10
-1.2168838825
 20
-23.1063203284
 11
-1.4004052378
 21
-23.1220603397
  0
LINE
  5
47D
100
AcDbEntity
  8
0
100
AcDbLine
 62
7
  6
CONTINUOUS
 10
-0.7483149723
 20
-26.8262453484
 11
-0.9920560914
 21
-26.8474934558
  0
LINE
  5
47E
100
AcDbEntity
  8
0
100
AcDbLine
 62
7
  6
CONTINUOUS
 10
0.8973513771
 20
-23.6912193101
 11
0.6108144782
 21
-23.7161485276
  0
LWPOLYLINE
  5
47F
100
AcDbEntity
  8
0
100
AcDbPolyline
 62
253
  6
CONTINUOUS
 90
4
 70
0
 10
1.0971389233
 20
-26.9347077703
 10
1.3000973266
 20
-26.9175152027
 10
1.4895274243
 20
-26.9002454726
 10
1.6634213973
 20
-26.8828979385
  0
LINE
  5
480
100
AcDbEntity
  8
0
100
AcDbLine
 62
7
  6
CONTINUOUS
 10
-0.6992357691
 20
-25.8221261332
 11
-0.9725962196
 21
-25.8457585257
  0
LINE
  5
481
100
AcDbEntity
  8
0
100
AcDbLine
 62
7
  6
CONTINUOUS
 10
-0.9100925241
 20
-24.3405866514
 11
-0.6357189218
 21
-24.3169984893
  0
LWPOLYLINE
  5
482
100
AcDbEntity
  8
0
100
AcDbPolyline
 62
253
  6
CONTINUOUS
 90
3
 70
0
 10
-1.1500973273
 20
-26.1008135304
 10
-1.3395274248
 20
-26.1166640144
 10
-1.5134213976
 20
-26.1323985314
  0
LWPOLYLINE
  5
483
100
AcDbEntity
  8
0
100
AcDbPolyline
 62
253
  6
CONTINUOUS
 90
3
 70
0
 10
-1.1411763627
 20
-25.1001018689
 10
-1.3325377721
 20
-25.1160712599
 10
-1.5083658303
 20
-25.1319392515
  0
LINE
  5
484
100
AcDbEntity
  8
0
100
AcDbLine
 62
7
  6
CONTINUOUS
 10
-0.8785119394
 20
-26.3377655716
 11
-0.5922222976
 21
-26.3133536711
  0
LINE
  5
485
100
AcDbEntity
  8
0
100
AcDbLine
 62
7
  6
CONTINUOUS
 10
0.7795334494
 20
-24.7016628722
 11
0.4729182225
 21
-24.7276300811
  0
LINE
  5
486
100
AcDbEntity
  8
0
100
AcDbLine
 62
7
  6
CONTINUOUS
 10
0.5077630683
 20
-24.224881748
 11
0.8387417763
 21
-24.1968050238
  0
LINE
  5
487
100
AcDbEntity
  8
0
100
AcDbLine
 62
7
  6
CONTINUOUS
 10
-0.8512895972
 20
-23.3354088235
 11
-0.5444819113
 21
-23.3094540771
  0
LINE
  5
488
100
AcDbEntity
  8
0
100
AcDbLine
 62
7
  6
CONTINUOUS
 10
0.4806539365
 20
-23.2271252524
 11
0.8134994958
 21
-23.1990290082
  0
LINE
  5
489
100
AcDbEntity
  8
0
100
AcDbLine
 62
7
  6
CONTINUOUS
 10
0.7561128634
 20
-22.7037306445
 11
0.4420795663
 21
-22.7301954671
  0
LINE
  5
48A
100
AcDbEntity
  8
0
100
AcDbLine
 62
7
  6
CONTINUOUS
 10
0.7705561445
 20
-26.7024211795
 11
0.4279990753
 21
-26.7312956341
  0
LINE
  5
48B
100
AcDbEntity
  8
0
100
AcDbLine
 62
7
  6
CONTINUOUS
 10
-0.5293301481
 20
-24.8080970235
 11
-0.8474139221
 21
-24.8347528893
  0
LINE
  5
48C
100
AcDbEntity
  8
0
100
AcDbLine
 62
253
  6
CONTINUOUS
 10
-1.1491302782
 20
-24.1003726669
 11
-1.3384259089
 21
-24.115829596
  0
LINE
  5
48D
100
AcDbEntity
  8
0
100
AcDbLine
 62
7
  6
CONTINUOUS
 10
-0.800316242
 20
-27.3309230552
 11
-0.4227441365
 21
-27.2994689821
  0
LINE
  5
48E
100
AcDbEntity
  8
0
100
AcDbLine
 62
7
  6
CONTINUOUS
 10
0.3704683293
 20
-25.2360860323
 11
0.7809468599
 21
-25.2018324819
  0
LINE
  5
48F
100
AcDbEntity
  8
0
100
AcDbLine
 62
7
  6
CONTINUOUS
 10
0.3429118529
 20
-27.2382880552
 11
0.7628049016
 21
-27.2033747964
  0
LINE
  5
490
100
AcDbEntity
  8
0
100
AcDbLine
 62
7
  6
CONTINUOUS
 10
0.690312535
 20
-25.7093693461
 11
0.3095363164
 21
-25.7409529308
  0
LINE
  5
491
100
AcDbEntity
  8
0
100
AcDbLine
 62
7
  6
CONTINUOUS
 10
0.3213844459
 20
-26.2400412452
 11
0.7419317422
 21
-26.2051852251
  0
LINE
  5
492
100
AcDbEntity
  8
0
100
AcDbLine
 62
7
  6
CONTINUOUS
 10
-0.4049262181
 20
-22.7980399835
 11
-0.8129164193
 21
-22.8318025475
  0
LINE
  5
493
100
AcDbEntity
  8
0
100
AcDbLine
 62
7
  6
CONTINUOUS
 10
-0.7382913606
 20
-25.3256314996
 11
-0.3281972541
 21
-25.2918730403
  0
LINE
  5
494
100
AcDbEntity
  8
0
100
AcDbLine
 62
7
  6
CONTINUOUS
 10
-0.3343545028
 20
-23.792357308
 11
-0.7801184127
 21
-23.8289858225
  0
LINE
  5
495
100
AcDbEntity
  8
0
100
AcDbLine
 62
7
  6
CONTINUOUS
 10
-0.4227441365
 20
-27.2994689821
 11
0.3429118529
 21
-27.2382880552
  0
LWPOLYLINE
  5
496
100
AcDbEntity
  8
0
100
AcDbPolyline
 62
7
  6
CONTINUOUS
 90
3
 70
0
 10
0.4279990753
 20
-26.7312956341
 10
-0.2136893669
 20
-26.78268526
 10
-0.7483149723
 20
-26.8262453484
  0
LINE
  5
497
100
AcDbEntity
  8
0
100
AcDbLine
 62
7
  6
CONTINUOUS
 10
-0.5922222976
 20
-26.3133536711
 11
0.3213844459
 21
-26.2400412452
  0
LINE
  5
498
100
AcDbEntity
  8
0
100
AcDbLine
 62
7
  6
CONTINUOUS
 10
0.3095363164
 20
-25.7409529308
 11
-0.6992357691
 21
-25.8221261332
  0
LINE
  5
499
100
AcDbEntity
  8
0
100
AcDbLine
 62
7
  6
CONTINUOUS
 10
-0.3281972541
 20
-25.2918730403
 11
0.3704683293
 21
-25.2360860323
  0
LINE
  5
49A
100
AcDbEntity
  8
0
100
AcDbLine
 62
7
  6
CONTINUOUS
 10
0.4729182225
 20
-24.7276300811
 11
-0.5293301481
 21
-24.8080970235
  0
LINE
  5
49B
100
AcDbEntity
  8
0
100
AcDbLine
 62
7
  6
CONTINUOUS
 10
-0.6357189218
 20
-24.3169984893
 11
0.5077630683
 21
-24.224881748
  0
LINE
  5
49C
100
AcDbEntity
  8
0
100
AcDbLine
 62
7
  6
CONTINUOUS
 10
0.6108144782
 20
-23.7161485276
 11
-0.3343545028
 21
-23.792357308
  0
LINE
  5
49D
100
AcDbEntity
  8
0
100
AcDbLine
 62
7
  6
CONTINUOUS
 10
-0.5444819113
 20
-23.3094540771
 11
0.4806539365
 21
-23.2271252524
  0
LINE
  5
49E
100
AcDbEntity
  8
0
100
AcDbLine
 62
7
  6
CONTINUOUS
 10
0.4420795663
 20
-22.7301954671
 11
-0.4049262181
 21
-22.7980399835
  0
LINE
  5
49F
100
AcDbEntity
  8
0
100
AcDbLine
 62
253
  6
CONTINUOUS
 10
1.2142520933
 20
-22.9249819412
 11
0.7904672983
 21
-22.9589789883
  0
LINE
  5
4A0
100
AcDbEntity
  8
0
100
AcDbLine
 62
253
  6
CONTINUOUS
 10
-0.8102159124
 20
-23.0745024408
 11
-1.2168838825
 21
-23.1063203284
  0
LINE
  5
4A1
100
AcDbEntity
  8
0
100
AcDbLine
 62
253
  6
CONTINUOUS
 10
0.6590801372
 20
-26.9688386792
 11
1.0971389233
 21
-26.9347077703
  0
LINE
  5
4A2
100
AcDbEntity
  8
0
100
AcDbLine
 62
253
  6
CONTINUOUS
 10
1.0972700139
 20
-25.9347117108
 11
0.658197797
 21
-25.9689189032
  0
LINE
  5
4A3
100
AcDbEntity
  8
0
100
AcDbLine
 62
253
  6
CONTINUOUS
 10
1.101834289
 20
-24.93435389
 11
0.6656305069
 21
-24.9683749368
  0
LINE
  5
4A4
100
AcDbEntity
  8
0
100
AcDbLine
 62
253
  6
CONTINUOUS
 10
1.0868857651
 20
-23.9355890525
 11
0.6486593556
 21
-23.9696554218
  0
LINE
  5
4A5
100
AcDbEntity
  8
0
100
AcDbLine
 62
253
  6
CONTINUOUS
 10
-1.150164542
 20
-27.1008045801
 11
-0.7324699922
 21
-27.0686762629
  0
LINE
  5
4A6
100
AcDbEntity
  8
0
100
AcDbLine
 62
253
  6
CONTINUOUS
 10
-0.7327195551
 20
-26.0687092587
 11
-1.1500973273
 21
-26.1008135304
  0
LINE
  5
4A7
100
AcDbEntity
  8
0
100
AcDbLine
 62
253
  6
CONTINUOUS
 10
-0.7208471283
 20
-25.0678494339
 11
-1.1411763627
 21
-25.1001018689
  0
LINE
  5
4A8
100
AcDbEntity
  8
0
100
AcDbLine
 62
253
  6
CONTINUOUS
 10
-0.510752367
 20
-24.0525886113
 11
-1.1491302782
 21
-24.1003726669
  0
LINE
  5
4A9
100
AcDbEntity
  8
0
100
AcDbLine
 62
253
  6
CONTINUOUS
 10
-0.7324699922
 20
-27.0686762629
 11
0.6590801372
 21
-26.9688386792
  0
LINE
  5
4AA
100
AcDbEntity
  8
0
100
AcDbLine
 62
253
  6
CONTINUOUS
 10
0.658197797
 20
-25.9689189032
 11
-0.7327195551
 21
-26.0687092587
  0
LINE
  5
4AB
100
AcDbEntity
  8
0
100
AcDbLine
 62
253
  6
CONTINUOUS
 10
0.6656305069
 20
-24.9683749368
 11
-0.7208471283
 21
-25.0678494339
  0
LINE
  5
4AC
100
AcDbEntity
  8
0
100
AcDbLine
 62
253
  6
CONTINUOUS
 10
0.6486593556
 20
-23.9696554218
 11
-0.510752367
 21
-24.0525886113
  0
LINE
  5
4AD
100
AcDbEntity
  8
0
100
AcDbLine
 62
253
  6
CONTINUOUS
 10
0.7904672983
 20
-22.9589789883
 11
-0.8102159124
 21
-23.0745024408
  0
LINE
  5
4AE
100
AcDbEntity
  8
0
100
AcDbLine
 62
7
  6
CONTINUOUS
 10
5.225
 20
-24.2
 11
2.075
 21
-24.2
  0
LINE
  5
4AF
100
AcDbEntity
  8
0
100
AcDbLine
 62
7
  6
CONTINUOUS
 10
-1.925
 20
-24.2
 11
-5.075
 21
-24.2
  0
LINE
  5
4B0
100
AcDbEntity
  8
0
100
AcDbLine
 62
7
  6
CONTINUOUS
 10
-2.125
 20
-22.83
 11
-0.925
 21
-22.83
  0
LINE
  5
4B1
100
AcDbEntity
  8
0
100
AcDbLine
 62
7
  6
CONTINUOUS
 10
-5.075
 20
-22.1562277806
 11
-4.925
 21
-22.1562277806
  0
LINE
  5
4B2
100
AcDbEntity
  8
0
100
AcDbLine
 62
7
  6
CONTINUOUS
 10
5.075
 20
-22.1562277806
 11
5.225
 21
-22.1562277806
  0
LINE
  5
4B3
100
AcDbEntity
  8
0
100
AcDbLine
 62
7
  6
CONTINUOUS
 10
-0.6955552429
 20
-25.6770366679
 11
0.204256758
 21
-25.7494259495
  0
LINE
  5
4B4
100
AcDbEntity
  8
0
100
AcDbLine
 62
7
  6
CONTINUOUS
 10
0.6328267799
 20
-27.2843796508
 11
0.2045409432
 21
-27.249406554
  0
LINE
  5
4B5
100
AcDbEntity
  8
0
100
AcDbLine
 62
7
  6
CONTINUOUS
 10
-0.7214943884
 20
-26.6748469259
 11
0.204214632
 21
-26.7494127164
  0
LINE
  5
4B6
100
AcDbEntity
  8
0
100
AcDbLine
 62
7
  6
CONTINUOUS
 10
0.6388009828
 20
-26.2848985546
 11
0.2045595972
 21
-26.2494201413
  0
LINE
  5
4B7
100
AcDbEntity
  8
0
100
AcDbLine
 62
7
  6
CONTINUOUS
 10
-0.7375671411
 20
-24.6735173457
 11
0.2042360959
 21
-24.7494422064
  0
LINE
  5
4B8
100
AcDbEntity
  8
0
100
AcDbLine
 62
7
  6
CONTINUOUS
 10
0.6667894127
 20
-25.2872735083
 11
0.2045840519
 21
-25.2494353364
  0
LINE
  5
4B9
100
AcDbEntity
  8
0
100
AcDbLine
 62
7
  6
CONTINUOUS
 10
0.7006154746
 20
-24.2901537065
 11
0.2045611889
 21
-24.249446078
  0
LINE
  5
4BA
100
AcDbEntity
  8
0
100
AcDbLine
 62
7
  6
CONTINUOUS
 10
-0.803243067
 20
-23.6679483195
 11
-0.4171809812
 21
-23.6998940309
  0
LINE
  5
4BB
100
AcDbEntity
  8
0
100
AcDbLine
 62
7
  6
CONTINUOUS
 10
-0.907305339
 20
-25.6588958958
 11
-0.6955552429
 21
-25.6770366679
  0
LINE
  5
4BC
100
AcDbEntity
  8
0
100
AcDbLine
 62
7
  6
CONTINUOUS
 10
-0.9352939033
 20
-26.6564133064
 11
-0.7214943884
 21
-26.6748469259
  0
LINE
  5
4BD
100
AcDbEntity
  8
0
100
AcDbLine
 62
7
  6
CONTINUOUS
 10
0.886440493
 20
-27.306261937
 11
0.6328267799
 21
-27.2843796508
  0
LINE
  5
4BE
100
AcDbEntity
  8
0
100
AcDbLine
 62
7
  6
CONTINUOUS
 10
0.8899325328
 20
-26.3065834248
 11
0.6388009828
 21
-26.2848985546
  0
LINE
  5
4BF
100
AcDbEntity
  8
0
100
AcDbLine
 62
7
  6
CONTINUOUS
 10
-0.9708342177
 20
-24.6532695287
 11
-0.7375671411
 21
-24.6735173457
  0
LINE
  5
4C0
100
AcDbEntity
  8
0
100
AcDbLine
 62
7
  6
CONTINUOUS
 10
0.9206852334
 20
-25.309342752
 11
0.6667894127
 21
-25.2872735083
  0
LINE
  5
4C1
100
AcDbEntity
  8
0
100
AcDbLine
 62
7
  6
CONTINUOUS
 10
0.946921697
 20
-24.3117171067
 11
0.7006154746
 21
-24.2901537065
  0
LINE
  5
4C2
100
AcDbEntity
  8
0
100
AcDbLine
 62
7
  6
CONTINUOUS
 10
-1.0105005293
 20
-23.6497063702
 11
-0.803243067
 21
-23.6679483195
  0
LINE
  5
4C3
100
AcDbEntity
  8
0
100
AcDbLine
 62
7
  6
CONTINUOUS
 10
1.0390425043
 20
-23.320173366
 11
0.9495783755
 21
-23.3119827574
  0
LINE
  5
4C4
100
AcDbEntity
  8
0
100
AcDbLine
 62
7
  6
CONTINUOUS
 10
1.0461370365
 20
-27.3207779278
 11
0.886440493
 21
-27.306261937
  0
LINE
  5
4C5
100
AcDbEntity
  8
0
100
AcDbLine
 62
7
  6
CONTINUOUS
 10
1.0470859224
 20
-26.3208772248
 11
0.8899325328
 21
-26.3065834248
  0
LINE
  5
4C6
100
AcDbEntity
  8
0
100
AcDbLine
 62
7
  6
CONTINUOUS
 10
-1.1005320027
 20
-25.6413857908
 11
-0.907305339
 21
-25.6588958958
  0
LINE
  5
4C7
100
AcDbEntity
  8
0
100
AcDbLine
 62
7
  6
CONTINUOUS
 10
-1.1148194041
 20
-24.6400536033
 11
-0.9708342177
 21
-24.6532695287
  0
LINE
  5
4C8
100
AcDbEntity
  8
0
100
AcDbLine
 62
7
  6
CONTINUOUS
 10
1.0785629976
 20
-25.3238414565
 11
0.9206852334
 21
-25.309342752
  0
LWPOLYLINE
  5
4C9
100
AcDbEntity
  8
0
100
AcDbPolyline
 62
253
  6
CONTINUOUS
 90
8
 70
0
 10
-0.4977686172
 20
-26.437806854
 10
0.4655547415
 20
-26.5264304326
 10
0.6541350504
 20
-26.5445736581
 10
0.8350239117
 20
-26.5627782141
 10
1.0060485016
 20
-26.5810502516
 10
1.1654146112
 20
-26.5994167566
 10
1.3112985513
 20
-26.6178778611
 10
1.441566884
 20
-26.6363903569
  0
LINE
  5
4CA
100
AcDbEntity
  8
0
100
AcDbLine
 62
7
  6
CONTINUOUS
 10
-1.1315943932
 20
-26.6384366685
 11
-0.9352939033
 21
-26.6564133064
  0
LINE
  5
4CB
100
AcDbEntity
  8
0
100
AcDbLine
 62
7
  6
CONTINUOUS
 10
1.104607045
 20
-24.3263245379
 11
0.946921697
 21
-24.3117171067
  0
LINE
  5
4CC
100
AcDbEntity
  8
0
100
AcDbLine
 62
7
  6
CONTINUOUS
 10
-1.1377120272
 20
-23.63789424
 11
-1.0105005293
 21
-23.6497063702
  0
LWPOLYLINE
  5
4CD
100
AcDbEntity
  8
0
100
AcDbPolyline
 62
253
  6
CONTINUOUS
 90
7
 70
0
 10
0.463338003
 20
-27.5262044611
 10
0.6529760554
 20
-27.5444453956
 10
0.8352228047
 20
-27.5627884135
 10
1.0078214754
 20
-27.5812316211
 10
1.1684623615
 20
-27.5997658101
 10
1.3150917456
 20
-27.6183762557
 10
1.4413697309
 20
-27.6363948376
  0
LWPOLYLINE
  5
4CE
100
AcDbEntity
  8
0
100
AcDbPolyline
 62
253
  6
CONTINUOUS
 90
6
 70
0
 10
-0.4977686172
 20
-26.437806854
 10
-0.6769263554
 20
-26.4205716046
 10
-0.8465421931
 20
-26.4034685426
 10
-1.0048702484
 20
-26.3864611871
 10
-1.1501469537
 20
-26.3695342505
 10
-1.1792976445
 20
-26.3657665836
  0
LINE
  5
4CF
100
AcDbEntity
  8
0
100
AcDbLine
 62
7
  6
CONTINUOUS
 10
1.1896538163
 20
-23.3345556767
 11
1.0390425043
 21
-23.320173366
  0
LINE
  5
4D0
100
AcDbEntity
  8
0
100
AcDbLine
 62
7
  6
CONTINUOUS
 10
1.1964417339
 20
-27.3351678391
 11
1.0461370365
 21
-27.3207779278
  0
LINE
  5
4D1
100
AcDbEntity
  8
0
100
AcDbLine
 62
7
  6
CONTINUOUS
 10
1.1948990351
 20
-26.3350330242
 11
1.0470859224
 21
-26.3208772248
  0
LINE
  5
4D2
100
AcDbEntity
  8
0
100
AcDbLine
 62
7
  6
CONTINUOUS
 10
-1.2187389297
 20
-25.6300174087
 11
-1.1005320027
 21
-25.6413857908
  0
LWPOLYLINE
  5
4D3
100
AcDbEntity
  8
0
100
AcDbPolyline
 62
253
  6
CONTINUOUS
 90
5
 70
0
 10
-0.5608946248
 20
-25.4318224118
 10
-0.738404244
 20
-25.4144904219
 10
-0.9057649004
 20
-25.397264362
 10
-1.0607841119
 20
-25.3801424425
 10
-1.1794177544
 20
-25.3658037625
  0
LINE
  5
4D4
100
AcDbEntity
  8
0
100
AcDbLine
 62
7
  6
CONTINUOUS
 10
1.2255567982
 20
-25.3380890259
 11
1.0785629976
 21
-25.3238414565
  0
LINE
  5
4D5
100
AcDbEntity
  8
0
100
AcDbLine
 62
7
  6
CONTINUOUS
 10
-1.2488266874
 20
-24.6270396598
 11
-1.1148194041
 21
-24.6400536033
  0
LINE
  5
4D6
100
AcDbEntity
  8
0
100
AcDbLine
 62
7
  6
CONTINUOUS
 10
-1.2521881186
 20
-26.626669706
 11
-1.1315943932
 21
-26.6384366685
  0
LWPOLYLINE
  5
4D7
100
AcDbEntity
  8
0
100
AcDbPolyline
 62
253
  6
CONTINUOUS
 90
5
 70
0
 10
-0.4434906884
 20
-24.442939796
 10
-0.7973835024
 20
-24.4085472024
 10
-0.9592211797
 20
-24.3915228578
 10
-1.1084719091
 20
-24.374584666
 10
-1.1789376357
 20
-24.3657709268
  0
LINE
  5
4D8
100
AcDbEntity
  8
0
100
AcDbLine
 62
7
  6
CONTINUOUS
 10
-1.2559483175
 20
-23.626334138
 11
-1.1377120272
 21
-23.63789424
  0
LINE
  5
4D9
100
AcDbEntity
  8
0
100
AcDbLine
 62
7
  6
CONTINUOUS
 10
1.2546147505
 20
-24.3410226935
 11
1.104607045
 21
-24.3263245379
  0
LWPOLYLINE
  5
4DA
100
AcDbEntity
  8
0
100
AcDbPolyline
 62
253
  6
CONTINUOUS
 90
5
 70
0
 10
-0.7337720941
 20
-23.4148961137
 10
-0.8622169433
 20
-23.4018727213
 10
-1.019410506
 20
-23.3848736406
 10
-1.1634949
 20
-23.3679370777
 10
-1.1795795101
 20
-23.365832706
  0
LINE
  5
4DB
100
AcDbEntity
  8
0
100
AcDbLine
 62
7
  6
CONTINUOUS
 10
1.3296257497
 20
-23.3487537576
 11
1.1896538163
 21
-23.3345556767
  0
LINE
  5
4DC
100
AcDbEntity
  8
0
100
AcDbLine
 62
7
  6
CONTINUOUS
 10
1.3329207917
 20
-26.3490678164
 11
1.1948990351
 21
-26.3350330242
  0
LINE
  5
4DD
100
AcDbEntity
  8
0
100
AcDbLine
 62
7
  6
CONTINUOUS
 10
-1.3284836811
 20
-25.6188534739
 11
-1.2187389297
 21
-25.6300174087
  0
LINE
  5
4DE
100
AcDbEntity
  8
0
100
AcDbLine
 62
7
  6
CONTINUOUS
 10
1.3362196381
 20
-27.3493965647
 11
1.1964417339
 21
-27.3351678391
  0
LINE
  5
4DF
100
AcDbEntity
  8
0
100
AcDbLine
 62
7
  6
CONTINUOUS
 10
1.361474448
 20
-25.3521060187
 11
1.2255567982
 21
-25.3380890259
  0
LINE
  5
4E0
100
AcDbEntity
  8
0
100
AcDbLine
 62
7
  6
CONTINUOUS
 10
-1.3642103013
 20
-26.6150533999
 11
-1.2521881186
 21
-26.626669706
  0
LINE
  5
4E1
100
AcDbEntity
  8
0
100
AcDbLine
 62
7
  6
CONTINUOUS
 10
-1.3651452107
 20
-23.6149957516
 11
-1.2559483175
 21
-23.626334138
  0
LINE
  5
4E2
100
AcDbEntity
  8
0
100
AcDbLine
 62
7
  6
CONTINUOUS
 10
-1.3731010596
 20
-24.6141214179
 11
-1.2488266874
 21
-24.6270396598
  0
LINE
  5
4E3
100
AcDbEntity
  8
0
100
AcDbLine
 62
7
  6
CONTINUOUS
 10
1.3953503245
 20
-24.3557621597
 11
1.2546147505
 21
-24.3410226935
  0
LWPOLYLINE
  5
4E4
100
AcDbEntity
  8
0
100
AcDbPolyline
 62
7
  6
CONTINUOUS
 90
4
 70
0
 10
-1.522726252
 20
-25.597007732
 10
-1.4773007987
 20
-25.6024208644
 10
-1.4297767045
 20
-25.6078644131
 10
-1.3284836811
 20
-25.6188534739
  0
LWPOLYLINE
  5
4E5
100
AcDbEntity
  8
0
100
AcDbPolyline
 62
7
  6
CONTINUOUS
 90
4
 70
0
 10
1.5759279756
 20
-23.3766171375
 10
1.5186053732
 20
-23.3697142877
 10
1.4584419336
 20
-23.3627704661
 10
1.3296257497
 20
-23.3487537576
  0
LWPOLYLINE
  5
4E6
100
AcDbEntity
  8
0
100
AcDbPolyline
 62
7
  6
CONTINUOUS
 90
4
 70
0
 10
1.5782016068
 20
-26.3768492242
 10
1.5208099901
 20
-26.3699314208
 10
1.460750399
 20
-26.3629945567
 10
1.3329207917
 20
-26.3490678164
  0
LWPOLYLINE
  5
4E7
100
AcDbEntity
  8
0
100
AcDbPolyline
 62
7
  6
CONTINUOUS
 90
4
 70
0
 10
-1.5398903551
 20
-24.5949071689
 10
-1.4869747475
 20
-24.6012947385
 10
-1.4313379258
 20
-24.6077010577
 10
-1.3731010596
 20
-24.6141214179
  0
LWPOLYLINE
  5
4E8
100
AcDbEntity
  8
0
100
AcDbPolyline
 62
7
  6
CONTINUOUS
 90
4
 70
0
 10
1.5824854086
 20
-27.377372188
 10
1.5251211891
 20
-27.3704325278
 10
1.4649316583
 20
-27.3634567494
 10
1.3362196381
 20
-27.3493965647
  0
LWPOLYLINE
  5
4E9
100
AcDbEntity
  8
0
100
AcDbPolyline
 62
7
  6
CONTINUOUS
 90
4
 70
0
 10
1.5856218524
 20
-24.3777960659
 10
1.5251830748
 20
-24.3704712835
 10
1.4616740408
 20
-24.3631195988
 10
1.3953503245
 20
-24.3557621597
  0
LWPOLYLINE
  5
4EA
100
AcDbEntity
  8
0
100
AcDbPolyline
 62
7
  6
CONTINUOUS
 90
4
 70
0
 10
1.5994672768
 20
-25.3795081709
 10
1.5442085674
 20
-25.3727289294
 10
1.486114031
 20
-25.3659032945
 10
1.361474448
 20
-25.3521060187
  0
LINE
  5
4EB
100
AcDbEntity
  8
0
100
AcDbLine
 62
7
  6
CONTINUOUS
 10
1.6519630141
 20
-25.3862536551
 11
1.5994672768
 21
-25.3795081709
  0
LWPOLYLINE
  5
4EC
100
AcDbEntity
  8
0
100
AcDbPolyline
 62
253
  6
CONTINUOUS
 90
7
 70
0
 10
-1.1797251261
 20
-27.3657864561
 10
-1.1687672432
 20
-27.3672275892
 10
-1.0224767906
 20
-27.3844737205
 10
-0.8624662433
 20
-27.4017959317
 10
-0.6909021036
 20
-27.4191820451
 10
-0.5097742977
 20
-27.4366579841
 10
0.463338003
 20
-27.5262044611
  0
LWPOLYLINE
  5
4ED
100
AcDbEntity
  8
0
100
AcDbPolyline
 62
7
  6
CONTINUOUS
 90
3
 70
0
 10
1.6886130093
 20
-27.3911421337
 10
1.6369881737
 20
-27.384275016
 10
1.5824854086
 20
-27.377372188
  0
LWPOLYLINE
  5
4EE
100
AcDbEntity
  8
0
100
AcDbPolyline
 62
253
  6
CONTINUOUS
 90
8
 70
0
 10
1.4408145534
 20
-24.6365021052
 10
1.3381647272
 20
-24.6215327756
 10
1.1969761526
 20
-24.6032768029
 10
1.0420496713
 20
-24.5850988755
 10
0.8753035899
 20
-24.5670029161
 10
0.6987206941
 20
-24.548998985
 10
0.5142542541
 20
-24.531077234
 10
-0.4434906884
 20
-24.442939796
  0
LWPOLYLINE
  5
4EF
100
AcDbEntity
  8
0
100
AcDbPolyline
 62
253
  6
CONTINUOUS
 90
8
 70
0
 10
1.4404265464
 20
-25.6365481806
 10
1.3940591361
 20
-25.6293690438
 10
1.2580072606
 20
-25.610921936
 10
1.1074706928
 20
-25.5925718262
 10
0.9445393288
 20
-25.5743479108
 10
0.7709770295
 20
-25.5562358954
 10
0.5885290417
 20
-25.5381951935
 10
-0.5608946248
 20
-25.4318224118
  0
LWPOLYLINE
  5
4F0
100
AcDbEntity
  8
0
100
AcDbPolyline
 62
253
  6
CONTINUOUS
 90
7
 70
0
 10
1.4408011104
 20
-23.6365188556
 10
1.4198985417
 20
-23.6331849975
 10
1.2874061207
 20
-23.6147552478
 10
1.1396522832
 20
-23.5963714724
 10
0.9786481825
 20
-23.5780790517
 10
0.8065369977
 20
-23.5598880265
 10
0.7611833822
 20
-23.5553585818
  0
LINE
  5
4F1
100
AcDbEntity
  8
0
100
AcDbLine
 62
7
  6
CONTINUOUS
 10
32.34375
 20
-33.0
 11
32.03125
 21
-32.9468085123
  0
LINE
  5
4F2
100
AcDbEntity
  8
0
100
AcDbLine
 62
7
  6
CONTINUOUS
 10
28.2291665673
 20
-31.2978723943
 11
28.5416665673
 21
-31.3510638773
  0
LINE
  5
4F3
100
AcDbEntity
  8
0
100
AcDbLine
 62
7
  6
CONTINUOUS
 10
32.6041668653
 20
-31.5638298094
 11
32.2916668653
 21
-31.5106383264
  0
LINE
  5
4F4
100
AcDbEntity
  8
0
100
AcDbLine
 62
7
  6
CONTINUOUS
 10
32.34375
 20
-31.2978723943
 11
32.65625
 21
-31.3510638773
  0
LINE
  5
4F5
100
AcDbEntity
  8
0
100
AcDbLine
 62
7
  6
CONTINUOUS
 10
44.4270825386
 20
-33.0
 11
44.1145837307
 21
-32.9468085123
  0
LINE
  5
4F6
100
AcDbEntity
  8
0
100
AcDbLine
 62
7
  6
CONTINUOUS
 10
44.6875
 20
-31.5638298094
 11
44.375
 21
-31.5106383264
  0
LINE
  5
4F7
100
AcDbEntity
  8
0
100
AcDbLine
 62
7
  6
CONTINUOUS
 10
44.4270825386
 20
-31.2978723943
 11
44.7395825386
 21
-31.3510638773
  0
LINE
  5
4F8
100
AcDbEntity
  8
0
100
AcDbLine
 62
7
  6
CONTINUOUS
 10
50.2604174614
 20
-31.2978723943
 11
50.5729174614
 21
-31.3510638773
  0
LWPOLYLINE
  5
4F9
100
AcDbEntity
  8
0
100
AcDbPolyline
 62
7
  6
CONTINUOUS
 90
8
 70
0
 10
1.9221819645
 20
-24.4285483499
 10
1.8831547116
 20
-24.4212949826
 10
1.8411683648
 20
-24.4140596285
 10
1.7962666127
 20
-24.4068435596
 10
1.7482989023
 20
-24.3996173845
 10
1.6971889804
 20
-24.3923672038
 10
1.642946991
 20
-24.3850922903
 10
1.5856218524
 20
-24.3777960659
  0
LINE
  5
4FA
100
AcDbEntity
  8
0
100
AcDbLine
 62
7
  6
CONTINUOUS
 10
41.9270837307
 20
-33.0
 11
41.6666662693
 21
-32.9468085123
  0
LWPOLYLINE
  5
4FB
100
AcDbEntity
  8
0
100
AcDbPolyline
 62
7
  6
CONTINUOUS
 90
10
 70
0
 10
-1.8867899411
 20
-24.5380592748
 10
-1.8586878173
 20
-24.5445583234
 10
-1.8283903431
 20
-24.5509162787
 10
-1.79552131
 20
-24.5572217234
 10
-1.7601681819
 20
-24.5634638315
 10
-1.7220226659
 20
-24.5697014122
 10
-1.6809181409
 20
-24.575961401
 10
-1.6368496495
 20
-24.5822474109
 10
-1.5898540891
 20
-24.5885590705
 10
-1.5398903551
 20
-24.5949071689
  0
LWPOLYLINE
  5
4FC
100
AcDbEntity
  8
0
100
AcDbPolyline
 62
7
  6
CONTINUOUS
 90
12
 70
0
 10
-1.8980509204
 20
-25.5352575971
 10
-1.8728400101
 20
-25.5413618146
 10
-1.8458587829
 20
-25.547309472
 10
-1.8172026699
 20
-25.553104211
 10
-1.7867419495
 20
-25.5587950413
 10
-1.7544379762
 20
-25.5644062889
 10
-1.7202791471
 20
-25.5699543923
 10
-1.6843305489
 20
-25.5754421647
 10
-1.6467628093
 20
-25.5808580628
 10
-1.6074714837
 20
-25.58623016
 10
-1.5661471278
 20
-25.5916088125
 10
-1.522726252
 20
-25.597007732
  0
LWPOLYLINE
  5
4FD
100
AcDbEntity
  8
0
100
AcDbPolyline
 62
7
  6
CONTINUOUS
 90
11
 70
0
 10
-1.8985860061
 20
-27.5351034549
 10
-1.8719819678
 20
-27.541548182
 10
-1.8435257698
 20
-27.5477878744
 10
-1.8128961203
 20
-27.5539190735
 10
-1.7802224304
 20
-27.5599365775
 10
-1.7450666991
 20
-27.5659347151
 10
-1.7072622138
 20
-27.5719444613
 10
-1.6668139903
 20
-27.5779666996
 10
-1.6235961881
 20
-27.5840216176
 10
-1.5775208986
 20
-27.5901215068
 10
-1.5285747351
 20
-27.5962681482
  0
LINE
  5
4FE
100
AcDbEntity
  8
0
100
AcDbLine
 62
7
  6
CONTINUOUS
 10
27.8125
 20
-33.0
 11
27.6041665673
 21
-32.9468085123
  0
LINE
  5
4FF
100
AcDbEntity
  8
0
100
AcDbLine
 62
7
  6
CONTINUOUS
 10
30.0
 20
-33.0
 11
29.7916668653
 21
-32.9468085123
  0
LINE
  5
500
100
AcDbEntity
  8
0
100
AcDbLine
 62
7
  6
CONTINUOUS
 10
29.8958331346
 20
-32.6808510646
 11
30.1041668653
 21
-32.7340425476
  0
LINE
  5
501
100
AcDbEntity
  8
0
100
AcDbLine
 62
7
  6
CONTINUOUS
 10
32.0833331346
 20
-32.7340425476
 11
32.2916668653
 21
-32.7872340493
  0
LINE
  5
502
100
AcDbEntity
  8
0
100
AcDbLine
 62
7
  6
CONTINUOUS
 10
28.4375
 20
-31.5638298094
 11
28.2291665673
 21
-31.5106383264
  0
LINE
  5
503
100
AcDbEntity
  8
0
100
AcDbLine
 62
7
  6
CONTINUOUS
 10
30.5208331346
 20
-31.6170212925
 11
30.3125
 21
-31.5638298094
  0
LINE
  5
504
100
AcDbEntity
  8
0
100
AcDbLine
 62
7
  6
CONTINUOUS
 10
30.3125
 20
-31.2978723943
 11
30.5208331346
 21
-31.3510638773
  0
LWPOLYLINE
  5
505
100
AcDbEntity
  8
0
100
AcDbPolyline
 62
7
  6
CONTINUOUS
 90
12
 70
0
 10
2.0674756136
 20
-25.4630975655
 10
2.0394194699
 20
-25.4550698839
 10
2.009858043
 20
-25.4474855702
 10
1.9787386113
 20
-25.4402493395
 10
1.9461008016
 20
-25.4333026487
 10
1.9113069616
 20
-25.4264699715
 10
1.8742130574
 20
-25.4197068702
 10
1.8348984617
 20
-25.4130143815
 10
1.7930728917
 20
-25.4063342528
 10
1.7486642872
 20
-25.3996519926
 10
1.7016816234
 20
-25.3929664806
 10
1.6519630141
 20
-25.3862536551
  0
LWPOLYLINE
  5
506
100
AcDbEntity
  8
0
100
AcDbPolyline
 62
7
  6
CONTINUOUS
 90
16
 70
0
 10
-1.925
 20
-26.5279148927
 10
-1.9219950121
 20
-26.5288214645
 10
-1.8977341306
 20
-26.5353356763
 10
-1.8722083764
 20
-26.541510127
 10
-1.8451765055
 20
-26.5474551155
 10
-1.8167871943
 20
-26.5531824886
 10
-1.7865213535
 20
-26.5588264769
 10
-1.7542442126
 20
-26.5644244398
 10
-1.7200024243
 20
-26.5699784297
 10
-1.6835785042
 20
-26.5755308521
 10
-1.6448998241
 20
-26.5810958519
 10
-1.6039718679
 20
-26.5866753129
 10
-1.5607218335
 20
-26.5922814562
 10
-1.515112171
 20
-26.5979206868
 10
-1.4671421835
 20
-26.6035947442
 10
-1.3642103013
 20
-26.6150533999
  0
LWPOLYLINE
  5
507
100
AcDbEntity
  8
0
100
AcDbPolyline
 62
7
  6
CONTINUOUS
 90
6
 70
0
 10
2.075
 20
-24.4655655938
 10
2.0541354181
 20
-24.4592011334
 10
2.0243191554
 20
-24.4511236519
 10
1.9924705465
 20
-24.4433723434
 10
1.9584348983
 20
-24.435862078
 10
1.9221819645
 20
-24.4285483499
  0
LWPOLYLINE
  5
508
100
AcDbEntity
  8
0
100
AcDbPolyline
 62
7
  6
CONTINUOUS
 90
12
 70
0
 10
2.075
 20
-28.4655333221
 10
2.0603603247
 20
-28.4609612487
 10
2.0326061513
 20
-28.4532373469
 10
2.003169337
 20
-28.4458489704
 10
1.97174783
 20
-28.4386750943
 10
1.938497627
 20
-28.4317153614
 10
1.9028750024
 20
-28.4248333749
 10
1.8647083164
 20
-28.4179906956
 10
1.8240245226
 20
-28.4111855637
 10
1.7806155949
 20
-28.4043763758
 10
1.7344147418
 20
-28.3975496487
 10
1.6854234506
 20
-28.3907029195
  0
LWPOLYLINE
  5
509
100
AcDbEntity
  8
0
100
AcDbPolyline
 62
7
  6
CONTINUOUS
 90
12
 70
0
 10
2.075
 20
-27.4655247466
 10
2.0616283073
 20
-27.4613286418
 10
2.0339493101
 20
-27.4535962534
 10
2.0046144109
 20
-27.4462087517
 10
1.9733275346
 20
-27.4390422481
 10
1.9402551418
 20
-27.4320953787
 10
1.9048365231
 20
-27.4252253086
 10
1.8669005277
 20
-27.4183921346
 10
1.8264762228
 20
-27.4115962112
 10
1.7833332529
 20
-27.4047964286
 10
1.7373778026
 20
-27.397979017
 10
1.6886130093
 20
-27.3911421337
  0
LWPOLYLINE
  5
50A
100
AcDbEntity
  8
0
100
AcDbPolyline
 62
7
  6
CONTINUOUS
 90
14
 70
0
 10
2.075
 20
-26.4655366949
 10
2.0611026381
 20
-26.4611765476
 10
2.0331533928
 20
-26.4533808625
 10
2.0035005293
 20
-26.4459375409
 10
1.9718776021
 20
-26.4387261493
 10
1.938427198
 20
-26.4317359169
 10
1.9026109657
 20
-26.4248265088
 10
1.8642709095
 20
-26.4179578273
 10
1.8234466586
 20
-26.4111293701
 10
1.7799408899
 20
-26.4043029041
 10
1.7336715613
 20
-26.3974641008
 10
1.6846412631
 20
-26.3906122599
 10
1.6328238203
 20
-26.3837423951
 10
1.5782016068
 20
-26.3768492242
  0
LINE
  5
50B
100
AcDbEntity
  8
0
100
AcDbLine
 62
7
  6
CONTINUOUS
 10
-48.8274014564
 20
30.957098846
 11
-49.1515140711
 21
31.443267768
  0
LINE
  5
50C
100
AcDbEntity
  8
0
100
AcDbLine
 62
7
  6
CONTINUOUS
 10
-49.4756266857
 20
31.92943669
 11
-49.7997393004
 21
32.415605612
  0
LINE
  5
50D
100
AcDbEntity
  8
0
100
AcDbLine
 62
7
  6
CONTINUOUS
 10
-48.2735075105
 20
32.0286054751
 11
-48.5976201252
 21
32.514774397
  0
LINE
  5
50E
100
AcDbEntity
  8
0
100
AcDbLine
 62
7
  6
CONTINUOUS
 10
-41.8462765932
 20
23.5998678703
 11
-41.4207446694
 21
22.8082011242
  0
LINE
  5
50F
100
AcDbEntity
  8
0
100
AcDbLine
 62
7
  6
CONTINUOUS
 10
-41.5484042287
 20
22.7248678703
 11
-41.8462765932
 21
23.3082011242
  0
LINE
  5
510
100
AcDbEntity
  8
0
100
AcDbLine
 62
7
  6
CONTINUOUS
 10
-20.4216188347
 20
32.7663800524
 11
-20.4216188347
 21
34.3659933459
  0
LINE
  5
511
100
AcDbEntity
  8
0
100
AcDbLine
 62
7
  6
CONTINUOUS
 10
-19.5916188347
 20
34.3659933459
 11
-19.5916188347
 21
32.7663800524
  0
LINE
  5
512
100
AcDbEntity
  8
0
100
AcDbLine
 62
7
  6
CONTINUOUS
 10
-69.725
 20
-21.7
 11
-7.425
 21
-21.7
  0
LINE
  5
513
100
AcDbEntity
  8
0
100
AcDbLine
 62
7
  6
CONTINUOUS
 10
69.875
 20
-21.7
 11
7.575
 21
-21.7
  0
LINE
  5
514
100
AcDbEntity
  8
0
100
AcDbLine
 62
253
  6
CONTINUOUS
 10
-70.225
 20
-21.2
 11
-7.425
 21
-21.2
  0
LINE
  5
515
100
AcDbEntity
  8
0
100
AcDbLine
 62
253
  6
CONTINUOUS
 10
7.575
 20
-21.2
 11
70.375
 21
-21.2
  0
LINE
  5
516
100
AcDbEntity
  8
0
100
AcDbLine
 62
253
  6
CONTINUOUS
 10
-4.925
 20
-20.79
 11
5.075
 21
-20.79
  0
LINE
  5
517
100
AcDbEntity
  8
0
100
AcDbLine
 62
253
  6
CONTINUOUS
 10
67.075
 20
-20.0
 11
5.225
 21
-20.0
  0
LINE
  5
518
100
AcDbEntity
  8
0
100
AcDbLine
 62
253
  6
CONTINUOUS
 10
-5.075
 20
-20.0
 11
-66.925
 21
-20.0
  0
LINE
  5
519
100
AcDbEntity
  8
0
100
AcDbLine
 62
253
  6
CONTINUOUS
 10
-4.925
 20
-19.8785714285
 11
5.075
 21
-19.8785714285
  0
LINE
  5
51A
100
AcDbEntity
  8
0
100
AcDbLine
 62
7
  6
CONTINUOUS
 10
67.075
 20
-19.5
 11
5.225
 21
-19.5
  0
LINE
  5
51B
100
AcDbEntity
  8
0
100
AcDbLine
 62
7
  6
CONTINUOUS
 10
-5.075
 20
-19.5
 11
-66.925
 21
-19.5
  0
LINE
  5
51C
100
AcDbEntity
  8
0
100
AcDbLine
 62
253
  6
CONTINUOUS
 10
67.075
 20
-19.4403969555
 11
72.075
 21
-19.4403969555
  0
LINE
  5
51D
100
AcDbEntity
  8
0
100
AcDbLine
 62
253
  6
CONTINUOUS
 10
-66.925
 20
-19.4403969555
 11
-71.925
 21
-19.4403969555
  0
LINE
  5
51E
100
AcDbEntity
  8
0
100
AcDbLine
 62
253
  6
CONTINUOUS
 10
67.075
 20
-18.9443979996
 11
71.575
 21
-18.9443979996
  0
LINE
  5
51F
100
AcDbEntity
  8
0
100
AcDbLine
 62
253
  6
CONTINUOUS
 10
-66.925
 20
-18.9443979996
 11
-71.425
 21
-18.9443979996
  0
LINE
  5
520
100
AcDbEntity
  8
0
100
AcDbLine
 62
7
  6
CONTINUOUS
 10
6.475
 20
-18.7562277806
 11
5.075
 21
-18.7562277806
  0
LINE
  5
521
100
AcDbEntity
  8
0
100
AcDbLine
 62
7
  6
CONTINUOUS
 10
-4.925
 20
-18.7562277806
 11
-6.325
 21
-18.7562277806
  0
LINE
  5
522
100
AcDbEntity
  8
0
100
AcDbLine
 62
7
  6
CONTINUOUS
 10
-71.425
 20
-18.2999999989
 11
-66.925
 21
-18.2999999994
  0
LINE
  5
523
100
AcDbEntity
  8
0
100
AcDbLine
 62
7
  6
CONTINUOUS
 10
67.075
 20
-18.3
 11
71.575
 21
-18.2999999989
  0
LINE
  5
524
100
AcDbEntity
  8
0
100
AcDbLine
 62
7
  6
CONTINUOUS
 10
-5.625
 20
-16.5
 11
-4.925
 21
-16.5
  0
LINE
  5
525
100
AcDbEntity
  8
0
100
AcDbLine
 62
7
  6
CONTINUOUS
 10
5.075
 20
-16.5
 11
5.775
 21
-16.5
  0
LINE
  5
526
100
AcDbEntity
  8
0
100
AcDbLine
 62
7
  6
CONTINUOUS
 10
42.3958337307
 20
-30.5
 11
42.65625
 21
-30.553191483
  0
LINE
  5
527
100
AcDbEntity
  8
0
100
AcDbLine
 62
7
  6
CONTINUOUS
 10
41.71875
 20
-32.6276595816
 11
41.9270837307
 21
-32.6808510646
  0
LINE
  5
528
100
AcDbEntity
  8
0
100
AcDbLine
 62
7
  6
CONTINUOUS
 10
37.65625
 20
-31.5638298094
 11
37.4479162693
 21
-31.5106383264
  0
LINE
  5
529
100
AcDbEntity
  8
0
100
AcDbLine
 62
7
  6
CONTINUOUS
 10
44.1666662693
 20
-32.7340425476
 11
44.375
 21
-32.7872340493
  0
LINE
  5
52A
100
AcDbEntity
  8
0
100
AcDbLine
 62
7
  6
CONTINUOUS
 10
49.84375
 20
-33.0
 11
49.6354174614
 21
-32.9468085123
  0
LINE
  5
52B
100
AcDbEntity
  8
0
100
AcDbLine
 62
7
  6
CONTINUOUS
 10
42.6041662693
 20
-30.8723403811
 11
42.3958337307
 21
-30.8191488981
  0
LINE
  5
52C
100
AcDbEntity
  8
0
100
AcDbLine
 62
7
  6
CONTINUOUS
 10
50.46875
 20
-31.5638298094
 11
50.2604174614
 21
-31.5106383264
  0
LINE
  5
52D
100
AcDbEntity
  8
0
100
AcDbLine
 62
7
  6
CONTINUOUS
 10
52.34375
 20
-31.5638298094
 11
52.1354174614
 21
-31.5106383264
  0
LINE
  5
52E
100
AcDbEntity
  8
0
100
AcDbLine
 62
7
  6
CONTINUOUS
 10
32.03125
 20
-32.9468085123
 11
31.875
 21
-32.8936170247
  0
LINE
  5
52F
100
AcDbEntity
  8
0
100
AcDbLine
 62
7
  6
CONTINUOUS
 10
37.65625
 20
-31.2978723943
 11
37.8125
 21
-31.3510638773
  0
LINE
  5
530
100
AcDbEntity
  8
0
100
AcDbLine
 62
7
  6
CONTINUOUS
 10
44.1145837307
 20
-32.9468085123
 11
43.9583337307
 21
-32.8936170247
  0
LINE
  5
531
100
AcDbEntity
  8
0
100
AcDbLine
 62
7
  6
CONTINUOUS
 10
27.6041665673
 20
-32.9468085123
 11
27.5
 21
-32.8936170247
  0
LINE
  5
532
100
AcDbEntity
  8
0
100
AcDbLine
 62
7
  6
CONTINUOUS
 10
27.6041665673
 20
-32.6808510646
 11
27.8125
 21
-32.7872340493
  0
LINE
  5
533
100
AcDbEntity
  8
0
100
AcDbLine
 62
7
  6
CONTINUOUS
 10
-41.8888297796
 20
25.3082013626
 11
-41.7611702204
 21
25.141534378
  0
LINE
  5
534
100
AcDbEntity
  8
0
100
AcDbLine
 62
7
  6
CONTINUOUS
 10
-42.5696808815
 20
28.3082013626
 11
-42.4845745087
 21
28.1832013626
  0
LINE
  5
535
100
AcDbEntity
  8
0
100
AcDbLine
 62
7
  6
CONTINUOUS
 10
-41.8888297796
 20
28.016534378
 11
-42.0590425253
 21
28.266534378
  0
LINE
  5
536
100
AcDbEntity
  8
0
100
AcDbLine
 62
7
  6
CONTINUOUS
 10
-41.8462765932
 20
28.3082013626
 11
-41.7611702204
 21
28.1832013626
  0
LINE
  5
537
100
AcDbEntity
  8
0
100
AcDbLine
 62
7
  6
CONTINUOUS
 10
-42.5696808815
 20
30.1415348549
 11
-42.4845745087
 21
30.0165348549
  0
LINE
  5
538
100
AcDbEntity
  8
0
100
AcDbLine
 62
7
  6
CONTINUOUS
 10
-41.8888297796
 20
29.8498678703
 11
-42.0590425253
 21
30.0998678703
  0
LINE
  5
539
100
AcDbEntity
  8
0
100
AcDbLine
 62
7
  6
CONTINUOUS
 10
-41.0803191483
 20
28.8498678703
 11
-41.1654255211
 21
28.9748678703
  0
LINE
  5
53A
100
AcDbEntity
  8
0
100
AcDbLine
 62
7
  6
CONTINUOUS
 10
-41.8462765932
 20
30.1415348549
 11
-41.7611702204
 21
30.0165348549
  0
LINE
  5
53B
100
AcDbEntity
  8
0
100
AcDbLine
 62
7
  6
CONTINUOUS
 10
-41.0803191483
 20
30.6832008857
 11
-41.1654255211
 21
30.8082008857
  0
LINE
  5
53C
100
AcDbEntity
  8
0
100
AcDbLine
 62
7
  6
CONTINUOUS
 10
-42.6547872543
 20
28.0582013626
 11
-42.7824468136
 21
28.266534378
  0
LINE
  5
53D
100
AcDbEntity
  8
0
100
AcDbLine
 62
7
  6
CONTINUOUS
 10
-42.6547872543
 20
29.8915348549
 11
-42.7824468136
 21
30.0998678703
  0
LINE
  5
53E
100
AcDbEntity
  8
0
100
AcDbLine
 62
7
  6
CONTINUOUS
 10
-40.9952127606
 20
29.0998678703
 11
-40.8675531901
 21
28.8915348549
  0
LINE
  5
53F
100
AcDbEntity
  8
0
100
AcDbLine
 62
7
  6
CONTINUOUS
 10
-40.9952127606
 20
30.9332008857
 11
-40.8675531901
 21
30.7248678703
  0
LINE
  5
540
100
AcDbEntity
  8
0
100
AcDbLine
 62
7
  6
CONTINUOUS
 10
-41.8462765932
 20
36.1415348549
 11
-42.2718084574
 21
36.9332018394
  0
LINE
  5
541
100
AcDbEntity
  8
0
100
AcDbLine
 62
7
  6
CONTINUOUS
 10
-41.8888297796
 20
35.5998678703
 11
-41.8037234068
 21
35.4332008857
  0
LINE
  5
542
100
AcDbEntity
  8
0
100
AcDbLine
 62
7
  6
CONTINUOUS
 10
-42.1441488981
 20
37.0165339012
 11
-41.8462765932
 21
36.4332008857
  0
LWPOLYLINE
  5
543
100
AcDbEntity
  8
0
100
AcDbPolyline
 62
253
  6
CONTINUOUS
 90
9
 70
0
 10
-71.425
 20
-18.9443979996
 10
-71.4902619368
 20
-18.948641188
 10
-71.5544065905
 20
-18.9612979748
 10
-71.6163365438
 20
-18.9821515467
 10
-71.6749912848
 20
-19.0108442681
 10
-71.7293686354
 20
-19.0468853329
 10
-71.7785410383
 20
-19.0896604773
 10
-71.821668028
 20
-19.1384407501
 10
-71.8580086993
 20
-19.1923906005
  0
LINE
  5
544
100
AcDbEntity
  8
0
100
AcDbLine
 62
253
  6
CONTINUOUS
 10
-4.925
 20
-15.5521198893
 11
5.075
 21
-15.5521198893
  0
LINE
  5
545
100
AcDbEntity
  8
0
100
AcDbLine
 62
7
  6
CONTINUOUS
 10
-72.025
 20
-15.5
 11
-71.925
 21
-15.5
  0
LINE
  5
546
100
AcDbEntity
  8
0
100
AcDbLine
 62
7
  6
CONTINUOUS
 10
-4.925
 20
-14.8562277805
 11
5.075
 21
-14.8562277805
  0
LINE
  5
547
100
AcDbEntity
  8
0
100
AcDbLine
 62
253
  6
CONTINUOUS
 10
-4.925
 20
-14.4077069092
 11
5.075
 21
-14.4077069092
  0
LINE
  5
548
100
AcDbEntity
  8
0
100
AcDbLine
 62
7
  6
CONTINUOUS
 10
5.075
 20
-14.13
 11
-4.925
 21
-14.13
  0
LINE
  5
549
100
AcDbEntity
  8
0
100
AcDbLine
 62
253
  6
CONTINUOUS
 10
-72.025
 20
-13.9
 11
-71.925
 21
-13.9
  0
LWPOLYLINE
  5
54A
100
AcDbEntity
  8
0
100
AcDbPolyline
 62
253
  6
CONTINUOUS
 90
13
 70
0
 10
71.575
 20
-18.9443979996
 10
71.6402599839
 20
-18.948640933
 10
71.7044035249
 20
-18.96129716
 10
71.7663332069
 20
-18.9821501756
 10
71.824988937
 20
-19.0108429235
 10
71.879367807
 20
-19.0468847024
 10
71.9285408037
 20
-19.0896602446
 10
71.971666889
 20
-19.1384392777
 10
72.008006517
 20
-19.192386851
 10
72.0369364316
 20
-19.2505783867
 10
72.0579614203
 20
-19.3120174529
 10
72.070722057
 20
-19.3756532846
 10
72.075
 20
-19.4403969555
  0
LINE
  5
54B
100
AcDbEntity
  8
0
100
AcDbLine
 62
7
  6
CONTINUOUS
 10
47.7083325386
 20
-31.2978723943
 11
47.8645825386
 21
-31.3510638773
  0
LINE
  5
54C
100
AcDbEntity
  8
0
100
AcDbLine
 62
7
  6
CONTINUOUS
 10
48.5416674614
 20
-31.2978723943
 11
48.6979174614
 21
-31.3510638773
  0
LINE
  5
54D
100
AcDbEntity
  8
0
100
AcDbLine
 62
7
  6
CONTINUOUS
 10
52.34375
 20
-31.2978723943
 11
52.5
 21
-31.3510638773
  0
LINE
  5
54E
100
AcDbEntity
  8
0
100
AcDbLine
 62
7
  6
CONTINUOUS
 10
28.5416665673
 20
-31.6170212925
 11
28.4375
 21
-31.5638298094
  0
LINE
  5
54F
100
AcDbEntity
  8
0
100
AcDbLine
 62
7
  6
CONTINUOUS
 10
31.9791668653
 20
-32.6808510646
 11
32.0833331346
 21
-32.7340425476
  0
LINE
  5
550
100
AcDbEntity
  8
0
100
AcDbLine
 62
7
  6
CONTINUOUS
 10
30.5208331346
 20
-31.3510638773
 11
30.625
 21
-31.4042553604
  0
LINE
  5
551
100
AcDbEntity
  8
0
100
AcDbLine
 62
7
  6
CONTINUOUS
 10
37.7604162693
 20
-31.6170212925
 11
37.65625
 21
-31.5638298094
  0
LINE
  5
552
100
AcDbEntity
  8
0
100
AcDbLine
 62
7
  6
CONTINUOUS
 10
-42.0164893389
 20
25.0998678703
 11
-42.1015957117
 21
25.1832013626
  0
LWPOLYLINE
  5
553
100
AcDbEntity
  8
0
100
AcDbPolyline
 62
7
  6
CONTINUOUS
 90
21
 70
0
 10
2.275
 20
-23.5963621138
 10
2.2576185181
 20
-23.5727890094
 10
2.2292538521
 20
-23.5446395868
 10
2.1999954164
 20
-23.5223581009
 10
2.1708846391
 20
-23.5047373697
 10
2.143068014
 20
-23.4909535239
 10
2.1162487191
 20
-23.4797659516
 10
2.0889213414
 20
-23.4699651043
 10
2.0609339065
 20
-23.4611925242
 10
2.032348366
 20
-23.4532356296
 10
2.0021161596
 20
-23.4456668386
 10
1.9700925827
 20
-23.4383854705
 10
1.9363599647
 20
-23.431357973
 10
1.9003228542
 20
-23.4244292551
 10
1.8618212258
 20
-23.417558054
 10
1.820908823
 20
-23.4107452969
 10
1.7773490843
 20
-23.4039426057
 10
1.731098518
 20
-23.3971370609
 10
1.6821737392
 20
-23.3903255332
 10
1.6304566988
 20
-23.3834873467
 10
1.5759279756
 20
-23.3766171375
  0
LWPOLYLINE
  5
554
100
AcDbEntity
  8
0
100
AcDbPolyline
 62
7
  6
CONTINUOUS
 90
24
 70
0
 10
-2.125
 20
-23.4016184207
 10
-2.1184460071
 20
-23.4116576122
 10
-2.0912578808
 20
-23.4416013748
 10
-2.0642115203
 20
-23.4641706379
 10
-2.0377960481
 20
-23.4816358154
 10
-2.0121777784
 20
-23.4954433392
 10
-1.9881789505
 20
-23.5062485298
 10
-1.9655710897
 20
-23.5149649839
 10
-1.9425299927
 20
-23.5227078302
 10
-1.9185802191
 20
-23.529804623
 10
-1.8939519747
 20
-23.5363163863
 10
-1.8679125784
 20
-23.5425257125
 10
-1.8402468282
 20
-23.5485266982
 10
-1.8110119099
 20
-23.5543409681
 10
-1.7800829268
 20
-23.5600238495
 10
-1.7475947985
 20
-23.5655786895
 10
-1.7134692583
 20
-23.5710432878
 10
-1.6773465661
 20
-23.5764891771
 10
-1.6391400333
 20
-23.581935755
 10
-1.5989215385
 20
-23.5873784871
 10
-1.5565525532
 20
-23.5928408354
 10
-1.5120119308
 20
-23.5983285583
 10
-1.4653108546
 20
-23.6038432266
 10
-1.3651452107
 20
-23.6149957516
  0
LINE
  5
555
100
AcDbEntity
  8
0
100
AcDbLine
 62
7
  6
CONTINUOUS
 10
-9.225
 20
-43.5
 11
-9.225
 21
-39.3997023889
  0
LINE
  5
556
100
AcDbEntity
  8
0
100
AcDbLine
 62
7
  6
CONTINUOUS
 10
-9.225
 20
-21.7
 11
-9.225
 21
-36.0
  0
LINE
  5
557
100
AcDbEntity
  8
0
100
AcDbLine
 62
7
  6
CONTINUOUS
 10
-7.425
 20
-21.2
 11
-7.425
 21
-36.0
  0
LINE
  5
558
100
AcDbEntity
  8
0
100
AcDbLine
 62
7
  6
CONTINUOUS
 10
-6.325
 20
-18.7562277806
 11
-6.325
 21
-19.5
  0
LINE
  5
559
100
AcDbEntity
  8
0
100
AcDbLine
 62
7
  6
CONTINUOUS
 10
-5.625
 20
-39.3997023889
 11
-5.625
 21
-36.0
  0
LINE
  5
55A
100
AcDbEntity
  8
0
100
AcDbLine
 62
7
  6
CONTINUOUS
 10
-5.625
 20
-18.7562277806
 11
-5.625
 21
-16.5
  0
LINE
  5
55B
100
AcDbEntity
  8
0
100
AcDbLine
 62
7
  6
CONTINUOUS
 10
-5.075
 20
-24.2
 11
-5.075
 21
-19.5
  0
LINE
  5
55C
100
AcDbEntity
  8
0
100
AcDbLine
 62
7
  6
CONTINUOUS
 10
-4.925
 20
-39.0
 11
-4.925
 21
-36.0
  0
LINE
  5
55D
100
AcDbEntity
  8
0
100
AcDbLine
 62
7
  6
CONTINUOUS
 10
-4.925
 20
-14.13
 11
-4.925
 21
-24.2
  0
LINE
  5
55E
100
AcDbEntity
  8
0
100
AcDbLine
 62
7
  6
CONTINUOUS
 10
41.6666662693
 20
-32.9468085123
 11
41.4583337307
 21
-32.8404255323
  0
LINE
  5
55F
100
AcDbEntity
  8
0
100
AcDbLine
 62
7
  6
CONTINUOUS
 10
44.0625
 20
-32.6808510646
 11
44.1666662693
 21
-32.7340425476
  0
LINE
  5
560
100
AcDbEntity
  8
0
100
AcDbLine
 62
7
  6
CONTINUOUS
 10
42.65625
 20
-30.553191483
 11
42.8645837307
 21
-30.6595744491
  0
LINE
  5
561
100
AcDbEntity
  8
0
100
AcDbLine
 62
7
  6
CONTINUOUS
 10
49.6354174614
 20
-32.9468085123
 11
49.53125
 21
-32.8936170247
  0
LINE
  5
562
100
AcDbEntity
  8
0
100
AcDbLine
 62
7
  6
CONTINUOUS
 10
49.6354174614
 20
-32.6808510646
 11
49.84375
 21
-32.7872340493
  0
LINE
  5
563
100
AcDbEntity
  8
0
100
AcDbLine
 62
7
  6
CONTINUOUS
 10
47.7083325386
 20
-31.5638298094
 11
47.6041674614
 21
-31.5106383264
  0
LINE
  5
564
100
AcDbEntity
  8
0
100
AcDbLine
 62
7
  6
CONTINUOUS
 10
48.5416674614
 20
-31.5638298094
 11
48.4375
 21
-31.5106383264
  0
LINE
  5
565
100
AcDbEntity
  8
0
100
AcDbLine
 62
7
  6
CONTINUOUS
 10
50.5729174614
 20
-31.6170212925
 11
50.46875
 21
-31.5638298094
  0
LINE
  5
566
100
AcDbEntity
  8
0
100
AcDbLine
 62
7
  6
CONTINUOUS
 10
32.65625
 20
-31.3510638773
 11
32.9166668653
 21
-31.5106383264
  0
LINE
  5
567
100
AcDbEntity
  8
0
100
AcDbLine
 62
7
  6
CONTINUOUS
 10
29.7916668653
 20
-32.9468085123
 11
29.6354168653
 21
-32.8404255323
  0
LINE
  5
568
100
AcDbEntity
  8
0
100
AcDbLine
 62
7
  6
CONTINUOUS
 10
29.7395831346
 20
-32.5744680986
 11
29.8958331346
 21
-32.6808510646
  0
LINE
  5
569
100
AcDbEntity
  8
0
100
AcDbLine
 62
7
  6
CONTINUOUS
 10
28.5416665673
 20
-31.3510638773
 11
28.6979165673
 21
-31.4574468434
  0
LINE
  5
56A
100
AcDbEntity
  8
0
100
AcDbLine
 62
7
  6
CONTINUOUS
 10
31.875
 20
-32.8936170247
 11
31.71875
 21
-32.7872340493
  0
LINE
  5
56B
100
AcDbEntity
  8
0
100
AcDbLine
 62
7
  6
CONTINUOUS
 10
30.6770831346
 20
-31.7234042585
 11
30.5208331346
 21
-31.6170212925
  0
LINE
  5
56C
100
AcDbEntity
  8
0
100
AcDbLine
 62
7
  6
CONTINUOUS
 10
32.7604168653
 20
-31.6702127755
 11
32.6041668653
 21
-31.5638298094
  0
LINE
  5
56D
100
AcDbEntity
  8
0
100
AcDbLine
 62
7
  6
CONTINUOUS
 10
-41.7611702204
 20
28.1832013626
 11
-41.6760638475
 21
28.0998678703
  0
LINE
  5
56E
100
AcDbEntity
  8
0
100
AcDbLine
 62
7
  6
CONTINUOUS
 10
-41.7611702204
 20
30.0165348549
 11
-41.6760638475
 21
29.9332008857
  0
LINE
  5
56F
100
AcDbEntity
  8
0
100
AcDbLine
 62
7
  6
CONTINUOUS
 10
2.275870566
 20
-22.7851879258
 11
2.2727915281
 21
-22.748184217
  0
LINE
  5
570
100
AcDbEntity
  8
0
100
AcDbLine
 62
7
  6
CONTINUOUS
 10
-2.925
 20
-39.5
 11
-2.925
 21
-36.0
  0
LINE
  5
571
100
AcDbEntity
  8
0
100
AcDbLine
 62
7
  6
CONTINUOUS
 10
-2.425
 20
-14.13
 11
-2.425
 21
-3.0
  0
LINE
  5
572
100
AcDbEntity
  8
0
100
AcDbLine
 62
7
  6
CONTINUOUS
 10
-2.125
 20
-24.2
 11
-2.125
 21
-22.83
  0
LINE
  5
573
100
AcDbEntity
  8
0
100
AcDbLine
 62
7
  6
CONTINUOUS
 10
-1.925
 20
-30.8
 11
-1.925
 21
-24.2
  0
LINE
  5
574
100
AcDbEntity
  8
0
100
AcDbLine
 62
253
  6
CONTINUOUS
 10
0.0750037888
 20
-26.7390875259
 11
0.0749879729
 21
-26.259754441
  0
LINE
  5
575
100
AcDbEntity
  8
0
100
AcDbLine
 62
7
  6
CONTINUOUS
 10
-2.425
 20
-3.0
 11
2.575
 21
-3.0
  0
LINE
  5
576
100
AcDbEntity
  8
0
100
AcDbLine
 62
7
  6
CONTINUOUS
 10
52.4479174614
 20
-31.6170212925
 11
52.34375
 21
-31.5638298094
  0
LINE
  5
577
100
AcDbEntity
  8
0
100
AcDbLine
 62
7
  6
CONTINUOUS
 10
44.7395825386
 20
-31.3510638773
 11
45.0
 21
-31.5106383264
  0
LINE
  5
578
100
AcDbEntity
  8
0
100
AcDbLine
 62
7
  6
CONTINUOUS
 10
-42.1441488981
 20
22.7248678703
 11
-42.2718084574
 21
22.8082011242
  0
LINE
  5
579
100
AcDbEntity
  8
0
100
AcDbLine
 62
7
  6
CONTINUOUS
 10
-42.4845745087
 20
28.1832013626
 11
-42.3569149494
 21
28.0998678703
  0
LINE
  5
57A
100
AcDbEntity
  8
0
100
AcDbLine
 62
7
  6
CONTINUOUS
 10
-46.9252671418
 20
26.919571369
 11
-47.8017206301
 21
27.5038736946
  0
LINE
  5
57B
100
AcDbEntity
  8
0
100
AcDbLine
 62
7
  6
CONTINUOUS
 10
-48.6797271907
 20
28.0892114017
 11
-50.3520801741
 21
29.2041133906
  0
LINE
  5
57C
100
AcDbEntity
  8
0
100
AcDbLine
 62
7
  6
CONTINUOUS
 10
-50.0279675595
 20
29.6902823126
 11
-48.3556145761
 21
28.5753803236
  0
LINE
  5
57D
100
AcDbEntity
  8
0
100
AcDbLine
 62
7
  6
CONTINUOUS
 10
-47.4776080155
 20
27.9900426166
 11
-46.6011545271
 21
27.405740291
  0
LINE
  5
57E
100
AcDbEntity
  8
0
100
AcDbLine
 62
7
  6
CONTINUOUS
 10
-45.2171511628
 20
30.4709302326
 11
-46.0936046512
 21
31.0552325581
  0
LINE
  5
57F
100
AcDbEntity
  8
0
100
AcDbLine
 62
7
  6
CONTINUOUS
 10
37.8125
 20
-31.3510638773
 11
37.96875
 21
-31.4574468434
  0
LINE
  5
580
100
AcDbEntity
  8
0
100
AcDbLine
 62
7
  6
CONTINUOUS
 10
41.5625
 20
-32.5212765783
 11
41.71875
 21
-32.6276595816
  0
LINE
  5
581
100
AcDbEntity
  8
0
100
AcDbLine
 62
7
  6
CONTINUOUS
 10
43.9583337307
 20
-32.8936170247
 11
43.8020837307
 21
-32.7872340493
  0
LINE
  5
582
100
AcDbEntity
  8
0
100
AcDbLine
 62
7
  6
CONTINUOUS
 10
42.7604162693
 20
-30.9787233472
 11
42.6041662693
 21
-30.8723403811
  0
LINE
  5
583
100
AcDbEntity
  8
0
100
AcDbLine
 62
7
  6
CONTINUOUS
 10
44.84375
 20
-31.6702127755
 11
44.6875
 21
-31.5638298094
  0
LINE
  5
584
100
AcDbEntity
  8
0
100
AcDbLine
 62
7
  6
CONTINUOUS
 10
-42.0590425253
 20
25.4332013626
 11
-41.8888297796
 21
25.3082013626
  0
LINE
  5
585
100
AcDbEntity
  8
0
100
AcDbLine
 62
7
  6
CONTINUOUS
 10
-42.4845745087
 20
27.9332013626
 11
-42.6547872543
 21
28.0582013626
  0
LINE
  5
586
100
AcDbEntity
  8
0
100
AcDbLine
 62
7
  6
CONTINUOUS
 10
-42.4845745087
 20
29.7665348549
 11
-42.6547872543
 21
29.8915348549
  0
LINE
  5
587
100
AcDbEntity
  8
0
100
AcDbLine
 62
7
  6
CONTINUOUS
 10
-41.1654255211
 20
29.2248678703
 11
-40.9952127606
 21
29.0998678703
  0
LINE
  5
588
100
AcDbEntity
  8
0
100
AcDbLine
 62
7
  6
CONTINUOUS
 10
-41.1654255211
 20
31.0582008857
 11
-40.9952127606
 21
30.9332008857
  0
LINE
  5
589
100
AcDbEntity
  8
0
100
AcDbLine
 62
7
  6
CONTINUOUS
 10
-42.0164893389
 20
35.3915348549
 11
-42.1015957117
 21
35.4748678703
  0
LINE
  5
58A
100
AcDbEntity
  8
0
100
AcDbLine
 62
7
  6
CONTINUOUS
 10
27.5
 20
-32.8936170247
 11
27.34375
 21
-32.7340425476
  0
LINE
  5
58B
100
AcDbEntity
  8
0
100
AcDbLine
 62
7
  6
CONTINUOUS
 10
29.6354168653
 20
-32.8404255323
 11
29.4791668653
 21
-32.6808510646
  0
LINE
  5
58C
100
AcDbEntity
  8
0
100
AcDbLine
 62
7
  6
CONTINUOUS
 10
28.6979165673
 20
-31.4574468434
 11
28.8020834327
 21
-31.5638298094
  0
LINE
  5
58D
100
AcDbEntity
  8
0
100
AcDbLine
 62
7
  6
CONTINUOUS
 10
31.71875
 20
-32.7872340493
 11
31.6145831346
 21
-32.6808510646
  0
LINE
  5
58E
100
AcDbEntity
  8
0
100
AcDbLine
 62
7
  6
CONTINUOUS
 10
30.625
 20
-31.4042553604
 11
30.7291668653
 21
-31.5106383264
  0
LINE
  5
58F
100
AcDbEntity
  8
0
100
AcDbLine
 62
7
  6
CONTINUOUS
 10
31.8229168653
 20
-32.5212765783
 11
31.9791668653
 21
-32.6808510646
  0
LWPOLYLINE
  5
590
100
AcDbEntity
  8
0
100
AcDbPolyline
 62
7
  6
CONTINUOUS
 90
13
 70
0
 10
2.2727915281
 20
-22.748184217
 10
2.2648435859
 20
-22.7132885025
 10
2.2520267393
 20
-22.6805007823
 10
2.2339146532
 20
-22.6491408502
 10
2.2109336628
 20
-22.6198889125
 10
2.1843627739
 20
-22.5947855875
 10
2.1540148024
 20
-22.5741373521
 10
2.1200769323
 20
-22.5576377295
 10
2.084389721
 20
-22.5464079072
 10
2.0466502254
 20
-22.5407087745
 10
2.0071613886
 20
-22.5402794422
 10
1.9686725974
 20
-22.5454584302
 10
1.9353702896
 20
-22.5552127892
  0
LINE
  5
591
100
AcDbEntity
  8
0
100
AcDbLine
 62
7
  6
CONTINUOUS
 10
2.075
 20
-24.2
 11
2.075
 21
-30.8
  0
LINE
  5
592
100
AcDbEntity
  8
0
100
AcDbLine
 62
7
  6
CONTINUOUS
 10
2.275
 20
-22.817715008
 11
2.275
 21
-24.2
  0
LINE
  5
593
100
AcDbEntity
  8
0
100
AcDbLine
 62
7
  6
CONTINUOUS
 10
2.575
 20
-3.0
 11
2.575
 21
-14.13
  0
LINE
  5
594
100
AcDbEntity
  8
0
100
AcDbLine
 62
7
  6
CONTINUOUS
 10
3.075
 20
-36.0
 11
3.075
 21
-39.5
  0
LINE
  5
595
100
AcDbEntity
  8
0
100
AcDbLine
 62
7
  6
CONTINUOUS
 10
5.075
 20
-24.2
 11
5.075
 21
-14.13
  0
LINE
  5
596
100
AcDbEntity
  8
0
100
AcDbLine
 62
7
  6
CONTINUOUS
 10
5.075
 20
-36.0
 11
5.075
 21
-39.0
  0
LINE
  5
597
100
AcDbEntity
  8
0
100
AcDbLine
 62
7
  6
CONTINUOUS
 10
5.225
 20
-19.5
 11
5.225
 21
-24.2
  0
LINE
  5
598
100
AcDbEntity
  8
0
100
AcDbLine
 62
7
  6
CONTINUOUS
 10
5.775
 20
-16.5
 11
5.775
 21
-18.7562277806
  0
LINE
  5
599
100
AcDbEntity
  8
0
100
AcDbLine
 62
7
  6
CONTINUOUS
 10
5.775
 20
-36.0
 11
5.775
 21
-39.3997023889
  0
LWPOLYLINE
  5
59A
100
AcDbEntity
  8
0
100
AcDbPolyline
 62
7
  6
CONTINUOUS
 90
7
 70
0
 10
2.2732743491
 20
-22.83
 10
2.273811026
 20
-22.8226046459
 10
2.2743061133
 20
-22.8151799618
 10
2.274759611
 20
-22.8077259477
 10
2.275171519
 20
-22.8002426037
 10
2.2755418373
 20
-22.7927299297
 10
2.275870566
 20
-22.7851879258
  0
LINE
  5
59B
100
AcDbEntity
  8
0
100
AcDbLine
 62
7
  6
CONTINUOUS
 10
-41.1654255211
 20
28.9748678703
 11
-41.2930851102
 21
29.0582008857
  0
LINE
  5
59C
100
AcDbEntity
  8
0
100
AcDbLine
 62
7
  6
CONTINUOUS
 10
-42.4845745087
 20
30.0165348549
 11
-42.3569149494
 21
29.9332008857
  0
LINE
  5
59D
100
AcDbEntity
  8
0
100
AcDbLine
 62
7
  6
CONTINUOUS
 10
-41.1654255211
 20
30.8082008857
 11
-41.2930851102
 21
30.8915348549
  0
LINE
  5
59E
100
AcDbEntity
  8
0
100
AcDbLine
 62
7
  6
CONTINUOUS
 10
50.5729174614
 20
-31.3510638773
 11
50.7291674614
 21
-31.4574468434
  0
LINE
  5
59F
100
AcDbEntity
  8
0
100
AcDbLine
 62
7
  6
CONTINUOUS
 10
52.5
 20
-31.3510638773
 11
52.65625
 21
-31.4574468434
  0
LINE
  5
5A0
100
AcDbEntity
  8
0
100
AcDbLine
 62
7
  6
CONTINUOUS
 10
-42.0590425253
 20
35.7248678703
 11
-41.8888297796
 21
35.5998678703
  0
LINE
  5
5A1
100
AcDbEntity
  8
0
100
AcDbLine
 62
7
  6
CONTINUOUS
 10
37.8645837307
 20
-31.7234042585
 11
37.7604162693
 21
-31.6170212925
  0
LINE
  5
5A2
100
AcDbEntity
  8
0
100
AcDbLine
 62
7
  6
CONTINUOUS
 10
37.96875
 20
-31.4574468434
 11
38.0729162693
 21
-31.5638298094
  0
LINE
  5
5A3
100
AcDbEntity
  8
0
100
AcDbLine
 62
7
  6
CONTINUOUS
 10
6.475
 20
-19.5
 11
6.475
 21
-18.7562277806
  0
LINE
  5
5A4
100
AcDbEntity
  8
0
100
AcDbLine
 62
7
  6
CONTINUOUS
 10
7.575
 20
-36.0
 11
7.575
 21
-21.2
  0
LINE
  5
5A5
100
AcDbEntity
  8
0
100
AcDbLine
 62
7
  6
CONTINUOUS
 10
9.375
 20
-36.0
 11
9.375
 21
-21.7
  0
LINE
  5
5A6
100
AcDbEntity
  8
0
100
AcDbLine
 62
7
  6
CONTINUOUS
 10
9.375
 20
-39.3997023889
 11
9.375
 21
-43.5
  0
LINE
  5
5A7
100
AcDbEntity
  8
0
100
AcDbLine
 62
7
  6
CONTINUOUS
 10
-72.025
 20
8.0
 11
-72.075
 21
8.0
  0
LINE
  5
5A8
100
AcDbEntity
  8
0
100
AcDbLine
 62
7
  6
CONTINUOUS
 10
-42.1015957117
 20
25.1832013626
 11
-42.229255271
 21
25.2248678703
  0
LINE
  5
5A9
100
AcDbEntity
  8
0
100
AcDbLine
 62
7
  6
CONTINUOUS
 10
-42.1867020845
 20
25.4748678703
 11
-42.0590425253
 21
25.4332013626
  0
LINE
  5
5AA
100
AcDbEntity
  8
0
100
AcDbLine
 62
7
  6
CONTINUOUS
 10
-40.825
 20
25.8082013626
 11
-42.825
 21
26.4748678703
  0
LINE
  5
5AB
100
AcDbEntity
  8
0
100
AcDbLine
 62
7
  6
CONTINUOUS
 10
-42.2718084574
 20
27.8498678703
 11
-42.4845745087
 21
27.9332013626
  0
LINE
  5
5AC
100
AcDbEntity
  8
0
100
AcDbLine
 62
7
  6
CONTINUOUS
 10
-49.7997393004
 20
32.415605612
 11
-48.8274014564
 21
32.0104648436
  0
LINE
  5
5AD
100
AcDbEntity
  8
0
100
AcDbLine
 62
7
  6
CONTINUOUS
 10
-41.5484042287
 20
37.0165339012
 11
-41.4207446694
 21
36.9332018394
  0
LINE
  5
5AE
100
AcDbEntity
  8
0
100
AcDbLine
 62
7
  6
CONTINUOUS
 10
47.7604174614
 20
-31.6170212925
 11
47.7083325386
 21
-31.5638298094
  0
LINE
  5
5AF
100
AcDbEntity
  8
0
100
AcDbLine
 62
7
  6
CONTINUOUS
 10
41.4583337307
 20
-32.8404255323
 11
41.25
 21
-32.6276595816
  0
LINE
  5
5B0
100
AcDbEntity
  8
0
100
AcDbLine
 62
7
  6
CONTINUOUS
 10
43.8020837307
 20
-32.7872340493
 11
43.6979162693
 21
-32.6808510646
  0
LINE
  5
5B1
100
AcDbEntity
  8
0
100
AcDbLine
 62
7
  6
CONTINUOUS
 10
43.90625
 20
-32.5212765783
 11
44.0625
 21
-32.6808510646
  0
LINE
  5
5B2
100
AcDbEntity
  8
0
100
AcDbLine
 62
7
  6
CONTINUOUS
 10
42.8645837307
 20
-30.6595744491
 11
43.0729162693
 21
-30.8723403812
  0
LINE
  5
5B3
100
AcDbEntity
  8
0
100
AcDbLine
 62
7
  6
CONTINUOUS
 10
32.9166668653
 20
-31.5106383264
 11
33.0729168653
 21
-31.7234042585
  0
LINE
  5
5B4
100
AcDbEntity
  8
0
100
AcDbLine
 62
7
  6
CONTINUOUS
 10
30.78125
 20
-31.8829787076
 11
30.6770831346
 21
-31.7234042585
  0
LINE
  5
5B5
100
AcDbEntity
  8
0
100
AcDbLine
 62
7
  6
CONTINUOUS
 10
32.8645831346
 20
-31.8297872245
 11
32.7604168653
 21
-31.6702127755
  0
LINE
  5
5B6
100
AcDbEntity
  8
0
100
AcDbLine
 62
7
  6
CONTINUOUS
 10
27.5520834327
 20
-32.5744680986
 11
27.6041665673
 21
-32.6808510646
  0
LINE
  5
5B7
100
AcDbEntity
  8
0
100
AcDbLine
 62
7
  6
CONTINUOUS
 10
28.6979165673
 20
-33.0
 11
28.6458334327
 21
-32.8936170247
  0
LINE
  5
5B8
100
AcDbEntity
  8
0
100
AcDbLine
 62
7
  6
CONTINUOUS
 10
28.59375
 20
-31.7234042585
 11
28.5416665673
 21
-31.6170212925
  0
LINE
  5
5B9
100
AcDbEntity
  8
0
100
AcDbLine
 62
7
  6
CONTINUOUS
 10
-2.0922042614
 20
-24.0582790754
 11
-2.1180341295
 21
-24.0868319663
  0
LINE
  5
5BA
100
AcDbEntity
  8
0
100
AcDbLine
 62
253
  6
CONTINUOUS
 10
-72.025
 20
13.9
 11
-71.925
 21
13.9
  0
LINE
  5
5BB
100
AcDbEntity
  8
0
100
AcDbLine
 62
7
  6
CONTINUOUS
 10
-72.075
 20
14.0
 11
-72.025
 21
14.0
  0
LINE
  5
5BC
100
AcDbEntity
  8
0
100
AcDbLine
 62
7
  6
CONTINUOUS
 10
-71.425
 20
15.1
 11
-66.925
 21
15.1
  0
LINE
  5
5BD
100
AcDbEntity
  8
0
100
AcDbLine
 62
7
  6
CONTINUOUS
 10
71.575
 20
15.1
 11
67.575
 21
15.1
  0
LINE
  5
5BE
100
AcDbEntity
  8
0
100
AcDbLine
 62
7
  6
CONTINUOUS
 10
-32.425
 20
15.1
 11
-27.425
 21
15.1
  0
LINE
  5
5BF
100
AcDbEntity
  8
0
100
AcDbLine
 62
7
  6
CONTINUOUS
 10
27.575
 20
15.1
 11
32.575
 21
15.1
  0
LINE
  5
5C0
100
AcDbEntity
  8
0
100
AcDbLine
 62
7
  6
CONTINUOUS
 10
-72.025
 20
15.5
 11
-71.925
 21
15.5
  0
LINE
  5
5C1
100
AcDbEntity
  8
0
100
AcDbLine
 62
253
  6
CONTINUOUS
 10
-32.425
 20
15.6
 11
-27.425
 21
15.6
  0
LINE
  5
5C2
100
AcDbEntity
  8
0
100
AcDbLine
 62
253
  6
CONTINUOUS
 10
27.575
 20
15.6
 11
32.575
 21
15.6
  0
LINE
  5
5C3
100
AcDbEntity
  8
0
100
AcDbLine
 62
253
  6
CONTINUOUS
 10
67.075
 20
15.6
 11
72.075
 21
15.6
  0
LINE
  5
5C4
100
AcDbEntity
  8
0
100
AcDbLine
 62
253
  6
CONTINUOUS
 10
-66.925
 20
15.6
 11
-71.925
 21
15.6
  0
LINE
  5
5C5
100
AcDbEntity
  8
0
100
AcDbLine
 62
7
  6
CONTINUOUS
 10
-66.925
 20
17.6
 11
-32.425
 21
17.6
  0
LINE
  5
5C6
100
AcDbEntity
  8
0
100
AcDbLine
 62
7
  6
CONTINUOUS
 10
67.075
 20
17.6
 11
32.575
 21
17.6
  0
LINE
  5
5C7
100
AcDbEntity
  8
0
100
AcDbLine
 62
7
  6
CONTINUOUS
 10
-42.6547872543
 20
26.641534378
 11
-41.5058510423
 21
26.266534378
  0
LINE
  5
5C8
100
AcDbEntity
  8
0
100
AcDbLine
 62
7
  6
CONTINUOUS
 10
-41.3356382966
 20
26.2248678703
 11
-40.825
 21
26.0582013626
  0
LINE
  5
5C9
100
AcDbEntity
  8
0
100
AcDbLine
 62
7
  6
CONTINUOUS
 10
-42.3569149494
 20
28.0998678703
 11
-42.229255271
 21
28.0582013626
  0
LINE
  5
5CA
100
AcDbEntity
  8
0
100
AcDbLine
 62
7
  6
CONTINUOUS
 10
-41.6760638475
 20
28.0998678703
 11
-41.5484042287
 21
28.0582013626
  0
LINE
  5
5CB
100
AcDbEntity
  8
0
100
AcDbLine
 62
7
  6
CONTINUOUS
 10
-41.2930851102
 20
29.0582008857
 11
-41.4207446694
 21
29.0998678703
  0
LINE
  5
5CC
100
AcDbEntity
  8
0
100
AcDbLine
 62
7
  6
CONTINUOUS
 10
-42.3569149494
 20
29.9332008857
 11
-42.229255271
 21
29.8915348549
  0
LINE
  5
5CD
100
AcDbEntity
  8
0
100
AcDbLine
 62
7
  6
CONTINUOUS
 10
-41.6760638475
 20
29.9332008857
 11
-41.5484042287
 21
29.8915348549
  0
LINE
  5
5CE
100
AcDbEntity
  8
0
100
AcDbLine
 62
7
  6
CONTINUOUS
 10
-41.2930851102
 20
30.8915348549
 11
-41.4207446694
 21
30.9332008857
  0
LINE
  5
5CF
100
AcDbEntity
  8
0
100
AcDbLine
 62
7
  6
CONTINUOUS
 10
-41.378191483
 20
29.3082008857
 11
-41.1654255211
 21
29.2248678703
  0
LINE
  5
5D0
100
AcDbEntity
  8
0
100
AcDbLine
 62
7
  6
CONTINUOUS
 10
-42.2718084574
 20
29.6832008857
 11
-42.4845745087
 21
29.7665348549
  0
LINE
  5
5D1
100
AcDbEntity
  8
0
100
AcDbLine
 62
7
  6
CONTINUOUS
 10
-41.378191483
 20
31.1415348549
 11
-41.1654255211
 21
31.0582008857
  0
LINE
  5
5D2
100
AcDbEntity
  8
0
100
AcDbLine
 62
7
  6
CONTINUOUS
 10
47.8645825386
 20
-31.3510638773
 11
48.0208325386
 21
-31.5106383264
  0
LINE
  5
5D3
100
AcDbEntity
  8
0
100
AcDbLine
 62
7
  6
CONTINUOUS
 10
49.53125
 20
-32.8936170247
 11
49.375
 21
-32.7340425476
  0
LINE
  5
5D4
100
AcDbEntity
  8
0
100
AcDbLine
 62
7
  6
CONTINUOUS
 10
48.59375
 20
-31.6170212925
 11
48.5416674614
 21
-31.5638298094
  0
LINE
  5
5D5
100
AcDbEntity
  8
0
100
AcDbLine
 62
7
  6
CONTINUOUS
 10
48.6979174614
 20
-31.3510638773
 11
48.8020825386
 21
-31.4574468434
  0
LINE
  5
5D6
100
AcDbEntity
  8
0
100
AcDbLine
 62
7
  6
CONTINUOUS
 10
50.7291674614
 20
-31.4574468434
 11
50.8333325386
 21
-31.5638298094
  0
LINE
  5
5D7
100
AcDbEntity
  8
0
100
AcDbLine
 62
7
  6
CONTINUOUS
 10
52.5520825386
 20
-31.7234042585
 11
52.4479174614
 21
-31.6170212925
  0
LINE
  5
5D8
100
AcDbEntity
  8
0
100
AcDbLine
 62
7
  6
CONTINUOUS
 10
52.65625
 20
-31.4574468434
 11
52.7604174614
 21
-31.5638298094
  0
LINE
  5
5D9
100
AcDbEntity
  8
0
100
AcDbLine
 62
7
  6
CONTINUOUS
 10
45.0
 20
-31.5106383264
 11
45.15625
 21
-31.7234042585
  0
LINE
  5
5DA
100
AcDbEntity
  8
0
100
AcDbLine
 62
7
  6
CONTINUOUS
 10
41.4583337307
 20
-32.3617021293
 11
41.5625
 21
-32.5212765783
  0
LINE
  5
5DB
100
AcDbEntity
  8
0
100
AcDbLine
 62
7
  6
CONTINUOUS
 10
29.4791668653
 20
-32.6808510646
 11
29.4270831346
 21
-32.5744680986
  0
LINE
  5
5DC
100
AcDbEntity
  8
0
100
AcDbLine
 62
7
  6
CONTINUOUS
 10
30.7291668653
 20
-31.5106383264
 11
30.78125
 21
-31.6170212925
  0
LINE
  5
5DD
100
AcDbEntity
  8
0
100
AcDbLine
 62
7
  6
CONTINUOUS
 10
31.6145831346
 20
-32.6808510646
 11
31.5104168653
 21
-32.4680850953
  0
LINE
  5
5DE
100
AcDbEntity
  8
0
100
AcDbLine
 62
7
  6
CONTINUOUS
 10
31.7708331346
 20
-32.4148936123
 11
31.8229168653
 21
-32.5212765783
  0
LINE
  5
5DF
100
AcDbEntity
  8
0
100
AcDbLine
 62
7
  6
CONTINUOUS
 10
29.6354168653
 20
-32.3085106462
 11
29.7395831346
 21
-32.5744680986
  0
LINE
  5
5E0
100
AcDbEntity
  8
0
100
AcDbLine
 62
7
  6
CONTINUOUS
 10
25.4166666418
 20
-33.0
 11
24.6875
 21
-31.0319148302
  0
LINE
  5
5E1
100
AcDbEntity
  8
0
100
AcDbLine
 62
7
  6
CONTINUOUS
 10
24.84375
 20
-30.5
 11
25.625
 21
-32.7340425476
  0
LINE
  5
5E2
100
AcDbEntity
  8
0
100
AcDbLine
 62
7
  6
CONTINUOUS
 10
28.6458334327
 20
-32.8936170247
 11
28.59375
 21
-32.7340425476
  0
LINE
  5
5E3
100
AcDbEntity
  8
0
100
AcDbLine
 62
7
  6
CONTINUOUS
 10
28.90625
 20
-32.8404255323
 11
28.9583334327
 21
-33.0
  0
LINE
  5
5E4
100
AcDbEntity
  8
0
100
AcDbLine
 62
7
  6
CONTINUOUS
 10
28.8020834327
 20
-31.5638298094
 11
28.8541665673
 21
-31.7234042585
  0
LWPOLYLINE
  5
5E5
100
AcDbEntity
  8
0
100
AcDbPolyline
 62
7
  6
CONTINUOUS
 90
16
 70
0
 10
1.9295475473
 20
-24.558162869
 10
1.9325791438
 20
-24.5565441453
 10
1.9369588657
 20
-24.5544477193
 10
1.9355055974
 20
-24.5550136839
 10
1.9299823147
 20
-24.5569326277
 10
1.9206144695
 20
-24.5598350552
 10
1.9069478562
 20
-24.563631614
 10
1.8900772356
 20
-24.5678699784
 10
1.8702120281
 20
-24.5724312077
 10
1.8471065168
 20
-24.5773182755
 10
1.8211992403
 20
-24.5823991254
 10
1.7925630428
 20
-24.5876378638
 10
1.7611139868
 20
-24.5930314938
 10
1.727038861
 20
-24.598534062
 10
1.6903666922
 20
-24.6041321002
 10
1.6510665538
 20
-24.6098228013
  0
LWPOLYLINE
  5
5E6
100
AcDbEntity
  8
0
100
AcDbPolyline
 62
7
  6
CONTINUOUS
 90
8
 70
0
 10
2.0990493932
 20
-24.0254932871
 10
2.1257715161
 20
-24.0153774306
 10
2.1530973751
 20
-24.0032573642
 10
2.1812756058
 20
-23.9882656489
 10
2.2096876785
 20
-23.9696961848
 10
2.2382100261
 20
-23.9461457359
 10
2.2664190104
 20
-23.915408202
 10
2.275
 20
-23.9024151233
  0
LWPOLYLINE
  5
5E7
100
AcDbEntity
  8
0
100
AcDbPolyline
 62
253
  6
CONTINUOUS
 90
7
 70
0
 10
2.2951934276
 20
-23.7772486932
 10
2.2447710066
 20
-23.7951563736
 10
2.1703949987
 20
-23.8130114051
 10
2.0731678946
 20
-23.830800344
 10
1.9542677453
 20
-23.8485082247
 10
1.8148701142
 20
-23.8661261367
 10
1.6565413761
 20
-23.8836514245
  0
LWPOLYLINE
  5
5E8
100
AcDbEntity
  8
0
100
AcDbPolyline
 62
7
  6
CONTINUOUS
 90
17
 70
0
 10
1.9353316403
 20
-22.555106895
 10
1.9321756557
 20
-22.5562161487
 10
1.9224560306
 20
-22.5592926815
 10
1.9091795247
 20
-22.5630380464
 10
1.892711311
 20
-22.56723813
 10
1.8726127887
 20
-22.5719141637
 10
1.8495245156
 20
-22.5768500305
 10
1.8235567086
 20
-22.5819870721
 10
1.7945516546
 20
-22.5873264153
 10
1.7627303364
 20
-22.5928036483
 10
1.7281257553
 20
-22.5984000102
 10
1.6907112227
 20
-22.6041105739
 10
1.6506145819
 20
-22.6099092601
 10
1.6078640861
 20
-22.6157881645
 10
1.5624615953
 20
-22.6217440965
 10
1.5144883818
 20
-22.6277646596
 10
1.4639644119
 20
-22.6338467428
  0
LWPOLYLINE
  5
5E9
100
AcDbEntity
  8
0
100
AcDbPolyline
 62
7
  6
CONTINUOUS
 90
14
 70
0
 10
1.934713677
 20
-23.5553391531
 10
1.9327629447
 20
-23.5560245644
 10
1.9251052977
 20
-23.5584991111
 10
1.913204636
 20
-23.5619458729
 10
1.8982509742
 20
-23.5658629421
 10
1.8804717673
 20
-23.5701204319
 10
1.8596154569
 20
-23.5747206372
 10
1.8362562462
 20
-23.5794971068
 10
1.8105581409
 20
-23.5843991603
 10
1.7824004614
 20
-23.5894355855
 10
1.7519245348
 20
-23.5945688995
 10
1.7191563562
 20
-23.5997865357
 10
1.6840783527
 20
-23.6050842162
 10
1.6467390614
 20
-23.6104492688
  0
LWPOLYLINE
  5
5EA
100
AcDbEntity
  8
0
100
AcDbPolyline
 62
7
  6
CONTINUOUS
 90
14
 70
0
 10
-1.7970255605
 20
-23.4526053223
 10
-1.7965809723
 20
-23.4524531867
 10
-1.7916467693
 20
-23.4508667999
 10
-1.7812836799
 20
-23.4479346856
 10
-1.7672048972
 20
-23.4443964451
 10
-1.7497631251
 20
-23.4404460753
 10
-1.7284958278
 20
-23.436064157
 10
-1.7040722977
 20
-23.4314475093
 10
-1.6766293437
 20
-23.4266487323
 10
-1.6460230215
 20
-23.4216646015
 10
-1.6125045543
 20
-23.4165522968
 10
-1.5761176077
 20
-23.4113275544
 10
-1.5368145841
 20
-23.4059909693
 10
-1.494690947
 20
-23.4005610035
  0
LWPOLYLINE
  5
5EB
100
AcDbEntity
  8
0
100
AcDbPolyline
 62
7
  6
CONTINUOUS
 90
5
 70
0
 10
-1.7970094732
 20
-24.4525604989
 10
-1.7928706055
 20
-24.4512067517
 10
-1.7840108267
 20
-24.4486441077
 10
-1.771814637
 20
-24.4454967979
 10
-1.7565706659
 20
-24.4419361283
  0
LWPOLYLINE
  5
5EC
100
AcDbEntity
  8
0
100
AcDbPolyline
 62
253
  6
CONTINUOUS
 90
3
 70
0
 10
2.275870566
 20
-22.7851879258
 10
2.2152452869
 20
-22.8029400042
 10
2.131600716
 20
-22.8206381548
  0
LINE
  5
5ED
100
AcDbEntity
  8
0
100
AcDbLine
 62
253
  6
CONTINUOUS
 10
-66.925
 20
18.1
 11
-32.425
 21
18.1
  0
LINE
  5
5EE
100
AcDbEntity
  8
0
100
AcDbLine
 62
253
  6
CONTINUOUS
 10
67.575
 20
18.1
 11
32.575
 21
18.1
  0
LINE
  5
5EF
100
AcDbEntity
  8
0
100
AcDbLine
 62
253
  6
CONTINUOUS
 10
70.0604491719
 20
19.3
 11
27.575
 21
19.3
  0
LINE
  5
5F0
100
AcDbEntity
  8
0
100
AcDbLine
 62
253
  6
CONTINUOUS
 10
-27.425
 20
19.3
 11
-69.9104491719
 21
19.3
  0
LINE
  5
5F1
100
AcDbEntity
  8
0
100
AcDbLine
 62
7
  6
CONTINUOUS
 10
69.875
 20
19.8
 11
27.575
 21
19.8
  0
LINE
  5
5F2
100
AcDbEntity
  8
0
100
AcDbLine
 62
7
  6
CONTINUOUS
 10
-27.425
 20
19.8
 11
-69.725
 21
19.8
  0
LINE
  5
5F3
100
AcDbEntity
  8
0
100
AcDbLine
 62
7
  6
CONTINUOUS
 10
71.575
 20
20.0999999856
 11
70.375
 21
20.0999999928
  0
LINE
  5
5F4
100
AcDbEntity
  8
0
100
AcDbLine
 62
7
  6
CONTINUOUS
 10
-70.225
 20
20.1
 11
-71.425
 21
20.0999999856
  0
LWPOLYLINE
  5
5F5
100
AcDbEntity
  8
0
100
AcDbPolyline
 62
7
  6
CONTINUOUS
 90
13
 70
0
 10
71.575
 20
20.1000000145
 10
71.6404787204
 20
20.0996504214
 10
71.7047287747
 20
20.0987587085
 10
71.7666550121
 20
20.0973248756
 10
71.825177874
 20
20.095307214
 10
71.8793547201
 20
20.0927474325
 10
71.9283683367
 20
20.0897706578
 10
71.9713793008
 20
20.0863581067
 10
72.0076595713
 20
20.0825285624
 10
72.0366412234
 20
20.0784635007
 10
72.0577908687
 20
20.0742234138
 10
72.0706695956
 20
20.0697478095
 10
72.075
 20
20.065036688
  0
LINE
  5
5F6
100
AcDbEntity
  8
0
100
AcDbLine
 62
7
  6
CONTINUOUS
 10
-41.9739361525
 20
27.8082013626
 11
-42.2718084574
 21
27.8498678703
  0
LINE
  5
5F7
100
AcDbEntity
  8
0
100
AcDbLine
 62
7
  6
CONTINUOUS
 10
-42.229255271
 20
28.0582013626
 11
-41.9739361525
 21
28.016534378
  0
LINE
  5
5F8
100
AcDbEntity
  8
0
100
AcDbLine
 62
7
  6
CONTINUOUS
 10
-42.229255271
 20
29.8915348549
 11
-41.9739361525
 21
29.8498678703
  0
LINE
  5
5F9
100
AcDbEntity
  8
0
100
AcDbLine
 62
7
  6
CONTINUOUS
 10
-42.1015957117
 20
35.4748678703
 11
-42.229255271
 21
35.5165348549
  0
LINE
  5
5FA
100
AcDbEntity
  8
0
100
AcDbLine
 62
7
  6
CONTINUOUS
 10
-42.1867020845
 20
35.7665348549
 11
-42.0590425253
 21
35.7248678703
  0
LINE
  5
5FB
100
AcDbEntity
  8
0
100
AcDbLine
 62
7
  6
CONTINUOUS
 10
44.9479174614
 20
-31.8297872245
 11
44.84375
 21
-31.6702127755
  0
LINE
  5
5FC
100
AcDbEntity
  8
0
100
AcDbLine
 62
7
  6
CONTINUOUS
 10
41.25
 20
-32.6276595816
 11
41.1458337307
 21
-32.4148936123
  0
LINE
  5
5FD
100
AcDbEntity
  8
0
100
AcDbLine
 62
7
  6
CONTINUOUS
 10
31.71875
 20
-32.2553191632
 11
31.7708331346
 21
-32.4148936123
  0
LINE
  5
5FE
100
AcDbEntity
  8
0
100
AcDbLine
 62
7
  6
CONTINUOUS
 10
27.34375
 20
-32.7340425476
 11
27.2916665673
 21
-32.5212765783
  0
LINE
  5
5FF
100
AcDbEntity
  8
0
100
AcDbLine
 62
7
  6
CONTINUOUS
 10
29.4270831346
 20
-32.5744680986
 11
29.375
 21
-32.3617021292
  0
LINE
  5
600
100
AcDbEntity
  8
0
100
AcDbLine
 62
7
  6
CONTINUOUS
 10
28.8541665673
 20
-32.5744680986
 11
28.90625
 21
-32.8404255323
  0
LINE
  5
601
100
AcDbEntity
  8
0
100
AcDbLine
 62
7
  6
CONTINUOUS
 10
24.375
 20
-33.0
 11
24.375
 21
-30.5
  0
LINE
  5
602
100
AcDbEntity
  8
0
100
AcDbLine
 62
7
  6
CONTINUOUS
 10
24.6875
 20
-31.0319148302
 11
24.6875
 21
-33.0
  0
LINE
  5
603
100
AcDbEntity
  8
0
100
AcDbLine
 62
7
  6
CONTINUOUS
 10
26.5625
 20
-33.0
 11
26.5625
 21
-31.0319148302
  0
LINE
  5
604
100
AcDbEntity
  8
0
100
AcDbLine
 62
7
  6
CONTINUOUS
 10
26.875
 20
-30.5
 11
26.875
 21
-33.0
  0
LINE
  5
605
100
AcDbEntity
  8
0
100
AcDbLine
 62
7
  6
CONTINUOUS
 10
27.2916665673
 20
-32.5212765783
 11
27.2916665673
 21
-32.3617021292
  0
LINE
  5
606
100
AcDbEntity
  8
0
100
AcDbLine
 62
7
  6
CONTINUOUS
 10
27.2916665673
 20
-31.7234042585
 11
27.2916665673
 21
-31.6170212925
  0
LINE
  5
607
100
AcDbEntity
  8
0
100
AcDbLine
 62
7
  6
CONTINUOUS
 10
27.5520834327
 20
-32.5744680986
 11
27.5520834327
 21
-32.4680850953
  0
LINE
  5
608
100
AcDbEntity
  8
0
100
AcDbLine
 62
7
  6
CONTINUOUS
 10
27.575
 20
19.8
 11
27.575
 21
15.1
  0
LINE
  5
609
100
AcDbEntity
  8
0
100
AcDbLine
 62
7
  6
CONTINUOUS
 10
28.59375
 20
-31.8829787076
 11
28.59375
 21
-31.7234042585
  0
LINE
  5
60A
100
AcDbEntity
  8
0
100
AcDbLine
 62
7
  6
CONTINUOUS
 10
28.59375
 20
-32.0957447141
 11
28.59375
 21
-32.4148936123
  0
LINE
  5
60B
100
AcDbEntity
  8
0
100
AcDbLine
 62
7
  6
CONTINUOUS
 10
28.8541665673
 20
-31.7234042585
 11
28.8541665673
 21
-32.5744680986
  0
LWPOLYLINE
  5
60C
100
AcDbEntity
  8
0
100
AcDbPolyline
 62
7
  6
CONTINUOUS
 90
15
 70
0
 10
1.9282500094
 20
-27.5589043097
 10
1.931659507
 20
-27.5570343873
 10
1.9369535671
 20
-27.5544424376
 10
1.9361495118
 20
-27.5547453149
 10
1.930939379
 20
-27.5565711083
 10
1.9214124912
 20
-27.5595412019
 10
1.9070989034
 20
-27.5635263802
 10
1.889210827
 20
-27.5680147688
 10
1.8679240514
 20
-27.5728789861
 10
1.8429195514
 20
-27.5781218187
 10
1.8147400632
 20
-27.5835785885
 10
1.783483384
 20
-27.5892031333
 10
1.7490013041
 20
-27.5949986834
 10
1.711494989
 20
-27.6009139046
 10
1.6710164935
 20
-27.6069327561
  0
LWPOLYLINE
  5
60D
100
AcDbEntity
  8
0
100
AcDbPolyline
 62
7
  6
CONTINUOUS
 90
15
 70
0
 10
1.9293539038
 20
-29.5582056422
 10
1.9326829342
 20
-29.5564239808
 10
1.9371070305
 20
-29.554312679
 10
1.9353734432
 20
-29.5549885493
 10
1.9292516277
 20
-29.5570969968
 10
1.9188777205
 20
-29.560268341
 10
1.9037244179
 20
-29.564404795
 10
1.8849070577
 20
-29.5690316013
 10
1.8625704595
 20
-29.5740292966
 10
1.8364393924
 20
-29.5793936375
 10
1.8070764096
 20
-29.5849637592
 10
1.7746039435
 20
-29.5906941612
 10
1.7388994906
 20
-29.596587902
 10
1.7001748272
 20
-29.6025958005
 10
1.6584796215
 20
-29.6087017999
  0
LWPOLYLINE
  5
60E
100
AcDbEntity
  8
0
100
AcDbPolyline
 62
7
  6
CONTINUOUS
 90
15
 70
0
 10
1.9299293013
 20
-26.5579507433
 10
1.9331926636
 20
-26.5562210445
 10
1.9373718462
 20
-26.5542451312
 10
1.9353258211
 20
-26.5550405946
 10
1.9288936493
 20
-26.5572404205
 10
1.918239281
 20
-26.5604763776
 10
1.9028327709
 20
-26.5646596421
 10
1.8838119412
 20
-26.569317976
 10
1.8613364138
 20
-26.5743323953
 10
1.8350954005
 20
-26.5797045855
 10
1.8056013507
 20
-26.585281579
 10
1.7729698623
 20
-26.5910196307
 10
1.7370940615
 20
-26.5969199894
 10
1.6981893337
 20
-26.6029341379
 10
1.6563109723
 20
-26.6090462335
  0
LWPOLYLINE
  5
60F
100
AcDbEntity
  8
0
100
AcDbPolyline
 62
7
  6
CONTINUOUS
 90
17
 70
0
 10
1.9346905196
 20
-25.5552862834
 10
1.9327143877
 20
-25.5559821904
 10
1.9250706661
 20
-25.5584605101
 10
1.9132536506
 20
-25.5618966858
 10
1.8984307464
 20
-25.565795151
 10
1.88083781
 20
-25.5700236284
 10
1.8602040062
 20
-25.5745888467
 10
1.8370368207
 20
-25.5793362246
 10
1.81147065
 20
-25.5842185876
 10
1.7834140895
 20
-25.5892396691
 10
1.7530281996
 20
-25.5943599202
 10
1.7203496332
 20
-25.5995666592
 10
1.6853755025
 20
-25.6048550076
 10
1.6481786603
 20
-25.6102100229
 10
1.6087872906
 20
-25.6156252079
 10
1.5672017232
 20
-25.6210986199
 10
1.5234350708
 20
-25.626626988
  0
LWPOLYLINE
  5
610
100
AcDbEntity
  8
0
100
AcDbPolyline
 62
7
  6
CONTINUOUS
 90
17
 70
0
 10
1.9338856363
 20
-28.55556693
 10
1.931360607
 20
-28.5564355093
 10
1.9222613146
 20
-28.5592981207
 10
1.9083730445
 20
-28.5631940393
 10
1.8908832407
 20
-28.5676116551
 10
1.8699551545
 20
-28.5724233914
 10
1.8452981064
 20
-28.57762409
 10
1.8174980906
 20
-28.5830397917
 10
1.7866712431
 20
-28.5886224609
 10
1.7526743468
 20
-28.5943764433
 10
1.7157238139
 20
-28.6002481676
 10
1.6758623977
 20
-28.606220339
 10
1.6330347933
 20
-28.6122922185
 10
1.5873112122
 20
-28.6184479614
 10
1.5387273788
 20
-28.6246812825
 10
1.4873039924
 20
-28.63098909
 10
1.4330949434
 20
-28.6373651588
  0
LWPOLYLINE
  5
611
100
AcDbEntity
  8
0
100
AcDbPolyline
 62
7
  6
CONTINUOUS
 90
16
 70
0
 10
-1.7971248155
 20
-27.4525876226
 10
-1.79654919
 20
-27.4523898521
 10
-1.7917499676
 20
-27.4508520225
 10
-1.7820458869
 20
-27.4480969801
 10
-1.7689969259
 20
-27.4447856464
 10
-1.7528786166
 20
-27.4410813888
 10
-1.7332764303
 20
-27.4369666992
 10
-1.7107728777
 20
-27.4326215555
 10
-1.6854322634
 20
-27.428089638
 10
-1.6571280691
 20
-27.4233728676
 10
-1.6261881178
 20
-27.4185408903
 10
-1.5926981666
 20
-27.4136135049
 10
-1.5566088361
 20
-27.4085884098
 10
-1.5180560367
 20
-27.4034877788
 10
-1.4770970237
 20
-27.3983200008
 10
-1.4337158773
 20
-27.3930832973
  0
LWPOLYLINE
  5
612
100
AcDbEntity
  8
0
100
AcDbPolyline
 62
7
  6
CONTINUOUS
 90
16
 70
0
 10
-1.7970441084
 20
-29.4525020214
 10
-1.7965820719
 20
-29.4523438221
 10
-1.7919675115
 20
-29.4508631799
 10
-1.7823818687
 20
-29.4481417513
 10
-1.7693939477
 20
-29.4448480434
 10
-1.7532765792
 20
-29.4411466916
 10
-1.7336397063
 20
-29.4370265795
 10
-1.7111189115
 20
-29.4326770902
 10
-1.6858001577
 20
-29.4281432904
 10
-1.6575472438
 20
-29.4234249313
 10
-1.6266854274
 20
-29.4185931778
 10
-1.59329268
 20
-29.4136683919
 10
-1.5572965035
 20
-29.4086466659
 10
-1.518807054
 20
-29.4035486227
 10
-1.4778757867
 20
-29.3983824205
 10
-1.434500909
 20
-29.3931468891
  0
LWPOLYLINE
  5
613
100
AcDbEntity
  8
0
100
AcDbPolyline
 62
7
  6
CONTINUOUS
 90
17
 70
0
 10
-1.7969809612
 20
-28.452517694
 10
-1.7965914656
 20
-28.4523843658
 10
-1.7921895015
 20
-28.450958641
 10
-1.7828627663
 20
-28.4482855786
 10
-1.7701539397
 20
-28.4450355163
 10
-1.7543242074
 20
-28.4413755778
 10
-1.7349677279
 20
-28.4372928781
 10
-1.712696862
 20
-28.4329731766
 10
-1.6875904225
 20
-28.4284608519
 10
-1.6595324415
 20
-28.42375945
 10
-1.6288680545
 20
-28.4189431173
 10
-1.5956827978
 20
-28.4140325809
 10
-1.5599113552
 20
-28.4090240664
 10
-1.5216822153
 20
-28.4039398501
 10
-1.4810460335
 20
-28.3987884813
 10
-1.4379777357
 20
-28.3935680052
 10
-1.3924789408
 20
-28.3882796242
  0
LWPOLYLINE
  5
614
100
AcDbEntity
  8
0
100
AcDbPolyline
 62
7
  6
CONTINUOUS
 90
14
 70
0
 10
-1.7971889406
 20
-30.4525537601
 10
-1.7965787315
 20
-30.4523451711
 10
-1.7916395101
 20
-30.450770836
 10
-1.7817388966
 20
-30.4479749922
 10
-1.7684785179
 20
-30.4446271533
 10
-1.7521470672
 20
-30.4408914101
 10
-1.7323275426
 20
-30.4367480022
 10
-1.7096200005
 20
-30.4323780803
 10
-1.6840992962
 20
-30.4278254008
 10
-1.6556255222
 20
-30.4230901358
 10
-1.6245006553
 20
-30.4182405259
 10
-1.5908000585
 20
-30.4132961624
 10
-1.5544779937
 20
-30.4082546267
 10
-1.515670833
 20
-30.4031373864
  0
LWPOLYLINE
  5
615
100
AcDbEntity
  8
0
100
AcDbPolyline
 62
7
  6
CONTINUOUS
 90
17
 70
0
 10
-1.7972104374
 20
-26.4526302289
 10
-1.7969048528
 20
-26.4525267102
 10
-1.792625362
 20
-26.4511342108
 10
-1.7833464356
 20
-26.4484630697
 10
-1.7706767113
 20
-26.4452085868
 10
-1.7548940519
 20
-26.4415416697
 10
-1.7355726134
 20
-26.4374460453
 10
-1.7133393377
 20
-26.4331150893
 10
-1.6882733806
 20
-26.4285960642
 10
-1.6602346414
 20
-26.4238894424
 10
-1.6295650663
 20
-26.419068015
 10
-1.5963635242
 20
-26.4141534018
 10
-1.5605761058
 20
-26.4091422537
 10
-1.5223251084
 20
-26.4040548866
 10
-1.4816579149
 20
-26.3988985825
 10
-1.4385678787
 20
-26.3936728739
 10
-1.393078939
 20
-26.3883806913
  0
LWPOLYLINE
  5
616
100
AcDbEntity
  8
0
100
AcDbPolyline
 62
7
  6
CONTINUOUS
 90
17
 70
0
 10
-1.797263925
 20
-25.4526365699
 10
-1.797009265
 20
-25.4525517864
 10
-1.7929302767
 20
-25.4512242051
 10
-1.784040671
 20
-25.4486579641
 10
-1.7720078661
 20
-25.4455493565
 10
-1.7571877321
 20
-25.4420749278
 10
-1.7391585675
 20
-25.4382052787
 10
-1.7184505052
 20
-25.4341074895
 10
-1.6951456278
 20
-25.4298268743
 10
-1.6690977946
 20
-25.4253615838
 10
-1.6404625576
 20
-25.4207586713
 10
-1.6092414294
 20
-25.416032746
 10
-1.5753648977
 20
-25.4111854288
 10
-1.5388727297
 20
-25.406230521
 10
-1.4997657333
 20
-25.4011735974
 10
-1.4580210852
 20
-25.3960161355
 10
-1.4136302386
 20
-25.390760671
  0
LINE
  5
617
100
AcDbEntity
  8
0
100
AcDbLine
 62
7
  6
CONTINUOUS
 10
2.0715286284
 20
-24.0345489303
 11
2.0990493932
 21
-24.0254932871
  0
LINE
  5
618
100
AcDbEntity
  8
0
100
AcDbLine
 62
7
  6
CONTINUOUS
 10
-40.825
 20
23.9332011242
 11
-42.825
 21
23.9332011242
  0
LINE
  5
619
100
AcDbEntity
  8
0
100
AcDbLine
 62
7
  6
CONTINUOUS
 10
-41.718617034
 20
24.1832011242
 11
-40.825
 21
24.1832011242
  0
LINE
  5
61A
100
AcDbEntity
  8
0
100
AcDbLine
 62
7
  6
CONTINUOUS
 10
-41.9739361525
 20
24.1832011242
 11
-42.6122340679
 21
24.1832011242
  0
LINE
  5
61B
100
AcDbEntity
  8
0
100
AcDbLine
 62
7
  6
CONTINUOUS
 10
-42.3569149494
 20
25.2248678703
 11
-42.229255271
 21
25.2248678703
  0
LINE
  5
61C
100
AcDbEntity
  8
0
100
AcDbLine
 62
7
  6
CONTINUOUS
 10
-42.3569149494
 20
25.4748678703
 11
-42.1867020845
 21
25.4748678703
  0
LINE
  5
61D
100
AcDbEntity
  8
0
100
AcDbLine
 62
7
  6
CONTINUOUS
 10
-41.6760638475
 20
27.8082013626
 11
-41.9739361525
 21
27.8082013626
  0
LINE
  5
61E
100
AcDbEntity
  8
0
100
AcDbLine
 62
7
  6
CONTINUOUS
 10
-41.9739361525
 20
28.016534378
 11
-41.8888297796
 21
28.016534378
  0
LINE
  5
61F
100
AcDbEntity
  8
0
100
AcDbLine
 62
7
  6
CONTINUOUS
 10
-41.4207446694
 20
28.0582013626
 11
-41.5484042287
 21
28.0582013626
  0
LINE
  5
620
100
AcDbEntity
  8
0
100
AcDbLine
 62
7
  6
CONTINUOUS
 10
-41.9739361525
 20
29.6415348549
 11
-42.2718084574
 21
29.6832008857
  0
LINE
  5
621
100
AcDbEntity
  8
0
100
AcDbLine
 62
7
  6
CONTINUOUS
 10
43.6979162693
 20
-32.6808510646
 11
43.59375
 21
-32.4680850953
  0
LINE
  5
622
100
AcDbEntity
  8
0
100
AcDbLine
 62
7
  6
CONTINUOUS
 10
43.8541662693
 20
-32.4148936123
 11
43.90625
 21
-32.5212765783
  0
LINE
  5
623
100
AcDbEntity
  8
0
100
AcDbLine
 62
7
  6
CONTINUOUS
 10
47.8125
 20
-31.7234042585
 11
47.7604174614
 21
-31.6170212925
  0
LINE
  5
624
100
AcDbEntity
  8
0
100
AcDbLine
 62
7
  6
CONTINUOUS
 10
38.0729162693
 20
-31.5638298094
 11
38.125
 21
-31.7234042585
  0
LINE
  5
625
100
AcDbEntity
  8
0
100
AcDbLine
 62
7
  6
CONTINUOUS
 10
33.0729168653
 20
-31.7234042585
 11
33.125
 21
-31.9361701906
  0
LINE
  5
626
100
AcDbEntity
  8
0
100
AcDbLine
 62
7
  6
CONTINUOUS
 10
31.5104168653
 20
-32.4680850953
 11
31.4583331346
 21
-32.1489361972
  0
LINE
  5
627
100
AcDbEntity
  8
0
100
AcDbLine
 62
7
  6
CONTINUOUS
 10
29.375
 20
-32.3617021292
 11
29.375
 21
-31.9361701906
  0
LINE
  5
628
100
AcDbEntity
  8
0
100
AcDbLine
 62
7
  6
CONTINUOUS
 10
29.6354168653
 20
-32.3085106462
 11
29.6354168653
 21
-31.9893616736
  0
LINE
  5
629
100
AcDbEntity
  8
0
100
AcDbLine
 62
7
  6
CONTINUOUS
 10
30.78125
 20
-33.0
 11
30.78125
 21
-32.6808510646
  0
LINE
  5
62A
100
AcDbEntity
  8
0
100
AcDbLine
 62
7
  6
CONTINUOUS
 10
30.78125
 20
-31.6170212925
 11
30.78125
 21
-30.5
  0
LINE
  5
62B
100
AcDbEntity
  8
0
100
AcDbLine
 62
7
  6
CONTINUOUS
 10
30.78125
 20
-31.8829787076
 11
30.78125
 21
-32.4148936123
  0
LINE
  5
62C
100
AcDbEntity
  8
0
100
AcDbLine
 62
7
  6
CONTINUOUS
 10
31.0416668653
 20
-30.5
 11
31.0416668653
 21
-33.0
  0
LINE
  5
62D
100
AcDbEntity
  8
0
100
AcDbLine
 62
7
  6
CONTINUOUS
 10
31.71875
 20
-32.1489361972
 11
31.71875
 21
-32.2553191632
  0
LINE
  5
62E
100
AcDbEntity
  8
0
100
AcDbLine
 62
7
  6
CONTINUOUS
 10
31.7708331346
 20
-31.9361701906
 11
31.7708331346
 21
-31.8829787076
  0
LINE
  5
62F
100
AcDbEntity
  8
0
100
AcDbLine
 62
7
  6
CONTINUOUS
 10
32.575
 20
15.1
 11
32.575
 21
18.1
  0
LINE
  5
630
100
AcDbEntity
  8
0
100
AcDbLine
 62
7
  6
CONTINUOUS
 10
32.8645831346
 20
-31.8297872245
 11
32.8645831346
 21
-31.9361701906
  0
LINE
  5
631
100
AcDbEntity
  8
0
100
AcDbLine
 62
7
  6
CONTINUOUS
 10
33.125
 20
-31.9361701906
 11
33.125
 21
-32.1489361972
  0
LWPOLYLINE
  5
632
100
AcDbEntity
  8
0
100
AcDbPolyline
 62
7
  6
CONTINUOUS
 90
3
 70
0
 10
67.075
 20
17.6
 10
67.0757419324
 20
17.6006822499
 10
67.0818061913
 20
17.6068061913
  0
LINE
  5
633
100
AcDbEntity
  8
0
100
AcDbLine
 62
7
  6
CONTINUOUS
 10
-41.378191483
 20
27.8498678703
 11
-41.6760638475
 21
27.8082013626
  0
LINE
  5
634
100
AcDbEntity
  8
0
100
AcDbLine
 62
7
  6
CONTINUOUS
 10
-41.5484042287
 20
29.0998678703
 11
-41.4207446694
 21
29.0998678703
  0
LINE
  5
635
100
AcDbEntity
  8
0
100
AcDbLine
 62
7
  6
CONTINUOUS
 10
-41.5909574747
 20
29.3082008857
 11
-41.378191483
 21
29.3082008857
  0
LINE
  5
636
100
AcDbEntity
  8
0
100
AcDbLine
 62
7
  6
CONTINUOUS
 10
-41.6760638475
 20
29.6415348549
 11
-41.9739361525
 21
29.6415348549
  0
LINE
  5
637
100
AcDbEntity
  8
0
100
AcDbLine
 62
7
  6
CONTINUOUS
 10
-41.9739361525
 20
29.8498678703
 11
-41.8888297796
 21
29.8498678703
  0
LINE
  5
638
100
AcDbEntity
  8
0
100
AcDbLine
 62
7
  6
CONTINUOUS
 10
-41.4207446694
 20
29.8915348549
 11
-41.5484042287
 21
29.8915348549
  0
LINE
  5
639
100
AcDbEntity
  8
0
100
AcDbLine
 62
7
  6
CONTINUOUS
 10
-22.7566188347
 20
29.9659933458
 11
-21.9316188347
 21
29.9659933458
  0
LINE
  5
63A
100
AcDbEntity
  8
0
100
AcDbLine
 62
7
  6
CONTINUOUS
 10
-18.0816188347
 20
29.9659933458
 11
-17.2566188347
 21
29.9659933458
  0
LINE
  5
63B
100
AcDbEntity
  8
0
100
AcDbLine
 62
7
  6
CONTINUOUS
 10
-45.5093023256
 20
30.0
 11
-44.925
 21
30.0
  0
LINE
  5
63C
100
AcDbEntity
  8
0
100
AcDbLine
 62
7
  6
CONTINUOUS
 10
-41.5484042287
 20
30.9332008857
 11
-41.4207446694
 21
30.9332008857
  0
LINE
  5
63D
100
AcDbEntity
  8
0
100
AcDbLine
 62
7
  6
CONTINUOUS
 10
-46.0936046512
 20
31.0552325581
 11
-45.5093023256
 21
31.0552325581
  0
LINE
  5
63E
100
AcDbEntity
  8
0
100
AcDbLine
 62
7
  6
CONTINUOUS
 10
-44.925
 20
31.0552325581
 11
-44.3406976744
 21
31.0552325581
  0
LINE
  5
63F
100
AcDbEntity
  8
0
100
AcDbLine
 62
7
  6
CONTINUOUS
 10
-41.5909574747
 20
31.1415348549
 11
-41.378191483
 21
31.1415348549
  0
LINE
  5
640
100
AcDbEntity
  8
0
100
AcDbLine
 62
7
  6
CONTINUOUS
 10
-41.5484042287
 20
31.4748678703
 11
-41.7611702204
 21
31.4748678703
  0
LINE
  5
641
100
AcDbEntity
  8
0
100
AcDbLine
 62
7
  6
CONTINUOUS
 10
-41.7611702204
 20
32.0582008857
 11
-41.5484042287
 21
32.0582008857
  0
LINE
  5
642
100
AcDbEntity
  8
0
100
AcDbLine
 62
7
  6
CONTINUOUS
 10
-40.825
 20
32.3915348549
 11
-42.825
 21
32.3915348549
  0
LINE
  5
643
100
AcDbEntity
  8
0
100
AcDbLine
 62
7
  6
CONTINUOUS
 10
-42.5696808815
 20
32.6415348549
 11
-42.0164893389
 21
32.6415348549
  0
LINE
  5
644
100
AcDbEntity
  8
0
100
AcDbLine
 62
7
  6
CONTINUOUS
 10
-41.7611702204
 20
32.6415348549
 11
-40.825
 21
32.6415348549
  0
LINE
  5
645
100
AcDbEntity
  8
0
100
AcDbLine
 62
7
  6
CONTINUOUS
 10
-42.0164893389
 20
33.7248678703
 11
-41.7611702204
 21
33.7248678703
  0
LINE
  5
646
100
AcDbEntity
  8
0
100
AcDbLine
 62
7
  6
CONTINUOUS
 10
-42.825
 20
33.8915348549
 11
-42.5696808815
 21
33.8915348549
  0
LINE
  5
647
100
AcDbEntity
  8
0
100
AcDbLine
 62
7
  6
CONTINUOUS
 10
-40.825
 20
34.2248678703
 11
-42.825
 21
34.2248678703
  0
LINE
  5
648
100
AcDbEntity
  8
0
100
AcDbLine
 62
7
  6
CONTINUOUS
 10
-20.4216188347
 20
34.3659933459
 11
-19.5916188347
 21
34.3659933459
  0
LINE
  5
649
100
AcDbEntity
  8
0
100
AcDbLine
 62
7
  6
CONTINUOUS
 10
-41.718617034
 20
34.4748678703
 11
-40.825
 21
34.4748678703
  0
LINE
  5
64A
100
AcDbEntity
  8
0
100
AcDbLine
 62
7
  6
CONTINUOUS
 10
-41.9739361525
 20
34.4748678703
 11
-42.6122340679
 21
34.4748678703
  0
LINE
  5
64B
100
AcDbEntity
  8
0
100
AcDbLine
 62
7
  6
CONTINUOUS
 10
-22.7566188347
 20
34.6409933459
 11
-21.9266188347
 21
34.6409933459
  0
LINE
  5
64C
100
AcDbEntity
  8
0
100
AcDbLine
 62
7
  6
CONTINUOUS
 10
-18.0866188347
 20
34.6409933459
 11
-17.2566188347
 21
34.6409933459
  0
LINE
  5
64D
100
AcDbEntity
  8
0
100
AcDbLine
 62
7
  6
CONTINUOUS
 10
53.59375
 20
-31.2978723943
 11
54.1666674614
 21
-32.4148936123
  0
LINE
  5
64E
100
AcDbEntity
  8
0
100
AcDbLine
 62
7
  6
CONTINUOUS
 10
48.6458325386
 20
-31.7234042585
 11
48.59375
 21
-31.6170212925
  0
LINE
  5
64F
100
AcDbEntity
  8
0
100
AcDbLine
 62
7
  6
CONTINUOUS
 10
49.5833325386
 20
-32.5744680986
 11
49.6354174614
 21
-32.6808510646
  0
LINE
  5
650
100
AcDbEntity
  8
0
100
AcDbLine
 62
7
  6
CONTINUOUS
 10
50.7291674614
 20
-33.0
 11
50.6770825386
 21
-32.8936170247
  0
LINE
  5
651
100
AcDbEntity
  8
0
100
AcDbLine
 62
7
  6
CONTINUOUS
 10
50.625
 20
-31.7234042585
 11
50.5729174614
 21
-31.6170212925
  0
LINE
  5
652
100
AcDbEntity
  8
0
100
AcDbLine
 62
7
  6
CONTINUOUS
 10
54.0104174614
 20
-32.7872340493
 11
53.28125
 21
-31.2978723943
  0
LINE
  5
653
100
AcDbEntity
  8
0
100
AcDbLine
 62
7
  6
CONTINUOUS
 10
48.8020825386
 20
-31.4574468434
 11
48.90625
 21
-31.7234042585
  0
LINE
  5
654
100
AcDbEntity
  8
0
100
AcDbLine
 62
7
  6
CONTINUOUS
 10
42.8125
 20
-31.1382979453
 11
42.7604162693
 21
-30.9787233472
  0
LINE
  5
655
100
AcDbEntity
  8
0
100
AcDbLine
 62
7
  6
CONTINUOUS
 10
43.8020837307
 20
-32.2553191632
 11
43.8541662693
 21
-32.4148936123
  0
LINE
  5
656
100
AcDbEntity
  8
0
100
AcDbLine
 62
7
  6
CONTINUOUS
 10
41.40625
 20
-32.1489361972
 11
41.4583337307
 21
-32.3617021293
  0
LINE
  5
657
100
AcDbEntity
  8
0
100
AcDbLine
 62
7
  6
CONTINUOUS
 10
37.9166662693
 20
-31.9893616736
 11
37.8645837307
 21
-31.7234042585
  0
LINE
  5
658
100
AcDbEntity
  8
0
100
AcDbLine
 62
7
  6
CONTINUOUS
 10
38.125
 20
-31.7234042585
 11
38.1770837307
 21
-31.9893616736
  0
LINE
  5
659
100
AcDbEntity
  8
0
100
AcDbLine
 62
7
  6
CONTINUOUS
 10
41.1458337307
 20
-32.4148936123
 11
41.09375
 21
-32.1489361972
  0
LINE
  5
65A
100
AcDbEntity
  8
0
100
AcDbLine
 62
7
  6
CONTINUOUS
 10
36.0416662693
 20
-33.0
 11
36.0416662693
 21
-31.2978723943
  0
LINE
  5
65B
100
AcDbEntity
  8
0
100
AcDbLine
 62
7
  6
CONTINUOUS
 10
36.0416662693
 20
-30.7659574151
 11
36.0416662693
 21
-30.5
  0
LINE
  5
65C
100
AcDbEntity
  8
0
100
AcDbLine
 62
7
  6
CONTINUOUS
 10
36.3020837307
 20
-30.5
 11
36.3020837307
 21
-30.7659574151
  0
LINE
  5
65D
100
AcDbEntity
  8
0
100
AcDbLine
 62
7
  6
CONTINUOUS
 10
36.3020837307
 20
-31.2978723943
 11
36.3020837307
 21
-33.0
  0
LINE
  5
65E
100
AcDbEntity
  8
0
100
AcDbLine
 62
7
  6
CONTINUOUS
 10
36.71875
 20
-33.0
 11
36.71875
 21
-31.2978723943
  0
LINE
  5
65F
100
AcDbEntity
  8
0
100
AcDbLine
 62
7
  6
CONTINUOUS
 10
36.9791662693
 20
-31.2978723943
 11
36.9791662693
 21
-31.5638298094
  0
LINE
  5
660
100
AcDbEntity
  8
0
100
AcDbLine
 62
7
  6
CONTINUOUS
 10
36.9791662693
 20
-31.7765957415
 11
36.9791662693
 21
-33.0
  0
LINE
  5
661
100
AcDbEntity
  8
0
100
AcDbLine
 62
7
  6
CONTINUOUS
 10
37.9166662693
 20
-33.0
 11
37.9166662693
 21
-31.9893616736
  0
LINE
  5
662
100
AcDbEntity
  8
0
100
AcDbLine
 62
7
  6
CONTINUOUS
 10
38.1770837307
 20
-31.9893616736
 11
38.1770837307
 21
-33.0
  0
LINE
  5
663
100
AcDbEntity
  8
0
100
AcDbLine
 62
7
  6
CONTINUOUS
 10
31.4583331346
 20
-32.1489361972
 11
31.5104168653
 21
-31.8297872245
  0
LINE
  5
664
100
AcDbEntity
  8
0
100
AcDbLine
 62
7
  6
CONTINUOUS
 10
29.375
 20
-31.9361701906
 11
29.4270831346
 21
-31.7234042585
  0
LINE
  5
665
100
AcDbEntity
  8
0
100
AcDbLine
 62
7
  6
CONTINUOUS
 10
33.125
 20
-32.4680850953
 11
33.0729168653
 21
-32.6808510646
  0
LINE
  5
666
100
AcDbEntity
  8
0
100
AcDbLine
 62
7
  6
CONTINUOUS
 10
27.6041665673
 20
-32.3085106462
 11
27.5520834327
 21
-32.4680850953
  0
LINE
  5
667
100
AcDbEntity
  8
0
100
AcDbLine
 62
7
  6
CONTINUOUS
 10
29.6875
 20
-31.8297872245
 11
29.6354168653
 21
-31.9893616736
  0
LINE
  5
668
100
AcDbEntity
  8
0
100
AcDbLine
 62
7
  6
CONTINUOUS
 10
25.625
 20
-32.7340425476
 11
26.40625
 21
-30.5
  0
LINE
  5
669
100
AcDbEntity
  8
0
100
AcDbLine
 62
7
  6
CONTINUOUS
 10
26.5625
 20
-31.0319148302
 11
25.8333332837
 21
-33.0
  0
LINE
  5
66A
100
AcDbEntity
  8
0
100
AcDbLine
 62
7
  6
CONTINUOUS
 10
27.2916665673
 20
-31.6170212925
 11
27.34375
 21
-31.5106383264
  0
LINE
  5
66B
100
AcDbEntity
  8
0
100
AcDbLine
 62
7
  6
CONTINUOUS
 10
27.6041665673
 20
-31.6170212925
 11
27.5520834327
 21
-31.7234042585
  0
LINE
  5
66C
100
AcDbEntity
  8
0
100
AcDbLine
 62
7
  6
CONTINUOUS
 10
27.2916665673
 20
-32.3617021292
 11
27.3958334327
 21
-32.1489361972
  0
LINE
  5
66D
100
AcDbEntity
  8
0
100
AcDbLine
 62
7
  6
CONTINUOUS
 10
28.5416665673
 20
-32.5212765783
 11
28.59375
 21
-32.4148936123
  0
LINE
  5
66E
100
AcDbEntity
  8
0
100
AcDbLine
 62
7
  6
CONTINUOUS
 10
28.59375
 20
-32.7340425476
 11
28.5416665673
 21
-32.8404255323
  0
LINE
  5
66F
100
AcDbEntity
  8
0
100
AcDbLine
 62
7
  6
CONTINUOUS
 10
29.4270831346
 20
-31.7234042585
 11
29.4791668653
 21
-31.6170212925
  0
LINE
  5
670
100
AcDbEntity
  8
0
100
AcDbLine
 62
7
  6
CONTINUOUS
 10
67.5344553604
 20
18.0591339112
 11
67.575
 21
18.1
  0
LINE
  5
671
100
AcDbEntity
  8
0
100
AcDbLine
 62
7
  6
CONTINUOUS
 10
67.0818061913
 20
17.6068061913
 11
67.5344553604
 21
18.0591339112
  0
LINE
  5
672
100
AcDbEntity
  8
0
100
AcDbLine
 62
7
  6
CONTINUOUS
 10
5.775
 20
-39.3997023889
 11
4.8363551205
 21
-39.9416292627
  0
LINE
  5
673
100
AcDbEntity
  8
0
100
AcDbLine
 62
7
  6
CONTINUOUS
 10
31.875
 20
-31.4042553604
 11
32.03125
 21
-31.3510638773
  0
LINE
  5
674
100
AcDbEntity
  8
0
100
AcDbLine
 62
7
  6
CONTINUOUS
 10
-41.378191483
 20
29.6832008857
 11
-41.6760638475
 21
29.6415348549
  0
LINE
  5
675
100
AcDbEntity
  8
0
100
AcDbLine
 62
7
  6
CONTINUOUS
 10
-42.3569149494
 20
35.5165348549
 11
-42.229255271
 21
35.5165348549
  0
LINE
  5
676
100
AcDbEntity
  8
0
100
AcDbLine
 62
7
  6
CONTINUOUS
 10
-42.3569149494
 20
35.7665348549
 11
-42.1867020845
 21
35.7665348549
  0
LINE
  5
677
100
AcDbEntity
  8
0
100
AcDbLine
 62
7
  6
CONTINUOUS
 10
69.375
 20
37.0
 11
67.375
 21
37.0
  0
LINE
  5
678
100
AcDbEntity
  8
0
100
AcDbLine
 62
7
  6
CONTINUOUS
 10
-67.225
 20
37.0
 11
-69.225
 21
37.0
  0
LINE
  5
679
100
AcDbEntity
  8
0
100
AcDbLine
 62
7
  6
CONTINUOUS
 10
-69.6827413124
 20
37.3
 11
-69.525
 21
37.3
  0
LINE
  5
67A
100
AcDbEntity
  8
0
100
AcDbLine
 62
7
  6
CONTINUOUS
 10
69.675
 20
37.3
 11
69.8327413124
 21
37.3
  0
LINE
  5
67B
100
AcDbEntity
  8
0
100
AcDbLine
 62
7
  6
CONTINUOUS
 10
69.875
 20
39.0
 11
69.675
 21
39.0
  0
LINE
  5
67C
100
AcDbEntity
  8
0
100
AcDbLine
 62
7
  6
CONTINUOUS
 10
-69.725
 20
39.0
 11
-69.525
 21
39.0
  0
LINE
  5
67D
100
AcDbEntity
  8
0
100
AcDbLine
 62
7
  6
CONTINUOUS
 10
69.875
 20
39.2
 11
69.675
 21
39.2
  0
LINE
  5
67E
100
AcDbEntity
  8
0
100
AcDbLine
 62
7
  6
CONTINUOUS
 10
-69.525
 20
39.2
 11
-69.725
 21
39.2
  0
LINE
  5
67F
100
AcDbEntity
  8
0
100
AcDbLine
 62
7
  6
CONTINUOUS
 10
50.6770825386
 20
-32.8936170247
 11
50.625
 21
-32.7340425476
  0
LINE
  5
680
100
AcDbEntity
  8
0
100
AcDbLine
 62
7
  6
CONTINUOUS
 10
50.9375
 20
-32.8404255323
 11
50.9895825386
 21
-33.0
  0
LINE
  5
681
100
AcDbEntity
  8
0
100
AcDbLine
 62
7
  6
CONTINUOUS
 10
50.8333325386
 20
-31.5638298094
 11
50.8854174614
 21
-31.7234042585
  0
LINE
  5
682
100
AcDbEntity
  8
0
100
AcDbLine
 62
7
  6
CONTINUOUS
 10
52.7604174614
 20
-31.5638298094
 11
52.8125
 21
-31.7234042585
  0
LINE
  5
683
100
AcDbEntity
  8
0
100
AcDbLine
 62
7
  6
CONTINUOUS
 10
45.15625
 20
-31.7234042585
 11
45.2083325386
 21
-31.9361701906
  0
LINE
  5
684
100
AcDbEntity
  8
0
100
AcDbLine
 62
7
  6
CONTINUOUS
 10
49.375
 20
-32.7340425476
 11
49.3229174614
 21
-32.5212765783
  0
LINE
  5
685
100
AcDbEntity
  8
0
100
AcDbLine
 62
7
  6
CONTINUOUS
 10
43.0729162693
 20
-30.8723403812
 11
43.125
 21
-31.1382979453
  0
LINE
  5
686
100
AcDbEntity
  8
0
100
AcDbLine
 62
7
  6
CONTINUOUS
 10
43.59375
 20
-32.4680850953
 11
43.5416662693
 21
-32.1489361972
  0
LINE
  5
687
100
AcDbEntity
  8
0
100
AcDbLine
 62
7
  6
CONTINUOUS
 10
41.09375
 20
-32.1489361972
 11
41.09375
 21
-31.3510638774
  0
LINE
  5
688
100
AcDbEntity
  8
0
100
AcDbLine
 62
7
  6
CONTINUOUS
 10
41.40625
 20
-31.3510638773
 11
41.40625
 21
-32.1489361972
  0
LINE
  5
689
100
AcDbEntity
  8
0
100
AcDbLine
 62
7
  6
CONTINUOUS
 10
42.34375
 20
-31.9361701906
 11
42.34375
 21
-31.6170212925
  0
LINE
  5
68A
100
AcDbEntity
  8
0
100
AcDbLine
 62
7
  6
CONTINUOUS
 10
42.8125
 20
-32.3617021292
 11
42.8125
 21
-31.9361701906
  0
LINE
  5
68B
100
AcDbEntity
  8
0
100
AcDbLine
 62
7
  6
CONTINUOUS
 10
43.125
 20
-31.6170212925
 11
43.125
 21
-32.4148936123
  0
LINE
  5
68C
100
AcDbEntity
  8
0
100
AcDbLine
 62
7
  6
CONTINUOUS
 10
43.8020837307
 20
-32.1489361972
 11
43.8020837307
 21
-32.2553191632
  0
LINE
  5
68D
100
AcDbEntity
  8
0
100
AcDbLine
 62
7
  6
CONTINUOUS
 10
43.8541662693
 20
-31.9361701906
 11
43.8541662693
 21
-31.8829787076
  0
LINE
  5
68E
100
AcDbEntity
  8
0
100
AcDbLine
 62
7
  6
CONTINUOUS
 10
44.9479174614
 20
-31.8297872245
 11
44.9479174614
 21
-31.9361701906
  0
LINE
  5
68F
100
AcDbEntity
  8
0
100
AcDbLine
 62
7
  6
CONTINUOUS
 10
45.2083325386
 20
-31.9361701906
 11
45.2083325386
 21
-32.1489361972
  0
LINE
  5
690
100
AcDbEntity
  8
0
100
AcDbLine
 62
7
  6
CONTINUOUS
 10
45.625
 20
-33.0
 11
45.625
 21
-31.2978723943
  0
LINE
  5
691
100
AcDbEntity
  8
0
100
AcDbLine
 62
7
  6
CONTINUOUS
 10
45.8854174614
 20
-31.2978723943
 11
45.8854174614
 21
-31.6170212925
  0
LINE
  5
692
100
AcDbEntity
  8
0
100
AcDbLine
 62
7
  6
CONTINUOUS
 10
45.8854174614
 20
-31.9361701906
 11
45.8854174614
 21
-33.0
  0
LINE
  5
693
100
AcDbEntity
  8
0
100
AcDbLine
 62
7
  6
CONTINUOUS
 10
32.8125
 20
-32.6276595816
 11
32.8645831346
 21
-32.4680850953
  0
LWPOLYLINE
  5
694
100
AcDbEntity
  8
0
100
AcDbPolyline
 62
253
  6
CONTINUOUS
 90
13
 70
0
 10
69.875
 20
44.0695865254
 10
69.8791790506
 20
44.078564642
 10
69.8915902284
 20
44.0873631465
 10
69.911944671
 20
44.0958382139
 10
69.9396675368
 20
44.1038145482
 10
69.9743171327
 20
44.1112114648
 10
70.0159415428
 20
44.1180133953
 10
70.064404306
 20
44.1241186697
 10
70.1188216307
 20
44.1293455813
 10
70.1781403004
 20
44.1335526424
 10
70.2412968952
 20
44.1366390298
 10
70.3073041615
 20
44.1385323589
 10
70.375
 20
44.1391731011
  0
LINE
  5
695
100
AcDbEntity
  8
0
100
AcDbLine
 62
7
  6
CONTINUOUS
 10
30.78125
 20
-32.6808510646
 11
30.7291668653
 21
-32.7872340493
  0
LINE
  5
696
100
AcDbEntity
  8
0
100
AcDbLine
 62
7
  6
CONTINUOUS
 10
31.5104168653
 20
-31.8297872245
 11
31.6145831346
 21
-31.6170212925
  0
LINE
  5
697
100
AcDbEntity
  8
0
100
AcDbLine
 62
7
  6
CONTINUOUS
 10
31.8229168653
 20
-31.7765957415
 11
31.7708331346
 21
-31.8829787076
  0
LINE
  5
698
100
AcDbEntity
  8
0
100
AcDbLine
 62
7
  6
CONTINUOUS
 10
29.7916668653
 20
-31.6702127755
 11
29.6875
 21
-31.8297872245
  0
LINE
  5
699
100
AcDbEntity
  8
0
100
AcDbLine
 62
7
  6
CONTINUOUS
 10
30.6770831346
 20
-32.5744680986
 11
30.78125
 21
-32.4148936123
  0
LINE
  5
69A
100
AcDbEntity
  8
0
100
AcDbLine
 62
7
  6
CONTINUOUS
 10
27.34375
 20
-31.5106383264
 11
27.4479165673
 21
-31.4042553604
  0
LINE
  5
69B
100
AcDbEntity
  8
0
100
AcDbLine
 62
7
  6
CONTINUOUS
 10
27.3958334327
 20
-32.1489361972
 11
27.5
 21
-32.0425531566
  0
LINE
  5
69C
100
AcDbEntity
  8
0
100
AcDbLine
 62
7
  6
CONTINUOUS
 10
27.7083334327
 20
-32.2021276802
 11
27.6041665673
 21
-32.3085106462
  0
LINE
  5
69D
100
AcDbEntity
  8
0
100
AcDbLine
 62
7
  6
CONTINUOUS
 10
28.3854165673
 20
-32.6808510646
 11
28.5416665673
 21
-32.5212765783
  0
LINE
  5
69E
100
AcDbEntity
  8
0
100
AcDbLine
 62
7
  6
CONTINUOUS
 10
29.4791668653
 20
-31.6170212925
 11
29.6354168654
 21
-31.4574468434
  0
LINE
  5
69F
100
AcDbEntity
  8
0
100
AcDbLine
 62
7
  6
CONTINUOUS
 10
31.6145831346
 20
-31.6170212925
 11
31.71875
 21
-31.5106383264
  0
LINE
  5
6A0
100
AcDbEntity
  8
0
100
AcDbLine
 62
7
  6
CONTINUOUS
 10
30.7291668653
 20
-32.7872340493
 11
30.625
 21
-32.8936170246
  0
LINE
  5
6A1
100
AcDbEntity
  8
0
100
AcDbLine
 62
7
  6
CONTINUOUS
 10
31.9791668653
 20
-31.6170212925
 11
31.8229168653
 21
-31.7765957415
  0
LINE
  5
6A2
100
AcDbEntity
  8
0
100
AcDbLine
 62
7
  6
CONTINUOUS
 10
29.6354168654
 20
-31.4574468434
 11
29.7916668653
 21
-31.3510638773
  0
LINE
  5
6A3
100
AcDbEntity
  8
0
100
AcDbLine
 62
7
  6
CONTINUOUS
 10
28.5416665673
 20
-32.8404255323
 11
28.3854165673
 21
-32.9468085123
  0
LINE
  5
6A4
100
AcDbEntity
  8
0
100
AcDbLine
 62
7
  6
CONTINUOUS
 10
31.71875
 20
-31.5106383264
 11
31.875
 21
-31.4042553604
  0
LINE
  5
6A5
100
AcDbEntity
  8
0
100
AcDbLine
 62
7
  6
CONTINUOUS
 10
30.5208331346
 20
-32.6808510646
 11
30.6770831346
 21
-32.5744680986
  0
LINE
  5
6A6
100
AcDbEntity
  8
0
100
AcDbLine
 62
7
  6
CONTINUOUS
 10
32.65625
 20
-32.7340425476
 11
32.8125
 21
-32.6276595816
  0
LINE
  5
6A7
100
AcDbEntity
  8
0
100
AcDbLine
 62
7
  6
CONTINUOUS
 10
27.4479165673
 20
-31.4042553604
 11
27.5520834327
 21
-31.3510638773
  0
LINE
  5
6A8
100
AcDbEntity
  8
0
100
AcDbLine
 62
7
  6
CONTINUOUS
 10
27.7083334327
 20
-31.5638298094
 11
27.6041665673
 21
-31.6170212925
  0
LINE
  5
6A9
100
AcDbEntity
  8
0
100
AcDbLine
 62
7
  6
CONTINUOUS
 10
27.5
 20
-32.0425531566
 11
27.7083334327
 21
-31.9361701906
  0
LINE
  5
6AA
100
AcDbEntity
  8
0
100
AcDbLine
 62
7
  6
CONTINUOUS
 10
27.8125
 20
-32.1489361972
 11
27.7083334327
 21
-32.2021276802
  0
LINE
  5
6AB
100
AcDbEntity
  8
0
100
AcDbLine
 62
7
  6
CONTINUOUS
 10
30.0
 20
-31.5638298094
 11
29.7916668653
 21
-31.6702127755
  0
LINE
  5
6AC
100
AcDbEntity
  8
0
100
AcDbLine
 62
7
  6
CONTINUOUS
 10
32.0833331346
 20
-31.5638298094
 11
31.9791668653
 21
-31.6170212925
  0
LINE
  5
6AD
100
AcDbEntity
  8
0
100
AcDbLine
 62
7
  6
CONTINUOUS
 10
30.625
 20
-32.8936170246
 11
30.5208331346
 21
-32.9468085123
  0
LINE
  5
6AE
100
AcDbEntity
  8
0
100
AcDbLine
 62
7
  6
CONTINUOUS
 10
32.9166668653
 20
-32.8404255323
 11
32.7083331346
 21
-32.9468085123
  0
LINE
  5
6AF
100
AcDbEntity
  8
0
100
AcDbLine
 62
7
  6
CONTINUOUS
 10
28.125
 20
-32.7872340493
 11
28.3854165673
 21
-32.6808510646
  0
LINE
  5
6B0
100
AcDbEntity
  8
0
100
AcDbLine
 62
7
  6
CONTINUOUS
 10
43.9583337307
 20
-31.4042553604
 11
44.1145837307
 21
-31.3510638773
  0
LINE
  5
6B1
100
AcDbEntity
  8
0
100
AcDbLine
 62
7
  6
CONTINUOUS
 10
46.1458325386
 20
-31.4042553604
 11
46.3020825386
 21
-31.3510638773
  0
LINE
  5
6B2
100
AcDbEntity
  8
0
100
AcDbLine
 62
7
  6
CONTINUOUS
 10
47.34375
 20
-31.3510638773
 11
47.5
 21
-31.2978723943
  0
LINE
  5
6B3
100
AcDbEntity
  8
0
100
AcDbLine
 62
7
  6
CONTINUOUS
 10
47.5
 20
-31.5106383264
 11
47.34375
 21
-31.5638298094
  0
LINE
  5
6B4
100
AcDbEntity
  8
0
100
AcDbLine
 62
7
  6
CONTINUOUS
 10
48.1770825386
 20
-31.3510638773
 11
48.3333325386
 21
-31.2978723943
  0
LINE
  5
6B5
100
AcDbEntity
  8
0
100
AcDbLine
 62
7
  6
CONTINUOUS
 10
-69.225
 20
42.8
 11
-68.975
 21
42.8
  0
LINE
  5
6B6
100
AcDbEntity
  8
0
100
AcDbLine
 62
7
  6
CONTINUOUS
 10
-68.1761641033
 20
42.8
 11
-67.225
 21
42.8
  0
LINE
  5
6B7
100
AcDbEntity
  8
0
100
AcDbLine
 62
7
  6
CONTINUOUS
 10
67.375
 20
42.8
 11
68.325
 21
42.8
  0
LINE
  5
6B8
100
AcDbEntity
  8
0
100
AcDbLine
 62
7
  6
CONTINUOUS
 10
69.1238358967
 20
42.8
 11
69.375
 21
42.8
  0
LINE
  5
6B9
100
AcDbEntity
  8
0
100
AcDbLine
 62
253
  6
CONTINUOUS
 10
61.575
 20
43.0
 11
-61.425
 21
43.0
  0
LINE
  5
6BA
100
AcDbEntity
  8
0
100
AcDbLine
 62
7
  6
CONTINUOUS
 10
61.075
 20
43.5
 11
-60.925
 21
43.5
  0
LINE
  5
6BB
100
AcDbEntity
  8
0
100
AcDbLine
 62
253
  6
CONTINUOUS
 10
-71.425
 20
44.139173101
 11
-70.225
 21
44.139173101
  0
LINE
  5
6BC
100
AcDbEntity
  8
0
100
AcDbLine
 62
253
  6
CONTINUOUS
 10
70.375
 20
44.139173101
 11
71.575
 21
44.139173101
  0
LINE
  5
6BD
100
AcDbEntity
  8
0
100
AcDbLine
 62
253
  6
CONTINUOUS
 10
69.875
 20
44.5
 11
-69.725
 21
44.5
  0
LINE
  5
6BE
100
AcDbEntity
  8
0
100
AcDbLine
 62
7
  6
CONTINUOUS
 10
-71.425
 20
45.0
 11
71.575
 21
45.0
  0
LWPOLYLINE
  5
6BF
100
AcDbEntity
  8
0
100
AcDbPolyline
 62
253
  6
CONTINUOUS
 90
13
 70
0
 10
71.575
 20
44.139173101
 10
71.6395103579
 20
44.1385914895
 10
71.7027301563
 20
44.1368641874
 10
71.7636259853
 20
44.1340313965
 10
71.820938298
 20
44.1301731193
 10
71.8740873448
 20
44.1253508276
 10
71.9229612397
 20
44.1195578294
 10
71.9668294462
 20
44.1128131164
 10
72.0043863565
 20
44.1052396885
 10
72.0346153377
 20
44.0969841253
 10
72.0567919466
 20
44.0881944262
 10
72.0703960774
 20
44.0790079902
 10
72.075
 20
44.0695865526
  0
LINE
  5
6C0
100
AcDbEntity
  8
0
100
AcDbLine
 62
7
  6
CONTINUOUS
 10
50.8854174614
 20
-32.5744680986
 11
50.9375
 21
-32.8404255323
  0
LINE
  5
6C1
100
AcDbEntity
  8
0
100
AcDbLine
 62
7
  6
CONTINUOUS
 10
52.6041674614
 20
-31.9893616736
 11
52.5520825386
 21
-31.7234042585
  0
LINE
  5
6C2
100
AcDbEntity
  8
0
100
AcDbLine
 62
7
  6
CONTINUOUS
 10
52.8125
 20
-31.7234042585
 11
52.8645825386
 21
-31.9893616736
  0
LINE
  5
6C3
100
AcDbEntity
  8
0
100
AcDbLine
 62
7
  6
CONTINUOUS
 10
46.5625
 20
-31.2978723943
 11
46.5625
 21
-31.5638298094
  0
LINE
  5
6C4
100
AcDbEntity
  8
0
100
AcDbLine
 62
7
  6
CONTINUOUS
 10
46.9791674614
 20
-33.0
 11
46.9791674614
 21
-31.2978723943
  0
LINE
  5
6C5
100
AcDbEntity
  8
0
100
AcDbLine
 62
7
  6
CONTINUOUS
 10
47.2395825386
 20
-31.2978723943
 11
47.2395825386
 21
-31.4574468434
  0
LINE
  5
6C6
100
AcDbEntity
  8
0
100
AcDbLine
 62
7
  6
CONTINUOUS
 10
47.2395825386
 20
-31.6702127755
 11
47.2395825386
 21
-33.0
  0
LINE
  5
6C7
100
AcDbEntity
  8
0
100
AcDbLine
 62
7
  6
CONTINUOUS
 10
47.8125
 20
-33.0
 11
47.8125
 21
-31.7234042585
  0
LINE
  5
6C8
100
AcDbEntity
  8
0
100
AcDbLine
 62
7
  6
CONTINUOUS
 10
48.0729174614
 20
-31.7234042585
 11
48.0729174614
 21
-33.0
  0
LINE
  5
6C9
100
AcDbEntity
  8
0
100
AcDbLine
 62
7
  6
CONTINUOUS
 10
48.6458325386
 20
-33.0
 11
48.6458325386
 21
-31.7234042585
  0
LINE
  5
6CA
100
AcDbEntity
  8
0
100
AcDbLine
 62
7
  6
CONTINUOUS
 10
48.90625
 20
-31.7234042585
 11
48.90625
 21
-33.0
  0
LINE
  5
6CB
100
AcDbEntity
  8
0
100
AcDbLine
 62
7
  6
CONTINUOUS
 10
49.3229174614
 20
-32.5212765783
 11
49.3229174614
 21
-32.3617021292
  0
LINE
  5
6CC
100
AcDbEntity
  8
0
100
AcDbLine
 62
7
  6
CONTINUOUS
 10
49.3229174614
 20
-31.7234042585
 11
49.3229174614
 21
-31.6170212925
  0
LINE
  5
6CD
100
AcDbEntity
  8
0
100
AcDbLine
 62
7
  6
CONTINUOUS
 10
49.5833325386
 20
-32.5744680986
 11
49.5833325386
 21
-32.4680850953
  0
LINE
  5
6CE
100
AcDbEntity
  8
0
100
AcDbLine
 62
7
  6
CONTINUOUS
 10
50.625
 20
-31.8829787076
 11
50.625
 21
-31.7234042585
  0
LINE
  5
6CF
100
AcDbEntity
  8
0
100
AcDbLine
 62
7
  6
CONTINUOUS
 10
50.625
 20
-32.0957447141
 11
50.625
 21
-32.4148936123
  0
LINE
  5
6D0
100
AcDbEntity
  8
0
100
AcDbLine
 62
7
  6
CONTINUOUS
 10
50.8854174614
 20
-31.7234042585
 11
50.8854174614
 21
-32.5744680986
  0
LINE
  5
6D1
100
AcDbEntity
  8
0
100
AcDbLine
 62
7
  6
CONTINUOUS
 10
51.40625
 20
-33.0
 11
51.40625
 21
-31.2978723943
  0
LINE
  5
6D2
100
AcDbEntity
  8
0
100
AcDbLine
 62
7
  6
CONTINUOUS
 10
51.6666674614
 20
-31.2978723943
 11
51.6666674614
 21
-31.5638298094
  0
LINE
  5
6D3
100
AcDbEntity
  8
0
100
AcDbLine
 62
7
  6
CONTINUOUS
 10
51.6666674614
 20
-31.7765957415
 11
51.6666674614
 21
-33.0
  0
LINE
  5
6D4
100
AcDbEntity
  8
0
100
AcDbLine
 62
7
  6
CONTINUOUS
 10
43.5416662693
 20
-32.1489361972
 11
43.59375
 21
-31.8297872245
  0
LINE
  5
6D5
100
AcDbEntity
  8
0
100
AcDbLine
 62
7
  6
CONTINUOUS
 10
41.09375
 20
-31.3510638774
 11
41.1458337307
 21
-31.0851063132
  0
LINE
  5
6D6
100
AcDbEntity
  8
0
100
AcDbLine
 62
7
  6
CONTINUOUS
 10
41.4583337307
 20
-31.1382979453
 11
41.40625
 21
-31.3510638773
  0
LINE
  5
6D7
100
AcDbEntity
  8
0
100
AcDbLine
 62
7
  6
CONTINUOUS
 10
43.125
 20
-32.4148936123
 11
43.0729162693
 21
-32.6276595816
  0
LINE
  5
6D8
100
AcDbEntity
  8
0
100
AcDbLine
 62
7
  6
CONTINUOUS
 10
45.2083325386
 20
-32.4680850953
 11
45.15625
 21
-32.6808510646
  0
LINE
  5
6D9
100
AcDbEntity
  8
0
100
AcDbLine
 62
7
  6
CONTINUOUS
 10
42.7604162693
 20
-32.5212765783
 11
42.8125
 21
-32.3617021292
  0
LINE
  5
6DA
100
AcDbEntity
  8
0
100
AcDbLine
 62
7
  6
CONTINUOUS
 10
41.1458337307
 20
-31.0851063132
 11
41.25
 21
-30.8723403812
  0
LINE
  5
6DB
100
AcDbEntity
  8
0
100
AcDbLine
 62
7
  6
CONTINUOUS
 10
41.5625
 20
-30.9787233472
 11
41.4583337307
 21
-31.1382979453
  0
LINE
  5
6DC
100
AcDbEntity
  8
0
100
AcDbLine
 62
7
  6
CONTINUOUS
 10
33.0729168653
 20
-32.6808510646
 11
32.9166668653
 21
-32.8404255323
  0
LINE
  5
6DD
100
AcDbEntity
  8
0
100
AcDbLine
 62
7
  6
CONTINUOUS
 10
36.9791662693
 20
-31.5638298094
 11
37.0833337307
 21
-31.4574468434
  0
LINE
  5
6DE
100
AcDbEntity
  8
0
100
AcDbLine
 62
7
  6
CONTINUOUS
 10
37.0833337307
 20
-31.6702127755
 11
36.9791662693
 21
-31.7765957415
  0
LINE
  5
6DF
100
AcDbEntity
  8
0
100
AcDbLine
 62
7
  6
CONTINUOUS
 10
41.25
 20
-30.8723403812
 11
41.4583337307
 21
-30.6595744491
  0
LINE
  5
6E0
100
AcDbEntity
  8
0
100
AcDbLine
 62
7
  6
CONTINUOUS
 10
37.0833337307
 20
-31.4574468434
 11
37.2395837307
 21
-31.3510638773
  0
LINE
  5
6E1
100
AcDbEntity
  8
0
100
AcDbLine
 62
7
  6
CONTINUOUS
 10
37.2395837307
 20
-31.5638298094
 11
37.0833337307
 21
-31.6702127755
  0
LINE
  5
6E2
100
AcDbEntity
  8
0
100
AcDbLine
 62
7
  6
CONTINUOUS
 10
41.71875
 20
-30.8723403812
 11
41.5625
 21
-30.9787233472
  0
LINE
  5
6E3
100
AcDbEntity
  8
0
100
AcDbLine
 62
7
  6
CONTINUOUS
 10
43.8020837307
 20
-31.5106383264
 11
43.9583337307
 21
-31.4042553604
  0
LINE
  5
6E4
100
AcDbEntity
  8
0
100
AcDbLine
 62
7
  6
CONTINUOUS
 10
42.6041662693
 20
-32.6276595816
 11
42.7604162693
 21
-32.5212765783
  0
LINE
  5
6E5
100
AcDbEntity
  8
0
100
AcDbLine
 62
7
  6
CONTINUOUS
 10
41.4583337307
 20
-30.6595744491
 11
41.6666662693
 21
-30.553191483
  0
LINE
  5
6E6
100
AcDbEntity
  8
0
100
AcDbLine
 62
7
  6
CONTINUOUS
 10
44.1666662693
 20
-31.5638298094
 11
44.0625
 21
-31.6170212925
  0
LINE
  5
6E7
100
AcDbEntity
  8
0
100
AcDbLine
 62
7
  6
CONTINUOUS
 10
42.8645837307
 20
-32.8404255323
 11
42.65625
 21
-32.9468085123
  0
LINE
  5
6E8
100
AcDbEntity
  8
0
100
AcDbLine
 62
7
  6
CONTINUOUS
 10
46.25
 20
-31.6170212925
 11
46.0416674614
 21
-31.7234042585
  0
LINE
  5
6E9
100
AcDbEntity
  8
0
100
AcDbLine
 62
7
  6
CONTINUOUS
 10
45.0
 20
-32.8404255323
 11
44.7916674614
 21
-32.9468085123
  0
LINE
  5
6EA
100
AcDbEntity
  8
0
100
AcDbLine
 62
7
  6
CONTINUOUS
 10
48.28125
 20
-31.5106383264
 11
48.1770825386
 21
-31.5638298094
  0
LINE
  5
6EB
100
AcDbEntity
  8
0
100
AcDbLine
 62
7
  6
CONTINUOUS
 10
49.4791674614
 20
-31.4042553604
 11
49.5833325386
 21
-31.3510638773
  0
LINE
  5
6EC
100
AcDbEntity
  8
0
100
AcDbLine
 62
7
  6
CONTINUOUS
 10
49.7395825386
 20
-31.5638298094
 11
49.6354174614
 21
-31.6170212925
  0
LINE
  5
6ED
100
AcDbEntity
  8
0
100
AcDbLine
 62
7
  6
CONTINUOUS
 10
49.53125
 20
-32.0425531566
 11
49.7395825386
 21
-31.9361701906
  0
LINE
  5
6EE
100
AcDbEntity
  8
0
100
AcDbLine
 62
7
  6
CONTINUOUS
 10
49.84375
 20
-32.1489361972
 11
49.7395825386
 21
-32.2021276802
  0
LINE
  5
6EF
100
AcDbEntity
  8
0
100
AcDbLine
 62
7
  6
CONTINUOUS
 10
50.15625
 20
-32.7872340493
 11
50.4166674614
 21
-32.6808510646
  0
LINE
  5
6F0
100
AcDbEntity
  8
0
100
AcDbLine
 62
7
  6
CONTINUOUS
 10
52.6041674614
 20
-33.0
 11
52.6041674614
 21
-31.9893616736
  0
LINE
  5
6F1
100
AcDbEntity
  8
0
100
AcDbLine
 62
7
  6
CONTINUOUS
 10
52.8645825386
 20
-31.9893616736
 11
52.8645825386
 21
-33.0
  0
LINE
  5
6F2
100
AcDbEntity
  8
0
100
AcDbLine
 62
7
  6
CONTINUOUS
 10
44.8958325386
 20
-32.6276595816
 11
44.9479174614
 21
-32.4680850953
  0
LINE
  5
6F3
100
AcDbEntity
  8
0
100
AcDbLine
 62
7
  6
CONTINUOUS
 10
49.6354174614
 20
-32.3085106462
 11
49.5833325386
 21
-32.4680850953
  0
LINE
  5
6F4
100
AcDbEntity
  8
0
100
AcDbLine
 62
7
  6
CONTINUOUS
 10
43.59375
 20
-31.8297872245
 11
43.6979162693
 21
-31.6170212925
  0
LINE
  5
6F5
100
AcDbEntity
  8
0
100
AcDbLine
 62
7
  6
CONTINUOUS
 10
43.90625
 20
-31.7765957415
 11
43.8541662693
 21
-31.8829787076
  0
LINE
  5
6F6
100
AcDbEntity
  8
0
100
AcDbLine
 62
7
  6
CONTINUOUS
 10
48.125
 20
-31.6170212925
 11
48.0729174614
 21
-31.7234042585
  0
LINE
  5
6F7
100
AcDbEntity
  8
0
100
AcDbLine
 62
7
  6
CONTINUOUS
 10
46.0416674614
 20
-31.7234042585
 11
45.8854174614
 21
-31.9361701906
  0
LINE
  5
6F8
100
AcDbEntity
  8
0
100
AcDbLine
 62
7
  6
CONTINUOUS
 10
43.6979162693
 20
-31.6170212925
 11
43.8020837307
 21
-31.5106383264
  0
LINE
  5
6F9
100
AcDbEntity
  8
0
100
AcDbLine
 62
7
  6
CONTINUOUS
 10
44.0625
 20
-31.6170212925
 11
43.90625
 21
-31.7765957415
  0
LINE
  5
6FA
100
AcDbEntity
  8
0
100
AcDbLine
 62
7
  6
CONTINUOUS
 10
43.0729162693
 20
-32.6276595816
 11
42.8645837307
 21
-32.8404255323
  0
LINE
  5
6FB
100
AcDbEntity
  8
0
100
AcDbLine
 62
7
  6
CONTINUOUS
 10
45.8854174614
 20
-31.6170212925
 11
45.9895825386
 21
-31.5106383264
  0
LINE
  5
6FC
100
AcDbEntity
  8
0
100
AcDbLine
 62
7
  6
CONTINUOUS
 10
45.15625
 20
-32.6808510646
 11
45.0
 21
-32.8404255323
  0
LINE
  5
6FD
100
AcDbEntity
  8
0
100
AcDbLine
 62
7
  6
CONTINUOUS
 10
47.2395825386
 20
-31.4574468434
 11
47.34375
 21
-31.3510638773
  0
LINE
  5
6FE
100
AcDbEntity
  8
0
100
AcDbLine
 62
7
  6
CONTINUOUS
 10
47.34375
 20
-31.5638298094
 11
47.2395825386
 21
-31.6702127755
  0
LINE
  5
6FF
100
AcDbEntity
  8
0
100
AcDbLine
 62
7
  6
CONTINUOUS
 10
48.0208325386
 20
-31.5106383264
 11
48.1770825386
 21
-31.3510638773
  0
LINE
  5
700
100
AcDbEntity
  8
0
100
AcDbLine
 62
7
  6
CONTINUOUS
 10
48.1770825386
 20
-31.5638298094
 11
48.125
 21
-31.6170212925
  0
LINE
  5
701
100
AcDbEntity
  8
0
100
AcDbLine
 62
7
  6
CONTINUOUS
 10
49.375
 20
-31.5106383264
 11
49.4791674614
 21
-31.4042553604
  0
LINE
  5
702
100
AcDbEntity
  8
0
100
AcDbLine
 62
7
  6
CONTINUOUS
 10
45.9895825386
 20
-31.5106383264
 11
46.1458325386
 21
-31.4042553604
  0
LINE
  5
703
100
AcDbEntity
  8
0
100
AcDbLine
 62
7
  6
CONTINUOUS
 10
44.7395825386
 20
-32.7340425476
 11
44.8958325386
 21
-32.6276595816
  0
LINE
  5
704
100
AcDbEntity
  8
0
100
AcDbLine
 62
7
  6
CONTINUOUS
 10
51.7708325386
 20
-31.4574468434
 11
51.9270825386
 21
-31.3510638773
  0
LINE
  5
705
100
AcDbEntity
  8
0
100
AcDbLine
 62
7
  6
CONTINUOUS
 10
51.9270825386
 20
-31.5638298094
 11
51.7708325386
 21
-31.6702127755
  0
LINE
  5
706
100
AcDbEntity
  8
0
100
AcDbLine
 62
7
  6
CONTINUOUS
 10
50.5729174614
 20
-32.8404255323
 11
50.4166674614
 21
-32.9468085123
  0
LINE
  5
707
100
AcDbEntity
  8
0
100
AcDbLine
 62
7
  6
CONTINUOUS
 10
61.075
 20
44.5
 11
61.075
 21
43.5
  0
LINE
  5
708
100
AcDbEntity
  8
0
100
AcDbLine
 62
253
  6
CONTINUOUS
 10
61.575
 20
43.0
 11
61.575
 21
45.0
  0
LINE
  5
709
100
AcDbEntity
  8
0
100
AcDbLine
 62
7
  6
CONTINUOUS
 10
53.59375
 20
-33.8510638028
 11
54.0104174614
 21
-32.7872340493
  0
LINE
  5
70A
100
AcDbEntity
  8
0
100
AcDbLine
 62
7
  6
CONTINUOUS
 10
54.9479174614
 20
-31.2978723943
 11
53.90625
 21
-33.8510638028
  0
LINE
  5
70B
100
AcDbEntity
  8
0
100
AcDbLine
 62
7
  6
CONTINUOUS
 10
54.1666674614
 20
-32.4148936123
 11
54.6354174614
 21
-31.2978723943
  0
LINE
  5
70C
100
AcDbEntity
  8
0
100
AcDbLine
 62
7
  6
CONTINUOUS
 10
49.3229174614
 20
-31.6170212925
 11
49.375
 21
-31.5106383264
  0
LINE
  5
70D
100
AcDbEntity
  8
0
100
AcDbLine
 62
7
  6
CONTINUOUS
 10
49.6354174614
 20
-31.6170212925
 11
49.5833325386
 21
-31.7234042585
  0
LINE
  5
70E
100
AcDbEntity
  8
0
100
AcDbLine
 62
7
  6
CONTINUOUS
 10
49.3229174614
 20
-32.3617021292
 11
49.4270825386
 21
-32.1489361972
  0
LINE
  5
70F
100
AcDbEntity
  8
0
100
AcDbLine
 62
7
  6
CONTINUOUS
 10
50.5729174614
 20
-32.5212765783
 11
50.625
 21
-32.4148936123
  0
LINE
  5
710
100
AcDbEntity
  8
0
100
AcDbLine
 62
7
  6
CONTINUOUS
 10
50.625
 20
-32.7340425476
 11
50.5729174614
 21
-32.8404255323
  0
LINE
  5
711
100
AcDbEntity
  8
0
100
AcDbLine
 62
7
  6
CONTINUOUS
 10
49.4270825386
 20
-32.1489361972
 11
49.53125
 21
-32.0425531566
  0
LINE
  5
712
100
AcDbEntity
  8
0
100
AcDbLine
 62
7
  6
CONTINUOUS
 10
49.7395825386
 20
-32.2021276802
 11
49.6354174614
 21
-32.3085106462
  0
LINE
  5
713
100
AcDbEntity
  8
0
100
AcDbLine
 62
7
  6
CONTINUOUS
 10
50.4166674614
 20
-32.6808510646
 11
50.5729174614
 21
-32.5212765783
  0
LINE
  5
714
100
AcDbEntity
  8
0
100
AcDbLine
 62
7
  6
CONTINUOUS
 10
51.6666674614
 20
-31.5638298094
 11
51.7708325386
 21
-31.4574468434
  0
LINE
  5
715
100
AcDbEntity
  8
0
100
AcDbLine
 62
7
  6
CONTINUOUS
 10
51.7708325386
 20
-31.6702127755
 11
51.6666674614
 21
-31.7765957415
  0
LINE
  5
716
100
AcDbEntity
  8
0
100
AcDbLine
 62
7
  6
CONTINUOUS
 10
66.875
 20
37.5
 11
66.875
 21
42.3
  0
LINE
  5
717
100
AcDbEntity
  8
0
100
AcDbLine
 62
7
  6
CONTINUOUS
 10
67.075
 20
17.6
 11
67.075
 21
15.6
  0
LINE
  5
718
100
AcDbEntity
  8
0
100
AcDbLine
 62
7
  6
CONTINUOUS
 10
67.075
 20
-18.3
 11
67.075
 21
-20.0
  0
LINE
  5
719
100
AcDbEntity
  8
0
100
AcDbLine
 62
253
  6
CONTINUOUS
 10
67.575
 20
18.1
 11
67.575
 21
15.1
  0
LWPOLYLINE
  5
71A
100
AcDbEntity
  8
0
100
AcDbPolyline
 62
7
  6
CONTINUOUS
 90
25
 70
0
 10
70.0604491719
 20
19.3
 10
70.0642437269
 20
19.3265957085
 10
70.0662438889
 20
19.3531296367
 10
70.0664276209
 20
19.3796056375
 10
70.0648540643
 20
19.4058982401
 10
70.0614791842
 20
19.4321302669
 10
70.0561605289
 20
19.458672154
 10
70.0489182728
 20
19.4857454882
 10
70.0398974663
 20
19.5131022132
 10
70.0291918207
 20
19.5404017074
 10
70.0169015495
 20
19.5677134956
 10
70.0032998535
 20
19.5949209973
 10
69.9887809754
 20
19.6214031619
 10
69.9733848052
 20
19.6473822778
 10
69.9576865252
 20
19.6725855321
 10
69.942744141
 20
19.6956708732
 10
69.9287787723
 20
19.7163253306
 10
69.9159521786
 20
19.7348618198
 10
69.9048717616
 20
19.7509109584
 10
69.8956534622
 20
19.7642363101
 10
69.888146401
 20
19.7751073372
 10
69.8823495406
 20
19.783925844
 10
69.8782451269
 20
19.7908353647
 10
69.8758055068
 20
19.7957208807
 10
69.875
 20
19.7985958399
  0
LINE
  5
71B
100
AcDbEntity
  8
0
100
AcDbLine
 62
7
  6
CONTINUOUS
 10
70.3344553604
 20
-21.2408660888
 11
70.375
 21
-21.2
  0
LINE
  5
71C
100
AcDbEntity
  8
0
100
AcDbLine
 62
7
  6
CONTINUOUS
 10
69.8818061913
 20
-21.6931938087
 11
70.3344553604
 21
-21.2408660888
  0
LWPOLYLINE
  5
71D
100
AcDbEntity
  8
0
100
AcDbPolyline
 62
7
  6
CONTINUOUS
 90
3
 70
0
 10
69.875
 20
-21.7
 10
69.8757419323
 20
-21.6993177501
 10
69.8818061913
 20
-21.6931938087
  0
LINE
  5
71E
100
AcDbEntity
  8
0
100
AcDbLine
 62
7
  6
CONTINUOUS
 10
69.675
 20
42.6993658706
 11
69.675
 21
37.1
  0
LINE
  5
71F
100
AcDbEntity
  8
0
100
AcDbLine
 62
7
  6
CONTINUOUS
 10
69.875
 20
44.4999999975
 11
69.875
 21
19.8
  0
LINE
  5
720
100
AcDbEntity
  8
0
100
AcDbLine
 62
7
  6
CONTINUOUS
 10
69.875
 20
-21.7
 11
69.875
 21
-44.4999999903
  0
LINE
  5
721
100
AcDbEntity
  8
0
100
AcDbLine
 62
253
  6
CONTINUOUS
 10
70.375
 20
-21.2
 11
70.375
 21
-45.0
  0
LINE
  5
722
100
AcDbEntity
  8
0
100
AcDbLine
 62
253
  6
CONTINUOUS
 10
70.375
 20
20.0999999928
 11
70.375
 21
45.0
  0
LINE
  5
723
100
AcDbEntity
  8
0
100
AcDbLine
 62
253
  6
CONTINUOUS
 10
71.575
 20
-45.0
 11
71.575
 21
45.0
  0
LINE
  5
724
100
AcDbEntity
  8
0
100
AcDbLine
 62
7
  6
CONTINUOUS
 10
72.075
 20
-44.4999999956
 11
72.075
 21
44.5
  0
LINE
  5
725
100
AcDbEntity
  8
0
100
AcDbLine
 62
7
  6
CONTINUOUS
 10
61.5164655356
 20
43.0577242405
 11
61.575
 21
43.0
  0
LWPOLYLINE
  5
726
100
AcDbEntity
  8
0
100
AcDbPolyline
 62
7
  6
CONTINUOUS
 90
3
 70
0
 10
61.1976403341
 20
43.3772518838
 10
61.2335085498
 20
43.341645749
 10
61.3148899203
 20
43.2599753844
  0
LWPOLYLINE
  5
727
100
AcDbEntity
  8
0
100
AcDbPolyline
 62
7
  6
CONTINUOUS
 90
4
 70
0
 10
61.3148899203
 20
43.2599753844
 10
61.360403075
 20
43.2147603446
 10
61.4091760413
 20
43.1658646713
 10
61.5164655356
 20
43.0577242405
  0
LWPOLYLINE
  5
728
100
AcDbEntity
  8
0
100
AcDbPolyline
 62
7
  6
CONTINUOUS
 90
3
 70
0
 10
61.0976609571
 20
43.4773310885
 10
61.1387089389
 20
43.4365464697
 10
61.1976403341
 20
43.3772518838
  0
LINE
  5
729
100
AcDbEntity
  8
0
100
AcDbLine
 62
7
  6
CONTINUOUS
 10
61.075
 20
43.5
 11
61.0976609571
 21
43.4773310885
  0
ARC
  5
72A
100
AcDbEntity
  8
0
100
AcDbCircle
 62
7
  6
CONTINUOUS
 10
-2.925
 20
-39.0
 40
2.0
100
AcDbArc
 50
180.0000000001
 51
269.9999999999
  0
ARC
  5
72B
100
AcDbEntity
  8
0
100
AcDbCircle
 62
7
  6
CONTINUOUS
 10
-71.425
 20
-18.8
 40
0.5
100
AcDbArc
 50
90.0000042782
 51
179.9999999993
  0
ARC
  5
72C
100
AcDbEntity
  8
0
100
AcDbCircle
 62
7
  6
CONTINUOUS
 10
-71.425
 20
-44.5
 40
0.5
100
AcDbArc
 50
180.000001559
 51
270.0000000005
  0
ARC
  5
72D
100
AcDbEntity
  8
0
100
AcDbCircle
 62
7
  6
CONTINUOUS
 10
-70.225
 20
-44.5
 40
0.5
100
AcDbArc
 50
270.0000000001
 51
0.0000001861
  0
ARC
  5
72E
100
AcDbEntity
  8
0
100
AcDbCircle
 62
7
  6
CONTINUOUS
 10
-20.0066188347
 20
29.9659933459
 40
2.75
100
AcDbArc
 50
180.0
 51
360.0
  0
ARC
  5
72F
100
AcDbEntity
  8
0
100
AcDbCircle
 62
7
  6
CONTINUOUS
 10
-20.0066188347
 20
34.6409933459
 40
2.75
100
AcDbArc
 50
180.0
 51
360.0
  0
ARC
  5
730
100
AcDbEntity
  8
0
100
AcDbCircle
 62
7
  6
CONTINUOUS
 10
-20.0066188347
 20
29.9659933459
 40
1.925
100
AcDbArc
 50
180.0
 51
360.0
  0
ARC
  5
731
100
AcDbEntity
  8
0
100
AcDbCircle
 62
7
  6
CONTINUOUS
 10
-20.0066188347
 20
34.6409933459
 40
1.92
100
AcDbArc
 50
180.0000000001
 51
257.5172404963
  0
ARC
  5
732
100
AcDbEntity
  8
0
100
AcDbCircle
 62
7
  6
CONTINUOUS
 10
-20.0066188347
 20
34.6409933459
 40
1.92
100
AcDbArc
 50
282.4827595037
 51
359.9999999999
  0
ARC
  5
733
100
AcDbEntity
  8
0
100
AcDbCircle
 62
7
  6
CONTINUOUS
 10
-46.2115934838
 20
27.9900818559
 40
1.2865934838
100
AcDbArc
 50
236.3099324747
 51
359.9999999999
  0
ARC
  5
734
100
AcDbEntity
  8
0
100
AcDbCircle
 62
7
  6
CONTINUOUS
 10
-49.6384065162
 20
30.2746238775
 40
1.2865934838
100
AcDbArc
 50
123.6900675249
 51
236.3099324735
  0
ARC
  5
735
100
AcDbEntity
  8
0
100
AcDbCircle
 62
7
  6
CONTINUOUS
 10
-46.2115934838
 20
32.559165899
 40
1.2865934838
100
AcDbArc
 50
0.0
 51
123.6900675264
  0
ARC
  5
736
100
AcDbEntity
  8
0
100
AcDbCircle
 62
7
  6
CONTINUOUS
 10
-46.2115934838
 20
27.9900818559
 40
0.7022911583
100
AcDbArc
 50
236.3099324739
 51
360.0
  0
ARC
  5
737
100
AcDbEntity
  8
0
100
AcDbCircle
 62
7
  6
CONTINUOUS
 10
-49.6384065162
 20
30.2746238775
 40
0.7022911582
100
AcDbArc
 50
123.6900675261
 51
236.3099324709
  0
ARC
  5
738
100
AcDbEntity
  8
0
100
AcDbCircle
 62
7
  6
CONTINUOUS
 10
-46.2115934838
 20
32.559165899
 40
0.7022911583
100
AcDbArc
 50
0.0000000007
 51
123.6900675266
  0
ARC
  5
739
100
AcDbEntity
  8
0
100
AcDbCircle
 62
7
  6
CONTINUOUS
 10
-69.225
 20
37.5
 40
0.5
100
AcDbArc
 50
179.9999999995
 51
270.0000000005
  0
ARC
  5
73A
100
AcDbEntity
  8
0
100
AcDbCircle
 62
7
  6
CONTINUOUS
 10
-67.225
 20
37.5
 40
0.5
100
AcDbArc
 50
269.9999999995
 51
360.0
  0
ARC
  5
73B
100
AcDbEntity
  8
0
100
AcDbCircle
 62
7
  6
CONTINUOUS
 10
-67.225
 20
42.3
 40
0.5
100
AcDbArc
 50
0.0
 51
90.0000000005
  0
ARC
  5
73C
100
AcDbEntity
  8
0
100
AcDbCircle
 62
7
  6
CONTINUOUS
 10
-68.575
 20
43.1
 40
0.5
100
AcDbArc
 50
216.8698976457
 51
323.1301023543
  0
ARC
  5
73D
100
AcDbEntity
  8
0
100
AcDbCircle
 62
7
  6
CONTINUOUS
 10
-69.225
 20
42.3
 40
0.5
100
AcDbArc
 50
89.9999999995
 51
180.0000000005
  0
ARC
  5
73E
100
AcDbEntity
  8
0
100
AcDbCircle
 62
7
  6
CONTINUOUS
 10
-71.425
 20
15.6
 40
0.5
100
AcDbArc
 50
180.0000000001
 51
270.0000000001
  0
ARC
  5
73F
100
AcDbEntity
  8
0
100
AcDbCircle
 62
7
  6
CONTINUOUS
 10
-61.425
 20
44.5
 40
0.5
100
AcDbArc
 50
0.0
 51
90.0000000005
  0
ARC
  5
740
100
AcDbEntity
  8
0
100
AcDbCircle
 62
7
  6
CONTINUOUS
 10
-70.025
 20
38.15
 40
0.5
100
AcDbArc
 50
306.8698976457
 51
53.1301023543
  0
ARC
  5
741
100
AcDbEntity
  8
0
100
AcDbCircle
 62
7
  6
CONTINUOUS
 10
-71.425
 20
44.5
 40
0.5
100
AcDbArc
 50
89.9999999995
 51
179.9999982942
  0
ARC
  5
742
100
AcDbEntity
  8
0
100
AcDbCircle
 62
7
  6
CONTINUOUS
 10
-70.225
 20
44.5
 40
0.5
100
AcDbArc
 50
0.0000014225
 51
90.0000000005
  0
ARC
  5
743
100
AcDbEntity
  8
0
100
AcDbCircle
 62
7
  6
CONTINUOUS
 10
3.075
 20
-39.0
 40
2.0
100
AcDbArc
 50
270.0000000001
 51
359.9999999999
  0
ARC
  5
744
100
AcDbEntity
  8
0
100
AcDbCircle
 62
7
  6
CONTINUOUS
 10
0.075
 20
-30.33
 40
1.0
100
AcDbArc
 50
39.4757047507
 51
149.9748794532
  0
ARC
  5
745
100
AcDbEntity
  8
0
100
AcDbCircle
 62
7
  6
CONTINUOUS
 10
0.075
 20
-30.33
 40
1.0
100
AcDbArc
 50
0.0
 51
8.8577795096
  0
ARC
  5
746
100
AcDbEntity
  8
0
100
AcDbCircle
 62
7
  6
CONTINUOUS
 10
0.075
 20
-22.83
 40
1.0
100
AcDbArc
 50
296.3403805534
 51
339.3812032512
  0
ARC
  5
747
100
AcDbEntity
  8
0
100
AcDbCircle
 62
7
  6
CONTINUOUS
 10
0.075
 20
-22.83
 40
1.0
100
AcDbArc
 50
210.0214999199
 51
252.7596728043
  0
ARC
  5
748
100
AcDbEntity
  8
0
100
AcDbCircle
 62
7
  6
CONTINUOUS
 10
71.575
 20
-18.8
 40
0.5
100
AcDbArc
 50
0.0000000001
 51
90.0000000005
  0
ARC
  5
749
100
AcDbEntity
  8
0
100
AcDbCircle
 62
7
  6
CONTINUOUS
 10
70.375
 20
-44.5
 40
0.5
100
AcDbArc
 50
179.9999998134
 51
270.0000000005
  0
ARC
  5
74A
100
AcDbEntity
  8
0
100
AcDbCircle
 62
7
  6
CONTINUOUS
 10
71.575
 20
-44.5
 40
0.5
100
AcDbArc
 50
269.9999999995
 51
0.0000018606
  0
ARC
  5
74B
100
AcDbEntity
  8
0
100
AcDbCircle
 62
7
  6
CONTINUOUS
 10
67.375
 20
42.3
 40
0.5
100
AcDbArc
 50
89.9999999995
 51
180.0000000005
  0
ARC
  5
74C
100
AcDbEntity
  8
0
100
AcDbCircle
 62
7
  6
CONTINUOUS
 10
67.375
 20
37.5
 40
0.5
100
AcDbArc
 50
179.9999999995
 51
270.0000000005
  0
ARC
  5
74D
100
AcDbEntity
  8
0
100
AcDbCircle
 62
7
  6
CONTINUOUS
 10
69.375
 20
37.5
 40
0.5
100
AcDbArc
 50
269.9999999995
 51
360.0
  0
ARC
  5
74E
100
AcDbEntity
  8
0
100
AcDbCircle
 62
7
  6
CONTINUOUS
 10
69.375
 20
42.3
 40
0.5
100
AcDbArc
 50
0.0
 51
90.0000000005
  0
ARC
  5
74F
100
AcDbEntity
  8
0
100
AcDbCircle
 62
7
  6
CONTINUOUS
 10
68.725
 20
43.1
 40
0.5
100
AcDbArc
 50
216.8698976457
 51
323.1301023543
  0
ARC
  5
750
100
AcDbEntity
  8
0
100
AcDbCircle
 62
7
  6
CONTINUOUS
 10
70.175
 20
38.15
 40
0.5
100
AcDbArc
 50
126.8698976457
 51
233.1301023543
  0
ARC
  5
751
100
AcDbEntity
  8
0
100
AcDbCircle
 62
7
  6
CONTINUOUS
 10
61.575
 20
44.5
 40
0.5
100
AcDbArc
 50
89.9999999999
 51
180.0000000001
  0
ARC
  5
752
100
AcDbEntity
  8
0
100
AcDbCircle
 62
7
  6
CONTINUOUS
 10
71.575
 20
15.6
 40
0.5
100
AcDbArc
 50
269.9999999999
 51
359.9999999999
  0
ARC
  5
753
100
AcDbEntity
  8
0
100
AcDbCircle
 62
7
  6
CONTINUOUS
 10
67.575
 20
15.6
 40
0.5
100
AcDbArc
 50
179.9999999995
 51
270.0000000005
  0
ARC
  5
754
100
AcDbEntity
  8
0
100
AcDbCircle
 62
7
  6
CONTINUOUS
 10
71.575
 20
44.5
 40
0.5
100
AcDbArc
 50
0.0000014226
 51
90.0000000005
  0
ARC
  5
755
100
AcDbEntity
  8
0
100
AcDbCircle
 62
7
  6
CONTINUOUS
 10
70.375
 20
44.5
 40
0.5
100
AcDbArc
 50
89.9999999995
 51
179.9999985771
  0
ELLIPSE
  5
756
100
AcDbEntity
  8
0
100
AcDbEllipse
 62
7
  6
CONTINUOUS
 10
70.375
 20
16.5073517328
 30
0.0
 11
-0.0
 21
-3.5926482672
 31
0.0
 40
0.139173101
 41
3.1415926536
 42
3.8219896348
  0
ENDSEC
  0
SECTION
  2
OBJECTS
  0
DICTIONARY
  5
C
100
AcDbDictionary
280
0
281
1
  3
ACAD_GROUP
350
D
  3
ACAD_MLINESTYLE
350
17
  3
ACAD_LAYOUT
350
1A
  3
ACAD_PLOTSETTINGS
350
19
  3
ACAD_PLOTSTYLENAME
350
E
  0
DICTIONARY
  5
D
102
{ACAD_REACTORS
330
C
102
}
100
AcDbDictionary
280
0
281
1
  0
ACDBDICTIONARYWDFLT
  5
E
102
{ACAD_REACTORS
330
C
102
}
100
AcDbDictionary
281
1
  3
Normal
350
F
100
AcDbDictionaryWithDefault
340
F
  0
DICTIONARY
  5
17
102
{ACAD_REACTORS
330
C
102
}
100
AcDbDictionary
280
0
281
1
  3
Standard
350
18
  0
DICTIONARY
  5
19
102
{ACAD_REACTORS
330
C
102
}
100
AcDbDictionary
281
1
  0
DICTIONARY
  5
1A
102
{ACAD_REACTORS
330
C
102
}
100
AcDbDictionary
281
1
  3
Model
350
757
  3
Layout1
350
758
  0
ACDBPLACEHOLDER
  5
F
102
{ACAD_REACTORS
330
E
102
}
  0
MLINESTYLE
  5
18
102
{ACAD_REACTORS
330
17
102
}
100
AcDbMlineStyle
  2
STANDARD
 70
0
  3

 62
256
 51
90.0
 52
90.0
 71
2
 49
0.5
 62
256
  6
BYLAYER
 49
-0.5
 62
256
  6
BYLAYER
  0
LAYOUT
  5
757
102
{ACAD_REACTORS
330
1A
102
}
100
AcDbPlotSettings
  1

  2
none_device
  4
ISO_A4_(297.00_x_210.00_MM)
  6

 40
0.0
 41
0.0
 42
0.0
 43
0.0
 44
297.0
 45
210.0
 46
0.0
 47
0.0
 48
0.0
 49
0.0
140
0.0
141
0.0
142
1.0
143
1.0
 70
1024
 72
1
 73
0
 74
0
  7

 75
0
147
1.0
148
0.0
149
0.0
100
AcDbLayout
  1
Model
 70
0
 71
0
 10
0.0
 20
0.0
 11
297.0
 21
210.0
 12
0.0
 22
0.0
 32
0.0
 14
0.0
 24
0.0
 34
0.0
 15
0.0
 25
0.0
 35
0.0
146
0.0
 13
0.0
 23
0.0
 33
0.0
 16
1.0
 26
0.0
 36
0.0
 17
0.0
 27
1.0
 37
0.0
 76
0
330
250
345
0
346
0
  0
LAYOUT
  5
758
102
{ACAD_REACTORS
330
1A
102
}
100
AcDbPlotSettings
  1

  2
none_device
  4
ISO_A4_(297.00_x_210.00_MM)
  6

 40
0.0
 41
0.0
 42
0.0
 43
0.0
 44
297.0
 45
210.0
 46
0.0
 47
0.0
 48
0.0
 49
0.0
140
0.0
141
0.0
142
1.0
143
1.0
 70
0
 72
1
 73
0
 74
0
  7

 75
0
147
1.0
148
0.0
149
0.0
100
AcDbLayout
  1
Layout1
 70
0
 71
1
 10
0.0
 20
0.0
 11
297.0
 21
210.0
 12
0.0
 22
0.0
 32
0.0
 14
0.0
 24
0.0
 34
0.0
 15
0.0
 25
0.0
 35
0.0
146
0.0
 13
0.0
 23
0.0
 33
0.0
 16
1.0
 26
0.0
 36
0.0
 17
0.0
 27
1.0
 37
0.0
 76
0
330
251
345
0
346
0
  0
ENDSEC
  0
EOF
