  0
SECTION
  2
HEADER
  9
$ACADVER
  1
AC1024
  9
$DWGCODEPAGE
  3
ANSI_1252
  9
$EXTMAX
 10
420.0
 20
297.0
 30
0.0
  9
$EXTMIN
 10
0.0
 20
-0.0
 30
0.0
  9
$LIMMIN
 10
0.0
 20
-0.0
  9
$LIMMAX
 10
420.0
 20
297.0
  9
$VIEWCTR
 10
210.0
 20
148.5
  9
$VIEWSIZE
 40
297.0
  9
$CLAYER
  8
0
  9
$LTSCALE
 40
23.1
  9
$CELTYPE
  6
BYLAYER
  9
$DIMSCALE
 40
1.0
  9
$DIMASZ
 40
3.0
  9
$DIMEXO
 40
0.5
  9
$DIMDLI
 40
15.96
  9
$DIMEXE
 40
1.5
  9
$DIMCEN
 40
3.78
  9
$DIMLFAC
 40
1.0
  9
$DIMBLK
  1
_FILLED
  9
$DIMALT
 70
0
  9
$DIMALTF
 40
0.0393700787
  9
$DIMTXT
 40
3.0
  9
$DIMTOL
 70
1
  9
$DIMLIM
 70
0
  9
$DIMTFAC
 40
1.0
  9
$DIMTP
 40
0.01
  9
$DIMTM
 40
0.01
  9
$DIMGAP
 40
0.625
  9
$DIMDSEP
 70
44
  9
$AUNITS
 70
0
  9
$PDMODE
 70
3
  9
$PDSIZE
 40
3.0
  9
$HANDSEED
  5
2EA
  9
$TILEMODE
 70
1
  9
$MEASUREMENT
 70
1
  9
$INSUNITS
 70
4
  0
ENDSEC
  0
SECTION
  2
CLASSES
  0
CLASS
  1
ACDBDICTIONARYWDFLT
  2
AcDbDictionaryWithDefault
  3
AutoCAD 2000
 90
0
 91
1
280
0
281
0
  0
CLASS
  1
ACDBPLACEHOLDER
  2
AcDbPlaceHolder
  3
AutoCAD 2000
 90
0
 91
1
280
0
281
0
  0
CLASS
  1
LAYOUT
  2
AcDbLayout
  3
AutoCAD 2000
 90
0
 91
0
280
0
281
0
  0
ENDSEC
  0
SECTION
  2
TABLES
  0
TABLE
  2
VPORT
  5
8
100
AcDbSymbolTable
 70
2
  0
VPORT
  5
1F4
100
AcDbSymbolTableRecord
100
AcDbViewportTableRecord
  2
*ACTIVE
 70
0
 10
0.0
 20
0.0
 11
1.0
 21
1.0
 12
210.0
 22
148.5
 13
0.0
 23
0.0
 14
1.0
 24
1.0
 15
0.0
 25
0.0
 16
0.0
 26
0.0
 36
1.0
 17
0.0
 27
0.0
 37
0.0
 40
297.0
 41
1.4141414141
 42
50.0
 43
0.0
 44
0.0
 50
0.0
 51
0.0
 71
0
 72
100
 73
1
 74
1
 75
0
 76
0
 77
0
 78
0
  0
ENDTAB
  0
TABLE
  2
LTYPE
  5
5
100
AcDbSymbolTable
 70
6
  0
LTYPE
  5
14
100
AcDbSymbolTableRecord
100
AcDbLinetypeTableRecord
  2
BYBLOCK
 70
0
  3

 72
65
 73
0
 40
0.0
  0
LTYPE
  5
15
100
AcDbSymbolTableRecord
100
AcDbLinetypeTableRecord
  2
BYLAYER
 70
0
  3

 72
65
 73
0
 40
0.0
  0
LTYPE
  5
16
100
AcDbSymbolTableRecord
100
AcDbLinetypeTableRecord
  2
CONTINUOUS
 70
64
  3
Solid line
 72
65
 73
0
 40
0.0
  0
LTYPE
  5
1F5
100
AcDbSymbolTableRecord
100
AcDbLinetypeTableRecord
  2
CENTER
 70
64
  3
____ _ ____ _ ____ _ ____ _ ____ _ ____ _ ____
 72
65
 73
4
 40
0.6
 49
0.375
 74
0
 49
-0.075
 74
0
 49
0.075
 74
0
 49
-0.075
 74
0
  0
LTYPE
  5
1F6
100
AcDbSymbolTableRecord
100
AcDbLinetypeTableRecord
  2
HIDDEN
 70
64
  3
- - - - - - - - - - - - - - - - - - - -
 72
65
 73
2
 40
0.2
 49
0.1
 74
0
 49
-0.1
 74
0
  0
LTYPE
  5
1F7
100
AcDbSymbolTableRecord
100
AcDbLinetypeTableRecord
  2
PHANTOM
 70
64
  3
_____ _ _ _____ _ _ _____ _ _ _____
 72
65
 73
6
 40
0.8
 49
0.45
 74
0
 49
-0.05
 74
0
 49
0.1
 74
0
 49
-0.05
 74
0
 49
0.1
 74
0
 49
-0.05
 74
0
  0
LTYPE
  5
1F8
100
AcDbSymbolTableRecord
100
AcDbLinetypeTableRecord
  2
DOT
 70
64
  3
. . . . . . . . . . . . . . . . . . . .
 72
65
 73
2
 40
0.2
 49
0.1
 74
0
 49
-0.1
 74
0
  0
LTYPE
  5
1F9
100
AcDbSymbolTableRecord
100
AcDbLinetypeTableRecord
  2
DASHED
 70
64
  3
- - - - - - - - - - - - - - - - - - - -
 72
65
 73
2
 40
0.2
 49
0.1
 74
0
 49
-0.1
 74
0
  0
ENDTAB
  0
TABLE
  2
LAYER
  5
2
100
AcDbSymbolTable
 70
36
  0
LAYER
  5
10
100
AcDbSymbolTableRecord
100
AcDbLayerTableRecord
  2
0
 70
0
 62
7
  6
CONTINUOUS
370
-3
390
F
  0
LAYER
  5
1FA
100
AcDbSymbolTableRecord
100
AcDbLayerTableRecord
  2
DEFAULT_1
 70
0
 62
7
  6
CENTER
370
-3
390
F
  0
LAYER
  5
1FB
100
AcDbSymbolTableRecord
100
AcDbLayerTableRecord
  2
DEFAULT_2
 70
0
 62
7
  6
HIDDEN
370
-3
390
F
  0
LAYER
  5
1FC
100
AcDbSymbolTableRecord
100
AcDbLayerTableRecord
  2
DEFAULT_3
 70
0
 62
7
  6
PHANTOM
370
-3
390
F
  0
LAYER
  5
1FD
100
AcDbSymbolTableRecord
100
AcDbLayerTableRecord
  2
INTF_1
 70
0
 62
7
  6
CONTINUOUS
370
-3
390
F
  0
LAYER
  5
1FE
100
AcDbSymbolTableRecord
100
AcDbLayerTableRecord
  2
SNAPLINE
 70
0
 62
7
  6
CONTINUOUS
370
-3
390
F
  0
ENDTAB
  0
TABLE
  2
STYLE
  5
3
100
AcDbSymbolTable
 70
1
  0
STYLE
  5
11
100
AcDbSymbolTableRecord
100
AcDbTextStyleTableRecord
  2
STANDARD
 70
0
 40
0.0
 41
0.8
 50
0.0
 71
0
 42
0.2
  3
txt
  4

  0
STYLE
  5
1FF
100
AcDbSymbolTableRecord
100
AcDbTextStyleTableRecord
  2
TEXTSTYLE_1
 70
0
 40
0.0
 41
0.8
 50
0.0
 71
0
 42
0.2
  3
gdt
  4

  0
ENDTAB
  0
TABLE
  2
VIEW
  5
6
100
AcDbSymbolTable
 70
0
  0
ENDTAB
  0
TABLE
  2
UCS
  5
7
100
AcDbSymbolTable
 70
0
  0
ENDTAB
  0
TABLE
  2
APPID
  5
9
100
AcDbSymbolTable
 70
1
  0
APPID
  5
200
100
AcDbSymbolTableRecord
100
AcDbRegAppTableRecord
  2
ACAD
 70
0
  0
ENDTAB
  0
TABLE
  2
BLOCK_RECORD
  5
1
100
AcDbSymbolTable
 70
0
  0
BLOCK_RECORD
  5
201
100
AcDbSymbolTableRecord
100
AcDbBlockTableRecord
  2
*Model_Space
  0
BLOCK_RECORD
  5
202
100
AcDbSymbolTableRecord
100
AcDbBlockTableRecord
  2
*Paper_Space
  0
BLOCK_RECORD
  5
203
100
AcDbSymbolTableRecord
100
AcDbBlockTableRecord
  2
_FILLED
  0
ENDTAB
  0
TABLE
  2
DIMSTYLE
  5
A
100
AcDbSymbolTable
 70
1
100
AcDbDimStyleTable
 71
0
  0
DIMSTYLE
105
204
100
AcDbSymbolTableRecord
100
AcDbDimStyleTableRecord
  2
STANDARD
 70
0
  3

  4

 40
1.0
 41
3.0
 42
0.5
 43
0.38
 44
1.5
 45
0.0
 46
0.0
 47
0.01
 48
0.01
140
3.0
141
0.09
142
0.0
143
25.4
144
1.0
145
0.0
146
1.0
147
0.625
 71
1
 72
0
 73
0
 74
0
 75
0
 76
0
 77
1
 78
8
 79
2
170
0
171
1
172
0
173
0
174
0
175
0
176
0
177
0
178
0
270
2
179
2
271
2
272
2
273
2
274
2
275
0
280
0
281
0
282
0
283
1
284
8
285
0
286
0
287
3
288
0
340
11
278
44
341
203
342
203
343
203
344
203
  0
ENDTAB
  0
ENDSEC
  0
SECTION
  2
BLOCKS
  0
BLOCK
  5
20
100
AcDbEntity
  8
0
100
AcDbBlockBegin
  2
*Model_Space
 70
0
 10
0.0
 20
0.0
 30
0.0
  3
*Model_Space
  1

  0
ENDBLK
  5
21
100
AcDbEntity
  8
0
100
AcDbBlockEnd
  0
BLOCK
  5
1C
100
AcDbEntity
  8
0
100
AcDbBlockBegin
  2
*Paper_Space
 70
0
 10
0.0
 20
0.0
 30
0.0
  3
*Paper_Space
  1

  0
ENDBLK
  5
1D
100
AcDbEntity
  8
0
100
AcDbBlockEnd
  0
BLOCK
  5
205
100
AcDbEntity
  8
0
100
AcDbBlockBegin
  2
_FILLED
 70
64
 10
0.0
 20
0.0
  3
_FILLED
  1

  0
SOLID
  5
206
100
AcDbEntity
  8
0
  6
BYBLOCK
 62
0
100
AcDbTrace
 10
0.0
 20
0.0
 11
-1.0
 21
0.3166666667
 12
-1.0
 22
-0.3166666667
 13
-1.0
 23
-0.3166666667
  0
ENDBLK
  5
207
100
AcDbEntity
  8
0
  6
BYBLOCK
 62
0
100
AcDbBlockEnd
  0
ENDSEC
  0
SECTION
  2
ENTITIES
  0
LWPOLYLINE
  5
208
100
AcDbEntity
  8
0
100
AcDbPolyline
 62
7
  6
CONTINUOUS
 90
28
 70
0
 10
0.7918227774
 20
3.2543515763
 10
0.7967855286
 20
3.2457456411
 10
0.8019408374
 20
3.2372266128
 10
0.8072844349
 20
3.2287986188
 10
0.8128120525
 20
3.2204657862
 10
0.8185194212
 20
3.2122322425
 10
0.8244022724
 20
3.2041021148
 10
0.8304563371
 20
3.1960795304
 10
0.8366773467
 20
3.1881686167
 10
0.8430610323
 20
3.1803735009
 10
0.8496031251
 20
3.1726983102
 10
0.8562993564
 20
3.1651471721
 10
0.8631454573
 20
3.1577242137
 10
0.8701371591
 20
3.1504335624
 10
0.8772701929
 20
3.1432793454
 10
0.8845402901
 20
3.13626569
 10
0.8919431817
 20
3.1293967234
 10
0.899474599
 20
3.1226765731
 10
0.9071302731
 20
3.1161093662
 10
0.9149059354
 20
3.1096992301
 10
0.922797317
 20
3.103450292
 10
0.9308001492
 20
3.0973666792
 10
0.938910163
 20
3.0914525189
 10
0.9471230898
 20
3.0857119386
 10
0.9554346608
 20
3.0801490654
 10
0.9638406071
 20
3.0747680267
 10
0.9723366599
 20
3.0695729496
 10
0.9809185506
 20
3.0645679616
  0
LWPOLYLINE
  5
209
100
AcDbEntity
  8
0
100
AcDbPolyline
 62
7
  6
CONTINUOUS
 90
24
 70
0
 10
0.7275484697
 20
3.4996278615
 10
0.7276252778
 20
3.4910358971
 10
0.7278551425
 20
3.4824337939
 10
0.7282372244
 20
3.4738252788
 10
0.7287706841
 20
3.4652140788
 10
0.7294546822
 20
3.4566039208
 10
0.7302883793
 20
3.447998532
 10
0.731270936
 20
3.4394016392
 10
0.7324015129
 20
3.4308169695
 10
0.7336792706
 20
3.4222482498
 10
0.7351033696
 20
3.4136992072
 10
0.7366729706
 20
3.4051735686
 10
0.7383872342
 20
3.3966750611
 10
0.740245321
 20
3.3882074116
 10
0.7422463915
 20
3.379774347
 10
0.7443896064
 20
3.3713795945
 10
0.7466741262
 20
3.363026881
 10
0.7490991116
 20
3.3547199334
 10
0.7516637231
 20
3.3464624789
 10
0.7543671213
 20
3.3382582443
 10
0.7572084669
 20
3.3301109566
 10
0.7601869205
 20
3.3220243429
 10
0.7633016426
 20
3.3140021301
 10
0.7665517938
 20
3.3060480453
  0
LINE
  5
20A
100
AcDbEntity
  8
0
100
AcDbLine
 62
7
  6
CONTINUOUS
 10
0.7275484697
 20
3.4524932027
 11
0.7275484697
 21
92.4521504102
  0
LINE
  5
20B
100
AcDbEntity
  8
0
100
AcDbLine
 62
7
  6
CONTINUOUS
 10
1.2275484697
 20
92.9051898396
 11
1.2275484697
 21
2.9994537733
  0
LINE
  5
20C
100
AcDbEntity
  8
0
100
AcDbLine
 62
7
  6
CONTINUOUS
 10
2.9275484697
 20
28.2523218065
 11
2.9275484697
 21
4.5415050418
  0
LINE
  5
20D
100
AcDbEntity
  8
0
100
AcDbLine
 62
7
  6
CONTINUOUS
 10
2.9275484697
 20
62.6523218065
 11
2.9275484697
 21
90.8629671749
  0
LINE
  5
20E
100
AcDbEntity
  8
0
100
AcDbLine
 62
7
  6
CONTINUOUS
 10
3.4275484697
 20
91.3631385712
 11
3.4275484697
 21
63.1523218065
  0
LINE
  5
20F
100
AcDbEntity
  8
0
100
AcDbLine
 62
7
  6
CONTINUOUS
 10
3.4275484697
 20
26.9888497971
 11
3.4275484697
 21
5.1987919674
  0
LINE
  5
210
100
AcDbEntity
  8
0
100
AcDbLine
 62
7
  6
CONTINUOUS
 10
3.7832873497
 20
63.1523218065
 11
3.7832873497
 21
62.6523218065
  0
LINE
  5
211
100
AcDbEntity
  8
0
100
AcDbLine
 62
7
  6
CONTINUOUS
 10
3.8275484697
 20
63.1523218065
 11
3.8275484697
 21
62.6523218065
  0
LWPOLYLINE
  5
212
100
AcDbEntity
  8
0
100
AcDbPolyline
 62
7
  6
CONTINUOUS
 90
25
 70
0
 10
1.0275493618
 20
3.0411683151
 10
1.0353879465
 20
3.0378308796
 10
1.043296403
 20
3.034626997
 10
1.0512710696
 20
3.0315574201
 10
1.0593082843
 20
3.0286229014
 10
1.0674043853
 20
3.0258241935
 10
1.0755557109
 20
3.023162049
 10
1.0837585991
 20
3.0206372206
 10
1.0920093882
 20
3.0182504609
 10
1.1003044162
 20
3.0160025224
 10
1.1086400214
 20
3.0138941578
 10
1.117012542
 20
3.0119261197
 10
1.125418316
 20
3.0100991607
 10
1.1338536817
 20
3.0084140334
 10
1.1423149772
 20
3.0068714905
 10
1.1507985408
 20
3.0054722845
 10
1.1593007104
 20
3.004217168
 10
1.1678178245
 20
3.0031068937
 10
1.176346221
 20
3.0021422141
 10
1.1848822381
 20
3.001323882
 10
1.1934222141
 20
3.0006526498
 10
1.2019624871
 20
3.0001292703
 10
1.2104993952
 20
2.9997544959
 10
1.2190292767
 20
2.9995290794
 10
1.2275484697
 20
2.9994537733
  0
LWPOLYLINE
  5
213
100
AcDbEntity
  8
0
100
AcDbPolyline
 62
7
  6
CONTINUOUS
 90
37
 70
0
 10
2.9275484697
 20
68.5098944695
 10
2.9277263064
 20
68.5112287118
 10
2.9282301652
 20
68.5124279504
 10
2.9290155687
 20
68.5135052306
 10
2.9300380397
 20
68.5144735978
 10
2.9312531009
 20
68.5153460972
 10
2.9326162751
 20
68.5161357741
 10
2.9340830849
 20
68.5168556737
 10
2.9356090533
 20
68.5175188415
 10
2.9371497028
 20
68.5181383226
 10
2.9410647732
 20
68.5196126302
 10
2.944808312
 20
68.5209014581
 10
2.9484127873
 20
68.5220291136
 10
2.9519106673
 20
68.5230199039
 10
2.9564648099
 20
68.5241700688
 10
2.9609641323
 20
68.5251777477
 10
2.9654855959
 20
68.5261005579
 10
2.9743325865
 20
68.5277644535
 10
2.9834543569
 20
68.5293295559
 10
2.9927662047
 20
68.5307959237
 10
3.0021834276
 20
68.5321636153
 10
3.0116213232
 20
68.5334326893
 10
3.0272660962
 20
68.5353390824
 10
3.0427868934
 20
68.5370159192
 10
3.058238164
 20
68.5385082883
 10
3.0736743573
 20
68.5398612781
 10
3.1005531008
 20
68.5419773957
 10
3.1275272007
 20
68.5438316211
 10
3.1545732909
 20
68.5454463875
 10
3.1816680056
 20
68.5468441279
 10
3.2087879789
 20
68.5480472754
 10
3.2359098448
 20
68.5490782629
 10
3.27426935
 20
68.5502783188
 10
3.3125994007
 20
68.5511905585
 10
3.3509135613
 20
68.5518271246
 10
3.3892253961
 20
68.5522001598
 10
3.4275484697
 20
68.5523218065
  0
LWPOLYLINE
  5
214
100
AcDbEntity
  8
0
100
AcDbPolyline
 62
7
  6
CONTINUOUS
 90
43
 70
0
 10
62.6275484697
 20
27.0040941642
 10
62.7065733299
 20
26.963176156
 10
62.7845421232
 20
26.9199469862
 10
62.861353627
 20
26.8744399005
 10
62.9369066189
 20
26.8266881447
 10
63.0110998763
 20
26.7767249643
 10
63.0838321768
 20
26.724583605
 10
63.1550022979
 20
26.6702973125
 10
63.2245090172
 20
26.6138993324
 10
63.2922511122
 20
26.5554229104
 10
63.3581273603
 20
26.4949012923
 10
63.4220365393
 20
26.4323677236
 10
63.4838774264
 20
26.36785545
 10
63.5435942834
 20
26.3013764317
 10
63.6011464367
 20
26.2330453458
 10
63.6565407313
 20
26.1629574083
 10
63.7097840125
 20
26.0912078351
 10
63.7608831254
 20
26.0178918423
 10
63.809844915
 20
25.9431046459
 10
63.8566762264
 20
25.866941462
 10
63.9013839048
 20
25.7894975065
 10
63.9439747952
 20
25.7108679954
 10
63.9844557428
 20
25.6311481448
 10
64.0228335926
 20
25.5504331708
 10
64.0591151898
 20
25.4688182893
 10
64.0999987803
 20
25.3695888345
 10
64.1379575808
 20
25.2692844817
 10
64.17308917
 20
25.1679943344
 10
64.2054911267
 20
25.0658074964
 10
64.2352610295
 20
24.9628130716
 10
64.2624964572
 20
24.8591001635
 10
64.2872949886
 20
24.754757876
 10
64.3097542024
 20
24.6498753128
 10
64.3299716773
 20
24.5445415777
 10
64.3480449921
 20
24.4388457744
 10
64.3677827062
 20
24.3061736099
 10
64.3844500948
 20
24.1731367562
 10
64.3981823521
 20
24.0397980631
 10
64.4091146725
 20
23.9062203802
 10
64.4173822501
 20
23.7724665571
 10
64.4231202794
 20
23.6385994436
 10
64.4264639545
 20
23.5046818892
 10
64.4275484697
 20
23.3707767437
  0
LWPOLYLINE
  5
215
100
AcDbEntity
  8
0
100
AcDbPolyline
 62
7
  6
CONTINUOUS
 90
29
 70
0
 10
62.6275484697
 20
27.8107724471
 10
62.5639725953
 20
27.8417083563
 10
62.4997451137
 20
27.8713077152
 10
62.4349060411
 20
27.8995934327
 10
62.3694953934
 20
27.9265884176
 10
62.3035531868
 20
27.9523155787
 10
62.2371194371
 20
27.9767978246
 10
62.1702341606
 20
28.0000580643
 10
62.1029373732
 20
28.0221192066
 10
62.0219584866
 20
28.0469623496
 10
61.9404821379
 20
28.070162843
 10
61.8585422805
 20
28.0917605493
 10
61.7761728673
 20
28.1117953307
 10
61.6934078517
 20
28.1303070498
 10
61.6102811867
 20
28.1473355689
 10
61.5268268255
 20
28.1629207506
 10
61.4430787213
 20
28.1771024572
 10
61.3590708273
 20
28.1899205512
 10
61.2748370966
 20
28.2014148949
 10
61.1904114824
 20
28.2116253509
 10
61.1058279379
 20
28.2205917816
 10
61.0211204162
 20
28.2283540494
 10
60.9363228705
 20
28.2349520167
 10
60.851469254
 20
28.2404255459
 10
60.7665935198
 20
28.2448144995
 10
60.6817296211
 20
28.24815874
 10
60.596911511
 20
28.2504981297
 10
60.5121731428
 20
28.251872531
 10
60.4275484697
 20
28.2523218065
  0
LINE
  5
216
100
AcDbEntity
  8
0
100
AcDbLine
 62
7
  6
CONTINUOUS
 10
60.4275484697
 20
26.9888497971
 11
60.4275484697
 21
28.2523218065
  0
LINE
  5
217
100
AcDbEntity
  8
0
100
AcDbLine
 62
7
  6
CONTINUOUS
 10
62.6275484697
 20
4.5415050418
 11
62.6275484697
 21
11.7023218065
  0
LINE
  5
218
100
AcDbEntity
  8
0
100
AcDbLine
 62
7
  6
CONTINUOUS
 10
62.6275484697
 20
16.2023218065
 11
62.6275484697
 21
22.4523218065
  0
LINE
  5
219
100
AcDbEntity
  8
0
100
AcDbLine
 62
7
  6
CONTINUOUS
 10
62.6275484697
 20
27.0040941642
 11
62.6275484697
 21
27.8107724471
  0
LINE
  5
21A
100
AcDbEntity
  8
0
100
AcDbLine
 62
7
  6
CONTINUOUS
 10
62.7275484697
 20
28.6023218065
 11
62.7275484697
 21
26.9506933208
  0
LINE
  5
21B
100
AcDbEntity
  8
0
100
AcDbLine
 62
7
  6
CONTINUOUS
 10
62.7275484697
 20
17.7523218065
 11
62.7275484697
 21
16.2023218065
  0
LINE
  5
21C
100
AcDbEntity
  8
0
100
AcDbLine
 62
7
  6
CONTINUOUS
 10
64.4275484697
 20
11.7023218065
 11
64.4275484697
 21
16.2023218065
  0
LINE
  5
21D
100
AcDbEntity
  8
0
100
AcDbLine
 62
7
  6
CONTINUOUS
 10
64.4275484697
 20
22.4523218065
 11
64.4275484697
 21
22.9139830172
  0
LINE
  5
21E
100
AcDbEntity
  8
0
100
AcDbLine
 62
7
  6
CONTINUOUS
 10
64.5275484697
 20
33.3523218065
 11
64.5275484697
 21
3.0523218065
  0
LWPOLYLINE
  5
21F
100
AcDbEntity
  8
0
100
AcDbPolyline
 62
7
  6
CONTINUOUS
 90
25
 70
0
 10
216.2275484697
 20
2.9994537733
 10
216.2360676626
 20
2.9995290794
 10
216.2445975441
 20
2.9997544959
 10
216.2531344522
 20
3.0001292702
 10
216.2616747252
 20
3.0006526498
 10
216.2702147012
 20
3.001323882
 10
216.2787507183
 20
3.0021422141
 10
216.2872791149
 20
3.0031068936
 10
216.2957962289
 20
3.0042171679
 10
216.3042983985
 20
3.0054722844
 10
216.3127819621
 20
3.0068714904
 10
216.3212432576
 20
3.0084140333
 10
216.3296786233
 20
3.0100991606
 10
216.3380843973
 20
3.0119261196
 10
216.3464569179
 20
3.0138941577
 10
216.3547925231
 20
3.0160025222
 10
216.3630875511
 20
3.0182504607
 10
216.3713383402
 20
3.0206372204
 10
216.3795412284
 20
3.0231620488
 10
216.3876925539
 20
3.0258241932
 10
216.395788655
 20
3.0286229011
 10
216.4038258697
 20
3.0315574198
 10
216.4118005362
 20
3.0346269967
 10
216.4197089928
 20
3.0378308793
 10
216.4275475775
 20
3.0411683148
  0
LINE
  5
220
100
AcDbEntity
  8
0
100
AcDbLine
 62
7
  6
CONTINUOUS
 10
216.2275484697
 20
2.9523218065
 11
1.2275484697
 21
2.9523218065
  0
LINE
  5
221
100
AcDbEntity
  8
0
100
AcDbLine
 62
7
  6
CONTINUOUS
 10
1.2275484697
 20
2.9994537733
 11
216.2275484697
 21
2.9994537733
  0
LINE
  5
222
100
AcDbEntity
  8
0
100
AcDbLine
 62
7
  6
CONTINUOUS
 10
64.5275484697
 20
3.0523218065
 11
80.9275484697
 21
3.0523218065
  0
LINE
  5
223
100
AcDbEntity
  8
0
100
AcDbLine
 62
7
  6
CONTINUOUS
 10
136.5275484697
 20
3.0523218065
 11
152.9275484697
 21
3.0523218065
  0
LINE
  5
224
100
AcDbEntity
  8
0
100
AcDbLine
 62
7
  6
CONTINUOUS
 10
216.2275484697
 20
3.5287548147
 11
152.9275484697
 21
3.5287548147
  0
LINE
  5
225
100
AcDbEntity
  8
0
100
AcDbLine
 62
7
  6
CONTINUOUS
 10
136.5275484697
 20
3.5287548147
 11
80.9275484697
 21
3.5287548147
  0
LINE
  5
226
100
AcDbEntity
  8
0
100
AcDbLine
 62
7
  6
CONTINUOUS
 10
64.5275484697
 20
3.5287548147
 11
1.2275484697
 21
3.5287548147
  0
LINE
  5
227
100
AcDbEntity
  8
0
100
AcDbLine
 62
7
  6
CONTINUOUS
 10
67.3275484697
 20
9.8523218065
 11
67.3275484697
 21
5.6523218065
  0
LINE
  5
228
100
AcDbEntity
  8
0
100
AcDbLine
 62
7
  6
CONTINUOUS
 10
70.1775484697
 20
28.4523218065
 11
70.1775484697
 21
18.0523218065
  0
LINE
  5
229
100
AcDbEntity
  8
0
100
AcDbLine
 62
7
  6
CONTINUOUS
 10
70.6275484697
 20
18.3523218065
 11
70.6275484697
 21
28.3523218065
  0
LINE
  5
22A
100
AcDbEntity
  8
0
100
AcDbLine
 62
7
  6
CONTINUOUS
 10
71.5775484697
 20
28.4523218065
 11
71.5775484697
 21
26.4523218065
  0
LINE
  5
22B
100
AcDbEntity
  8
0
100
AcDbLine
 62
7
  6
CONTINUOUS
 10
71.5775484697
 20
19.1523218065
 11
71.5775484697
 21
18.3523218065
  0
LINE
  5
22C
100
AcDbEntity
  8
0
100
AcDbLine
 62
7
  6
CONTINUOUS
 10
73.8775484697
 20
18.3523218065
 11
73.8775484697
 21
19.1523218065
  0
LINE
  5
22D
100
AcDbEntity
  8
0
100
AcDbLine
 62
7
  6
CONTINUOUS
 10
73.8775484697
 20
26.4523218065
 11
73.8775484697
 21
28.4523218065
  0
LINE
  5
22E
100
AcDbEntity
  8
0
100
AcDbLine
 62
7
  6
CONTINUOUS
 10
74.8275484697
 20
18.3523218065
 11
74.8275484697
 21
28.3523218065
  0
LINE
  5
22F
100
AcDbEntity
  8
0
100
AcDbLine
 62
7
  6
CONTINUOUS
 10
75.2775484697
 20
18.0523218065
 11
75.2775484697
 21
28.4523218065
  0
LINE
  5
230
100
AcDbEntity
  8
0
100
AcDbLine
 62
7
  6
CONTINUOUS
 10
78.1275484697
 20
5.6523218065
 11
78.1275484697
 21
9.8523218065
  0
LINE
  5
231
100
AcDbEntity
  8
0
100
AcDbLine
 62
7
  6
CONTINUOUS
 10
0.7275484697
 20
4.0285834772
 11
64.5275484697
 21
4.0285834772
  0
LINE
  5
232
100
AcDbEntity
  8
0
100
AcDbLine
 62
7
  6
CONTINUOUS
 10
80.9275484697
 20
4.0285834772
 11
136.5275484697
 21
4.0285834772
  0
LINE
  5
233
100
AcDbEntity
  8
0
100
AcDbLine
 62
7
  6
CONTINUOUS
 10
152.9275484697
 20
4.0285834772
 11
216.7275484697
 21
4.0285834772
  0
LINE
  5
234
100
AcDbEntity
  8
0
100
AcDbLine
 62
7
  6
CONTINUOUS
 10
214.0275484697
 20
4.5415050418
 11
154.8275484697
 21
4.5415050418
  0
LINE
  5
235
100
AcDbEntity
  8
0
100
AcDbLine
 62
7
  6
CONTINUOUS
 10
2.9275634559
 20
4.5415050418
 11
62.6275484697
 21
4.5415050418
  0
LINE
  5
236
100
AcDbEntity
  8
0
100
AcDbLine
 62
7
  6
CONTINUOUS
 10
82.8275484697
 20
4.5415050418
 11
134.6275484697
 21
4.5415050418
  0
LINE
  5
237
100
AcDbEntity
  8
0
100
AcDbLine
 62
7
  6
CONTINUOUS
 10
62.6275484697
 20
4.6988675113
 11
2.9276403784
 21
4.6988675113
  0
LINE
  5
238
100
AcDbEntity
  8
0
100
AcDbLine
 62
7
  6
CONTINUOUS
 10
214.0275484697
 20
4.6989633049
 11
154.8275484697
 21
4.6989633049
  0
LINE
  5
239
100
AcDbEntity
  8
0
100
AcDbLine
 62
7
  6
CONTINUOUS
 10
134.6275484697
 20
4.6989633049
 11
82.8275484697
 21
4.6989633049
  0
LINE
  5
23A
100
AcDbEntity
  8
0
100
AcDbLine
 62
7
  6
CONTINUOUS
 10
3.4275484697
 20
5.1987919674
 11
62.6275484697
 21
5.1987919674
  0
LINE
  5
23B
100
AcDbEntity
  8
0
100
AcDbLine
 62
7
  6
CONTINUOUS
 10
82.8275484697
 20
5.1987919674
 11
134.6275484697
 21
5.1987919674
  0
LINE
  5
23C
100
AcDbEntity
  8
0
100
AcDbLine
 62
7
  6
CONTINUOUS
 10
154.8275484697
 20
5.1987919674
 11
214.5275484697
 21
5.1987919674
  0
LINE
  5
23D
100
AcDbEntity
  8
0
100
AcDbLine
 62
7
  6
CONTINUOUS
 10
67.3275484697
 20
5.6523218065
 11
78.1275484697
 21
5.6523218065
  0
LINE
  5
23E
100
AcDbEntity
  8
0
100
AcDbLine
 62
7
  6
CONTINUOUS
 10
139.3275484697
 20
5.6523218065
 11
150.1275484697
 21
5.6523218065
  0
LINE
  5
23F
100
AcDbEntity
  8
0
100
AcDbLine
 62
7
  6
CONTINUOUS
 10
150.1275484697
 20
9.8523218065
 11
139.3275484697
 21
9.8523218065
  0
LINE
  5
240
100
AcDbEntity
  8
0
100
AcDbLine
 62
7
  6
CONTINUOUS
 10
78.1275484697
 20
9.8523218065
 11
67.3275484697
 21
9.8523218065
  0
LINE
  5
241
100
AcDbEntity
  8
0
100
AcDbLine
 62
7
  6
CONTINUOUS
 10
154.8275484697
 20
11.7023218065
 11
153.0275484697
 21
11.7023218065
  0
LINE
  5
242
100
AcDbEntity
  8
0
100
AcDbLine
 62
7
  6
CONTINUOUS
 10
136.4275484697
 20
11.7023218065
 11
134.6275484697
 21
11.7023218065
  0
LINE
  5
243
100
AcDbEntity
  8
0
100
AcDbLine
 62
7
  6
CONTINUOUS
 10
62.6275484697
 20
11.7023218065
 11
64.4275484697
 21
11.7023218065
  0
LINE
  5
244
100
AcDbEntity
  8
0
100
AcDbLine
 62
7
  6
CONTINUOUS
 10
81.0275484697
 20
11.7023218065
 11
82.8275484697
 21
11.7023218065
  0
LINE
  5
245
100
AcDbEntity
  8
0
100
AcDbLine
 62
7
  6
CONTINUOUS
 10
64.4275484697
 20
12.5523218065
 11
64.5275484697
 21
12.5523218065
  0
LINE
  5
246
100
AcDbEntity
  8
0
100
AcDbLine
 62
7
  6
CONTINUOUS
 10
80.9275484697
 20
12.5523218065
 11
81.0275484697
 21
12.5523218065
  0
LINE
  5
247
100
AcDbEntity
  8
0
100
AcDbLine
 62
7
  6
CONTINUOUS
 10
136.4275484697
 20
12.5523218065
 11
136.5275484697
 21
12.5523218065
  0
LINE
  5
248
100
AcDbEntity
  8
0
100
AcDbLine
 62
7
  6
CONTINUOUS
 10
152.9275484697
 20
12.5523218065
 11
153.0275484697
 21
12.5523218065
  0
LINE
  5
249
100
AcDbEntity
  8
0
100
AcDbLine
 62
7
  6
CONTINUOUS
 10
82.8275484697
 20
16.2023218065
 11
81.0275484697
 21
16.2023218065
  0
LINE
  5
24A
100
AcDbEntity
  8
0
100
AcDbLine
 62
7
  6
CONTINUOUS
 10
64.4275484697
 20
16.2023218065
 11
62.6275484697
 21
16.2023218065
  0
LINE
  5
24B
100
AcDbEntity
  8
0
100
AcDbLine
 62
7
  6
CONTINUOUS
 10
134.6275484697
 20
16.2023218065
 11
136.4275484697
 21
16.2023218065
  0
LINE
  5
24C
100
AcDbEntity
  8
0
100
AcDbLine
 62
7
  6
CONTINUOUS
 10
153.0275484697
 20
16.2023218065
 11
154.8275484697
 21
16.2023218065
  0
LINE
  5
24D
100
AcDbEntity
  8
0
100
AcDbLine
 62
7
  6
CONTINUOUS
 10
154.7275484697
 20
17.7523218065
 11
152.9275484697
 21
17.7523218065
  0
LINE
  5
24E
100
AcDbEntity
  8
0
100
AcDbLine
 62
7
  6
CONTINUOUS
 10
136.5275484697
 20
17.7523218065
 11
134.7275484697
 21
17.7523218065
  0
LINE
  5
24F
100
AcDbEntity
  8
0
100
AcDbLine
 62
7
  6
CONTINUOUS
 10
82.7275484697
 20
17.7523218065
 11
80.9275484697
 21
17.7523218065
  0
LINE
  5
250
100
AcDbEntity
  8
0
100
AcDbLine
 62
7
  6
CONTINUOUS
 10
64.5275484697
 20
17.7523218065
 11
62.7275484697
 21
17.7523218065
  0
LINE
  5
251
100
AcDbEntity
  8
0
100
AcDbLine
 62
7
  6
CONTINUOUS
 10
70.1775484697
 20
18.0523218065
 11
75.2775484697
 21
18.0523218065
  0
LINE
  5
252
100
AcDbEntity
  8
0
100
AcDbLine
 62
7
  6
CONTINUOUS
 10
142.1775484697
 20
18.0523218065
 11
147.2775484697
 21
18.0523218065
  0
LINE
  5
253
100
AcDbEntity
  8
0
100
AcDbLine
 62
7
  6
CONTINUOUS
 10
146.8275484697
 20
18.3523218065
 11
142.6275484697
 21
18.3523218065
  0
LINE
  5
254
100
AcDbEntity
  8
0
100
AcDbLine
 62
7
  6
CONTINUOUS
 10
70.6275484697
 20
18.3523218065
 11
74.8275484697
 21
18.3523218065
  0
LWPOLYLINE
  5
255
100
AcDbEntity
  8
0
100
AcDbPolyline
 62
7
  6
CONTINUOUS
 90
29
 70
0
 10
134.6275484697
 20
27.8107724471
 10
134.56397258
 20
27.8417083747
 10
134.4997450892
 20
27.8713077678
 10
134.434906012
 20
27.8995935312
 10
134.369495363
 20
27.9265885702
 10
134.3035531569
 20
27.9523157896
 10
134.2371194084
 20
27.9767980944
 10
134.1702341322
 20
28.0000583897
 10
134.1029373429
 20
28.0221195805
 10
134.0219584778
 20
28.0469627601
 10
133.9404821463
 20
28.070163277
 10
133.858542302
 20
28.0917609948
 10
133.7761728984
 20
28.1117957771
 10
133.6934078892
 20
28.1303074877
 10
133.6102812277
 20
28.14733599
 10
133.5268268676
 20
28.1629211479
 10
133.4430787624
 20
28.1771028248
 10
133.3590708656
 20
28.1899208846
 10
133.2748371308
 20
28.2014151907
 10
133.1904115115
 20
28.2116256069
 10
133.1058279612
 20
28.2205919968
 10
133.0211204335
 20
28.228354224
 10
132.936322882
 20
28.2349521523
 10
132.8514692601
 20
28.2404256451
 10
132.7665935215
 20
28.2448145663
 10
132.6817296195
 20
28.2481587793
 10
132.5969115079
 20
28.250498148
 10
132.5121731401
 20
28.2518725358
 10
132.4275484697
 20
28.2523218065
  0
LWPOLYLINE
  5
256
100
AcDbEntity
  8
0
100
AcDbPolyline
 62
7
  6
CONTINUOUS
 90
43
 70
0
 10
134.6275484697
 20
27.0040941642
 10
134.7065733299
 20
26.963176156
 10
134.7845421232
 20
26.9199469862
 10
134.861353627
 20
26.8744399005
 10
134.9369066189
 20
26.8266881447
 10
135.0110998763
 20
26.7767249643
 10
135.0838321768
 20
26.724583605
 10
135.1550022979
 20
26.6702973125
 10
135.2245090172
 20
26.6138993324
 10
135.2922511122
 20
26.5554229104
 10
135.3581273603
 20
26.4949012923
 10
135.4220365393
 20
26.4323677236
 10
135.4838774265
 20
26.36785545
 10
135.5435942834
 20
26.3013764317
 10
135.6011464367
 20
26.2330453458
 10
135.6565407314
 20
26.1629574083
 10
135.7097840126
 20
26.0912078351
 10
135.7608831254
 20
26.0178918423
 10
135.809844915
 20
25.9431046459
 10
135.8566762264
 20
25.866941462
 10
135.9013839048
 20
25.7894975065
 10
135.9439747952
 20
25.7108679954
 10
135.9844557428
 20
25.6311481448
 10
136.0228335927
 20
25.5504331708
 10
136.0591151899
 20
25.4688182893
 10
136.0999987804
 20
25.3695888345
 10
136.1379575809
 20
25.2692844817
 10
136.1730891701
 20
25.1679943344
 10
136.2054911267
 20
25.0658074964
 10
136.2352610295
 20
24.9628130716
 10
136.2624964572
 20
24.8591001635
 10
136.2872949886
 20
24.754757876
 10
136.3097542024
 20
24.6498753128
 10
136.3299716773
 20
24.5445415777
 10
136.3480449921
 20
24.4388457744
 10
136.3677827062
 20
24.3061736099
 10
136.3844500948
 20
24.1731367562
 10
136.3981823521
 20
24.0397980631
 10
136.4091146725
 20
23.9062203802
 10
136.4173822501
 20
23.7724665571
 10
136.4231202794
 20
23.6385994436
 10
136.4264639545
 20
23.5046818892
 10
136.4275484697
 20
23.3707767437
  0
LINE
  5
257
100
AcDbEntity
  8
0
100
AcDbLine
 62
7
  6
CONTINUOUS
 10
80.9275484697
 20
3.0523218065
 11
80.9275484697
 21
33.3523218065
  0
LINE
  5
258
100
AcDbEntity
  8
0
100
AcDbLine
 62
7
  6
CONTINUOUS
 10
81.0275484697
 20
16.2023218065
 11
81.0275484697
 21
11.7023218065
  0
LINE
  5
259
100
AcDbEntity
  8
0
100
AcDbLine
 62
7
  6
CONTINUOUS
 10
81.0275484697
 20
22.4523218065
 11
81.0275484697
 21
22.9139830172
  0
LINE
  5
25A
100
AcDbEntity
  8
0
100
AcDbLine
 62
7
  6
CONTINUOUS
 10
82.7275484697
 20
16.2023218065
 11
82.7275484697
 21
17.7523218065
  0
LINE
  5
25B
100
AcDbEntity
  8
0
100
AcDbLine
 62
7
  6
CONTINUOUS
 10
82.7275484697
 20
26.9506889244
 11
82.7275484697
 21
28.6023218065
  0
LINE
  5
25C
100
AcDbEntity
  8
0
100
AcDbLine
 62
7
  6
CONTINUOUS
 10
82.8275484697
 20
27.8107724471
 11
82.8275484697
 21
27.0040941642
  0
LINE
  5
25D
100
AcDbEntity
  8
0
100
AcDbLine
 62
7
  6
CONTINUOUS
 10
82.8275484697
 20
22.4523218065
 11
82.8275484697
 21
16.2023218065
  0
LINE
  5
25E
100
AcDbEntity
  8
0
100
AcDbLine
 62
7
  6
CONTINUOUS
 10
82.8275484697
 20
11.7023218065
 11
82.8275484697
 21
4.5415050418
  0
LINE
  5
25F
100
AcDbEntity
  8
0
100
AcDbLine
 62
7
  6
CONTINUOUS
 10
85.0275484697
 20
28.2523218065
 11
85.0275484697
 21
26.9888497971
  0
LWPOLYLINE
  5
260
100
AcDbEntity
  8
0
100
AcDbPolyline
 62
7
  6
CONTINUOUS
 90
54
 70
0
 10
81.0275484697
 20
22.9139830172
 10
81.0291860398
 20
23.0777155859
 10
81.0342552351
 20
23.2414216346
 10
81.042990783
 20
23.404993378
 10
81.0556274111
 20
23.5683230309
 10
81.0723998469
 20
23.7313028082
 10
81.0897065793
 20
23.8667154036
 10
81.1102286745
 20
24.0016844642
 10
81.1341485661
 20
24.1360840488
 10
81.1616486875
 20
24.2697882159
 10
81.1929114723
 20
24.4026710243
 10
81.228119354
 20
24.5346065324
 10
81.2615482905
 20
24.6467460072
 10
81.2981129968
 20
24.7579326637
 10
81.3379213402
 20
24.868001
 10
81.3810811883
 20
24.9767855139
 10
81.4277004083
 20
25.084120703
 10
81.4778868678
 20
25.1898410654
 10
81.531748434
 20
25.2937810987
 10
81.5819120892
 20
25.3830486211
 10
81.6349453757
 20
25.4706876372
 10
81.690827096
 20
25.5565565832
 10
81.7495360525
 20
25.6405138952
 10
81.8110510478
 20
25.7224180092
 10
81.8753508842
 20
25.8021273616
 10
81.9424143643
 20
25.8795003884
 10
82.0122202906
 20
25.9543955257
 10
82.0847182055
 20
26.0266775132
 10
82.1598020588
 20
26.0962968075
 10
82.2373373039
 20
26.1632094337
 10
82.3171893941
 20
26.2273714169
 10
82.3992237829
 20
26.288738782
 10
82.4833059236
 20
26.3472675543
 10
82.5693012696
 20
26.4029137586
 10
82.6570752744
 20
26.4556334202
 10
82.759491451
 20
26.5123215952
 10
82.8638783807
 20
26.5652204625
 10
82.9700554876
 20
26.6144276521
 10
83.0778421956
 20
26.6600407943
 10
83.1870579284
 20
26.7021575192
 10
83.2975221102
 20
26.740875457
 10
83.4090541648
 20
26.7762922378
 10
83.5404181564
 20
26.8136051665
 10
83.6728497357
 20
26.8467417186
 10
83.8062067578
 20
26.8758931762
 10
83.9403470783
 20
26.9012508217
 10
84.0751285525
 20
26.9230059373
 10
84.2104090358
 20
26.9413498052
 10
84.3461151389
 20
26.9564717835
 10
84.4821082726
 20
26.9685170471
 10
84.6183183046
 20
26.9776315383
 10
84.7546751029
 20
26.983961199
 10
84.8911085353
 20
26.9876519712
 10
85.0275484697
 20
26.9888497971
  0
LWPOLYLINE
  5
261
100
AcDbEntity
  8
0
100
AcDbPolyline
 62
7
  6
CONTINUOUS
 90
36
 70
0
 10
2.9318765299
 20
90.8166479466
 10
2.9316691918
 20
90.8163804617
 10
2.9314646952
 20
90.8161088681
 10
2.9312632292
 20
90.8158332897
 10
2.931064983
 20
90.8155538504
 10
2.9308701457
 20
90.8152706743
 10
2.9306789066
 20
90.8149838852
 10
2.9304914547
 20
90.8146936071
 10
2.9303079793
 20
90.814399964
 10
2.9301286696
 20
90.8141030797
 10
2.9299537146
 20
90.8138030783
 10
2.9297833037
 20
90.8135000836
 10
2.9296176258
 20
90.8131942197
 10
2.9294568703
 20
90.8128856104
 10
2.9293012262
 20
90.8125743797
 10
2.9291508828
 20
90.8122606515
 10
2.9290060292
 20
90.8119445498
 10
2.9288668545
 20
90.8116261986
 10
2.928733548
 20
90.8113057217
 10
2.9286062989
 20
90.8109832432
 10
2.9284852962
 20
90.8106588869
 10
2.9283707292
 20
90.8103327768
 10
2.928262787
 20
90.8100050369
 10
2.9281616588
 20
90.809675791
 10
2.9280675338
 20
90.8093451632
 10
2.9279806011
 20
90.8090132774
 10
2.9279010499
 20
90.8086802574
 10
2.9278290694
 20
90.8083462274
 10
2.9277648487
 20
90.8080113111
 10
2.927708577
 20
90.8076756326
 10
2.9276604435
 20
90.8073393158
 10
2.9276206374
 20
90.8070024846
 10
2.9275893478
 20
90.8066652631
 10
2.9275667638
 20
90.806327775
 10
2.9275530747
 20
90.8059901444
 10
2.9275484697
 20
90.8056524952
  0
LWPOLYLINE
  5
262
100
AcDbEntity
  8
0
100
AcDbPolyline
 62
7
  6
CONTINUOUS
 90
29
 70
0
 10
157.0275484697
 20
28.2523218065
 10
156.9429239226
 20
28.2518725163
 10
156.8581856895
 20
28.2504980736
 10
156.7733677219
 20
28.2481586203
 10
156.6885039715
 20
28.2448142983
 10
156.60362839
 20
28.2404252494
 10
156.5187749291
 20
28.2349516156
 10
156.4339775405
 20
28.2283535386
 10
156.3492701758
 20
28.2205911604
 10
156.2646867866
 20
28.2116246228
 10
156.1802613247
 20
28.2014140677
 10
156.0960277418
 20
28.189919637
 10
156.0120199894
 20
28.1771014726
 10
155.9282720194
 20
28.1629197162
 10
155.8448177832
 20
28.1473345099
 10
155.7616912327
 20
28.1303059955
 10
155.6789263195
 20
28.1117943148
 10
155.5965569952
 20
28.0917596097
 10
155.5146172116
 20
28.0701620222
 10
155.4331409203
 20
28.046961694
 10
155.3521620729
 20
28.022118767
 10
155.2848649518
 20
28.0000577261
 10
155.2179793369
 20
27.9767976007
 10
155.1515452497
 20
27.952315469
 10
155.0856027112
 20
27.926588409
 10
155.0201917427
 20
27.8995934987
 10
154.9553523654
 20
27.8713078163
 10
154.8911246007
 20
27.8417084397
 10
154.8275484697
 20
27.8107724471
  0
LWPOLYLINE
  5
263
100
AcDbEntity
  8
0
100
AcDbPolyline
 62
7
  6
CONTINUOUS
 90
29
 70
0
 10
85.0275484697
 20
28.2523218065
 10
84.9429238845
 20
28.2518724353
 10
84.8581856534
 20
28.2504977632
 10
84.7733677217
 20
28.2481579529
 10
84.6885040346
 20
28.2448131667
 10
84.6036285376
 20
28.2404235672
 10
84.5187751759
 20
28.2349493169
 10
84.433977895
 20
28.2283505782
 10
84.3492706402
 20
28.2205875136
 10
84.2646873568
 20
28.2116202858
 10
84.1802619901
 20
28.201409057
 10
84.0960284856
 20
28.1899139899
 10
84.0120207886
 20
28.1770952469
 10
83.9282728443
 20
28.1629129905
 10
83.8448185982
 20
28.1473273832
 10
83.7616919956
 20
28.1302985875
 10
83.6789269818
 20
28.1117867659
 10
83.5965575022
 20
28.0917520809
 10
83.5146175022
 20
28.0701546949
 10
83.433140927
 20
28.0469547706
 10
83.3521617221
 20
28.0221124703
 10
83.2848646109
 20
28.0000522499
 10
83.2179789693
 20
27.976793064
 10
83.1515448416
 20
27.9523119263
 10
83.0856022724
 20
27.9265858507
 10
83.0201913062
 20
27.8995918512
 10
82.9553519873
 20
27.8713069415
 10
82.8911243603
 20
27.8417081355
 10
82.8275484697
 20
27.8107724471
  0
LINE
  5
264
100
AcDbEntity
  8
0
100
AcDbLine
 62
7
  6
CONTINUOUS
 10
145.8775484697
 20
19.1523218065
 11
143.5775484697
 21
19.1523218065
  0
LINE
  5
265
100
AcDbEntity
  8
0
100
AcDbLine
 62
7
  6
CONTINUOUS
 10
73.8775484697
 20
19.1523218065
 11
71.5775484697
 21
19.1523218065
  0
LINE
  5
266
100
AcDbEntity
  8
0
100
AcDbLine
 62
7
  6
CONTINUOUS
 10
147.2775484697
 20
22.3523218065
 11
146.8275484697
 21
22.3523218065
  0
LINE
  5
267
100
AcDbEntity
  8
0
100
AcDbLine
 62
7
  6
CONTINUOUS
 10
142.6275484697
 20
22.3523218065
 11
142.1775484697
 21
22.3523218065
  0
LINE
  5
268
100
AcDbEntity
  8
0
100
AcDbLine
 62
7
  6
CONTINUOUS
 10
70.1775484697
 20
22.3523218065
 11
70.6275484697
 21
22.3523218065
  0
LINE
  5
269
100
AcDbEntity
  8
0
100
AcDbLine
 62
7
  6
CONTINUOUS
 10
74.8275484697
 20
22.3523218065
 11
75.2775484697
 21
22.3523218065
  0
LINE
  5
26A
100
AcDbEntity
  8
0
100
AcDbLine
 62
7
  6
CONTINUOUS
 10
62.6275484697
 20
22.4523218065
 11
64.5275484697
 21
22.4523218065
  0
LINE
  5
26B
100
AcDbEntity
  8
0
100
AcDbLine
 62
7
  6
CONTINUOUS
 10
80.9275484697
 20
22.4523218065
 11
82.8275484697
 21
22.4523218065
  0
LINE
  5
26C
100
AcDbEntity
  8
0
100
AcDbLine
 62
7
  6
CONTINUOUS
 10
134.6275484697
 20
22.4523218065
 11
136.5275484697
 21
22.4523218065
  0
LINE
  5
26D
100
AcDbEntity
  8
0
100
AcDbLine
 62
7
  6
CONTINUOUS
 10
152.9275484697
 20
22.4523218065
 11
154.8275484697
 21
22.4523218065
  0
LINE
  5
26E
100
AcDbEntity
  8
0
100
AcDbLine
 62
7
  6
CONTINUOUS
 10
71.5775484697
 20
26.4523218065
 11
73.8775484697
 21
26.4523218065
  0
LINE
  5
26F
100
AcDbEntity
  8
0
100
AcDbLine
 62
7
  6
CONTINUOUS
 10
143.5775484697
 20
26.4523218065
 11
145.8775484697
 21
26.4523218065
  0
LINE
  5
270
100
AcDbEntity
  8
0
100
AcDbLine
 62
7
  6
CONTINUOUS
 10
3.4275484697
 20
26.9888497971
 11
60.4275484697
 21
26.9888497971
  0
LINE
  5
271
100
AcDbEntity
  8
0
100
AcDbLine
 62
7
  6
CONTINUOUS
 10
85.0275484697
 20
26.9888497971
 11
132.4275484697
 21
26.9888497971
  0
LINE
  5
272
100
AcDbEntity
  8
0
100
AcDbLine
 62
7
  6
CONTINUOUS
 10
157.0275484697
 20
26.9888497971
 11
214.0275484697
 21
26.9888497971
  0
LINE
  5
273
100
AcDbEntity
  8
0
100
AcDbLine
 62
7
  6
CONTINUOUS
 10
214.5275484697
 20
28.2523218065
 11
157.0275484697
 21
28.2523218065
  0
LINE
  5
274
100
AcDbEntity
  8
0
100
AcDbLine
 62
7
  6
CONTINUOUS
 10
132.4275484697
 20
28.2523218065
 11
85.0275484697
 21
28.2523218065
  0
LINE
  5
275
100
AcDbEntity
  8
0
100
AcDbLine
 62
7
  6
CONTINUOUS
 10
2.9275484697
 20
28.2523218065
 11
60.4275484697
 21
28.2523218065
  0
LINE
  5
276
100
AcDbEntity
  8
0
100
AcDbLine
 62
7
  6
CONTINUOUS
 10
146.8275484697
 20
28.3523218065
 11
145.8775484697
 21
28.3523218065
  0
LINE
  5
277
100
AcDbEntity
  8
0
100
AcDbLine
 62
7
  6
CONTINUOUS
 10
143.5775484697
 20
28.3523218065
 11
142.6275484697
 21
28.3523218065
  0
LINE
  5
278
100
AcDbEntity
  8
0
100
AcDbLine
 62
7
  6
CONTINUOUS
 10
70.6275484697
 20
28.3523218065
 11
71.5775484697
 21
28.3523218065
  0
LINE
  5
279
100
AcDbEntity
  8
0
100
AcDbLine
 62
7
  6
CONTINUOUS
 10
73.8775484697
 20
28.3523218065
 11
74.8275484697
 21
28.3523218065
  0
LINE
  5
27A
100
AcDbEntity
  8
0
100
AcDbLine
 62
7
  6
CONTINUOUS
 10
147.2775484697
 20
28.4523218065
 11
142.1775484697
 21
28.4523218065
  0
LINE
  5
27B
100
AcDbEntity
  8
0
100
AcDbLine
 62
7
  6
CONTINUOUS
 10
75.2775484697
 20
28.4523218065
 11
70.1775484697
 21
28.4523218065
  0
LINE
  5
27C
100
AcDbEntity
  8
0
100
AcDbLine
 62
7
  6
CONTINUOUS
 10
154.7275484697
 20
28.6023218065
 11
152.9275484697
 21
28.6023218065
  0
LINE
  5
27D
100
AcDbEntity
  8
0
100
AcDbLine
 62
7
  6
CONTINUOUS
 10
136.5275484697
 20
28.6023218065
 11
134.7275484697
 21
28.6023218065
  0
LINE
  5
27E
100
AcDbEntity
  8
0
100
AcDbLine
 62
7
  6
CONTINUOUS
 10
82.7275484697
 20
28.6023218065
 11
80.9275484697
 21
28.6023218065
  0
LINE
  5
27F
100
AcDbEntity
  8
0
100
AcDbLine
 62
7
  6
CONTINUOUS
 10
64.5275484697
 20
28.6023218065
 11
62.7275484697
 21
28.6023218065
  0
LINE
  5
280
100
AcDbEntity
  8
0
100
AcDbLine
 62
7
  6
CONTINUOUS
 10
64.5275484697
 20
28.8523218065
 11
80.9275484697
 21
28.8523218065
  0
LINE
  5
281
100
AcDbEntity
  8
0
100
AcDbLine
 62
7
  6
CONTINUOUS
 10
136.5275484697
 20
28.8523218065
 11
152.9275484697
 21
28.8523218065
  0
LWPOLYLINE
  5
282
100
AcDbEntity
  8
0
100
AcDbPolyline
 62
7
  6
CONTINUOUS
 90
54
 70
0
 10
60.4275484697
 20
26.9888497971
 10
60.5639893251
 20
26.9876519252
 10
60.7004236757
 20
26.9839610262
 10
60.8367813891
 20
26.9776311755
 10
60.9729923328
 20
26.9685164482
 10
61.1089863742
 20
26.9564709197
 10
61.244693381
 20
26.9413486652
 10
61.3799738258
 20
26.9230046604
 10
61.5147552617
 20
26.901249448
 10
61.6488955437
 20
26.8758917352
 10
61.7822525269
 20
26.8467402293
 10
61.9146840662
 20
26.8136036376
 10
62.0460480167
 20
26.7762906674
 10
62.1575805706
 20
26.7408736638
 10
62.2680452381
 20
26.7021554617
 10
62.3772614391
 20
26.6600384293
 10
62.4850485939
 20
26.6144249349
 10
62.5912261223
 20
26.5652173468
 10
62.6956134446
 20
26.5123180332
 10
62.7980299806
 20
26.4556293623
 10
62.885804508
 20
26.4029090773
 10
62.9718003349
 20
26.3472621969
 10
63.0558829099
 20
26.2887326987
 10
63.1379176817
 20
26.2273645604
 10
63.2177700992
 20
26.1632017596
 10
63.295305611
 20
26.096288274
 10
63.3703896659
 20
26.0266680812
 10
63.4428877126
 20
25.9543851588
 10
63.5126920066
 20
25.8794909356
 10
63.5797539221
 20
25.802118915
 10
63.6440522689
 20
25.722410657
 10
63.7055658573
 20
25.6405077217
 10
63.7642734972
 20
25.5565516692
 10
63.8201539987
 20
25.4706840596
 10
63.8731861717
 20
25.3830464529
 10
63.9233488265
 20
25.2937804093
 10
63.9772101092
 20
25.1898407037
 10
64.0273963362
 20
25.0841206969
 10
64.0740153725
 20
24.976785887
 10
64.1171750829
 20
24.8680017718
 10
64.1569833325
 20
24.7579338492
 10
64.1935479861
 20
24.6467476171
 10
64.2269769087
 20
24.5346085734
 10
64.2621851135
 20
24.4026723949
 10
64.2934481882
 20
24.2697889021
 10
64.3209485572
 20
24.1360840378
 10
64.3448686448
 20
24.0016837453
 10
64.3653908753
 20
23.8667139677
 10
64.382697673
 20
23.731300648
 10
64.3994699723
 20
23.5683213006
 10
64.4121064469
 20
23.4049920777
 10
64.4208418516
 20
23.2414207654
 10
64.4259109409
 20
23.0777151499
 10
64.4275484697
 20
22.9139830172
  0
LWPOLYLINE
  5
283
100
AcDbEntity
  8
0
100
AcDbPolyline
 62
7
  6
CONTINUOUS
 90
54
 70
0
 10
132.4275484697
 20
26.9888497971
 10
132.5639893251
 20
26.9876519252
 10
132.7004236758
 20
26.9839610262
 10
132.8367813892
 20
26.9776311755
 10
132.9729923328
 20
26.9685164483
 10
133.1089863743
 20
26.9564709198
 10
133.2446933811
 20
26.9413486652
 10
133.3799738259
 20
26.9230046605
 10
133.5147552618
 20
26.9012494481
 10
133.6488955439
 20
26.8758917353
 10
133.7822525271
 20
26.8467402294
 10
133.9146840664
 20
26.8136036376
 10
134.0460480169
 20
26.7762906674
 10
134.1575805708
 20
26.7408736638
 10
134.2680452382
 20
26.7021554617
 10
134.3772614393
 20
26.6600384293
 10
134.4850485941
 20
26.6144249349
 10
134.5912261225
 20
26.5652173467
 10
134.6956134448
 20
26.5123180331
 10
134.7980299808
 20
26.4556293622
 10
134.8858045082
 20
26.4029090773
 10
134.9718003349
 20
26.3472621969
 10
135.0558829098
 20
26.2887326987
 10
135.1379176816
 20
26.2273645605
 10
135.2177700991
 20
26.1632017597
 10
135.2953056108
 20
26.0962882742
 10
135.3703896657
 20
26.0266680814
 10
135.4428877123
 20
25.9543851591
 10
135.5126920063
 20
25.8794909359
 10
135.5797539218
 20
25.8021189153
 10
135.6440522686
 20
25.7224106573
 10
135.705565857
 20
25.640507722
 10
135.7642734969
 20
25.5565516696
 10
135.8201539984
 20
25.4706840599
 10
135.8731861715
 20
25.3830464533
 10
135.9233488262
 20
25.2937804096
 10
135.977210109
 20
25.189840704
 10
136.0273963361
 20
25.0841206972
 10
136.0740153724
 20
24.9767858872
 10
136.1171750829
 20
24.8680017719
 10
136.1569833325
 20
24.7579338493
 10
136.1935479861
 20
24.6467476171
 10
136.2269769088
 20
24.5346085733
 10
136.2621851135
 20
24.4026723948
 10
136.2934481882
 20
24.269788902
 10
136.3209485572
 20
24.1360840378
 10
136.3448686448
 20
24.0016837453
 10
136.3653908753
 20
23.8667139677
 10
136.3826976729
 20
23.731300648
 10
136.3994699722
 20
23.5683213006
 10
136.4121064469
 20
23.4049920777
 10
136.4208418515
 20
23.2414207654
 10
136.4259109409
 20
23.0777151499
 10
136.4275484697
 20
22.9139830172
  0
LINE
  5
284
100
AcDbEntity
  8
0
100
AcDbLine
 62
7
  6
CONTINUOUS
 10
30.3211818815
 20
62.6523218065
 11
32.5728479314
 21
66.5523218065
  0
LINE
  5
285
100
AcDbEntity
  8
0
100
AcDbLine
 62
7
  6
CONTINUOUS
 10
64.5275484697
 20
33.3523218065
 11
80.9275484697
 21
33.3523218065
  0
LINE
  5
286
100
AcDbEntity
  8
0
100
AcDbLine
 62
7
  6
CONTINUOUS
 10
136.5275484697
 20
33.3523218065
 11
152.9275484697
 21
33.3523218065
  0
LINE
  5
287
100
AcDbEntity
  8
0
100
AcDbLine
 62
7
  6
CONTINUOUS
 10
132.4275484697
 20
26.9888497971
 11
132.4275484697
 21
28.2523218065
  0
LINE
  5
288
100
AcDbEntity
  8
0
100
AcDbLine
 62
7
  6
CONTINUOUS
 10
134.6275484697
 20
22.4523218065
 11
134.6275484697
 21
16.2023218065
  0
LINE
  5
289
100
AcDbEntity
  8
0
100
AcDbLine
 62
7
  6
CONTINUOUS
 10
134.6275484697
 20
4.5415050418
 11
134.6275484697
 21
11.7023218065
  0
LINE
  5
28A
100
AcDbEntity
  8
0
100
AcDbLine
 62
7
  6
CONTINUOUS
 10
134.6275484697
 20
27.0040941642
 11
134.6275484697
 21
27.8107724471
  0
LINE
  5
28B
100
AcDbEntity
  8
0
100
AcDbLine
 62
7
  6
CONTINUOUS
 10
134.7275484697
 20
28.6023218065
 11
134.7275484697
 21
26.9506933208
  0
LINE
  5
28C
100
AcDbEntity
  8
0
100
AcDbLine
 62
7
  6
CONTINUOUS
 10
134.7275484697
 20
17.7523218065
 11
134.7275484697
 21
16.2023218065
  0
LINE
  5
28D
100
AcDbEntity
  8
0
100
AcDbLine
 62
7
  6
CONTINUOUS
 10
136.4275484697
 20
16.2023218065
 11
136.4275484697
 21
11.7023218065
  0
LINE
  5
28E
100
AcDbEntity
  8
0
100
AcDbLine
 62
7
  6
CONTINUOUS
 10
136.4275484697
 20
22.4523218065
 11
136.4275484697
 21
22.9139830172
  0
LINE
  5
28F
100
AcDbEntity
  8
0
100
AcDbLine
 62
7
  6
CONTINUOUS
 10
136.5275484697
 20
33.3523218065
 11
136.5275484697
 21
3.0523218065
  0
LINE
  5
290
100
AcDbEntity
  8
0
100
AcDbLine
 62
7
  6
CONTINUOUS
 10
214.5275484697
 20
62.6523218065
 11
187.1339150579
 21
62.6523218065
  0
LINE
  5
291
100
AcDbEntity
  8
0
100
AcDbLine
 62
7
  6
CONTINUOUS
 10
30.3211818815
 20
62.6523218065
 11
2.9275484697
 21
62.6523218065
  0
LINE
  5
292
100
AcDbEntity
  8
0
100
AcDbLine
 62
7
  6
CONTINUOUS
 10
2.9275484697
 20
63.1523218065
 11
30.6098570161
 21
63.1523218065
  0
LINE
  5
293
100
AcDbEntity
  8
0
100
AcDbLine
 62
7
  6
CONTINUOUS
 10
186.8452399233
 20
63.1523218065
 11
214.5275484697
 21
63.1523218065
  0
LINE
  5
294
100
AcDbEntity
  8
0
100
AcDbLine
 62
7
  6
CONTINUOUS
 10
3.4275484697
 20
68.5523218065
 11
214.0275484697
 21
68.5523218065
  0
LINE
  5
295
100
AcDbEntity
  8
0
100
AcDbLine
 62
7
  6
CONTINUOUS
 10
139.3275484697
 20
9.8523218065
 11
139.3275484697
 21
5.6523218065
  0
LINE
  5
296
100
AcDbEntity
  8
0
100
AcDbLine
 62
7
  6
CONTINUOUS
 10
142.1775484697
 20
28.4523218065
 11
142.1775484697
 21
18.0523218065
  0
LINE
  5
297
100
AcDbEntity
  8
0
100
AcDbLine
 62
7
  6
CONTINUOUS
 10
142.6275484697
 20
18.3523218065
 11
142.6275484697
 21
28.3523218065
  0
LINE
  5
298
100
AcDbEntity
  8
0
100
AcDbLine
 62
7
  6
CONTINUOUS
 10
143.5775484697
 20
28.4523218065
 11
143.5775484697
 21
26.4523218065
  0
LINE
  5
299
100
AcDbEntity
  8
0
100
AcDbLine
 62
7
  6
CONTINUOUS
 10
143.5775484697
 20
19.1523218065
 11
143.5775484697
 21
18.3523218065
  0
LINE
  5
29A
100
AcDbEntity
  8
0
100
AcDbLine
 62
7
  6
CONTINUOUS
 10
145.8775484697
 20
18.3523218065
 11
145.8775484697
 21
19.1523218065
  0
LINE
  5
29B
100
AcDbEntity
  8
0
100
AcDbLine
 62
7
  6
CONTINUOUS
 10
145.8775484697
 20
26.4523218065
 11
145.8775484697
 21
28.4523218065
  0
LINE
  5
29C
100
AcDbEntity
  8
0
100
AcDbLine
 62
7
  6
CONTINUOUS
 10
146.8275484697
 20
18.3523218065
 11
146.8275484697
 21
28.3523218065
  0
LINE
  5
29D
100
AcDbEntity
  8
0
100
AcDbLine
 62
7
  6
CONTINUOUS
 10
147.2775484697
 20
18.0523218065
 11
147.2775484697
 21
28.4523218065
  0
LINE
  5
29E
100
AcDbEntity
  8
0
100
AcDbLine
 62
7
  6
CONTINUOUS
 10
150.1275484697
 20
5.6523218065
 11
150.1275484697
 21
9.8523218065
  0
LINE
  5
29F
100
AcDbEntity
  8
0
100
AcDbLine
 62
7
  6
CONTINUOUS
 10
152.9275484697
 20
3.0523218065
 11
152.9275484697
 21
33.3523218065
  0
LINE
  5
2A0
100
AcDbEntity
  8
0
100
AcDbLine
 62
7
  6
CONTINUOUS
 10
153.0275484697
 20
11.7023218065
 11
153.0275484697
 21
16.2023218065
  0
LINE
  5
2A1
100
AcDbEntity
  8
0
100
AcDbLine
 62
7
  6
CONTINUOUS
 10
153.0275484697
 20
22.4523218065
 11
153.0275484697
 21
22.9139830172
  0
LWPOLYLINE
  5
2A2
100
AcDbEntity
  8
0
100
AcDbPolyline
 62
7
  6
CONTINUOUS
 90
39
 70
0
 10
0.9826741733
 20
92.8410728633
 10
0.9717919951
 20
92.8347526865
 10
0.9610575152
 20
92.8281468076
 10
0.9504781864
 20
92.8212609244
 10
0.9400614615
 20
92.8141007344
 10
0.9298147933
 20
92.8066719352
 10
0.9197456348
 20
92.7989802245
 10
0.9098614388
 20
92.7910312999
 10
0.900169658
 20
92.7828308591
 10
0.8906777454
 20
92.7743845996
 10
0.8813931538
 20
92.7656982191
 10
0.872323336
 20
92.7567774153
 10
0.8634757449
 20
92.7476278857
 10
0.8548578332
 20
92.738255328
 10
0.846477054
 20
92.7286654398
 10
0.8383408599
 20
92.7188639188
 10
0.8304567039
 20
92.7088564625
 10
0.8228320388
 20
92.6986487686
 10
0.8154743174
 20
92.6882465348
 10
0.8083909926
 20
92.6776554586
 10
0.8015877407
 20
92.6668803494
 10
0.7950685753
 20
92.6559311699
 10
0.7888356577
 20
92.6448170434
 10
0.7828911494
 20
92.6335470934
 10
0.7772372117
 20
92.6221304435
 10
0.771876006
 20
92.610576217
 10
0.7668096936
 20
92.5988935376
 10
0.762040436
 20
92.5870915286
 10
0.7575703944
 20
92.5751793136
 10
0.7534017304
 20
92.563166016
 10
0.7495366052
 20
92.5510607592
 10
0.7459771802
 20
92.5388726669
 10
0.7427256167
 20
92.5266108625
 10
0.7397840763
 20
92.5142844694
 10
0.7371547202
 20
92.5019026111
 10
0.7348397098
 20
92.4894744111
 10
0.7328412065
 20
92.4770089929
 10
0.7311613717
 20
92.46451548
 10
0.7298023667
 20
92.4520029959
  0
LINE
  5
2A3
100
AcDbEntity
  8
0
100
AcDbLine
 62
7
  6
CONTINUOUS
 10
214.0275484697
 20
90.8899005565
 11
3.4275484697
 21
90.8899005565
  0
LINE
  5
2A4
100
AcDbEntity
  8
0
100
AcDbLine
 62
7
  6
CONTINUOUS
 10
3.4275484697
 20
91.3054811577
 11
214.0275484697
 21
91.3054811577
  0
LINE
  5
2A5
100
AcDbEntity
  8
0
100
AcDbLine
 62
7
  6
CONTINUOUS
 10
3.4275484697
 20
91.3631385712
 11
214.0275484697
 21
91.3631385712
  0
LWPOLYLINE
  5
2A6
100
AcDbEntity
  8
0
100
AcDbPolyline
 62
7
  6
CONTINUOUS
 90
16
 70
0
 10
214.3319043845
 20
90.8724911603
 10
214.3147688823
 20
90.8746101635
 10
214.2976117438
 20
90.8765505849
 10
214.2804358519
 20
90.8783267002
 10
214.2632440893
 20
90.8799527854
 10
214.2418722135
 20
90.8817815561
 10
214.2204825596
 20
90.8834070275
 10
214.1990773872
 20
90.8848353377
 10
214.1776589557
 20
90.8860726243
 10
214.1562295244
 20
90.8871250255
 10
214.1347913528
 20
90.8879986789
 10
214.1133467003
 20
90.8886997225
 10
214.0918978263
 20
90.8892342942
 10
214.0704469903
 20
90.8896085318
 10
214.0489964516
 20
90.8898285733
 10
214.0275484697
 20
90.8899005565
  0
LINE
  5
2A7
100
AcDbEntity
  8
0
100
AcDbLine
 62
7
  6
CONTINUOUS
 10
184.8822490081
 20
66.5523218065
 11
187.1339150579
 21
62.6523218065
  0
LINE
  5
2A8
100
AcDbEntity
  8
0
100
AcDbLine
 62
7
  6
CONTINUOUS
 10
154.7275484697
 20
16.2023218065
 11
154.7275484697
 21
17.7523218065
  0
LINE
  5
2A9
100
AcDbEntity
  8
0
100
AcDbLine
 62
7
  6
CONTINUOUS
 10
154.7275484697
 20
26.9506889242
 11
154.7275484697
 21
28.6023218065
  0
LINE
  5
2AA
100
AcDbEntity
  8
0
100
AcDbLine
 62
7
  6
CONTINUOUS
 10
154.8275484697
 20
27.8107724471
 11
154.8275484697
 21
27.0040941642
  0
LINE
  5
2AB
100
AcDbEntity
  8
0
100
AcDbLine
 62
7
  6
CONTINUOUS
 10
154.8275484697
 20
11.7023218065
 11
154.8275484697
 21
4.5415050418
  0
LINE
  5
2AC
100
AcDbEntity
  8
0
100
AcDbLine
 62
7
  6
CONTINUOUS
 10
154.8275484697
 20
16.2023218065
 11
154.8275484697
 21
22.4523218065
  0
LINE
  5
2AD
100
AcDbEntity
  8
0
100
AcDbLine
 62
7
  6
CONTINUOUS
 10
157.0275484697
 20
28.2523218065
 11
157.0275484697
 21
26.9888497971
  0
LWPOLYLINE
  5
2AE
100
AcDbEntity
  8
0
100
AcDbPolyline
 62
7
  6
CONTINUOUS
 90
54
 70
0
 10
153.0275484697
 20
22.9139830172
 10
153.0291860398
 20
23.0777155859
 10
153.0342552351
 20
23.2414216346
 10
153.042990783
 20
23.404993378
 10
153.0556274111
 20
23.5683230309
 10
153.0723998469
 20
23.7313028082
 10
153.0897065793
 20
23.8667154036
 10
153.1102286745
 20
24.0016844642
 10
153.1341485661
 20
24.1360840488
 10
153.1616486875
 20
24.2697882159
 10
153.1929114723
 20
24.4026710243
 10
153.228119354
 20
24.5346065325
 10
153.2615482905
 20
24.6467460072
 10
153.2981129968
 20
24.7579326638
 10
153.3379213402
 20
24.8680010001
 10
153.3810811883
 20
24.9767855139
 10
153.4277004083
 20
25.0841207031
 10
153.4778868678
 20
25.1898410654
 10
153.531748434
 20
25.2937810988
 10
153.5819120892
 20
25.3830486212
 10
153.6349453758
 20
25.4706876373
 10
153.690827096
 20
25.5565565833
 10
153.7495360526
 20
25.6405138953
 10
153.8110510478
 20
25.7224180093
 10
153.8753508843
 20
25.8021273617
 10
153.9424143644
 20
25.8795003884
 10
154.0122202907
 20
25.9543955258
 10
154.0847182056
 20
26.0266775132
 10
154.1598020589
 20
26.0962968076
 10
154.237337304
 20
26.1632094338
 10
154.3171893942
 20
26.2273714169
 10
154.399223783
 20
26.2887387821
 10
154.4833059237
 20
26.3472675543
 10
154.5693012697
 20
26.4029137587
 10
154.6570752745
 20
26.4556334202
 10
154.759491451
 20
26.5123215953
 10
154.8638783808
 20
26.5652204625
 10
154.9700554877
 20
26.6144276521
 10
155.0778421956
 20
26.6600407943
 10
155.1870579285
 20
26.7021575192
 10
155.2975221102
 20
26.740875457
 10
155.4090541648
 20
26.7762922378
 10
155.5404181565
 20
26.8136051665
 10
155.6728497357
 20
26.8467417186
 10
155.8062067578
 20
26.8758931762
 10
155.9403470783
 20
26.9012508217
 10
156.0751285525
 20
26.9230059373
 10
156.2104090358
 20
26.9413498052
 10
156.3461151389
 20
26.9564717835
 10
156.4821082726
 20
26.9685170471
 10
156.6183183046
 20
26.9776315383
 10
156.7546751029
 20
26.983961199
 10
156.8911085353
 20
26.9876519712
 10
157.0275484697
 20
26.9888497971
  0
LINE
  5
2AF
100
AcDbEntity
  8
0
100
AcDbLine
 62
7
  6
CONTINUOUS
 10
2.9464749295
 20
4.7171571877
 11
2.9666553006
 21
4.7378936922
  0
LINE
  5
2B0
100
AcDbEntity
  8
0
100
AcDbLine
 62
7
  6
CONTINUOUS
 10
3.2295922714
 20
5.0008375184
 11
3.2912477513
 21
5.0637468167
  0
LINE
  5
2B1
100
AcDbEntity
  8
0
100
AcDbLine
 62
7
  6
CONTINUOUS
 10
2.933529381
 20
4.7040721509
 11
2.9464749295
 21
4.7171571877
  0
LINE
  5
2B2
100
AcDbEntity
  8
0
100
AcDbLine
 62
7
  6
CONTINUOUS
 10
3.1716716148
 20
4.9424992233
 11
3.2295922714
 21
5.0008375184
  0
LINE
  5
2B3
100
AcDbEntity
  8
0
100
AcDbLine
 62
7
  6
CONTINUOUS
 10
3.2912477513
 20
5.0637468167
 11
3.3572331507
 21
5.130109314
  0
LINE
  5
2B4
100
AcDbEntity
  8
0
100
AcDbLine
 62
7
  6
CONTINUOUS
 10
2.9278186549
 20
4.6988808998
 11
3.4275484697
 21
5.1987919674
  0
LINE
  5
2B5
100
AcDbEntity
  8
0
100
AcDbLine
 62
7
  6
CONTINUOUS
 10
3.1180808778
 20
4.8893920887
 11
3.1716716148
 21
4.9424992233
  0
LINE
  5
2B6
100
AcDbEntity
  8
0
100
AcDbLine
 62
7
  6
CONTINUOUS
 10
2.9944436989
 20
4.7658078088
 11
3.0294669198
 21
4.8004891928
  0
LWPOLYLINE
  5
2B7
100
AcDbEntity
  8
0
100
AcDbPolyline
 62
7
  6
CONTINUOUS
 90
25
 70
0
 10
1.2275484697
 20
92.9051898396
 10
1.2190292767
 20
92.9051145335
 10
1.2104993952
 20
92.904889117
 10
1.2019624871
 20
92.9045143426
 10
1.1934222141
 20
92.9039909631
 10
1.1848822381
 20
92.9033197309
 10
1.176346221
 20
92.9025013988
 10
1.1678178245
 20
92.9015367193
 10
1.1593007105
 20
92.900426445
 10
1.1507985408
 20
92.8991713285
 10
1.1423149772
 20
92.8977721225
 10
1.1338536817
 20
92.8962295796
 10
1.125418316
 20
92.8945444523
 10
1.117012542
 20
92.8927174934
 10
1.1086400214
 20
92.8907494553
 10
1.1003044162
 20
92.8886410907
 10
1.0920093882
 20
92.8863931522
 10
1.0837585992
 20
92.8840063925
 10
1.0755557109
 20
92.8814815641
 10
1.0674043854
 20
92.8788194197
 10
1.0593082844
 20
92.8760207118
 10
1.0512710696
 20
92.8730861931
 10
1.0432964031
 20
92.8700166162
 10
1.0353879466
 20
92.8668127336
 10
1.0275493619
 20
92.8634752981
  0
LWPOLYLINE
  5
2B8
100
AcDbEntity
  8
0
100
AcDbPolyline
 62
7
  6
CONTINUOUS
 90
35
 70
0
 10
3.4275484697
 20
90.8899005565
 10
3.3981896826
 20
90.8897602138
 10
3.3688279227
 20
90.8893315258
 10
3.3394707577
 20
90.8886030024
 10
3.3101257554
 20
90.8875631535
 10
3.2808004839
 20
90.8862004891
 10
3.2515025109
 20
90.884503519
 10
3.2295179344
 20
90.8830002894
 10
3.2075515388
 20
90.8812862128
 10
3.185601834
 20
90.879345534
 10
3.16366733
 20
90.8771624977
 10
3.1417465365
 20
90.8747213489
 10
3.1198379635
 20
90.8720063321
 10
3.0979401209
 20
90.8690016923
 10
3.0853961107
 20
90.8671389768
 10
3.0728678842
 20
90.8651490369
 10
3.0603681897
 20
90.8630049604
 10
3.0479097756
 20
90.8606798351
 10
3.0355053903
 20
90.8581467489
 10
3.0231677822
 20
90.8553787894
 10
3.0109096995
 20
90.8523490446
 10
2.9987438908
 20
90.8490306021
 10
2.9866831043
 20
90.8453965499
 10
2.9795302311
 20
90.8430546944
 10
2.9724316919
 20
90.840539229
 10
2.9653997341
 20
90.8377989476
 10
2.958446605
 20
90.834782644
 10
2.9515845523
 20
90.8314391121
 10
2.9484270661
 20
90.8297520889
 10
2.9453263585
 20
90.827960459
 10
2.9423167734
 20
90.8260417863
 10
2.9394326542
 20
90.8239736347
 10
2.9367083448
 20
90.8217335683
 10
2.9341781888
 20
90.8192991509
 10
2.9318765299
 20
90.8166479466
  0
LINE
  5
2B9
100
AcDbEntity
  8
0
100
AcDbLine
 62
7
  6
CONTINUOUS
 10
216.7275484697
 20
91.8760601357
 11
0.7275484697
 21
91.8760601357
  0
LINE
  5
2BA
100
AcDbEntity
  8
0
100
AcDbLine
 62
7
  6
CONTINUOUS
 10
1.2275484697
 20
92.3758887982
 11
216.2275484697
 21
92.3758887982
  0
LINE
  5
2BB
100
AcDbEntity
  8
0
100
AcDbLine
 62
7
  6
CONTINUOUS
 10
216.2275484697
 20
92.9051898396
 11
1.2275484697
 21
92.9051898396
  0
LINE
  5
2BC
100
AcDbEntity
  8
0
100
AcDbLine
 62
7
  6
CONTINUOUS
 10
216.2275484697
 20
92.9523218065
 11
1.2275484697
 21
92.9523218065
  0
LWPOLYLINE
  5
2BD
100
AcDbEntity
  8
0
100
AcDbPolyline
 62
7
  6
CONTINUOUS
 90
25
 70
0
 10
216.4275475776
 20
92.8634752978
 10
216.4197089929
 20
92.8668127333
 10
216.4118005363
 20
92.8700166159
 10
216.4038258698
 20
92.8730861928
 10
216.3957886551
 20
92.8760207115
 10
216.387692554
 20
92.8788194194
 10
216.3795412285
 20
92.8814815639
 10
216.3713383403
 20
92.8840063923
 10
216.3630875512
 20
92.886393152
 10
216.3547925232
 20
92.8886410905
 10
216.346456918
 20
92.8907494551
 10
216.3380843974
 20
92.8927174932
 10
216.3296786234
 20
92.8945444522
 10
216.3212432577
 20
92.8962295795
 10
216.3127819622
 20
92.8977721224
 10
216.3042983986
 20
92.8991713284
 10
216.2957962289
 20
92.9004264449
 10
216.2872791149
 20
92.9015367192
 10
216.2787507184
 20
92.9025013987
 10
216.2702147012
 20
92.9033197309
 10
216.2616747252
 20
92.9039909631
 10
216.2531344522
 20
92.9045143426
 10
216.2445975441
 20
92.904889117
 10
216.2360676626
 20
92.9051145335
 10
216.2275484697
 20
92.9051898396
  0
LINE
  5
2BE
100
AcDbEntity
  8
0
100
AcDbLine
 62
7
  6
CONTINUOUS
 10
3.3572331507
 20
5.130109314
 11
3.4275484697
 21
5.1987919674
  0
LINE
  5
2BF
100
AcDbEntity
  8
0
100
AcDbLine
 62
7
  6
CONTINUOUS
 10
2.9278186549
 20
4.6988808998
 11
2.933529381
 21
4.7040721509
  0
LWPOLYLINE
  5
2C0
100
AcDbEntity
  8
0
100
AcDbPolyline
 62
7
  6
CONTINUOUS
 90
28
 70
0
 10
216.6632741621
 20
92.6502920367
 10
216.6583114108
 20
92.6588979719
 10
216.653156102
 20
92.6674170001
 10
216.6478125045
 20
92.6758449942
 10
216.6422848869
 20
92.6841778267
 10
216.6365775182
 20
92.6924113705
 10
216.630694667
 20
92.7005414982
 10
216.6246406023
 20
92.7085640826
 10
216.6184195927
 20
92.7164749963
 10
216.6120359071
 20
92.7242701121
 10
216.6054938142
 20
92.7319453027
 10
216.598797583
 20
92.7394964409
 10
216.591951482
 20
92.7469193992
 10
216.5849597803
 20
92.7542100506
 10
216.5778267464
 20
92.7613642676
 10
216.5705566493
 20
92.768377923
 10
216.5631537577
 20
92.7752468895
 10
216.5556223404
 20
92.7819670398
 10
216.5479666662
 20
92.7885342467
 10
216.5401910039
 20
92.7949443829
 10
216.5322996223
 20
92.801193321
 10
216.5242967902
 20
92.8072769338
 10
216.5161867763
 20
92.813191094
 10
216.5079738495
 20
92.8189316744
 10
216.4996622786
 20
92.8244945476
 10
216.4912563323
 20
92.8298755863
 10
216.4827602794
 20
92.8350706634
 10
216.4741783888
 20
92.8400756514
  0
LWPOLYLINE
  5
2C1
100
AcDbEntity
  8
0
100
AcDbPolyline
 62
7
  6
CONTINUOUS
 90
46
 70
0
 10
214.5275484697
 20
90.8056524952
 10
214.5274745664
 20
90.8070840146
 10
214.5272589269
 20
90.8084837133
 10
214.5269106563
 20
90.809851623
 10
214.5264388598
 20
90.8111877751
 10
214.5258526425
 20
90.8124922012
 10
214.5251611098
 20
90.8137649328
 10
214.5243733666
 20
90.8150060015
 10
214.5234985183
 20
90.8162154386
 10
214.5225456701
 20
90.8173932759
 10
214.521523927
 20
90.8185395448
 10
214.5204423944
 20
90.8196542768
 10
214.5193101774
 20
90.8207375035
 10
214.5181363812
 20
90.8217892563
 10
214.5169301109
 20
90.8228095669
 10
214.5157004718
 20
90.8237984668
 10
214.5144565691
 20
90.8247559874
 10
214.5116202021
 20
90.8268083407
 10
214.508758628
 20
90.82871125
 10
214.5058730413
 20
90.8304757109
 10
214.5029646362
 20
90.8321127188
 10
214.500034607
 20
90.8336332693
 10
214.4970841479
 20
90.8350483578
 10
214.4941144532
 20
90.8363689797
 10
214.4911267172
 20
90.8376061306
 10
214.4881221343
 20
90.8387708059
 10
214.4851018986
 20
90.8398740011
 10
214.4820672044
 20
90.8409267117
 10
214.4790192461
 20
90.8419399331
 10
214.4759592178
 20
90.8429246609
 10
214.4673127287
 20
90.8455908318
 10
214.4585872804
 20
90.8481242218
 10
214.4497895946
 20
90.8505299051
 10
214.4409263928
 20
90.8528129557
 10
214.4320043967
 20
90.8549784477
 10
214.4230303279
 20
90.857031455
 10
214.4140109078
 20
90.8589770517
 10
214.4049528581
 20
90.8608203118
 10
214.3958629004
 20
90.8625663094
 10
214.3867477563
 20
90.8642201185
 10
214.3776141472
 20
90.8657868131
 10
214.3684687949
 20
90.8672714673
 10
214.3593184209
 20
90.8686791551
 10
214.3501697468
 20
90.8700149505
 10
214.3410294941
 20
90.8712839275
 10
214.3319043845
 20
90.8724911603
  0
LWPOLYLINE
  5
2C2
100
AcDbEntity
  8
0
100
AcDbPolyline
 62
7
  6
CONTINUOUS
 90
37
 70
0
 10
214.5275484697
 20
68.5098944695
 10
214.5273706363
 20
68.5112289903
 10
214.5268667862
 20
68.5124285517
 10
214.5260813938
 20
68.5135061921
 10
214.525058934
 20
68.5144749495
 10
214.5238438813
 20
68.5153478623
 10
214.5224807106
 20
68.5161379686
 10
214.5210138964
 20
68.5168583066
 10
214.5194879135
 20
68.5175219146
 10
214.5179472365
 20
68.5181418307
 10
214.5140324994
 20
68.5196170507
 10
214.5102891577
 20
68.5209067555
 10
214.506684764
 20
68.522035249
 10
214.5031868704
 20
68.5230268349
 10
214.4986325967
 20
68.5241779887
 10
214.4941330587
 20
68.525186567
 10
214.4896113435
 20
68.5261101789
 10
214.4807642949
 20
68.5277752487
 10
214.4716425196
 20
68.5293412109
 10
214.4623306958
 20
68.5308081847
 10
214.4529135019
 20
68.532176289
 10
214.4434756162
 20
68.533445643
 10
214.4278309458
 20
68.5353523106
 10
214.4123101606
 20
68.5370292513
 10
214.3968588447
 20
68.538521578
 10
214.3814225821
 20
68.539874404
 10
214.3545437944
 20
68.5419900012
 10
214.3275696741
 20
68.5438434553
 10
214.3005235826
 20
68.5454572394
 10
214.2734288813
 20
68.546853827
 10
214.2463089315
 20
68.5480556912
 10
214.2191870946
 20
68.5490853054
 10
214.1808275761
 20
68.5502833574
 10
214.1424975166
 20
68.5511936916
 10
214.1041833539
 20
68.55182865
 10
214.0658715256
 20
68.5522005743
 10
214.0275484697
 20
68.5523218065
  0
LWPOLYLINE
  5
2C3
100
AcDbEntity
  8
0
100
AcDbPolyline
 62
7
  6
CONTINUOUS
 90
24
 70
0
 10
216.7275484697
 20
92.4050157514
 10
216.7274716616
 20
92.4136077157
 10
216.7272417968
 20
92.422209819
 10
216.7268597149
 20
92.4308183341
 10
216.7263262552
 20
92.4394295341
 10
216.7256422571
 20
92.4480396921
 10
216.72480856
 20
92.4566450809
 10
216.7238260033
 20
92.4652419737
 10
216.7226954264
 20
92.4738266434
 10
216.7214176687
 20
92.4823953631
 10
216.7199935697
 20
92.4909444057
 10
216.7184239687
 20
92.4994700443
 10
216.7167097051
 20
92.5079685518
 10
216.7148516184
 20
92.5164362014
 10
216.7128505479
 20
92.5248692659
 10
216.710707333
 20
92.5332640184
 10
216.7084228132
 20
92.5416167319
 10
216.7059978278
 20
92.5499236795
 10
216.7034332163
 20
92.5581811341
 10
216.700729818
 20
92.5663853687
 10
216.6978884724
 20
92.5745326563
 10
216.6949100189
 20
92.58261927
 10
216.6917952968
 20
92.5906414828
 10
216.6885451457
 20
92.5985955676
  0
LINE
  5
2C4
100
AcDbEntity
  8
0
100
AcDbLine
 62
7
  6
CONTINUOUS
 10
213.6275484697
 20
63.1523218065
 11
213.6275484697
 21
62.6523218065
  0
LINE
  5
2C5
100
AcDbEntity
  8
0
100
AcDbLine
 62
7
  6
CONTINUOUS
 10
214.0275484697
 20
4.5415050418
 11
214.0275484697
 21
26.9888497971
  0
LINE
  5
2C6
100
AcDbEntity
  8
0
100
AcDbLine
 62
7
  6
CONTINUOUS
 10
214.0275484697
 20
63.1523218065
 11
214.0275484697
 21
91.3631385712
  0
LINE
  5
2C7
100
AcDbEntity
  8
0
100
AcDbLine
 62
7
  6
CONTINUOUS
 10
214.5275484697
 20
5.041676438
 11
214.5275484697
 21
28.2523218065
  0
LINE
  5
2C8
100
AcDbEntity
  8
0
100
AcDbLine
 62
7
  6
CONTINUOUS
 10
214.5275484697
 20
62.6523218065
 11
214.5275484697
 21
90.8629671749
  0
LINE
  5
2C9
100
AcDbEntity
  8
0
100
AcDbLine
 62
7
  6
CONTINUOUS
 10
216.2275484697
 20
2.9994537733
 11
216.2275484697
 21
92.9051898396
  0
LINE
  5
2CA
100
AcDbEntity
  8
0
100
AcDbLine
 62
7
  6
CONTINUOUS
 10
216.7275484697
 20
3.4524932027
 11
216.7275484697
 21
92.4521504102
  0
LWPOLYLINE
  5
2CB
100
AcDbEntity
  8
0
100
AcDbPolyline
 62
7
  6
CONTINUOUS
 90
43
 70
0
 10
82.8275484697
 20
27.0040941642
 10
82.748523614
 20
26.9631761589
 10
82.6705548248
 20
26.9199469929
 10
82.5937433245
 20
26.8744399118
 10
82.5181903356
 20
26.8266881612
 10
82.4439970808
 20
26.7767249865
 10
82.3712647827
 20
26.7245836333
 10
82.3000946637
 20
26.6702973472
 10
82.2305879464
 20
26.6138993738
 10
82.1628458535
 20
26.5554229586
 10
82.0969696074
 20
26.4949013472
 10
82.0330604307
 20
26.4323677851
 10
81.9712195461
 20
26.3678555179
 10
81.911502717
 20
26.3013765346
 10
81.85395059
 20
26.2330454849
 10
81.7985563199
 20
26.1629575847
 10
81.7453130614
 20
26.09120805
 10
81.6942139694
 20
26.0178920969
 10
81.6452521986
 20
25.9431049411
 10
81.5984209039
 20
25.8669417987
 10
81.55371324
 20
25.7894978857
 10
81.5111223617
 20
25.710868418
 10
81.4706414238
 20
25.6311486115
 10
81.4322635811
 20
25.5504336823
 10
81.3959819884
 20
25.4688188462
 10
81.3550983741
 20
25.3695893817
 10
81.3171395501
 20
25.2692850183
 10
81.2820079378
 20
25.16799486
 10
81.2496059589
 20
25.0658080103
 10
81.2198360348
 20
24.962813573
 10
81.192600587
 20
24.8591006519
 10
81.1678020371
 20
24.7547583508
 10
81.1453428066
 20
24.6498757734
 10
81.125125317
 20
24.5445420234
 10
81.1070519899
 20
24.4388462047
 10
81.0873142594
 20
24.3061739882
 10
81.0706468591
 20
24.1731370816
 10
81.056914594
 20
24.0397983349
 10
81.0459822691
 20
23.9062205979
 10
81.0377146893
 20
23.7724667204
 10
81.0319766594
 20
23.6385995522
 10
81.0286329846
 20
23.5046819434
 10
81.0275484697
 20
23.3707767437
  0
LWPOLYLINE
  5
2CC
100
AcDbEntity
  8
0
100
AcDbPolyline
 62
7
  6
CONTINUOUS
 90
43
 70
0
 10
154.8275484697
 20
27.0040941642
 10
154.748523614
 20
26.9631761589
 10
154.6705548248
 20
26.9199469929
 10
154.5937433245
 20
26.8744399118
 10
154.5181903356
 20
26.8266881612
 10
154.4439970808
 20
26.7767249865
 10
154.3712647827
 20
26.7245836333
 10
154.3000946637
 20
26.6702973472
 10
154.2305879464
 20
26.6138993738
 10
154.1628458535
 20
26.5554229586
 10
154.0969696074
 20
26.4949013472
 10
154.0330604307
 20
26.4323677851
 10
153.9712195461
 20
26.3678555179
 10
153.911502717
 20
26.3013765346
 10
153.85395059
 20
26.2330454849
 10
153.7985563199
 20
26.1629575847
 10
153.7453130614
 20
26.09120805
 10
153.6942139694
 20
26.0178920969
 10
153.6452521986
 20
25.9431049411
 10
153.5984209039
 20
25.8669417987
 10
153.55371324
 20
25.7894978857
 10
153.5111223617
 20
25.710868418
 10
153.4706414238
 20
25.6311486115
 10
153.4322635811
 20
25.5504336823
 10
153.3959819884
 20
25.4688188462
 10
153.3550983741
 20
25.3695893817
 10
153.3171395501
 20
25.2692850183
 10
153.2820079378
 20
25.16799486
 10
153.2496059589
 20
25.0658080103
 10
153.2198360348
 20
24.962813573
 10
153.192600587
 20
24.8591006519
 10
153.1678020371
 20
24.7547583508
 10
153.1453428066
 20
24.6498757734
 10
153.125125317
 20
24.5445420234
 10
153.1070519899
 20
24.4388462047
 10
153.0873142594
 20
24.3061739882
 10
153.0706468591
 20
24.1731370816
 10
153.056914594
 20
24.0397983349
 10
153.0459822691
 20
23.9062205979
 10
153.0377146893
 20
23.7724667204
 10
153.0319766594
 20
23.6385995522
 10
153.0286329846
 20
23.5046819434
 10
153.0275484697
 20
23.3707767437
  0
LWPOLYLINE
  5
2CD
100
AcDbEntity
  8
0
100
AcDbPolyline
 62
7
  6
CONTINUOUS
 90
39
 70
0
 10
216.4724227662
 20
3.0635707496
 10
216.4833049443
 20
3.0698909264
 10
216.4940394242
 20
3.0764968053
 10
216.5046187531
 20
3.0833826885
 10
216.515035478
 20
3.0905428786
 10
216.5252821461
 20
3.0979716777
 10
216.5353513046
 20
3.1056633884
 10
216.5452355006
 20
3.113612313
 10
216.5549272814
 20
3.1218127539
 10
216.564419194
 20
3.1302590133
 10
216.5737037856
 20
3.1389453938
 10
216.5827736034
 20
3.1478661977
 10
216.5916211945
 20
3.1570157272
 10
216.6002391061
 20
3.1663882849
 10
216.6086198854
 20
3.1759781731
 10
216.6167560794
 20
3.1857796942
 10
216.6246402354
 20
3.1957871504
 10
216.6322649006
 20
3.2059948443
 10
216.6396226219
 20
3.2163970782
 10
216.6467059468
 20
3.2269881543
 10
216.6535091987
 20
3.2377632635
 10
216.6600283641
 20
3.248712443
 10
216.6662612816
 20
3.2598265695
 10
216.6722057899
 20
3.2710965195
 10
216.6778597276
 20
3.2825131694
 10
216.6832209333
 20
3.2940673958
 10
216.6882872457
 20
3.3057500753
 10
216.6930565033
 20
3.3175520843
 10
216.6975265449
 20
3.3294642993
 10
216.701695209
 20
3.3414775969
 10
216.7055603342
 20
3.3535828536
 10
216.7091197592
 20
3.365770946
 10
216.7123713226
 20
3.3780327504
 10
216.715312863
 20
3.3903591435
 10
216.7179422192
 20
3.4027410018
 10
216.7202572296
 20
3.4151692018
 10
216.7222557329
 20
3.4276346199
 10
216.7239355677
 20
3.4401281328
 10
216.7252945728
 20
3.452640617
  0
ARC
  5
2CE
100
AcDbEntity
  8
0
100
AcDbCircle
 62
7
  6
CONTINUOUS
 10
181.418147393
 20
64.5523218065
 40
4.0
100
AcDbArc
 50
30.0000000001
 51
89.999925142
  0
ARC
  5
2CF
100
AcDbEntity
  8
0
100
AcDbCircle
 62
7
  6
CONTINUOUS
 10
36.0369495465
 20
64.5523218065
 40
4.0
100
AcDbArc
 50
90.0001114161
 51
149.9999999995
  0
ARC
  5
2D0
100
AcDbEntity
  8
0
100
AcDbCircle
 62
7
  6
CONTINUOUS
 10
216.2276341238
 20
91.8759744523
 40
0.4999143533
100
AcDbArc
 50
0.0098202812
 51
90.0098169156
  0
ARC
  5
2D1
100
AcDbEntity
  8
0
100
AcDbCircle
 62
7
  6
CONTINUOUS
 10
1.2274628156
 20
4.0286691607
 40
0.4999143533
100
AcDbArc
 50
180.0098202812
 51
270.0098169157
  0
ARC
  5
2D2
100
AcDbEntity
  8
0
100
AcDbCircle
 62
7
  6
CONTINUOUS
 10
1.2274628156
 20
91.8759744523
 40
0.4999143533
100
AcDbArc
 50
89.9901830843
 51
179.9901797189
  0
ARC
  5
2D3
100
AcDbEntity
  8
0
100
AcDbCircle
 62
7
  6
CONTINUOUS
 10
3.4274628156
 20
90.8055668118
 40
0.4999143533
100
AcDbArc
 50
89.9901830841
 51
179.9901797189
  0
ARC
  5
2D4
100
AcDbEntity
  8
0
100
AcDbCircle
 62
7
  6
CONTINUOUS
 10
214.0276341238
 20
90.8055668118
 40
0.4999143533
100
AcDbArc
 50
0.0098202811
 51
90.009816915
  0
ARC
  5
2D5
100
AcDbEntity
  8
0
100
AcDbCircle
 62
7
  6
CONTINUOUS
 10
216.2276341238
 20
4.0286691607
 40
0.4999143533
100
AcDbArc
 50
269.9901830843
 51
359.9901797189
  0
ARC
  5
2D6
100
AcDbEntity
  8
0
100
AcDbCircle
 62
7
  6
CONTINUOUS
 10
214.0276341238
 20
5.1988776509
 40
0.4999143533
100
AcDbArc
 50
269.9901830841
 51
359.9901797189
  0
ARC
  5
2D7
100
AcDbEntity
  8
0
100
AcDbCircle
 62
7
  6
CONTINUOUS
 10
216.229221181
 20
92.4060873596
 40
0.4980340497
100
AcDbArc
 50
22.7391449631
 51
29.3627545011
  0
ARC
  5
2D8
100
AcDbEntity
  8
0
100
AcDbCircle
 62
7
  6
CONTINUOUS
 10
1.2258757585
 20
3.4985562533
 40
0.4980340497
100
AcDbArc
 50
202.7391449633
 51
209.362754501
  0
ARC
  5
2D9
100
AcDbEntity
  8
0
100
AcDbCircle
 62
7
  6
CONTINUOUS
 10
216.2339563074
 20
3.4997569448
 40
0.4935921792
100
AcDbArc
 50
354.5224348861
 51
359.9850161176
  0
ARC
  5
2DA
100
AcDbEntity
  8
0
100
AcDbCircle
 62
7
  6
CONTINUOUS
 10
1.2211406321
 20
92.4048866681
 40
0.4935921793
100
AcDbArc
 50
174.522434887
 51
179.9850161174
  0
ARC
  5
2DB
100
AcDbEntity
  8
0
100
AcDbCircle
 62
7
  6
CONTINUOUS
 10
216.2299745902
 20
3.4933786732
 40
0.4934733723
100
AcDbArc
 50
293.6014444501
 51
299.426690287
  0
ARC
  5
2DC
100
AcDbEntity
  8
0
100
AcDbCircle
 62
7
  6
CONTINUOUS
 10
1.2251223491
 20
92.4112649399
 40
0.4934733721
100
AcDbArc
 50
113.60144445
 51
119.4266902813
  0
ARC
  5
2DD
100
AcDbEntity
  8
0
100
AcDbCircle
 62
7
  6
CONTINUOUS
 10
216.2299852697
 20
92.4113256779
 40
0.4934134363
100
AcDbArc
 50
60.3364681236
 51
66.3968679588
  0
ARC
  5
2DE
100
AcDbEntity
  8
0
100
AcDbCircle
 62
7
  6
CONTINUOUS
 10
1.2251116697
 20
3.493317935
 40
0.4934134363
100
AcDbArc
 50
240.3364681234
 51
246.396867959
  0
ELLIPSE
  5
2DF
100
AcDbEntity
  8
0
100
AcDbEllipse
 62
7
  6
CONTINUOUS
 10
216.2275484697
 20
92.4521504102
 30
0.0
 11
0.0
 21
0.5001713962
 31
0.0
 40
0.999657325
 41
4.7123889804
 42
6.2831853072
  0
ELLIPSE
  5
2E0
100
AcDbEntity
  8
0
100
AcDbEllipse
 62
7
  6
CONTINUOUS
 10
1.2275484697
 20
3.4524932027
 30
0.0
 11
0.0
 21
-0.5001713962
 31
0.0
 40
0.999657325
 41
4.7123889804
 42
6.2831853072
  0
ELLIPSE
  5
2E1
100
AcDbEntity
  8
0
100
AcDbEllipse
 62
7
  6
CONTINUOUS
 10
1.2275484697
 20
92.4521504102
 30
0.0
 11
0.0
 21
-0.5001713962
 31
0.0
 40
0.999657325
 41
9.4247779608
 42
10.9955742876
  0
ELLIPSE
  5
2E2
100
AcDbEntity
  8
0
100
AcDbEllipse
 62
7
  6
CONTINUOUS
 10
216.2275484697
 20
3.4524932027
 30
0.0
 11
0.0
 21
0.5001713962
 31
0.0
 40
0.999657325
 41
9.4247779608
 42
10.9955742876
  0
ELLIPSE
  5
2E3
100
AcDbEntity
  8
0
100
AcDbEllipse
 62
7
  6
CONTINUOUS
 10
214.0275484697
 20
27.0860399516
 30
0.0
 11
0.5
 21
0.0
 31
0.0
 40
0.1943803091
 41
-1.5707963268
 42
0.0
  0
ELLIPSE
  5
2E4
100
AcDbEntity
  8
0
100
AcDbEllipse
 62
7
  6
CONTINUOUS
 10
214.0275484697
 20
5.041676438
 30
0.0
 11
0.0
 21
-0.5001713962
 31
0.0
 40
0.999657325
 41
0.0
 42
1.5707963268
  0
ELLIPSE
  5
2E5
100
AcDbEntity
  8
0
100
AcDbEllipse
 62
7
  6
CONTINUOUS
 10
3.4275484697
 20
27.0860399516
 30
0.0
 11
0.5
 21
0.0
 31
0.0
 40
0.1943803091
 41
3.1415926536
 42
4.7123889804
  0
ELLIPSE
  5
2E6
100
AcDbEntity
  8
0
100
AcDbEllipse
 62
7
  6
CONTINUOUS
 10
214.0275484697
 20
90.8629671749
 30
0.0
 11
0.0
 21
-0.5001713962
 31
0.0
 40
0.999657325
 41
7.853981634
 42
9.4247779605
  0
ELLIPSE
  5
2E7
100
AcDbEntity
  8
0
100
AcDbEllipse
 62
7
  6
CONTINUOUS
 10
3.4275484697
 20
90.8629671749
 30
0.0
 11
0.0
 21
0.5001713962
 31
0.0
 40
0.999657325
 41
0.0
 42
1.5707963268
  0
ENDSEC
  0
SECTION
  2
OBJECTS
  0
DICTIONARY
  5
C
100
AcDbDictionary
280
0
281
1
  3
ACAD_GROUP
350
D
  3
ACAD_MLINESTYLE
350
17
  3
ACAD_LAYOUT
350
1A
  3
ACAD_PLOTSETTINGS
350
19
  3
ACAD_PLOTSTYLENAME
350
E
  0
DICTIONARY
  5
D
102
{ACAD_REACTORS
330
C
102
}
100
AcDbDictionary
280
0
281
1
  0
ACDBDICTIONARYWDFLT
  5
E
102
{ACAD_REACTORS
330
C
102
}
100
AcDbDictionary
281
1
  3
Normal
350
F
100
AcDbDictionaryWithDefault
340
F
  0
DICTIONARY
  5
17
102
{ACAD_REACTORS
330
C
102
}
100
AcDbDictionary
280
0
281
1
  3
Standard
350
18
  0
DICTIONARY
  5
19
102
{ACAD_REACTORS
330
C
102
}
100
AcDbDictionary
281
1
  0
DICTIONARY
  5
1A
102
{ACAD_REACTORS
330
C
102
}
100
AcDbDictionary
281
1
  3
Model
350
2E8
  3
Layout1
350
2E9
  0
ACDBPLACEHOLDER
  5
F
102
{ACAD_REACTORS
330
E
102
}
  0
MLINESTYLE
  5
18
102
{ACAD_REACTORS
330
17
102
}
100
AcDbMlineStyle
  2
STANDARD
 70
0
  3

 62
256
 51
90.0
 52
90.0
 71
2
 49
0.5
 62
256
  6
BYLAYER
 49
-0.5
 62
256
  6
BYLAYER
  0
LAYOUT
  5
2E8
102
{ACAD_REACTORS
330
1A
102
}
100
AcDbPlotSettings
  1

  2
none_device
  4
ISO_A3_(420.00_x_297.00_MM)
  6

 40
0.0
 41
0.0
 42
0.0
 43
0.0
 44
420.0
 45
297.0
 46
0.0
 47
0.0
 48
0.0
 49
0.0
140
0.0
141
0.0
142
1.0
143
1.0
 70
1024
 72
1
 73
0
 74
0
  7

 75
0
147
1.0
148
0.0
149
0.0
100
AcDbLayout
  1
Model
 70
0
 71
0
 10
0.0
 20
0.0
 11
420.0
 21
297.0
 12
0.0
 22
0.0
 32
0.0
 14
0.0
 24
0.0
 34
0.0
 15
0.0
 25
0.0
 35
0.0
146
0.0
 13
0.0
 23
0.0
 33
0.0
 16
1.0
 26
0.0
 36
0.0
 17
0.0
 27
1.0
 37
0.0
 76
0
330
201
345
0
346
0
  0
LAYOUT
  5
2E9
102
{ACAD_REACTORS
330
1A
102
}
100
AcDbPlotSettings
  1

  2
none_device
  4
ISO_A3_(420.00_x_297.00_MM)
  6

 40
0.0
 41
0.0
 42
0.0
 43
0.0
 44
420.0
 45
297.0
 46
0.0
 47
0.0
 48
0.0
 49
0.0
140
0.0
141
0.0
142
1.0
143
1.0
 70
0
 72
1
 73
0
 74
0
  7

 75
0
147
1.0
148
0.0
149
0.0
100
AcDbLayout
  1
Layout1
 70
0
 71
1
 10
0.0
 20
0.0
 11
420.0
 21
297.0
 12
0.0
 22
0.0
 32
0.0
 14
0.0
 24
0.0
 34
0.0
 15
0.0
 25
0.0
 35
0.0
146
0.0
 13
0.0
 23
0.0
 33
0.0
 16
1.0
 26
0.0
 36
0.0
 17
0.0
 27
1.0
 37
0.0
 76
0
330
202
345
0
346
0
  0
ENDSEC
  0
EOF
