  0
SECTION
  2
HEADER
  9
$ACADVER
  1
AC1021
  9
$DWGCODEPAGE
  3
ANSI_1252
  9
$EXTMAX
 10
297.0
 20
210.0
 30
0.0
  9
$EXTMIN
 10
0.0
 20
0.0
 30
0.0
  9
$LIMMIN
 10
0.0
 20
0.0
  9
$LIMMAX
 10
297.0
 20
210.0
  9
$VIEWCTR
 10
148.5
 20
105.0
  9
$VIEWSIZE
 40
210.0
  9
$CLAYER
  8
0
  9
$LTSCALE
 40
16.335
  9
$CELTYPE
  6
BYLAYER
  9
$DIMSCALE
 40
1.0
  9
$DIMASZ
 40
3.0
  9
$DIMEXO
 40
0.5
  9
$DIMDLI
 40
11.286
  9
$DIMEXE
 40
1.5
  9
$DIMCEN
 40
2.673
  9
$DIMLFAC
 40
1.0
  9
$DIMBLK
  1
_FILLED
  9
$DIMALT
 70
0
  9
$DIMALTF
 40
0.0393700787
  9
$DIMTXT
 40
3.0
  9
$DIMTOL
 70
1
  9
$DIMLIM
 70
0
  9
$DIMTFAC
 40
1.0
  9
$DIMTP
 40
0.01
  9
$DIMTM
 40
0.01
  9
$DIMGAP
 40
0.625
  9
$DIMDSEP
 70
44
  9
$AUNITS
 70
0
  9
$PDMODE
 70
3
  9
$PDSIZE
 40
3.0
  9
$HANDSEED
  5
84B
  9
$TILEMODE
 70
1
  9
$MEASUREMENT
 70
1
  9
$INSUNITS
 70
4
  0
ENDSEC
  0
SECTION
  2
CLASSES
  0
CLASS
  1
ACDBDICTIONARYWDFLT
  2
AcDbDictionaryWithDefault
  3
AutoCAD 2000
 90
0
 91
1
280
0
281
0
  0
CLASS
  1
ACDBPLACEHOLDER
  2
AcDbPlaceHolder
  3
AutoCAD 2000
 90
0
 91
1
280
0
281
0
  0
CLASS
  1
LAYOUT
  2
AcDbLayout
  3
AutoCAD 2000
 90
0
 91
0
280
0
281
0
  0
ENDSEC
  0
SECTION
  2
TABLES
  0
TABLE
  2
VPORT
  5
8
100
AcDbSymbolTable
 70
2
  0
VPORT
  5
1F4
100
AcDbSymbolTableRecord
100
AcDbViewportTableRecord
  2
*ACTIVE
 70
0
 10
0.0
 20
0.0
 11
1.0
 21
1.0
 12
148.5
 22
105.0
 13
0.0
 23
0.0
 14
1.0
 24
1.0
 15
0.0
 25
0.0
 16
0.0
 26
0.0
 36
1.0
 17
0.0
 27
0.0
 37
0.0
 40
210.0
 41
1.4142857143
 42
50.0
 43
0.0
 44
0.0
 50
0.0
 51
0.0
 71
0
 72
100
 73
1
 74
1
 75
0
 76
0
 77
0
 78
0
  0
ENDTAB
  0
TABLE
  2
LTYPE
  5
5
100
AcDbSymbolTable
 70
6
  0
LTYPE
  5
14
100
AcDbSymbolTableRecord
100
AcDbLinetypeTableRecord
  2
BYBLOCK
 70
0
  3

 72
65
 73
0
 40
0.0
  0
LTYPE
  5
15
100
AcDbSymbolTableRecord
100
AcDbLinetypeTableRecord
  2
BYLAYER
 70
0
  3

 72
65
 73
0
 40
0.0
  0
LTYPE
  5
16
100
AcDbSymbolTableRecord
100
AcDbLinetypeTableRecord
  2
CONTINUOUS
 70
64
  3
Solid line
 72
65
 73
0
 40
0.0
  0
LTYPE
  5
1F5
100
AcDbSymbolTableRecord
100
AcDbLinetypeTableRecord
  2
CENTER
 70
64
  3
____ _ ____ _ ____ _ ____ _ ____ _ ____ _ ____
 72
65
 73
4
 40
0.6
 49
0.375
 74
0
 49
-0.075
 74
0
 49
0.075
 74
0
 49
-0.075
 74
0
  0
LTYPE
  5
1F6
100
AcDbSymbolTableRecord
100
AcDbLinetypeTableRecord
  2
HIDDEN
 70
64
  3
- - - - - - - - - - - - - - - - - - - -
 72
65
 73
2
 40
0.2
 49
0.1
 74
0
 49
-0.1
 74
0
  0
LTYPE
  5
1F7
100
AcDbSymbolTableRecord
100
AcDbLinetypeTableRecord
  2
PHANTOM
 70
64
  3
_____ _ _ _____ _ _ _____ _ _ _____
 72
65
 73
6
 40
0.8
 49
0.45
 74
0
 49
-0.05
 74
0
 49
0.1
 74
0
 49
-0.05
 74
0
 49
0.1
 74
0
 49
-0.05
 74
0
  0
LTYPE
  5
1F8
100
AcDbSymbolTableRecord
100
AcDbLinetypeTableRecord
  2
DOT
 70
64
  3
. . . . . . . . . . . . . . . . . . . .
 72
65
 73
2
 40
0.2
 49
0.1
 74
0
 49
-0.1
 74
0
  0
LTYPE
  5
1F9
100
AcDbSymbolTableRecord
100
AcDbLinetypeTableRecord
  2
DASHED
 70
64
  3
- - - - - - - - - - - - - - - - - - - -
 72
65
 73
2
 40
0.2
 49
0.1
 74
0
 49
-0.1
 74
0
  0
ENDTAB
  0
TABLE
  2
LAYER
  5
2
100
AcDbSymbolTable
 70
36
  0
LAYER
  5
10
100
AcDbSymbolTableRecord
100
AcDbLayerTableRecord
  2
0
 70
0
 62
7
  6
CONTINUOUS
370
-3
390
F
  0
LAYER
  5
1FA
100
AcDbSymbolTableRecord
100
AcDbLayerTableRecord
  2
DEFAULT_1
 70
0
 62
7
  6
CENTER
370
-3
390
F
  0
LAYER
  5
1FB
100
AcDbSymbolTableRecord
100
AcDbLayerTableRecord
  2
DEFAULT_2
 70
0
 62
7
  6
HIDDEN
370
-3
390
F
  0
LAYER
  5
1FC
100
AcDbSymbolTableRecord
100
AcDbLayerTableRecord
  2
DEFAULT_3
 70
0
 62
7
  6
PHANTOM
370
-3
390
F
  0
LAYER
  5
1FD
100
AcDbSymbolTableRecord
100
AcDbLayerTableRecord
  2
ASSI
 70
0
 62
7
  6
CONTINUOUS
370
-3
390
F
  0
LAYER
  5
1FE
100
AcDbSymbolTableRecord
100
AcDbLayerTableRecord
  2
COORDINATE
 70
0
 62
7
  6
CONTINUOUS
370
-3
390
F
  0
LAYER
  5
1FF
100
AcDbSymbolTableRecord
100
AcDbLayerTableRecord
  2
COSMETICI
 70
0
 62
7
  6
CONTINUOUS
370
-3
390
F
  0
LAYER
  5
200
100
AcDbSymbolTableRecord
100
AcDbLayerTableRecord
  2
CURVE
 70
0
 62
7
  6
CONTINUOUS
370
-3
390
F
  0
LAYER
  5
201
100
AcDbSymbolTableRecord
100
AcDbLayerTableRecord
  2
INTF_7
 70
0
 62
7
  6
CONTINUOUS
370
-3
390
F
  0
LAYER
  5
202
100
AcDbSymbolTableRecord
100
AcDbLayerTableRecord
  2
NOTE
 70
0
 62
7
  6
CONTINUOUS
370
-3
390
F
  0
LAYER
  5
203
100
AcDbSymbolTableRecord
100
AcDbLayerTableRecord
  2
PIANI
 70
0
 62
7
  6
CONTINUOUS
370
-3
390
F
  0
LAYER
  5
204
100
AcDbSymbolTableRecord
100
AcDbLayerTableRecord
  2
PUNTI
 70
0
 62
7
  6
CONTINUOUS
370
-3
390
F
  0
LAYER
  5
205
100
AcDbSymbolTableRecord
100
AcDbLayerTableRecord
  2
RGB__255__255__255__
 70
0
 62
7
  6
CONTINUOUS
370
-3
390
F
  0
LAYER
  5
206
100
AcDbSymbolTableRecord
100
AcDbLayerTableRecord
  2
SCRITTE
 70
0
 62
7
  6
CONTINUOUS
370
-3
390
F
  0
LAYER
  5
207
100
AcDbSymbolTableRecord
100
AcDbLayerTableRecord
  2
SIMBOLI
 70
0
 62
7
  6
CONTINUOUS
370
-3
390
F
  0
LAYER
  5
208
100
AcDbSymbolTableRecord
100
AcDbLayerTableRecord
  2
SNAPLINE
 70
0
 62
7
  6
CONTINUOUS
370
-3
390
F
  0
LAYER
  5
209
100
AcDbSymbolTableRecord
100
AcDbLayerTableRecord
  2
SUPERFICI
 70
0
 62
7
  6
CONTINUOUS
370
-3
390
F
  0
ENDTAB
  0
TABLE
  2
STYLE
  5
3
100
AcDbSymbolTable
 70
1
  0
STYLE
  5
11
100
AcDbSymbolTableRecord
100
AcDbTextStyleTableRecord
  2
STANDARD
 70
0
 40
0.0
 41
0.8
 50
0.0
 71
0
 42
0.2
  3
txt
  4

  0
STYLE
  5
20A
100
AcDbSymbolTableRecord
100
AcDbTextStyleTableRecord
  2
TEXTSTYLE_1
 70
0
 40
0.0
 41
0.8
 50
0.0
 71
0
 42
0.2
  3
gdt
  4

  0
ENDTAB
  0
TABLE
  2
VIEW
  5
6
100
AcDbSymbolTable
 70
0
  0
ENDTAB
  0
TABLE
  2
UCS
  5
7
100
AcDbSymbolTable
 70
0
  0
ENDTAB
  0
TABLE
  2
APPID
  5
9
100
AcDbSymbolTable
 70
1
  0
APPID
  5
20B
100
AcDbSymbolTableRecord
100
AcDbRegAppTableRecord
  2
ACAD
 70
0
  0
ENDTAB
  0
TABLE
  2
BLOCK_RECORD
  5
1
100
AcDbSymbolTable
 70
0
  0
BLOCK_RECORD
  5
20C
100
AcDbSymbolTableRecord
100
AcDbBlockTableRecord
  2
*Model_Space
  0
BLOCK_RECORD
  5
20D
100
AcDbSymbolTableRecord
100
AcDbBlockTableRecord
  2
*Paper_Space
  0
ENDTAB
  0
TABLE
  2
DIMSTYLE
  5
A
100
AcDbSymbolTable
 70
1
100
AcDbDimStyleTable
 71
0
  0
DIMSTYLE
105
20E
100
AcDbSymbolTableRecord
100
AcDbDimStyleTableRecord
  2
STANDARD
 70
0
  3

  4

 40
1.0
 41
3.0
 42
0.5
 43
0.38
 44
1.5
 45
0.0
 46
0.0
 47
0.01
 48
0.01
140
3.0
141
0.09
142
0.0
143
25.4
144
1.0
145
0.0
146
1.0
147
0.625
 71
1.0
 72
0.0
 73
0
 74
0
 75
0
 76
0
 77
1
 78
8
170
0
171
2
172
0
173
0
174
0
175
0
176
0
177
0
178
0
270
2
271
2
272
2
273
2
274
2
275
0
280
0
281
0
282
0
283
1
284
8
285
0
286
0
287
3
288
0
340
11
278
44
  0
ENDTAB
  0
ENDSEC
  0
SECTION
  2
BLOCKS
  0
BLOCK
  5
20
100
AcDbEntity
  8
0
100
AcDbBlockBegin
  2
*Model_Space
 70
0
 10
0.0
 20
0.0
 30
0.0
  3
*Model_Space
  1

  0
ENDBLK
  5
21
100
AcDbEntity
  8
0
100
AcDbBlockEnd
  0
BLOCK
  5
1C
100
AcDbEntity
  8
0
100
AcDbBlockBegin
  2
*Paper_Space
 70
0
 10
0.0
 20
0.0
 30
0.0
  3
*Paper_Space
  1

  0
ENDBLK
  5
1D
100
AcDbEntity
  8
0
100
AcDbBlockEnd
  0
ENDSEC
  0
SECTION
  2
ENTITIES
  0
LWPOLYLINE
  5
20F
100
AcDbEntity
  8
0
100
AcDbPolyline
 62
7
  6
CONTINUOUS
 90
3
 70
0
 10
-12.481472435
 20
21.7309560041
 10
-12.4637404766
 20
21.7488057868
 10
-12.4625
 20
21.75
  0
LWPOLYLINE
  5
210
100
AcDbEntity
  8
0
100
AcDbPolyline
 62
7
  6
CONTINUOUS
 90
3
 70
0
 10
-12.6278785524
 20
21.5846215207
 10
-12.5816534392
 20
21.6306396404
 10
-12.5405340996
 20
21.6722684485
  0
LWPOLYLINE
  5
211
100
AcDbEntity
  8
0
100
AcDbPolyline
 62
7
  6
CONTINUOUS
 90
3
 70
0
 10
-12.5405340996
 20
21.6722684485
 10
-12.5052013669
 20
21.7072983657
 10
-12.481472435
 20
21.7309560041
  0
LWPOLYLINE
  5
212
100
AcDbEntity
  8
0
100
AcDbPolyline
 62
7
  6
CONTINUOUS
 90
3
 70
0
 10
-12.7125
 20
21.5
 10
-12.6823444941
 20
21.5297754587
 10
-12.6278785524
 20
21.5846215207
  0
LWPOLYLINE
  5
213
100
AcDbEntity
  8
0
100
AcDbPolyline
 62
7
  6
CONTINUOUS
 90
5
 70
0
 10
-10.7125
 20
-21.75
 10
-10.7139105505
 20
-21.7487067489
 10
-10.7177586965
 20
-21.7448436815
 10
-10.7240444381
 20
-21.7384556273
 10
-10.7440979163
 20
-21.7184540141
  0
LWPOLYLINE
  5
214
100
AcDbEntity
  8
0
100
AcDbPolyline
 62
7
  6
CONTINUOUS
 90
3
 70
0
 10
-10.790982012
 20
-21.6715880493
 10
-10.8106640787
 20
-21.6518360809
 10
-10.8557531709
 20
-21.6068637061
  0
LWPOLYLINE
  5
215
100
AcDbEntity
  8
0
100
AcDbPolyline
 62
7
  6
CONTINUOUS
 90
3
 70
0
 10
-10.7440979163
 20
-21.7184540141
 10
-10.757527236
 20
-21.7049730136
 10
-10.790982012
 20
-21.6715880493
  0
LWPOLYLINE
  5
216
100
AcDbEntity
  8
0
100
AcDbPolyline
 62
7
  6
CONTINUOUS
 90
5
 70
0
 10
-10.8557531709
 20
-21.6068637061
 10
-10.8805660067
 20
-21.5819341171
 10
-10.9065404417
 20
-21.5556016626
 10
-10.9338517728
 20
-21.5281849531
 10
-10.9625
 20
-21.5
  0
LINE
  5
217
100
AcDbEntity
  8
0
100
AcDbLine
 62
7
  6
CONTINUOUS
 10
17.7875
 20
-22.5
 11
-17.7125
 21
-22.5
  0
LINE
  5
218
100
AcDbEntity
  8
0
100
AcDbLine
 62
253
  6
CONTINUOUS
 10
-4.7375
 20
-22.4665063509
 11
4.8125
 21
-22.4665063509
  0
LINE
  5
219
100
AcDbEntity
  8
0
100
AcDbLine
 62
253
  6
CONTINUOUS
 10
-16.8625
 20
-22.25
 11
-4.6125
 21
-22.25
  0
LINE
  5
21A
100
AcDbEntity
  8
0
100
AcDbLine
 62
253
  6
CONTINUOUS
 10
4.6875
 20
-22.25
 11
16.9375
 21
-22.25
  0
LINE
  5
21B
100
AcDbEntity
  8
0
100
AcDbLine
 62
253
  6
CONTINUOUS
 10
-17.9625
 20
-22.0000000001
 11
-16.8625
 21
-22.0
  0
LINE
  5
21C
100
AcDbEntity
  8
0
100
AcDbLine
 62
253
  6
CONTINUOUS
 10
16.9375
 20
-22.0000000001
 11
18.0375
 21
-22.0000000002
  0
LINE
  5
21D
100
AcDbEntity
  8
0
100
AcDbLine
 62
7
  6
CONTINUOUS
 10
16.9375
 20
-21.75
 11
14.4375
 21
-21.75
  0
LINE
  5
21E
100
AcDbEntity
  8
0
100
AcDbLine
 62
7
  6
CONTINUOUS
 10
-8.2125
 20
-21.75
 11
-10.7125
 21
-21.75
  0
LINE
  5
21F
100
AcDbEntity
  8
0
100
AcDbLine
 62
253
  6
CONTINUOUS
 10
-10.9625
 20
-21.5
 11
-7.9625
 21
-21.5
  0
LINE
  5
220
100
AcDbEntity
  8
0
100
AcDbLine
 62
253
  6
CONTINUOUS
 10
14.1875
 20
-21.5
 11
16.9375
 21
-21.5
  0
LINE
  5
221
100
AcDbEntity
  8
0
100
AcDbLine
 62
7
  6
CONTINUOUS
 10
11.8166665673
 20
-16.7978723571
 11
11.7125
 21
-16.8244680986
  0
LINE
  5
222
100
AcDbEntity
  8
0
100
AcDbLine
 62
7
  6
CONTINUOUS
 10
12.8583331347
 20
-16.5053191632
 11
12.7541668653
 21
-16.5319149047
  0
LINE
  5
223
100
AcDbEntity
  8
0
100
AcDbLine
 62
7
  6
CONTINUOUS
 10
12.7541668654
 20
-16.4255319387
 11
12.8583331347
 21
-16.3989361972
  0
LINE
  5
224
100
AcDbEntity
  8
0
100
AcDbLine
 62
7
  6
CONTINUOUS
 10
11.9989584327
 20
-17.2234042562
 11
11.86875
 21
-17.25
  0
LINE
  5
225
100
AcDbEntity
  8
0
100
AcDbLine
 62
7
  6
CONTINUOUS
 10
-1.4625
 20
-20.5
 11
1.5375
 21
-20.5
  0
LINE
  5
226
100
AcDbEntity
  8
0
100
AcDbLine
 62
7
  6
CONTINUOUS
 10
-1.4625
 20
-19.75
 11
1.5375
 21
-19.75
  0
LINE
  5
227
100
AcDbEntity
  8
0
100
AcDbLine
 62
7
  6
CONTINUOUS
 10
4.9375
 20
-19.6998511944
 11
2.8875
 21
-19.6998511944
  0
LINE
  5
228
100
AcDbEntity
  8
0
100
AcDbLine
 62
7
  6
CONTINUOUS
 10
-2.8125
 20
-19.6998511944
 11
-4.8625
 21
-19.6998511944
  0
LWPOLYLINE
  5
229
100
AcDbEntity
  8
0
100
AcDbPolyline
 62
7
  6
CONTINUOUS
 90
5
 70
0
 10
-16.8625
 20
-10.85
 10
-16.8639105505
 20
-10.8487067489
 10
-16.8677586965
 20
-10.8448436815
 10
-16.8740444381
 20
-10.8384556273
 10
-16.8940979163
 20
-10.8184540141
  0
LWPOLYLINE
  5
22A
100
AcDbEntity
  8
0
100
AcDbPolyline
 62
7
  6
CONTINUOUS
 90
3
 70
0
 10
-16.940982012
 20
-10.7715880493
 10
-16.9606640787
 20
-10.7518360809
 10
-17.0057531709
 20
-10.7068637061
  0
LWPOLYLINE
  5
22B
100
AcDbEntity
  8
0
100
AcDbPolyline
 62
7
  6
CONTINUOUS
 90
3
 70
0
 10
-16.8940979163
 20
-10.8184540141
 10
-16.907527236
 20
-10.8049730136
 10
-16.940982012
 20
-10.7715880493
  0
LWPOLYLINE
  5
22C
100
AcDbEntity
  8
0
100
AcDbPolyline
 62
7
  6
CONTINUOUS
 90
5
 70
0
 10
-17.0057531709
 20
-10.7068637061
 10
-17.0305660067
 20
-10.6819341171
 10
-17.0565404417
 20
-10.6556016626
 10
-17.0838517728
 20
-10.6281849531
 10
-17.1125
 20
-10.6
  0
LINE
  5
22D
100
AcDbEntity
  8
0
100
AcDbLine
 62
7
  6
CONTINUOUS
 10
-18.0375
 20
7.5
 11
-18.0375
 21
4.5
  0
LINE
  5
22E
100
AcDbEntity
  8
0
100
AcDbLine
 62
7
  6
CONTINUOUS
 10
-18.0125
 20
8.25
 11
-18.0125
 21
-8.25
  0
LINE
  5
22F
100
AcDbEntity
  8
0
100
AcDbLine
 62
7
  6
CONTINUOUS
 10
-17.9625
 20
-22.25
 11
-17.9625
 21
22.25
  0
LINE
  5
230
100
AcDbEntity
  8
0
100
AcDbLine
 62
253
  6
CONTINUOUS
 10
-17.7125
 20
22.5
 11
-17.7125
 21
-22.5
  0
LINE
  5
231
100
AcDbEntity
  8
0
100
AcDbLine
 62
253
  6
CONTINUOUS
 10
-17.1125
 20
-22.5
 11
-17.1125
 21
-10.6
  0
LINE
  5
232
100
AcDbEntity
  8
0
100
AcDbLine
 62
253
  6
CONTINUOUS
 10
-17.1125
 20
10.05
 11
-17.1125
 21
22.5
  0
LWPOLYLINE
  5
233
100
AcDbEntity
  8
0
100
AcDbPolyline
 62
253
  6
CONTINUOUS
 90
13
 70
0
 10
-17.9625
 20
-9.7201984777
 10
-17.9603613661
 20
-9.687829186
 10
-17.9539818859
 20
-9.6560130791
 10
-17.9434704616
 20
-9.6252945716
 10
-17.9290065821
 20
-9.596199136
 10
-17.9108375815
 20
-9.569224987
 10
-17.8892746899
 20
-9.5448343759
 10
-17.8646868616
 20
-9.5234446027
 10
-17.8374949128
 20
-9.5054217162
 10
-17.8081650698
 20
-9.4910744577
 10
-17.7771996864
 20
-9.4806480282
 10
-17.7451284096
 20
-9.4743202599
 10
-17.7125
 20
-9.4721989998
  0
LINE
  5
234
100
AcDbEntity
  8
0
100
AcDbLine
 62
7
  6
CONTINUOUS
 10
-8.2237834059
 20
15.5604726518
 11
-7.8585944524
 21
15.8039319542
  0
LINE
  5
235
100
AcDbEntity
  8
0
100
AcDbLine
 62
7
  6
CONTINUOUS
 10
-7.4927583855
 20
16.0478226654
 11
-6.7959446424
 21
16.5123651608
  0
LINE
  5
236
100
AcDbEntity
  8
0
100
AcDbLine
 62
7
  6
CONTINUOUS
 10
-6.6608977197
 20
16.3097947766
 11
-7.3577114627
 21
15.8452522813
  0
LINE
  5
237
100
AcDbEntity
  8
0
100
AcDbLine
 62
7
  6
CONTINUOUS
 10
-7.7235475296
 20
15.60136157
 11
-8.0892432075
 21
15.3575644514
  0
LINE
  5
238
100
AcDbEntity
  8
0
100
AcDbLine
 62
7
  6
CONTINUOUS
 10
-5.2004893698
 20
17.3012596389
 11
-5.1618432521
 21
17.3264871612
  0
LINE
  5
239
100
AcDbEntity
  8
0
100
AcDbLine
 62
7
  6
CONTINUOUS
 10
-5.0587869383
 20
16.8471677021
 11
-4.7625
 21
16.9606906863
  0
LINE
  5
23A
100
AcDbEntity
  8
0
100
AcDbLine
 62
7
  6
CONTINUOUS
 10
-4.7625
 20
16.8723952244
 11
-5.0330228598
 21
16.7714857126
  0
LINE
  5
23B
100
AcDbEntity
  8
0
100
AcDbLine
 62
7
  6
CONTINUOUS
 10
-5.264899602
 20
16.9354634527
 11
-5.2262534843
 21
16.9480772139
  0
LINE
  5
23C
100
AcDbEntity
  8
0
100
AcDbLine
 62
7
  6
CONTINUOUS
 10
-5.2262534843
 20
16.8723952244
 11
-5.264899602
 21
16.8597814632
  0
LINE
  5
23D
100
AcDbEntity
  8
0
100
AcDbLine
 62
7
  6
CONTINUOUS
 10
11.7645834327
 20
-16.5053191632
 11
11.6604165673
 21
-16.5319149047
  0
LINE
  5
23E
100
AcDbEntity
  8
0
100
AcDbLine
 62
7
  6
CONTINUOUS
 10
7.9885416418
 20
-17.0904255323
 11
8.0927083582
 21
-17.0638297908
  0
LINE
  5
23F
100
AcDbEntity
  8
0
100
AcDbLine
 62
7
  6
CONTINUOUS
 10
8.978125
 20
-16.5053191632
 11
8.8739582837
 21
-16.5319149047
  0
LINE
  5
240
100
AcDbEntity
  8
0
100
AcDbLine
 62
7
  6
CONTINUOUS
 10
13.8739581347
 20
-14.7553191632
 11
13.7697918653
 21
-14.7819149047
  0
LINE
  5
241
100
AcDbEntity
  8
0
100
AcDbLine
 62
7
  6
CONTINUOUS
 10
13.7697918654
 20
-14.6755319387
 11
13.8739581347
 21
-14.6489361972
  0
LINE
  5
242
100
AcDbEntity
  8
0
100
AcDbLine
 62
7
  6
CONTINUOUS
 10
7.7541666791
 20
-16.1595744491
 11
7.65
 21
-16.1861701906
  0
LINE
  5
243
100
AcDbEntity
  8
0
100
AcDbLine
 62
7
  6
CONTINUOUS
 10
10.4104165673
 20
-15.4734042562
 11
10.30625
 21
-15.5
  0
LINE
  5
244
100
AcDbEntity
  8
0
100
AcDbLine
 62
7
  6
CONTINUOUS
 10
10.30625
 20
-15.3670212738
 11
10.4104165673
 21
-15.3404255323
  0
LINE
  5
245
100
AcDbEntity
  8
0
100
AcDbLine
 62
7
  6
CONTINUOUS
 10
11.2958334327
 20
-14.7553191632
 11
11.1916665673
 21
-14.7819149047
  0
LINE
  5
246
100
AcDbEntity
  8
0
100
AcDbLine
 62
7
  6
CONTINUOUS
 10
8.11875
 20
-17.2234042562
 11
7.9885416418
 21
-17.25
  0
LINE
  5
247
100
AcDbEntity
  8
0
100
AcDbLine
 62
7
  6
CONTINUOUS
 10
9.9416665673
 20
-16.4255319387
 11
10.071875
 21
-16.3989361972
  0
LINE
  5
248
100
AcDbEntity
  8
0
100
AcDbLine
 62
7
  6
CONTINUOUS
 10
7.6239583395
 20
-16.0265957415
 11
7.7541666791
 21
-16.0
  0
LINE
  5
249
100
AcDbEntity
  8
0
100
AcDbLine
 62
7
  6
CONTINUOUS
 10
11.6604165673
 20
-16.7180850953
 11
11.8166665673
 21
-16.6914893538
  0
LINE
  5
24A
100
AcDbEntity
  8
0
100
AcDbLine
 62
7
  6
CONTINUOUS
 10
10.071875
 20
-16.5319149047
 11
9.915625
 21
-16.5585106462
  0
LINE
  5
24B
100
AcDbEntity
  8
0
100
AcDbLine
 62
7
  6
CONTINUOUS
 10
8.8479167163
 20
-16.4255319387
 11
9.0041667163
 21
-16.3989361972
  0
LINE
  5
24C
100
AcDbEntity
  8
0
100
AcDbLine
 62
7
  6
CONTINUOUS
 10
9.1864582837
 20
-17.2234042562
 11
9.0041667163
 21
-17.25
  0
LINE
  5
24D
100
AcDbEntity
  8
0
100
AcDbLine
 62
7
  6
CONTINUOUS
 10
8.978125
 20
-17.1436170246
 11
9.1604167163
 21
-17.1170212738
  0
LINE
  5
24E
100
AcDbEntity
  8
0
100
AcDbLine
 62
7
  6
CONTINUOUS
 10
11.5822915673
 20
-16.4255319387
 11
11.7645834327
 21
-16.3989361972
  0
LINE
  5
24F
100
AcDbEntity
  8
0
100
AcDbLine
 62
7
  6
CONTINUOUS
 10
-4.6125
 20
-18.0
 11
4.6875
 21
-18.0
  0
LINE
  5
250
100
AcDbEntity
  8
0
100
AcDbLine
 62
7
  6
CONTINUOUS
 10
13.74375
 20
-17.6755319014
 11
13.5875
 21
-17.6755319014
  0
LINE
  5
251
100
AcDbEntity
  8
0
100
AcDbLine
 62
7
  6
CONTINUOUS
 10
13.2229168654
 20
-17.25
 11
13.0927081347
 21
-17.25
  0
LINE
  5
252
100
AcDbEntity
  8
0
100
AcDbLine
 62
7
  6
CONTINUOUS
 10
12.6239581347
 20
-17.25
 11
12.49375
 21
-17.25
  0
LINE
  5
253
100
AcDbEntity
  8
0
100
AcDbLine
 62
7
  6
CONTINUOUS
 10
12.2854165673
 20
-17.25
 11
12.1552084327
 21
-17.25
  0
LINE
  5
254
100
AcDbEntity
  8
0
100
AcDbLine
 62
7
  6
CONTINUOUS
 10
11.86875
 20
-17.25
 11
11.7125
 21
-17.25
  0
LINE
  5
255
100
AcDbEntity
  8
0
100
AcDbLine
 62
7
  6
CONTINUOUS
 10
11.24375
 20
-17.25
 11
11.1135415673
 21
-17.25
  0
LINE
  5
256
100
AcDbEntity
  8
0
100
AcDbLine
 62
7
  6
CONTINUOUS
 10
10.8270834327
 20
-17.25
 11
10.696875
 21
-17.25
  0
LINE
  5
257
100
AcDbEntity
  8
0
100
AcDbLine
 62
7
  6
CONTINUOUS
 10
10.4104165673
 20
-17.25
 11
10.2802084327
 21
-17.25
  0
LINE
  5
258
100
AcDbEntity
  8
0
100
AcDbLine
 62
7
  6
CONTINUOUS
 10
9.7333332837
 20
-17.25
 11
9.603125
 21
-17.25
  0
LINE
  5
259
100
AcDbEntity
  8
0
100
AcDbLine
 62
7
  6
CONTINUOUS
 10
7.9885416418
 20
-17.25
 11
7.7541666791
 21
-17.25
  0
LINE
  5
25A
100
AcDbEntity
  8
0
100
AcDbLine
 62
7
  6
CONTINUOUS
 10
11.7125
 20
-17.1436170246
 11
11.86875
 21
-17.1436170246
  0
LINE
  5
25B
100
AcDbEntity
  8
0
100
AcDbLine
 62
7
  6
CONTINUOUS
 10
7.7541666791
 20
-17.0904255323
 11
7.9885416418
 21
-17.0904255323
  0
LINE
  5
25C
100
AcDbEntity
  8
0
100
AcDbLine
 62
7
  6
CONTINUOUS
 10
-2.3445017583
 20
-19.9700501052
 11
-2.8125
 21
-19.6998511944
  0
LINE
  5
25D
100
AcDbEntity
  8
0
100
AcDbLine
 62
7
  6
CONTINUOUS
 10
-16.8625
 20
-22.25
 11
-16.8625
 21
-10.85
  0
LINE
  5
25E
100
AcDbEntity
  8
0
100
AcDbLine
 62
7
  6
CONTINUOUS
 10
-16.8625
 20
9.89929792
 11
-16.8625
 21
22.25
  0
LINE
  5
25F
100
AcDbEntity
  8
0
100
AcDbLine
 62
7
  6
CONTINUOUS
 10
-16.7125
 20
18.5211293438
 11
-16.7125
 21
21.375
  0
LINE
  5
260
100
AcDbEntity
  8
0
100
AcDbLine
 62
7
  6
CONTINUOUS
 10
-15.8625
 20
21.375
 11
-15.8625
 21
21.3930573436
  0
LINE
  5
261
100
AcDbEntity
  8
0
100
AcDbLine
 62
253
  6
CONTINUOUS
 10
-15.7125
 20
-10.0
 11
-15.7125
 21
-9.15
  0
LINE
  5
262
100
AcDbEntity
  8
0
100
AcDbLine
 62
7
  6
CONTINUOUS
 10
-15.4625
 20
-9.75
 11
-15.4625
 21
-9.4
  0
LINE
  5
263
100
AcDbEntity
  8
0
100
AcDbLine
 62
7
  6
CONTINUOUS
 10
-15.4625
 20
7.55
 11
-15.4625
 21
9.05
  0
LINE
  5
264
100
AcDbEntity
  8
0
100
AcDbLine
 62
7
  6
CONTINUOUS
 10
-15.3625
 20
21.15
 11
-15.3625
 21
18.75
  0
LINE
  5
265
100
AcDbEntity
  8
0
100
AcDbLine
 62
7
  6
CONTINUOUS
 10
-5.264899602
 20
16.8597814632
 11
-5.2906636804
 21
16.8345542297
  0
LINE
  5
266
100
AcDbEntity
  8
0
100
AcDbLine
 62
7
  6
CONTINUOUS
 10
-5.3164277589
 20
16.897622458
 11
-5.264899602
 21
16.9354634527
  0
LINE
  5
267
100
AcDbEntity
  8
0
100
AcDbLine
 62
7
  6
CONTINUOUS
 10
-5.3164277589
 20
15.4722784191
 11
-5.264899602
 21
15.5101194138
  0
LINE
  5
268
100
AcDbEntity
  8
0
100
AcDbLine
 62
7
  6
CONTINUOUS
 10
-5.3164277589
 20
14.9172771148
 11
-5.264899602
 21
14.9551181096
  0
LINE
  5
269
100
AcDbEntity
  8
0
100
AcDbLine
 62
7
  6
CONTINUOUS
 10
-5.7190406977
 20
15.4396802326
 11
-6.0842296512
 21
15.1962209302
  0
LINE
  5
26A
100
AcDbEntity
  8
0
100
AcDbLine
 62
7
  6
CONTINUOUS
 10
-5.2262534843
 20
15.4596646579
 11
-5.264899602
 21
15.4344374244
  0
LINE
  5
26B
100
AcDbEntity
  8
0
100
AcDbLine
 62
7
  6
CONTINUOUS
 10
-4.9042024495
 20
15.182164078
 11
-4.8655563228
 21
15.2073913116
  0
LINE
  5
26C
100
AcDbEntity
  8
0
100
AcDbLine
 62
7
  6
CONTINUOUS
 10
-5.2262534843
 20
14.9046633537
 11
-5.264899602
 21
14.8794361201
  0
LINE
  5
26D
100
AcDbEntity
  8
0
100
AcDbLine
 62
7
  6
CONTINUOUS
 10
-7.2961805187
 20
14.1962794876
 11
-6.8910397503
 21
14.3650881411
  0
LINE
  5
26E
100
AcDbEntity
  8
0
100
AcDbLine
 62
7
  6
CONTINUOUS
 10
-5.0587869383
 20
15.5227328863
 11
-4.9943767422
 21
15.5479604086
  0
LINE
  5
26F
100
AcDbEntity
  8
0
100
AcDbLine
 62
7
  6
CONTINUOUS
 10
-4.8655563228
 20
15.1317093221
 11
-4.929966528
 21
15.1064820885
  0
LINE
  5
270
100
AcDbEntity
  8
0
100
AcDbLine
 62
7
  6
CONTINUOUS
 10
-5.0587869383
 20
14.9677317264
 11
-4.9943767422
 21
14.9929591043
  0
LINE
  5
271
100
AcDbEntity
  8
0
100
AcDbLine
 62
7
  6
CONTINUOUS
 10
-4.8655563228
 20
14.5767081622
 11
-4.929966528
 21
14.5514807842
  0
LINE
  5
272
100
AcDbEntity
  8
0
100
AcDbLine
 62
7
  6
CONTINUOUS
 10
-5.3679559158
 20
14.2361392095
 11
-4.7625
 21
14.4379578
  0
LINE
  5
273
100
AcDbEntity
  8
0
100
AcDbLine
 62
7
  6
CONTINUOUS
 10
-5.264899602
 20
15.5101194138
 11
-5.2262534843
 21
15.5227328863
  0
LINE
  5
274
100
AcDbEntity
  8
0
100
AcDbLine
 62
7
  6
CONTINUOUS
 10
-4.9814946849
 20
15.4848918915
 11
-5.0201408206
 21
15.4722784191
  0
LINE
  5
275
100
AcDbEntity
  8
0
100
AcDbLine
 62
7
  6
CONTINUOUS
 10
-4.9428485672
 20
15.1695503168
 11
-4.9042024495
 21
15.182164078
  0
LINE
  5
276
100
AcDbEntity
  8
0
100
AcDbLine
 62
7
  6
CONTINUOUS
 10
-5.264899602
 20
14.9551181096
 11
-5.2262534843
 21
14.9677317264
  0
LINE
  5
277
100
AcDbEntity
  8
0
100
AcDbLine
 62
7
  6
CONTINUOUS
 10
-4.9814946849
 20
14.9298907316
 11
-5.0201408206
 21
14.9172771148
  0
LINE
  5
278
100
AcDbEntity
  8
0
100
AcDbLine
 62
7
  6
CONTINUOUS
 10
-4.9428485672
 20
14.6145491569
 11
-4.9042024495
 21
14.6271627737
  0
LINE
  5
279
100
AcDbEntity
  8
0
100
AcDbLine
 62
7
  6
CONTINUOUS
 10
-4.9686126457
 20
14.2992074379
 11
-5.3164277589
 21
14.1856845258
  0
LINE
  5
27A
100
AcDbEntity
  8
0
100
AcDbLine
 62
7
  6
CONTINUOUS
 10
-4.7625
 20
14.3622758106
 11
-4.9170844888
 21
14.311821199
  0
LINE
  5
27B
100
AcDbEntity
  8
0
100
AcDbLine
 62
7
  6
CONTINUOUS
 10
9.1604167163
 20
-15.0478723571
 11
9.05625
 21
-15.0744680986
  0
LINE
  5
27C
100
AcDbEntity
  8
0
100
AcDbLine
 62
7
  6
CONTINUOUS
 10
10.0458334327
 20
-14.6755319387
 11
10.15
 21
-14.6489361972
  0
LINE
  5
27D
100
AcDbEntity
  8
0
100
AcDbLine
 62
7
  6
CONTINUOUS
 10
9.1083332837
 20
-14.7553191632
 11
9.0041667163
 21
-14.7819149047
  0
LINE
  5
27E
100
AcDbEntity
  8
0
100
AcDbLine
 62
7
  6
CONTINUOUS
 10
9.3427082837
 20
-15.4734042562
 11
9.2125
 21
-15.5
  0
LINE
  5
27F
100
AcDbEntity
  8
0
100
AcDbLine
 62
7
  6
CONTINUOUS
 10
11.165625
 20
-14.6755319387
 11
11.321875
 21
-14.6489361972
  0
LINE
  5
280
100
AcDbEntity
  8
0
100
AcDbLine
 62
7
  6
CONTINUOUS
 10
9.0041667163
 20
-14.9680850953
 11
9.1604167163
 21
-14.9414893538
  0
LINE
  5
281
100
AcDbEntity
  8
0
100
AcDbLine
 62
7
  6
CONTINUOUS
 10
11.5041665673
 20
-15.4734042562
 11
11.321875
 21
-15.5
  0
LINE
  5
282
100
AcDbEntity
  8
0
100
AcDbLine
 62
7
  6
CONTINUOUS
 10
11.2958334327
 20
-15.3936170246
 11
11.478125
 21
-15.3670212738
  0
LINE
  5
283
100
AcDbEntity
  8
0
100
AcDbLine
 62
7
  6
CONTINUOUS
 10
8.9260417163
 20
-14.6755319387
 11
9.1083332837
 21
-14.6489361972
  0
LINE
  5
284
100
AcDbEntity
  8
0
100
AcDbLine
 62
7
  6
CONTINUOUS
 10
9.2645832837
 20
-16.9840425476
 11
9.3947917163
 21
-16.9840425476
  0
LINE
  5
285
100
AcDbEntity
  8
0
100
AcDbLine
 62
7
  6
CONTINUOUS
 10
9.3947917163
 20
-16.8244680986
 11
8.6916667163
 21
-16.8244680986
  0
LINE
  5
286
100
AcDbEntity
  8
0
100
AcDbLine
 62
7
  6
CONTINUOUS
 10
12.103125
 20
-16.7978723571
 11
11.8166665673
 21
-16.7978723571
  0
LINE
  5
287
100
AcDbEntity
  8
0
100
AcDbLine
 62
7
  6
CONTINUOUS
 10
8.196875
 20
-16.7180850953
 11
7.9625
 21
-16.7180850953
  0
LINE
  5
288
100
AcDbEntity
  8
0
100
AcDbLine
 62
7
  6
CONTINUOUS
 10
8.7177082837
 20
-16.7180850953
 11
9.2645832837
 21
-16.7180850953
  0
LINE
  5
289
100
AcDbEntity
  8
0
100
AcDbLine
 62
7
  6
CONTINUOUS
 10
11.8166665673
 20
-16.6914893538
 11
12.103125
 21
-16.6914893538
  0
LINE
  5
28A
100
AcDbEntity
  8
0
100
AcDbLine
 62
7
  6
CONTINUOUS
 10
11.5822915673
 20
-16.6117021292
 11
11.4520834327
 21
-16.6117021292
  0
LINE
  5
28B
100
AcDbEntity
  8
0
100
AcDbLine
 62
7
  6
CONTINUOUS
 10
7.9625
 20
-16.5585106462
 11
8.353125
 21
-16.5585106462
  0
LINE
  5
28C
100
AcDbEntity
  8
0
100
AcDbLine
 62
7
  6
CONTINUOUS
 10
11.9208334327
 20
-16.5053191632
 11
11.7645834327
 21
-16.5053191632
  0
LINE
  5
28D
100
AcDbEntity
  8
0
100
AcDbLine
 62
7
  6
CONTINUOUS
 10
11.009375
 20
-16.5053191632
 11
10.93125
 21
-16.5053191632
  0
LINE
  5
28E
100
AcDbEntity
  8
0
100
AcDbLine
 62
7
  6
CONTINUOUS
 10
10.5927084327
 20
-16.5053191632
 11
10.540625
 21
-16.5053191632
  0
LINE
  5
28F
100
AcDbEntity
  8
0
100
AcDbLine
 62
7
  6
CONTINUOUS
 10
9.603125
 20
-16.3989361972
 11
9.7333332837
 21
-16.3989361972
  0
LINE
  5
290
100
AcDbEntity
  8
0
100
AcDbLine
 62
7
  6
CONTINUOUS
 10
10.2802084327
 20
-16.3989361972
 11
10.4104165673
 21
-16.3989361972
  0
LINE
  5
291
100
AcDbEntity
  8
0
100
AcDbLine
 62
7
  6
CONTINUOUS
 10
10.540625
 20
-16.3989361972
 11
10.6447915673
 21
-16.3989361972
  0
LINE
  5
292
100
AcDbEntity
  8
0
100
AcDbLine
 62
7
  6
CONTINUOUS
 10
10.9572915673
 20
-16.3989361972
 11
11.0614584327
 21
-16.3989361972
  0
LINE
  5
293
100
AcDbEntity
  8
0
100
AcDbLine
 62
7
  6
CONTINUOUS
 10
11.7645834327
 20
-16.3989361972
 11
11.9208334327
 21
-16.3989361972
  0
LINE
  5
294
100
AcDbEntity
  8
0
100
AcDbLine
 62
7
  6
CONTINUOUS
 10
12.49375
 20
-16.3989361972
 11
12.6239581347
 21
-16.3989361972
  0
LINE
  5
295
100
AcDbEntity
  8
0
100
AcDbLine
 62
7
  6
CONTINUOUS
 10
12.8583331347
 20
-16.3989361972
 11
12.9625
 21
-16.3989361972
  0
LINE
  5
296
100
AcDbEntity
  8
0
100
AcDbLine
 62
7
  6
CONTINUOUS
 10
13.43125
 20
-16.3989361972
 11
13.5875
 21
-16.3989361972
  0
LINE
  5
297
100
AcDbEntity
  8
0
100
AcDbLine
 62
7
  6
CONTINUOUS
 10
14.1083331347
 20
-16.3989361972
 11
14.2645831347
 21
-16.3989361972
  0
LINE
  5
298
100
AcDbEntity
  8
0
100
AcDbLine
 62
7
  6
CONTINUOUS
 10
8.353125
 20
-16.3191489726
 11
8.196875
 21
-16.3191489726
  0
LINE
  5
299
100
AcDbEntity
  8
0
100
AcDbLine
 62
7
  6
CONTINUOUS
 10
7.9885416418
 20
-16.1595744491
 11
7.7541666791
 21
-16.1595744491
  0
LINE
  5
29A
100
AcDbEntity
  8
0
100
AcDbLine
 62
7
  6
CONTINUOUS
 10
7.7541666791
 20
-16.0
 11
7.9885416418
 21
-16.0
  0
LINE
  5
29B
100
AcDbEntity
  8
0
100
AcDbLine
 62
7
  6
CONTINUOUS
 10
14.2385418654
 20
-15.5
 11
14.1083331347
 21
-15.5
  0
LINE
  5
29C
100
AcDbEntity
  8
0
100
AcDbLine
 62
7
  6
CONTINUOUS
 10
13.6395831347
 20
-15.5
 11
13.509375
 21
-15.5
  0
LINE
  5
29D
100
AcDbEntity
  8
0
100
AcDbLine
 62
7
  6
CONTINUOUS
 10
13.3010418654
 20
-15.5
 11
13.1708331347
 21
-15.5
  0
LINE
  5
29E
100
AcDbEntity
  8
0
100
AcDbLine
 62
7
  6
CONTINUOUS
 10
10.6708334327
 20
-15.5
 11
10.540625
 21
-15.5
  0
LINE
  5
29F
100
AcDbEntity
  8
0
100
AcDbLine
 62
7
  6
CONTINUOUS
 10
10.30625
 20
-15.5
 11
10.15
 21
-15.5
  0
LINE
  5
2A0
100
AcDbEntity
  8
0
100
AcDbLine
 62
7
  6
CONTINUOUS
 10
9.6291667163
 20
-15.5
 11
9.4989582837
 21
-15.5
  0
LINE
  5
2A1
100
AcDbEntity
  8
0
100
AcDbLine
 62
7
  6
CONTINUOUS
 10
9.2125
 20
-15.5
 11
9.05625
 21
-15.5
  0
LINE
  5
2A2
100
AcDbEntity
  8
0
100
AcDbLine
 62
7
  6
CONTINUOUS
 10
8.5875
 20
-15.5
 11
8.43125
 21
-15.5
  0
LINE
  5
2A3
100
AcDbEntity
  8
0
100
AcDbLine
 62
7
  6
CONTINUOUS
 10
8.0666666418
 20
-15.5
 11
7.8583333209
 21
-15.5
  0
LINE
  5
2A4
100
AcDbEntity
  8
0
100
AcDbLine
 62
7
  6
CONTINUOUS
 10
7.49375
 20
-15.5
 11
7.3375
 21
-15.5
  0
LINE
  5
2A5
100
AcDbEntity
  8
0
100
AcDbLine
 62
7
  6
CONTINUOUS
 10
1.0375
 20
-15.4
 11
-0.9625
 21
-15.4
  0
LINE
  5
2A6
100
AcDbEntity
  8
0
100
AcDbLine
 62
7
  6
CONTINUOUS
 10
9.05625
 20
-15.3936170246
 11
9.2125
 21
-15.3936170246
  0
LINE
  5
2A7
100
AcDbEntity
  8
0
100
AcDbLine
 62
7
  6
CONTINUOUS
 10
10.2020834327
 20
-15.3670212738
 11
10.30625
 21
-15.3670212738
  0
LINE
  5
2A8
100
AcDbEntity
  8
0
100
AcDbLine
 62
7
  6
CONTINUOUS
 10
11.5822915673
 20
-15.2340425476
 11
11.7125
 21
-15.2340425476
  0
LINE
  5
2A9
100
AcDbEntity
  8
0
100
AcDbLine
 62
7
  6
CONTINUOUS
 10
0.5375
 20
-15.165
 11
1.0375
 21
-15.165
  0
LINE
  5
2AA
100
AcDbEntity
  8
0
100
AcDbLine
 62
7
  6
CONTINUOUS
 10
9.0041667163
 20
-17.25
 11
8.8479167163
 21
-17.2234042562
  0
LINE
  5
2AB
100
AcDbEntity
  8
0
100
AcDbLine
 62
7
  6
CONTINUOUS
 10
7.7541666791
 20
-17.25
 11
7.6239583395
 21
-17.2234042562
  0
LWPOLYLINE
  5
2AC
100
AcDbEntity
  8
0
100
AcDbPolyline
 62
7
  6
CONTINUOUS
 90
16
 70
0
 10
-16.9552245859
 20
9.65
 10
-16.9577984171
 20
9.6714382661
 10
-16.9580037531
 20
9.6932597844
 10
-16.955840594
 20
9.715276563
 10
-16.9509313512
 20
9.7373255649
 10
-16.9436536134
 20
9.7591199069
 10
-16.9351401463
 20
9.7802695138
 10
-16.9252679335
 20
9.8003701773
 10
-16.9141599915
 20
9.8193401005
 10
-16.903318136
 20
9.8371982361
 10
-16.8926636555
 20
9.8538477298
 10
-16.8822752615
 20
9.8685546882
 10
-16.8738909039
 20
9.8805432361
 10
-16.8680898995
 20
9.8896208921
 10
-16.8642929315
 20
9.8958813369
 10
-16.8625
 20
9.89929792
  0
LINE
  5
2AD
100
AcDbEntity
  8
0
100
AcDbLine
 62
7
  6
CONTINUOUS
 10
-7.39192274
 20
14.4064084682
 11
-7.5269696628
 21
14.203838084
  0
LINE
  5
2AE
100
AcDbEntity
  8
0
100
AcDbLine
 62
7
  6
CONTINUOUS
 10
-6.8910397503
 20
14.3650881411
 11
-7.0260866731
 21
14.1625177569
  0
LINE
  5
2AF
100
AcDbEntity
  8
0
100
AcDbLine
 62
7
  6
CONTINUOUS
 10
-7.1611335959
 20
13.9599473727
 11
-7.2961805187
 21
13.7573769886
  0
LINE
  5
2B0
100
AcDbEntity
  8
0
100
AcDbLine
 62
7
  6
CONTINUOUS
 10
-5.3550738766
 20
16.8471677021
 11
-5.3164277589
 21
16.897622458
  0
LINE
  5
2B1
100
AcDbEntity
  8
0
100
AcDbLine
 62
7
  6
CONTINUOUS
 10
-5.097433056
 20
15.4848918915
 11
-5.0587869383
 21
15.5227328863
  0
LINE
  5
2B2
100
AcDbEntity
  8
0
100
AcDbLine
 62
7
  6
CONTINUOUS
 10
-5.0201408206
 20
15.4722784191
 11
-5.0459048991
 21
15.4470508968
  0
LINE
  5
2B3
100
AcDbEntity
  8
0
100
AcDbLine
 62
7
  6
CONTINUOUS
 10
-5.097433056
 20
14.9298907316
 11
-5.0587869383
 21
14.9677317264
  0
LINE
  5
2B4
100
AcDbEntity
  8
0
100
AcDbLine
 62
7
  6
CONTINUOUS
 10
-5.0201408206
 20
14.9172771148
 11
-5.0459048991
 21
14.8920497369
  0
LINE
  5
2B5
100
AcDbEntity
  8
0
100
AcDbLine
 62
7
  6
CONTINUOUS
 10
-5.264899602
 20
13.7442062058
 11
-5.2906636804
 21
13.7189789
  0
LINE
  5
2B6
100
AcDbEntity
  8
0
100
AcDbLine
 62
7
  6
CONTINUOUS
 10
-4.8140281614
 20
15.1695503168
 11
-4.8655563228
 21
15.1317093221
  0
LINE
  5
2B7
100
AcDbEntity
  8
0
100
AcDbLine
 62
7
  6
CONTINUOUS
 10
-4.8140281614
 20
14.6145491569
 11
-4.8655563228
 21
14.5767081622
  0
LINE
  5
2B8
100
AcDbEntity
  8
0
100
AcDbLine
 62
7
  6
CONTINUOUS
 10
-5.3164277589
 20
13.7820472005
 11
-5.264899602
 21
13.8198881953
  0
LINE
  5
2B9
100
AcDbEntity
  8
0
100
AcDbLine
 62
7
  6
CONTINUOUS
 10
-4.9042024495
 20
14.6271627737
 11
-4.8655563228
 21
14.6523901517
  0
LINE
  5
2BA
100
AcDbEntity
  8
0
100
AcDbLine
 62
7
  6
CONTINUOUS
 10
-4.9428485672
 20
13.0252273306
 11
-4.9814946849
 21
13.0
  0
LINE
  5
2BB
100
AcDbEntity
  8
0
100
AcDbLine
 62
7
  6
CONTINUOUS
 10
-5.264899602
 20
13.8198881953
 11
-5.2262534843
 21
13.8325018842
  0
LINE
  5
2BC
100
AcDbEntity
  8
0
100
AcDbLine
 62
7
  6
CONTINUOUS
 10
-5.2262534843
 20
13.7568198948
 11
-5.264899602
 21
13.7442062058
  0
LINE
  5
2BD
100
AcDbEntity
  8
0
100
AcDbLine
 62
7
  6
CONTINUOUS
 10
-0.8182936554
 20
-14.7100555922
 11
-0.802298828
 21
-14.7076521433
  0
LWPOLYLINE
  5
2BE
100
AcDbEntity
  8
0
100
AcDbPolyline
 62
7
  6
CONTINUOUS
 90
18
 70
0
 10
0.8646910604
 20
-15.0509667497
 10
0.8786719125
 20
-15.0489352769
 10
0.8922068273
 20
-15.0469000436
 10
0.9052864867
 20
-15.0448616425
 10
0.9179073018
 20
-15.0428198843
 10
0.9300722232
 20
-15.0407735167
 10
0.9417840896
 20
-15.0387212096
 10
0.9530459361
 20
-15.0366615043
 10
0.9638598665
 20
-15.0345930351
 10
0.9742373695
 20
-15.0325124778
 10
0.9842032848
 20
-15.0304132404
 10
0.9937618985
 20
-15.0282923715
 10
1.0029298126
 20
-15.0261440004
 10
1.0117590451
 20
-15.0239530052
 10
1.0202512816
 20
-15.0217150025
 10
1.0284344976
 20
-15.0194179153
 10
1.0364062426
 20
-15.0170260937
 10
1.0375
 20
-15.0166739491
  0
LWPOLYLINE
  5
2BF
100
AcDbEntity
  8
0
100
AcDbPolyline
 62
7
  6
CONTINUOUS
 90
16
 70
0
 10
-0.8301618937
 20
-13.9599517971
 10
-0.8415804374
 20
-13.9616117642
 10
-0.8525945219
 20
-13.9632690469
 10
-0.8632102257
 20
-13.9649248394
 10
-0.8734357324
 20
-13.9665807729
 10
-0.8832733501
 20
-13.9682376219
 10
-0.8927324215
 20
-13.9698974164
 10
-0.9018354498
 20
-13.9715648471
 10
-0.9105854927
 20
-13.9732414692
 10
-0.9189943813
 20
-13.9749306925
 10
-0.9271012258
 20
-13.9766422175
 10
-0.9349073103
 20
-13.9783787419
 10
-0.9424303765
 20
-13.9801466327
 10
-0.9497371032
 20
-13.9819655481
 10
-0.9568248855
 20
-13.9838404158
 10
-0.9625
 20
-13.9854406629
  0
LWPOLYLINE
  5
2C0
100
AcDbEntity
  8
0
100
AcDbPolyline
 62
253
  6
CONTINUOUS
 90
8
 70
0
 10
-0.9625
 20
-13.5895416824
 10
-0.9477910524
 20
-13.5874290032
 10
-0.9191354749
 20
-13.5836671337
 10
-0.8879508601
 20
-13.5798857975
 10
-0.8542259412
 20
-13.5760760694
 10
-0.8180919305
 20
-13.5722454468
 10
-0.7797522526
 20
-13.5684064491
 10
-0.7393443874
 20
-13.5645627889
  0
LWPOLYLINE
  5
2C1
100
AcDbEntity
  8
0
100
AcDbPolyline
 62
253
  6
CONTINUOUS
 90
7
 70
0
 10
-0.9625
 20
-14.5895342145
 10
-0.9464811008
 20
-14.5872405771
 10
-0.917538273
 20
-14.5834517085
 10
-0.8861177774
 20
-14.5796540422
 10
-0.8522845738
 20
-14.5758469448
 10
-0.8161417704
 20
-14.5720307972
 10
-0.7777972365
 20
-14.5682051253
  0
LWPOLYLINE
  5
2C2
100
AcDbEntity
  8
0
100
AcDbPolyline
 62
253
  6
CONTINUOUS
 90
7
 70
0
 10
-0.9625
 20
-14.089539987
 10
-0.9466512733
 20
-14.0872714675
 10
-0.9176272975
 20
-14.0834731777
 10
-0.8861188447
 20
-14.0796645817
 10
-0.8522325686
 20
-14.0758488748
 10
-0.8160627536
 20
-14.0720270423
 10
-0.7776777943
 20
-14.0681968154
  0
LWPOLYLINE
  5
2C3
100
AcDbEntity
  8
0
100
AcDbPolyline
 62
253
  6
CONTINUOUS
 90
7
 70
0
 10
-0.9625
 20
-15.0895206636
 10
-0.9458700183
 20
-15.0871451074
 10
-0.9170320301
 20
-15.083379764
 10
-0.8856518984
 20
-15.0795953936
 10
-0.8517169315
 20
-15.0757819474
 10
-0.8153777835
 20
-15.0719481142
 10
-0.7768391831
 20
-15.0681055597
  0
LINE
  5
2C4
100
AcDbEntity
  8
0
100
AcDbLine
 62
7
  6
CONTINUOUS
 10
-0.802298828
 20
-14.7076521433
 11
-0.7848766604
 21
-14.7051771352
  0
LINE
  5
2C5
100
AcDbEntity
  8
0
100
AcDbLine
 62
7
  6
CONTINUOUS
 10
0.8403543654
 20
-14.8027444629
 11
0.8150670708
 21
-14.8063360339
  0
LINE
  5
2C6
100
AcDbEntity
  8
0
100
AcDbLine
 62
7
  6
CONTINUOUS
 10
0.8394946371
 20
-14.3028819124
 11
0.815299516
 21
-14.3063140535
  0
LWPOLYLINE
  5
2C7
100
AcDbEntity
  8
0
100
AcDbPolyline
 62
7
  6
CONTINUOUS
 90
18
 70
0
 10
0.8442842223
 20
-13.5538351082
 10
0.8601626696
 20
-13.5516291998
 10
0.8754393013
 20
-13.5494310641
 10
0.890121059
 20
-13.5472397136
 10
0.9042275739
 20
-13.5450520954
 10
0.917761906
 20
-13.5428674939
 10
0.9307334658
 20
-13.540684115
 10
0.9431737286
 20
-13.538496035
 10
0.9550867499
 20
-13.5363015679
 10
0.9664837089
 20
-13.5340975952
 10
0.9774116333
 20
-13.5318737404
 10
0.9878808105
 20
-13.5296261123
 10
0.9979047195
 20
-13.5273496649
 10
1.0075423102
 20
-13.5250274755
 10
1.0168306976
 20
-13.5226448288
 10
1.0257594872
 20
-13.5201976353
 10
1.0343390071
 20
-13.5176760528
 10
1.0375
 20
-13.5166762043
  0
LINE
  5
2C8
100
AcDbEntity
  8
0
100
AcDbLine
 62
7
  6
CONTINUOUS
 10
0.8377250978
 20
-13.3031474091
 11
0.8120628718
 21
-13.3067653178
  0
LWPOLYLINE
  5
2C9
100
AcDbEntity
  8
0
100
AcDbPolyline
 62
7
  6
CONTINUOUS
 90
18
 70
0
 10
-0.8126273252
 20
-14.4574934281
 10
-0.8251372983
 20
-14.4592282732
 10
-0.8371522366
 20
-14.4609520832
 10
-0.8486788105
 20
-14.462665191
 10
-0.8597305197
 20
-14.4643689627
 10
-0.8703252934
 20
-14.4660656017
 10
-0.8804695909
 20
-14.4677556073
 10
-0.8901795145
 20
-14.4694411377
 10
-0.8994892583
 20
-14.4711279272
 10
-0.9084064293
 20
-14.4728174337
 10
-0.9169462645
 20
-14.4745127125
 10
-0.9251558249
 20
-14.4762239507
 10
-0.9330373299
 20
-14.477953054
 10
-0.9406119359
 20
-14.4797063795
 10
-0.9479563962
 20
-14.4815051922
 10
-0.9550684992
 20
-14.4833541295
 10
-0.9619717956
 20
-14.4852652941
 10
-0.9625
 20
-14.4854216284
  0
LINE
  5
2CA
100
AcDbEntity
  8
0
100
AcDbLine
 62
7
  6
CONTINUOUS
 10
-0.8005372675
 20
-15.2073868921
 11
-0.7802037503
 21
-15.2045298489
  0
LINE
  5
2CB
100
AcDbEntity
  8
0
100
AcDbLine
 62
7
  6
CONTINUOUS
 10
-0.7998145281
 20
-14.2073010796
 11
-0.7792982165
 21
-14.2044224383
  0
LWPOLYLINE
  5
2CC
100
AcDbEntity
  8
0
100
AcDbPolyline
 62
7
  6
CONTINUOUS
 90
18
 70
0
 10
0.8414837629
 20
-14.0542123661
 10
0.8574559148
 20
-14.0520078638
 10
0.8728480184
 20
-14.0498076644
 10
0.8876626443
 20
-14.0476108555
 10
0.9019028403
 20
-14.0454164065
 10
0.9155708819
 20
-14.043223416
 10
0.9286760086
 20
-14.0410302811
 10
0.9412367518
 20
-14.0388338698
 10
0.9532620168
 20
-14.0366324225
 10
0.9647642364
 20
-14.0344233481
 10
0.9757733245
 20
-14.0322001662
 10
0.9863046954
 20
-14.0299584931
 10
0.9963698633
 20
-14.0276943094
 10
1.0060041378
 20
-14.0253974017
 10
1.015216106
 20
-14.023062739
 10
1.0240364055
 20
-14.0206788887
 10
1.0325473252
 20
-14.0182171407
 10
1.0375
 20
-14.0166780659
  0
LINE
  5
2CD
100
AcDbEntity
  8
0
100
AcDbLine
 62
7
  6
CONTINUOUS
 10
0.8322886275
 20
-13.8039300536
 11
0.806355878
 21
-13.807535321
  0
LINE
  5
2CE
100
AcDbEntity
  8
0
100
AcDbLine
 62
7
  6
CONTINUOUS
 10
0.8353428412
 20
-15.055028169
 11
0.8646910604
 21
-15.0509667497
  0
LWPOLYLINE
  5
2CF
100
AcDbEntity
  8
0
100
AcDbPolyline
 62
7
  6
CONTINUOUS
 90
17
 70
0
 10
-0.806014283
 20
-14.9565930401
 10
-0.8198903076
 20
-14.9584856331
 10
-0.8331632013
 20
-14.9603630924
 10
-0.845844916
 20
-14.9622265931
 10
-0.8579528553
 20
-14.9640780934
 10
-0.8694987017
 20
-14.9659183607
 10
-0.8805026221
 20
-14.9677494756
 10
-0.8909997276
 20
-14.9695763975
 10
-0.9010033546
 20
-14.9714007812
 10
-0.9105336658
 20
-14.9732257021
 10
-0.9196387313
 20
-14.9750603493
 10
-0.9283294418
 20
-14.9769074531
 10
-0.9366298255
 20
-14.978772902
 10
-0.9446113293
 20
-14.9806750211
 10
-0.9522763945
 20
-14.9826179936
 10
-0.9596581943
 20
-14.9846145442
 10
-0.9625
 20
-14.9854377509
  0
LWPOLYLINE
  5
2D0
100
AcDbEntity
  8
0
100
AcDbPolyline
 62
7
  6
CONTINUOUS
 90
19
 70
0
 10
0.8350796682
 20
-14.5550734115
 10
0.8512085156
 20
-14.5528756726
 10
0.8667351839
 20
-14.5506854589
 10
0.8816640709
 20
-14.5485024786
 10
0.8960052391
 20
-14.5463256225
 10
0.9097488518
 20
-14.5441568888
 10
0.9228994221
 20
-14.5419963037
 10
0.9354761197
 20
-14.5398414531
 10
0.9474981386
 20
-14.5376896251
 10
0.9589745896
 20
-14.5355397067
 10
0.969925062
 20
-14.5333884824
 10
0.9803897614
 20
-14.5312279873
 10
0.9903759785
 20
-14.5290562333
 10
0.9999089127
 20
-14.5268670285
 10
1.0090601451
 20
-14.5246416906
 10
1.0178353858
 20
-14.5223751418
 10
1.0262623868
 20
-14.5200558068
 10
1.0344489529
 20
-14.517645914
 10
1.0375
 20
-14.516681293
  0
LINE
  5
2D1
100
AcDbEntity
  8
0
100
AcDbLine
 62
7
  6
CONTINUOUS
 10
-0.8061079773
 20
-13.9566222421
 11
-0.8301618937
 21
-13.9599517971
  0
LWPOLYLINE
  5
2D2
100
AcDbEntity
  8
0
100
AcDbPolyline
 62
7
  6
CONTINUOUS
 90
17
 70
0
 10
-0.803928907
 20
-13.4563370555
 10
-0.8175081825
 20
-13.458178957
 10
-0.8305686819
 20
-13.460013458
 10
-0.843117381
 20
-13.4618417582
 10
-0.8551709592
 20
-13.4636666282
 10
-0.8667333302
 20
-13.465489112
 10
-0.8778130529
 20
-13.467311058
 10
-0.8884366112
 20
-13.4691376026
 10
-0.8986075654
 20
-13.4709700943
 10
-0.9083426367
 20
-13.4728121089
 10
-0.9176916161
 20
-13.4746744196
 10
-0.9266553666
 20
-13.4765592593
 10
-0.9352556994
 20
-13.4784736392
 10
-0.943576819
 20
-13.4804408283
 10
-0.951647282
 20
-13.4824749138
 10
-0.9594578238
 20
-13.4845820471
 10
-0.9625
 20
-13.4854642003
  0
LINE
  5
2D3
100
AcDbEntity
  8
0
100
AcDbLine
 62
7
  6
CONTINUOUS
 10
-0.7893693594
 20
-13.705818962
 11
-0.7669725761
 21
-13.7027798504
  0
LINE
  5
2D4
100
AcDbEntity
  8
0
100
AcDbLine
 62
7
  6
CONTINUOUS
 10
-0.7848766604
 20
-14.7051771352
 11
-0.7660244
 21
-14.7026369916
  0
LINE
  5
2D5
100
AcDbEntity
  8
0
100
AcDbLine
 62
7
  6
CONTINUOUS
 10
0.8150670708
 20
-14.8063360339
 11
0.7876655436
 21
-14.8099995631
  0
LINE
  5
2D6
100
AcDbEntity
  8
0
100
AcDbLine
 62
7
  6
CONTINUOUS
 10
0.815299516
 20
-14.3063140535
 11
0.789029673
 21
-14.3098288599
  0
LINE
  5
2D7
100
AcDbEntity
  8
0
100
AcDbLine
 62
7
  6
CONTINUOUS
 10
0.8120628718
 20
-13.3067653178
 11
0.7842008059
 21
-13.3104645056
  0
LINE
  5
2D8
100
AcDbEntity
  8
0
100
AcDbLine
 62
7
  6
CONTINUOUS
 10
-0.7802037503
 20
-15.2045298489
 11
-0.7578814105
 21
-15.2015746134
  0
LINE
  5
2D9
100
AcDbEntity
  8
0
100
AcDbLine
 62
7
  6
CONTINUOUS
 10
-0.7792982165
 20
-14.2044224383
 11
-0.7569599207
 21
-14.2014685327
  0
LINE
  5
2DA
100
AcDbEntity
  8
0
100
AcDbLine
 62
7
  6
CONTINUOUS
 10
-0.7860986604
 20
-14.4539895644
 11
-0.8126273252
 21
-14.4574934281
  0
LINE
  5
2DB
100
AcDbEntity
  8
0
100
AcDbLine
 62
7
  6
CONTINUOUS
 10
0.8107033594
 20
-13.5582727317
 11
0.8442842223
 21
-13.5538351082
  0
LINE
  5
2DC
100
AcDbEntity
  8
0
100
AcDbLine
 62
7
  6
CONTINUOUS
 10
0.8078050502
 20
-14.0586356673
 11
0.8414837629
 21
-14.0542123661
  0
LINE
  5
2DD
100
AcDbEntity
  8
0
100
AcDbLine
 62
7
  6
CONTINUOUS
 10
0.806355878
 20
-13.807535321
 11
0.7781797178
 21
-13.8112289555
  0
LINE
  5
2DE
100
AcDbEntity
  8
0
100
AcDbLine
 62
7
  6
CONTINUOUS
 10
0.8040857195
 20
-15.0590987086
 11
0.8353428412
 21
-15.055028169
  0
LINE
  5
2DF
100
AcDbEntity
  8
0
100
AcDbLine
 62
7
  6
CONTINUOUS
 10
-0.7804264781
 20
-13.953277243
 11
-0.8061079773
 21
-13.9566222421
  0
LINE
  5
2E0
100
AcDbEntity
  8
0
100
AcDbLine
 62
7
  6
CONTINUOUS
 10
0.8011063302
 20
-14.5594807885
 11
0.8350796682
 21
-14.5550734115
  0
LINE
  5
2E1
100
AcDbEntity
  8
0
100
AcDbLine
 62
7
  6
CONTINUOUS
 10
-0.7764179262
 20
-14.9527595477
 11
-0.806014283
 21
-14.9565930401
  0
LINE
  5
2E2
100
AcDbEntity
  8
0
100
AcDbLine
 62
7
  6
CONTINUOUS
 10
-0.77520065
 20
-13.4526284007
 11
-0.803928907
 21
-13.4563370555
  0
LINE
  5
2E3
100
AcDbEntity
  8
0
100
AcDbLine
 62
7
  6
CONTINUOUS
 10
-0.7660244
 20
-14.7026369916
 11
-0.745735564
 21
-14.7000360389
  0
LINE
  5
2E4
100
AcDbEntity
  8
0
100
AcDbLine
 62
7
  6
CONTINUOUS
 10
-0.7669725761
 20
-13.7027798504
 11
-0.7426206941
 21
-13.6996645306
  0
LINE
  5
2E5
100
AcDbEntity
  8
0
100
AcDbLine
 62
7
  6
CONTINUOUS
 10
0.789029673
 20
-14.3098288599
 11
0.7606669479
 21
-14.3134228809
  0
LINE
  5
2E6
100
AcDbEntity
  8
0
100
AcDbLine
 62
7
  6
CONTINUOUS
 10
0.7876655436
 20
-14.8099995631
 11
0.7581511153
 21
-14.8137290928
  0
LINE
  5
2E7
100
AcDbEntity
  8
0
100
AcDbLine
 62
7
  6
CONTINUOUS
 10
0.7842008059
 20
-13.3104645056
 11
0.7541195208
 21
-13.314240927
  0
LINE
  5
2E8
100
AcDbEntity
  8
0
100
AcDbLine
 62
7
  6
CONTINUOUS
 10
-0.7578814105
 20
-15.2015746134
 11
-0.7335356685
 21
-15.1985250636
  0
LINE
  5
2E9
100
AcDbEntity
  8
0
100
AcDbLine
 62
7
  6
CONTINUOUS
 10
-0.7569599207
 20
-14.2014685327
 11
-0.7328101267
 21
-14.1984462252
  0
LINE
  5
2EA
100
AcDbEntity
  8
0
100
AcDbLine
 62
7
  6
CONTINUOUS
 10
-0.7575205777
 20
-14.4504375297
 11
-0.7860986604
 21
-14.4539895644
  0
LINE
  5
2EB
100
AcDbEntity
  8
0
100
AcDbLine
 62
7
  6
CONTINUOUS
 10
0.7781797178
 20
-13.8112289555
 11
0.7477438673
 21
-13.815006373
  0
LINE
  5
2EC
100
AcDbEntity
  8
0
100
AcDbLine
 62
7
  6
CONTINUOUS
 10
0.77464613
 20
-13.562750382
 11
0.8107033594
 21
-13.5582727317
  0
LINE
  5
2ED
100
AcDbEntity
  8
0
100
AcDbLine
 62
7
  6
CONTINUOUS
 10
0.7718320431
 20
-14.0630794603
 11
0.8078050502
 21
-14.0586356673
  0
LINE
  5
2EE
100
AcDbEntity
  8
0
100
AcDbLine
 62
7
  6
CONTINUOUS
 10
-0.7531405645
 20
-13.9499171708
 11
-0.7804264781
 21
-13.953277243
  0
LINE
  5
2EF
100
AcDbEntity
  8
0
100
AcDbLine
 62
7
  6
CONTINUOUS
 10
0.7708513907
 20
-15.0631891786
 11
0.8040857195
 21
-15.0590987086
  0
LINE
  5
2F0
100
AcDbEntity
  8
0
100
AcDbLine
 62
7
  6
CONTINUOUS
 10
-0.745735564
 20
-14.7000360389
 11
-0.7240231779
 21
-14.6973789866
  0
LINE
  5
2F1
100
AcDbEntity
  8
0
100
AcDbLine
 62
7
  6
CONTINUOUS
 10
0.7649002591
 20
-14.5639025391
 11
0.8011063302
 21
-14.5594807885
  0
LINE
  5
2F2
100
AcDbEntity
  8
0
100
AcDbLine
 62
7
  6
CONTINUOUS
 10
-0.7443003875
 20
-14.9488561831
 11
-0.7764179262
 21
-14.9527595477
  0
LINE
  5
2F3
100
AcDbEntity
  8
0
100
AcDbLine
 62
7
  6
CONTINUOUS
 10
-0.7426206941
 20
-13.6996645306
 11
-0.7163230342
 21
-13.6964784506
  0
LINE
  5
2F4
100
AcDbEntity
  8
0
100
AcDbLine
 62
7
  6
CONTINUOUS
 10
-0.7443471214
 20
-13.4488810672
 11
-0.77520065
 21
-13.4526284007
  0
LINE
  5
2F5
100
AcDbEntity
  8
0
100
AcDbLine
 62
7
  6
CONTINUOUS
 10
0.7606669479
 20
-14.3134228809
 11
0.7301956372
 21
-14.3170934652
  0
LINE
  5
2F6
100
AcDbEntity
  8
0
100
AcDbLine
 62
7
  6
CONTINUOUS
 10
0.7581511153
 20
-14.8137290928
 11
0.7265303788
 21
-14.8175200236
  0
LINE
  5
2F7
100
AcDbEntity
  8
0
100
AcDbLine
 62
7
  6
CONTINUOUS
 10
0.7541195208
 20
-13.314240927
 11
0.721774885
 21
-13.3180943387
  0
LINE
  5
2F8
100
AcDbEntity
  8
0
100
AcDbLine
 62
7
  6
CONTINUOUS
 10
-0.7335356685
 20
-15.1985250636
 11
-0.7071428765
 21
-15.195385139
  0
LINE
  5
2F9
100
AcDbEntity
  8
0
100
AcDbLine
 62
7
  6
CONTINUOUS
 10
-0.7328101267
 20
-14.1984462252
 11
-0.7068534674
 21
-14.195360153
  0
LINE
  5
2FA
100
AcDbEntity
  8
0
100
AcDbLine
 62
7
  6
CONTINUOUS
 10
0.7477438673
 20
-13.815006373
 11
0.7150313004
 21
-13.8188642487
  0
LINE
  5
2FB
100
AcDbEntity
  8
0
100
AcDbLine
 62
7
  6
CONTINUOUS
 10
-0.7268974322
 20
-14.4468376469
 11
-0.7575205777
 21
-14.4504375297
  0
LINE
  5
2FC
100
AcDbEntity
  8
0
100
AcDbLine
 62
7
  6
CONTINUOUS
 10
-0.7240231779
 20
-14.6973789866
 11
-0.700907708
 21
-14.6946701942
  0
LINE
  5
2FD
100
AcDbEntity
  8
0
100
AcDbLine
 62
7
  6
CONTINUOUS
 10
-0.724276839
 20
-13.9465421752
 11
-0.7531405645
 21
-13.9499171708
  0
LINE
  5
2FE
100
AcDbEntity
  8
0
100
AcDbLine
 62
7
  6
CONTINUOUS
 10
0.7360877468
 20
-13.567270935
 11
0.77464613
 21
-13.562750382
  0
LINE
  5
2FF
100
AcDbEntity
  8
0
100
AcDbLine
 62
7
  6
CONTINUOUS
 10
0.7356002111
 20
-15.0673064457
 11
0.7708513907
 21
-15.0631891786
  0
LINE
  5
300
100
AcDbEntity
  8
0
100
AcDbLine
 62
7
  6
CONTINUOUS
 10
0.7336189152
 20
-14.0675421047
 11
0.7718320431
 21
-14.0630794603
  0
LINE
  5
301
100
AcDbEntity
  8
0
100
AcDbLine
 62
7
  6
CONTINUOUS
 10
0.7266149602
 20
-14.5683279668
 11
0.7649002591
 21
-14.5639025391
  0
LINE
  5
302
100
AcDbEntity
  8
0
100
AcDbLine
 62
7
  6
CONTINUOUS
 10
-0.7163230342
 20
-13.6964784506
 11
-0.6880973685
 21
-13.6932266141
  0
LINE
  5
303
100
AcDbEntity
  8
0
100
AcDbLine
 62
7
  6
CONTINUOUS
 10
0.7301956372
 20
-14.3170934652
 11
0.6975927278
 21
-14.3208396296
  0
LINE
  5
304
100
AcDbEntity
  8
0
100
AcDbLine
 62
7
  6
CONTINUOUS
 10
-0.7113596303
 20
-13.4450921558
 11
-0.7443471214
 21
-13.4488810672
  0
LINE
  5
305
100
AcDbEntity
  8
0
100
AcDbLine
 62
7
  6
CONTINUOUS
 10
-0.7096599767
 20
-14.9448844836
 11
-0.7443003875
 21
-14.9488561831
  0
LINE
  5
306
100
AcDbEntity
  8
0
100
AcDbLine
 62
7
  6
CONTINUOUS
 10
0.7265303788
 20
-14.8175200236
 11
0.6928289919
 21
-14.8213687511
  0
LINE
  5
307
100
AcDbEntity
  8
0
100
AcDbLine
 62
7
  6
CONTINUOUS
 10
-0.7071428765
 20
-15.195385139
 11
-0.6786875528
 21
-15.1921584324
  0
LINE
  5
308
100
AcDbEntity
  8
0
100
AcDbLine
 62
7
  6
CONTINUOUS
 10
-0.7068534674
 20
-14.195360153
 11
-0.6790940545
 21
-14.1922133186
  0
LINE
  5
309
100
AcDbEntity
  8
0
100
AcDbLine
 62
7
  6
CONTINUOUS
 10
0.721774885
 20
-13.3180943387
 11
0.6871124457
 21
-13.3220260691
  0
LINE
  5
30A
100
AcDbEntity
  8
0
100
AcDbLine
 62
7
  6
CONTINUOUS
 10
0.7150313004
 20
-13.8188642487
 11
0.6800030037
 21
-13.8228026325
  0
LINE
  5
30B
100
AcDbEntity
  8
0
100
AcDbLine
 62
7
  6
CONTINUOUS
 10
-0.6942315304
 20
-14.4431885937
 11
-0.7268974322
 21
-14.4468376469
  0
LINE
  5
30C
100
AcDbEntity
  8
0
100
AcDbLine
 62
7
  6
CONTINUOUS
 10
-0.6939007949
 20
-13.9431557924
 11
-0.724276839
 21
-13.9465421752
  0
LINE
  5
30D
100
AcDbEntity
  8
0
100
AcDbLine
 62
7
  6
CONTINUOUS
 10
0.6982932241
 20
-15.0714587255
 11
0.7356002111
 21
-15.0673064457
  0
LINE
  5
30E
100
AcDbEntity
  8
0
100
AcDbLine
 62
7
  6
CONTINUOUS
 10
0.6950199727
 20
-13.5718358428
 11
0.7360877468
 21
-13.567270935
  0
LINE
  5
30F
100
AcDbEntity
  8
0
100
AcDbLine
 62
7
  6
CONTINUOUS
 10
0.693225609
 20
-14.072022245
 11
0.7336189152
 21
-14.0675421047
  0
LINE
  5
310
100
AcDbEntity
  8
0
100
AcDbLine
 62
7
  6
CONTINUOUS
 10
-0.700907708
 20
-14.6946701942
 11
-0.663635482
 21
-14.690515828
  0
LINE
  5
311
100
AcDbEntity
  8
0
100
AcDbLine
 62
7
  6
CONTINUOUS
 10
0.6975927278
 20
-14.3208396296
 11
0.6628331144
 21
-14.3246612083
  0
LINE
  5
312
100
AcDbEntity
  8
0
100
AcDbLine
 62
7
  6
CONTINUOUS
 10
0.6864467531
 20
-14.5727443574
 11
0.7266149602
 21
-14.5683279668
  0
LINE
  5
313
100
AcDbEntity
  8
0
100
AcDbLine
 62
7
  6
CONTINUOUS
 10
-0.6880973685
 20
-13.6932266141
 11
-0.6579603805
 21
-13.689912621
  0
LINE
  5
314
100
AcDbEntity
  8
0
100
AcDbLine
 62
7
  6
CONTINUOUS
 10
0.6928289919
 20
-14.8213687511
 11
0.6570779441
 21
-14.8252724614
  0
LINE
  5
315
100
AcDbEntity
  8
0
100
AcDbLine
 62
7
  6
CONTINUOUS
 10
-0.6762391844
 20
-13.441259508
 11
-0.7113596303
 21
-13.4450921558
  0
LINE
  5
316
100
AcDbEntity
  8
0
100
AcDbLine
 62
7
  6
CONTINUOUS
 10
-0.6790940545
 20
-14.1922133186
 11
-0.6495599558
 21
-14.1890089586
  0
LINE
  5
317
100
AcDbEntity
  8
0
100
AcDbLine
 62
7
  6
CONTINUOUS
 10
-0.6786875528
 20
-15.1921584324
 11
-0.6481513209
 21
-15.1888470292
  0
LINE
  5
318
100
AcDbEntity
  8
0
100
AcDbLine
 62
7
  6
CONTINUOUS
 10
-0.6725003404
 20
-14.940844887
 11
-0.7096599767
 21
-14.9448844836
  0
LINE
  5
319
100
AcDbEntity
  8
0
100
AcDbLine
 62
7
  6
CONTINUOUS
 10
0.6871124457
 20
-13.3220260691
 11
0.6501063107
 21
-13.3260363984
  0
LINE
  5
31A
100
AcDbEntity
  8
0
100
AcDbLine
 62
7
  6
CONTINUOUS
 10
0.6800030037
 20
-13.8228026325
 11
0.6426296379
 21
-13.8268209549
  0
LINE
  5
31B
100
AcDbEntity
  8
0
100
AcDbLine
 62
7
  6
CONTINUOUS
 10
-0.6595225873
 20
-14.4394881319
 11
-0.6942315304
 21
-14.4431885937
  0
LINE
  5
31C
100
AcDbEntity
  8
0
100
AcDbLine
 62
7
  6
CONTINUOUS
 10
0.650744491
 20
-14.0765158882
 11
0.693225609
 21
-14.072022245
  0
LINE
  5
31D
100
AcDbEntity
  8
0
100
AcDbLine
 62
7
  6
CONTINUOUS
 10
0.6514766308
 20
-13.576445285
 11
0.6950199727
 21
-13.5718358428
  0
LINE
  5
31E
100
AcDbEntity
  8
0
100
AcDbLine
 62
7
  6
CONTINUOUS
 10
-0.663635482
 20
-14.690515828
 11
-0.6233018328
 21
-14.6862590591
  0
LINE
  5
31F
100
AcDbEntity
  8
0
100
AcDbLine
 62
7
  6
CONTINUOUS
 10
-0.645687577
 20
-13.938061234
 11
-0.6939007949
 21
-13.9431557924
  0
LINE
  5
320
100
AcDbEntity
  8
0
100
AcDbLine
 62
7
  6
CONTINUOUS
 10
0.6384070654
 20
-15.0777679837
 11
0.6982932241
 21
-15.0714587255
  0
LINE
  5
321
100
AcDbEntity
  8
0
100
AcDbLine
 62
7
  6
CONTINUOUS
 10
-0.6390088347
 20
-13.4373828079
 11
-0.6762391844
 21
-13.441259508
  0
LINE
  5
322
100
AcDbEntity
  8
0
100
AcDbLine
 62
7
  6
CONTINUOUS
 10
0.6628331144
 20
-14.3246612083
 11
0.6065439741
 21
-14.3305410245
  0
LINE
  5
323
100
AcDbEntity
  8
0
100
AcDbLine
 62
7
  6
CONTINUOUS
 10
-0.6328738594
 20
-14.9367414591
 11
-0.6725003404
 21
-14.940844887
  0
LINE
  5
324
100
AcDbEntity
  8
0
100
AcDbLine
 62
7
  6
CONTINUOUS
 10
-0.6579603805
 20
-13.689912621
 11
-0.6092071479
 21
-13.6848301192
  0
LINE
  5
325
100
AcDbEntity
  8
0
100
AcDbLine
 62
7
  6
CONTINUOUS
 10
0.6570779441
 20
-14.8252724614
 11
0.5996910048
 21
-14.8312256257
  0
LINE
  5
326
100
AcDbEntity
  8
0
100
AcDbLine
 62
7
  6
CONTINUOUS
 10
0.6230882976
 20
-14.5793306934
 11
0.6864467531
 21
-14.5727443574
  0
LINE
  5
327
100
AcDbEntity
  8
0
100
AcDbLine
 62
7
  6
CONTINUOUS
 10
-0.6495599558
 20
-14.1890089586
 11
-0.6019908262
 21
-14.1840985115
  0
LINE
  5
328
100
AcDbEntity
  8
0
100
AcDbLine
 62
7
  6
CONTINUOUS
 10
-0.6481513209
 20
-15.1888470292
 11
-0.5984293651
 21
-15.1837257896
  0
LINE
  5
329
100
AcDbEntity
  8
0
100
AcDbLine
 62
7
  6
CONTINUOUS
 10
0.6501063107
 20
-13.3260363984
 11
0.5901436552
 21
-13.3322039279
  0
LINE
  5
32A
100
AcDbEntity
  8
0
100
AcDbLine
 62
7
  6
CONTINUOUS
 10
0.6426296379
 20
-13.8268209549
 11
0.5821005792
 21
-13.8330004235
  0
LWPOLYLINE
  5
32B
100
AcDbEntity
  8
0
100
AcDbPolyline
 62
253
  6
CONTINUOUS
 90
9
 70
0
 10
0.770929905
 20
-14.94757919
 10
0.8129888087
 20
-14.9433721252
 10
0.8530904514
 20
-14.9391523533
 10
0.8911284507
 20
-14.9349191433
 10
0.9270118947
 20
-14.9306726689
 10
0.960654641
 20
-14.9264139272
 10
0.9919740017
 20
-14.9221435076
 10
1.0208876312
 20
-14.9178618838
 10
1.0375
 20
-14.9151634419
  0
LINE
  5
32C
100
AcDbEntity
  8
0
100
AcDbLine
 62
7
  6
CONTINUOUS
 10
-0.6036137942
 20
-14.4338336791
 11
-0.6595225873
 21
-14.4394881319
  0
LINE
  5
32D
100
AcDbEntity
  8
0
100
AcDbLine
 62
7
  6
CONTINUOUS
 10
-0.6233018328
 20
-14.6862590591
 11
-0.5799783153
 21
-14.6819058073
  0
LINE
  5
32E
100
AcDbEntity
  8
0
100
AcDbLine
 62
7
  6
CONTINUOUS
 10
0.5833725543
 20
-14.083271048
 11
0.650744491
 21
-14.0765158882
  0
LINE
  5
32F
100
AcDbEntity
  8
0
100
AcDbLine
 62
7
  6
CONTINUOUS
 10
0.5816429095
 20
-13.5834438006
 11
0.6514766308
 21
-13.576445285
  0
LINE
  5
330
100
AcDbEntity
  8
0
100
AcDbLine
 62
7
  6
CONTINUOUS
 10
-0.5943236972
 20
-13.9329318538
 11
-0.645687577
 21
-13.938061234
  0
LINE
  5
331
100
AcDbEntity
  8
0
100
AcDbLine
 62
7
  6
CONTINUOUS
 10
0.5737336099
 20
-15.0841914997
 11
0.6384070654
 21
-15.0777679837
  0
LINE
  5
332
100
AcDbEntity
  8
0
100
AcDbLine
 62
7
  6
CONTINUOUS
 10
0.6065439741
 20
-14.3305410245
 11
0.5451240389
 21
-14.3366071812
  0
LINE
  5
333
100
AcDbEntity
  8
0
100
AcDbLine
 62
7
  6
CONTINUOUS
 10
-0.6092071479
 20
-13.6848301192
 11
-0.5563059707
 21
-13.679619555
  0
LINE
  5
334
100
AcDbEntity
  8
0
100
AcDbLine
 62
7
  6
CONTINUOUS
 10
-0.5793238024
 20
-13.4314861754
 11
-0.6390088347
 21
-13.4373828079
  0
LINE
  5
335
100
AcDbEntity
  8
0
100
AcDbLine
 62
7
  6
CONTINUOUS
 10
0.5996910048
 20
-14.8312256257
 11
0.5379150193
 21
-14.8372904993
  0
LINE
  5
336
100
AcDbEntity
  8
0
100
AcDbLine
 62
7
  6
CONTINUOUS
 10
0.5567567794
 20
-14.585831114
 11
0.6230882976
 21
-14.5793306934
  0
LINE
  5
337
100
AcDbEntity
  8
0
100
AcDbLine
 62
7
  6
CONTINUOUS
 10
-0.6019908262
 20
-14.1840985115
 11
-0.5505590607
 21
-14.1790639227
  0
LINE
  5
338
100
AcDbEntity
  8
0
100
AcDbLine
 62
7
  6
CONTINUOUS
 10
-0.5689833963
 20
-14.9304767795
 11
-0.6328738594
 21
-14.9367414591
  0
LINE
  5
339
100
AcDbEntity
  8
0
100
AcDbLine
 62
7
  6
CONTINUOUS
 10
-0.5984293651
 20
-15.1837257896
 11
-0.5439992536
 21
-15.1784232704
  0
LWPOLYLINE
  5
33A
100
AcDbEntity
  8
0
100
AcDbPolyline
 62
253
  6
CONTINUOUS
 90
10
 70
0
 10
0.7268684825
 20
-13.9518046303
 10
0.7712534287
 20
-13.9475611505
 10
0.8137134518
 20
-13.9433079083
 10
0.85410598
 20
-13.9390503163
 10
0.8923826611
 20
-13.9347841569
 10
0.9284476524
 20
-13.930509846
 10
0.9622190427
 20
-13.9262259473
 10
0.9935821933
 20
-13.9219350476
 10
1.0224070763
 20
-13.9176436436
 10
1.0375
 20
-13.9151750635
  0
LINE
  5
33B
100
AcDbEntity
  8
0
100
AcDbLine
 62
7
  6
CONTINUOUS
 10
0.5901436552
 20
-13.3322039279
 11
0.5248937937
 21
-13.338549102
  0
LWPOLYLINE
  5
33C
100
AcDbEntity
  8
0
100
AcDbPolyline
 62
253
  6
CONTINUOUS
 90
10
 70
0
 10
0.7244672744
 20
-14.4520198585
 10
0.7688014413
 20
-14.447791897
 10
0.8112457537
 20
-14.44355408
 10
0.8517025932
 20
-14.4393058271
 10
0.8901021078
 20
-14.4350431416
 10
0.926290809
 20
-14.430771031
 10
0.9600672163
 20
-14.4265025089
 10
0.991288893
 20
-14.4222502866
 10
1.0200111388
 20
-14.4180031519
 10
1.0375
 20
-14.4151692354
  0
LWPOLYLINE
  5
33D
100
AcDbEntity
  8
0
100
AcDbPolyline
 62
253
  6
CONTINUOUS
 90
10
 70
0
 10
0.7252375851
 20
-13.4519623114
 10
0.7693202033
 20
-13.4477579948
 10
0.8114886152
 20
-13.4435461094
 10
0.8516401519
 20
-13.4393266207
 10
0.8897004808
 20
-13.4350989769
 10
0.9255823438
 20
-13.4308643426
 10
0.9592083043
 20
-13.426622788
 10
0.9905160766
 20
-13.4223721084
 10
1.0194207517
 20
-13.418112601
 10
1.0375
 20
-13.4151915376
  0
LINE
  5
33E
100
AcDbEntity
  8
0
100
AcDbLine
 62
7
  6
CONTINUOUS
 10
0.5821005792
 20
-13.8330004235
 11
0.5161922836
 21
-13.8393651884
  0
LINE
  5
33F
100
AcDbEntity
  8
0
100
AcDbLine
 62
7
  6
CONTINUOUS
 10
-0.5431079207
 20
-14.42804703
 11
-0.6036137942
 21
-14.4338336791
  0
LINE
  5
340
100
AcDbEntity
  8
0
100
AcDbLine
 62
7
  6
CONTINUOUS
 10
-0.5799783153
 20
-14.6819058073
 11
-0.5177124275
 21
-14.6759596041
  0
LINE
  5
341
100
AcDbEntity
  8
0
100
AcDbLine
 62
7
  6
CONTINUOUS
 10
0.5120909896
 20
-14.0900301952
 11
0.5833725543
 21
-14.083271048
  0
LINE
  5
342
100
AcDbEntity
  8
0
100
AcDbLine
 62
7
  6
CONTINUOUS
 10
0.5067471364
 20
-13.5905302395
 11
0.5816429095
 21
-13.5834438006
  0
LINE
  5
343
100
AcDbEntity
  8
0
100
AcDbLine
 62
7
  6
CONTINUOUS
 10
0.5042030828
 20
-15.0907467384
 11
0.5737336099
 21
-15.0841914997
  0
LINE
  5
344
100
AcDbEntity
  8
0
100
AcDbLine
 62
7
  6
CONTINUOUS
 10
0.5451240389
 20
-14.3366071812
 11
0.4784266761
 21
-14.3428712717
  0
LINE
  5
345
100
AcDbEntity
  8
0
100
AcDbLine
 62
7
  6
CONTINUOUS
 10
-0.5208249755
 20
-13.9259947524
 11
-0.5943236972
 21
-13.9329318538
  0
LINE
  5
346
100
AcDbEntity
  8
0
100
AcDbLine
 62
7
  6
CONTINUOUS
 10
0.5379150193
 20
-14.8372904993
 11
0.4719113898
 21
-14.8434622504
  0
LINE
  5
347
100
AcDbEntity
  8
0
100
AcDbLine
 62
7
  6
CONTINUOUS
 10
-0.5151735976
 20
-13.4254841269
 11
-0.5793238024
 21
-13.4314861754
  0
LINE
  5
348
100
AcDbEntity
  8
0
100
AcDbLine
 62
253
  6
CONTINUOUS
 10
0.6814262341
 20
-14.9559527139
 11
0.770929905
 21
-14.94757919
  0
LINE
  5
349
100
AcDbEntity
  8
0
100
AcDbLine
 62
7
  6
CONTINUOUS
 10
-0.5439992536
 20
-15.1784232704
 11
-0.4848909153
 21
-15.172938712
  0
LINE
  5
34A
100
AcDbEntity
  8
0
100
AcDbLine
 62
7
  6
CONTINUOUS
 10
0.5248937937
 20
-13.338549102
 11
0.4547670201
 21
-13.3450401799
  0
LINE
  5
34B
100
AcDbEntity
  8
0
100
AcDbLine
 62
7
  6
CONTINUOUS
 10
-0.5001227105
 20
-14.9240957826
 11
-0.5689833963
 21
-14.9304767795
  0
LINE
  5
34C
100
AcDbEntity
  8
0
100
AcDbLine
 62
7
  6
CONTINUOUS
 10
-0.5563059707
 20
-13.679619555
 11
-0.4795174319
 21
-13.6724721667
  0
LINE
  5
34D
100
AcDbEntity
  8
0
100
AcDbLine
 62
7
  6
CONTINUOUS
 10
-0.5505590607
 20
-14.1790639227
 11
-0.4760815209
 21
-14.1721539641
  0
LINE
  5
34E
100
AcDbEntity
  8
0
100
AcDbLine
 62
253
  6
CONTINUOUS
 10
-0.7777972365
 20
-14.5682051253
 11
-0.6949394916
 21
-14.5605237107
  0
LINE
  5
34F
100
AcDbEntity
  8
0
100
AcDbLine
 62
7
  6
CONTINUOUS
 10
0.5161922836
 20
-13.8393651884
 11
0.4450957958
 21
-13.8459050379
  0
LINE
  5
350
100
AcDbEntity
  8
0
100
AcDbLine
 62
253
  6
CONTINUOUS
 10
-0.7768391831
 20
-15.0681055597
 11
-0.6936575176
 21
-15.0604005672
  0
LINE
  5
351
100
AcDbEntity
  8
0
100
AcDbLine
 62
7
  6
CONTINUOUS
 10
0.4653328369
 20
-14.594288461
 11
0.5567567794
 21
-14.585831114
  0
LINE
  5
352
100
AcDbEntity
  8
0
100
AcDbLine
 62
253
  6
CONTINUOUS
 10
-0.7776777943
 20
-14.0681968154
 11
-0.6946288262
 21
-14.060501967
  0
LINE
  5
353
100
AcDbEntity
  8
0
100
AcDbLine
 62
7
  6
CONTINUOUS
 10
-0.4554014784
 20
-14.4201138144
 11
-0.5431079207
 21
-14.42804703
  0
LINE
  5
354
100
AcDbEntity
  8
0
100
AcDbLine
 62
7
  6
CONTINUOUS
 10
-0.5177124275
 20
-14.6759596041
 11
-0.433022616
 21
-14.668312238
  0
LINE
  5
355
100
AcDbEntity
  8
0
100
AcDbLine
 62
253
  6
CONTINUOUS
 10
0.6333597977
 20
-13.9602072369
 11
0.7268684825
 21
-13.9518046303
  0
LINE
  5
356
100
AcDbEntity
  8
0
100
AcDbLine
 62
253
  6
CONTINUOUS
 10
0.6305145598
 20
-14.4604482105
 11
0.7244672744
 21
-14.4520198585
  0
LINE
  5
357
100
AcDbEntity
  8
0
100
AcDbLine
 62
7
  6
CONTINUOUS
 10
0.4119912607
 20
-14.0990226863
 11
0.5120909896
 21
-14.0900301952
  0
LINE
  5
358
100
AcDbEntity
  8
0
100
AcDbLine
 62
253
  6
CONTINUOUS
 10
0.6318272899
 20
-13.4603445659
 11
0.7252375851
 21
-13.4519623114
  0
LINE
  5
359
100
AcDbEntity
  8
0
100
AcDbLine
 62
7
  6
CONTINUOUS
 10
0.4038886461
 20
-15.0997185508
 11
0.5042030828
 21
-15.0907467384
  0
LINE
  5
35A
100
AcDbEntity
  8
0
100
AcDbLine
 62
7
  6
CONTINUOUS
 10
0.4784266761
 20
-14.3428712717
 11
0.381274185
 21
-14.3515445964
  0
LINE
  5
35B
100
AcDbEntity
  8
0
100
AcDbLine
 62
7
  6
CONTINUOUS
 10
0.4003296241
 20
-13.6000481945
 11
0.5067471364
 21
-13.5905302395
  0
LINE
  5
35C
100
AcDbEntity
  8
0
100
AcDbLine
 62
7
  6
CONTINUOUS
 10
0.4719113898
 20
-14.8434622504
 11
0.3776825025
 21
-14.8518515753
  0
LINE
  5
35D
100
AcDbEntity
  8
0
100
AcDbLine
 62
253
  6
CONTINUOUS
 10
-0.7393443874
 20
-13.5645627889
 11
-0.6526021897
 21
-13.5568466197
  0
LINE
  5
35E
100
AcDbEntity
  8
0
100
AcDbLine
 62
7
  6
CONTINUOUS
 10
-0.4231464561
 20
-13.4173139875
 11
-0.5151735976
 21
-13.4254841269
  0
LINE
  5
35F
100
AcDbEntity
  8
0
100
AcDbLine
 62
7
  6
CONTINUOUS
 10
-0.4848909153
 20
-15.172938712
 11
-0.398544695
 21
-15.1653032858
  0
LINE
  5
360
100
AcDbEntity
  8
0
100
AcDbLine
 62
7
  6
CONTINUOUS
 10
-0.4206948069
 20
-13.9170938586
 11
-0.5208249755
 21
-13.9259947524
  0
LINE
  5
361
100
AcDbEntity
  8
0
100
AcDbLine
 62
7
  6
CONTINUOUS
 10
-0.4760815209
 20
-14.1721539641
 11
-0.3950241073
 21
-14.165010614
  0
LINE
  5
362
100
AcDbEntity
  8
0
100
AcDbLine
 62
7
  6
CONTINUOUS
 10
-0.4795174319
 20
-13.6724721667
 11
-0.3957105582
 21
-13.6650775313
  0
LINE
  5
363
100
AcDbEntity
  8
0
100
AcDbLine
 62
7
  6
CONTINUOUS
 10
0.4547670201
 20
-13.3450401799
 11
0.3546782002
 21
-13.3538602801
  0
LINE
  5
364
100
AcDbEntity
  8
0
100
AcDbLine
 62
7
  6
CONTINUOUS
 10
-0.4016157044
 20
-14.9154415917
 11
-0.5001227105
 21
-14.9240957826
  0
LINE
  5
365
100
AcDbEntity
  8
0
100
AcDbLine
 62
7
  6
CONTINUOUS
 10
0.4450957958
 20
-13.8459050379
 11
0.3435547369
 21
-13.8548075038
  0
LINE
  5
366
100
AcDbEntity
  8
0
100
AcDbLine
 62
7
  6
CONTINUOUS
 10
0.3494549806
 20
-14.6044092047
 11
0.4653328369
 21
-14.594288461
  0
LINE
  5
367
100
AcDbEntity
  8
0
100
AcDbLine
 62
253
  6
CONTINUOUS
 10
0.585440504
 20
-14.964277241
 11
0.6814262341
 21
-14.9559527139
  0
LINE
  5
368
100
AcDbEntity
  8
0
100
AcDbLine
 62
7
  6
CONTINUOUS
 10
-0.433022616
 20
-14.668312238
 11
-0.3414198792
 21
-14.6604413151
  0
LINE
  5
369
100
AcDbEntity
  8
0
100
AcDbLine
 62
253
  6
CONTINUOUS
 10
-0.6949394916
 20
-14.5605237107
 11
-0.6046011569
 21
-14.5528009074
  0
LINE
  5
36A
100
AcDbEntity
  8
0
100
AcDbLine
 62
253
  6
CONTINUOUS
 10
-0.6936575176
 20
-15.0604005672
 11
-0.6028609882
 21
-15.0526506289
  0
LINE
  5
36B
100
AcDbEntity
  8
0
100
AcDbLine
 62
7
  6
CONTINUOUS
 10
0.3776825025
 20
-14.8518515753
 11
0.2770572353
 21
-14.8604130575
  0
LINE
  5
36C
100
AcDbEntity
  8
0
100
AcDbLine
 62
7
  6
CONTINUOUS
 10
0.381274185
 20
-14.3515445964
 11
0.2758848842
 21
-14.3605181338
  0
LINE
  5
36D
100
AcDbEntity
  8
0
100
AcDbLine
 62
7
  6
CONTINUOUS
 10
-0.3350880658
 20
-14.4098296771
 11
-0.4554014784
 21
-14.4201138144
  0
LINE
  5
36E
100
AcDbEntity
  8
0
100
AcDbLine
 62
253
  6
CONTINUOUS
 10
-0.6946288262
 20
-14.060501967
 11
-0.6041338258
 21
-14.0527706453
  0
LINE
  5
36F
100
AcDbEntity
  8
0
100
AcDbLine
 62
7
  6
CONTINUOUS
 10
-0.398544695
 20
-15.1653032858
 11
-0.303143242
 21
-15.1572339445
  0
LINE
  5
370
100
AcDbEntity
  8
0
100
AcDbLine
 62
7
  6
CONTINUOUS
 10
0.3546782002
 20
-13.3538602801
 11
0.2486104335
 21
-13.3627976518
  0
LINE
  5
371
100
AcDbEntity
  8
0
100
AcDbLine
 62
7
  6
CONTINUOUS
 10
0.2543330045
 20
-14.1123773254
 11
0.4119912607
 21
-14.0990226863
  0
LINE
  5
372
100
AcDbEntity
  8
0
100
AcDbLine
 62
7
  6
CONTINUOUS
 10
-0.3950241073
 20
-14.165010614
 11
-0.284895469
 21
-14.155736595
  0
LINE
  5
373
100
AcDbEntity
  8
0
100
AcDbLine
 62
7
  6
CONTINUOUS
 10
0.3435547369
 20
-13.8548075038
 11
0.2364298217
 21
-13.8637983195
  0
LINE
  5
374
100
AcDbEntity
  8
0
100
AcDbLine
 62
7
  6
CONTINUOUS
 10
-0.3957105582
 20
-13.6650775313
 11
-0.2813624865
 21
-13.6554507122
  0
LINE
  5
375
100
AcDbEntity
  8
0
100
AcDbLine
 62
253
  6
CONTINUOUS
 10
0.5342485355
 20
-13.9685168941
 11
0.6333597977
 21
-13.9602072369
  0
LINE
  5
376
100
AcDbEntity
  8
0
100
AcDbLine
 62
7
  6
CONTINUOUS
 10
0.2381713139
 20
-15.1136921682
 11
0.4038886461
 21
-15.0997185508
  0
LINE
  5
377
100
AcDbEntity
  8
0
100
AcDbLine
 62
253
  6
CONTINUOUS
 10
0.5305242112
 20
-14.4688150263
 11
0.6305145598
 21
-14.4604482105
  0
LINE
  5
378
100
AcDbEntity
  8
0
100
AcDbLine
 62
253
  6
CONTINUOUS
 10
0.5322429096
 20
-13.4686874537
 11
0.6318272899
 21
-13.4603445659
  0
LINE
  5
379
100
AcDbEntity
  8
0
100
AcDbLine
 62
7
  6
CONTINUOUS
 10
0.2315212065
 20
-13.6142572746
 11
0.4003296241
 21
-13.6000481945
  0
LINE
  5
37A
100
AcDbEntity
  8
0
100
AcDbLine
 62
7
  6
CONTINUOUS
 10
-0.2730452653
 20
-13.4047190114
 11
-0.4231464561
 21
-13.4173139875
  0
LINE
  5
37B
100
AcDbEntity
  8
0
100
AcDbLine
 62
7
  6
CONTINUOUS
 10
-0.2646796449
 20
-13.9040298933
 11
-0.4206948069
 21
-13.9170938586
  0
LINE
  5
37C
100
AcDbEntity
  8
0
100
AcDbLine
 62
7
  6
CONTINUOUS
 10
-0.3414198792
 20
-14.6604413151
 11
-0.2237003545
 21
-14.650721985
  0
LINE
  5
37D
100
AcDbEntity
  8
0
100
AcDbLine
 62
253
  6
CONTINUOUS
 10
-0.6526021897
 20
-13.5568466197
 11
-0.5587577302
 21
-13.54908692
  0
LINE
  5
37E
100
AcDbEntity
  8
0
100
AcDbLine
 62
7
  6
CONTINUOUS
 10
0.2770572353
 20
-14.8604130575
 11
0.1442347031
 21
-14.8713014313
  0
LINE
  5
37F
100
AcDbEntity
  8
0
100
AcDbLine
 62
7
  6
CONTINUOUS
 10
-0.2157210442
 20
-14.9000418063
 11
-0.4016157044
 21
-14.9154415917
  0
LINE
  5
380
100
AcDbEntity
  8
0
100
AcDbLine
 62
7
  6
CONTINUOUS
 10
0.2758848842
 20
-14.3605181338
 11
0.1361703703
 21
-14.3719592291
  0
LINE
  5
381
100
AcDbEntity
  8
0
100
AcDbLine
 62
7
  6
CONTINUOUS
 10
0.1426692148
 20
-14.6214536953
 11
0.3494549806
 21
-14.6044092047
  0
LINE
  5
382
100
AcDbEntity
  8
0
100
AcDbLine
 62
7
  6
CONTINUOUS
 10
-0.303143242
 20
-15.1572339445
 11
-0.1708193593
 21
-15.1464431801
  0
LINE
  5
383
100
AcDbEntity
  8
0
100
AcDbLine
 62
253
  6
CONTINUOUS
 10
0.4838503946
 20
-14.9725537898
 11
0.585440504
 21
-14.964277241
  0
LINE
  5
384
100
AcDbEntity
  8
0
100
AcDbLine
 62
7
  6
CONTINUOUS
 10
0.2486104335
 20
-13.3627976518
 11
0.0827993198
 21
-13.3762554861
  0
LINE
  5
385
100
AcDbEntity
  8
0
100
AcDbLine
 62
7
  6
CONTINUOUS
 10
-0.284895469
 20
-14.155736595
 11
-0.1159732279
 21
-14.1420655512
  0
LINE
  5
386
100
AcDbEntity
  8
0
100
AcDbLine
 62
7
  6
CONTINUOUS
 10
0.2364298217
 20
-13.8637983195
 11
0.0713314127
 21
-13.8771652303
  0
LINE
  5
387
100
AcDbEntity
  8
0
100
AcDbLine
 62
7
  6
CONTINUOUS
 10
-0.2813624865
 20
-13.6554507122
 11
-0.1309510593
 21
-13.6432683549
  0
LINE
  5
388
100
AcDbEntity
  8
0
100
AcDbLine
 62
7
  6
CONTINUOUS
 10
-0.1708193593
 20
-15.1464431801
 11
0.2381713139
 21
-15.1136921682
  0
LINE
  5
389
100
AcDbEntity
  8
0
100
AcDbLine
 62
7
  6
CONTINUOUS
 10
0.1442347031
 20
-14.8713014313
 11
-0.2157210442
 21
-14.9000418063
  0
LINE
  5
38A
100
AcDbEntity
  8
0
100
AcDbLine
 62
7
  6
CONTINUOUS
 10
-0.2237003545
 20
-14.650721985
 11
0.1426692148
 21
-14.6214536953
  0
LINE
  5
38B
100
AcDbEntity
  8
0
100
AcDbLine
 62
7
  6
CONTINUOUS
 10
0.1361703703
 20
-14.3719592291
 11
-0.0647162307
 21
-14.3879792915
  0
LINE
  5
38C
100
AcDbEntity
  8
0
100
AcDbLine
 62
7
  6
CONTINUOUS
 10
-0.0647162307
 20
-14.3879792915
 11
-0.3350880658
 21
-14.4098296771
  0
LINE
  5
38D
100
AcDbEntity
  8
0
100
AcDbLine
 62
7
  6
CONTINUOUS
 10
-0.1159732279
 20
-14.1420655512
 11
0.0133512125
 21
-14.1317823471
  0
LINE
  5
38E
100
AcDbEntity
  8
0
100
AcDbLine
 62
7
  6
CONTINUOUS
 10
0.0133512125
 20
-14.1317823471
 11
0.2543330045
 21
-14.1123773254
  0
LINE
  5
38F
100
AcDbEntity
  8
0
100
AcDbLine
 62
7
  6
CONTINUOUS
 10
0.0713314127
 20
-13.8771652303
 11
-0.0640613955
 21
-13.8879338947
  0
LINE
  5
390
100
AcDbEntity
  8
0
100
AcDbLine
 62
7
  6
CONTINUOUS
 10
-0.0640613955
 20
-13.8879338947
 11
-0.2646796449
 21
-13.9040298933
  0
LINE
  5
391
100
AcDbEntity
  8
0
100
AcDbLine
 62
7
  6
CONTINUOUS
 10
-0.1309510593
 20
-13.6432683549
 11
0.2315212065
 21
-13.6142572746
  0
LINE
  5
392
100
AcDbEntity
  8
0
100
AcDbLine
 62
7
  6
CONTINUOUS
 10
0.0827993198
 20
-13.3762554861
 11
-0.2730452653
 21
-13.4047190114
  0
LINE
  5
393
100
AcDbEntity
  8
0
100
AcDbLine
 62
253
  6
CONTINUOUS
 10
-0.6046011569
 20
-14.5528009074
 11
-0.5076858545
 21
-14.5450344728
  0
LINE
  5
394
100
AcDbEntity
  8
0
100
AcDbLine
 62
253
  6
CONTINUOUS
 10
-0.6041338258
 20
-14.0527706453
 11
-0.507890701
 21
-14.0450567732
  0
LINE
  5
395
100
AcDbEntity
  8
0
100
AcDbLine
 62
253
  6
CONTINUOUS
 10
-0.6028609882
 20
-15.0526506289
 11
-0.5054697176
 21
-15.0448564657
  0
LINE
  5
396
100
AcDbEntity
  8
0
100
AcDbLine
 62
253
  6
CONTINUOUS
 10
0.4296773341
 20
-13.9768077781
 11
0.5342485355
 21
-13.9685168941
  0
LINE
  5
397
100
AcDbEntity
  8
0
100
AcDbLine
 62
253
  6
CONTINUOUS
 10
0.425672281
 20
-14.4771106857
 11
0.5305242112
 21
-14.4688150263
  0
LINE
  5
398
100
AcDbEntity
  8
0
100
AcDbLine
 62
253
  6
CONTINUOUS
 10
0.427455788
 20
-13.4769877091
 11
0.5322429096
 21
-13.4686874537
  0
LINE
  5
399
100
AcDbEntity
  8
0
100
AcDbLine
 62
253
  6
CONTINUOUS
 10
-0.5587577302
 20
-13.54908692
 11
-0.4590868185
 21
-13.5413002283
  0
LINE
  5
39A
100
AcDbEntity
  8
0
100
AcDbLine
 62
253
  6
CONTINUOUS
 10
0.3775699682
 20
-14.9807863086
 11
0.4838503946
 21
-14.9725537898
  0
LINE
  5
39B
100
AcDbEntity
  8
0
100
AcDbLine
 62
253
  6
CONTINUOUS
 10
-0.5054697176
 20
-15.0448564657
 11
-0.4028144066
 21
-15.0370350461
  0
LINE
  5
39C
100
AcDbEntity
  8
0
100
AcDbLine
 62
253
  6
CONTINUOUS
 10
-0.5076858545
 20
-14.5450344728
 11
-0.4052431334
 21
-14.5372232797
  0
LINE
  5
39D
100
AcDbEntity
  8
0
100
AcDbLine
 62
253
  6
CONTINUOUS
 10
-0.507890701
 20
-14.0450567732
 11
-0.4059020918
 21
-14.0372775267
  0
LINE
  5
39E
100
AcDbEntity
  8
0
100
AcDbLine
 62
253
  6
CONTINUOUS
 10
-0.4590868185
 20
-13.5413002283
 11
-0.3546841813
 21
-13.5334871191
  0
LINE
  5
39F
100
AcDbEntity
  8
0
100
AcDbLine
 62
253
  6
CONTINUOUS
 10
0.261928458
 20
-14.4894037233
 11
0.425672281
 21
-14.4771106857
  0
LINE
  5
3A0
100
AcDbEntity
  8
0
100
AcDbLine
 62
253
  6
CONTINUOUS
 10
0.2653462185
 20
-13.9891599292
 11
0.4296773341
 21
-13.9768077781
  0
LINE
  5
3A1
100
AcDbEntity
  8
0
100
AcDbLine
 62
253
  6
CONTINUOUS
 10
0.2627635098
 20
-13.4893546623
 11
0.427455788
 21
-13.4769877091
  0
LINE
  5
3A2
100
AcDbEntity
  8
0
100
AcDbLine
 62
253
  6
CONTINUOUS
 10
0.2115757374
 20
-14.9930624317
 11
0.3775699682
 21
-14.9807863086
  0
LINE
  5
3A3
100
AcDbEntity
  8
0
100
AcDbLine
 62
253
  6
CONTINUOUS
 10
-0.4028144066
 20
-15.0370350461
 11
-0.2412602762
 21
-15.0252403239
  0
LINE
  5
3A4
100
AcDbEntity
  8
0
100
AcDbLine
 62
253
  6
CONTINUOUS
 10
-0.4052431334
 20
-14.5372232797
 11
-0.2437322527
 21
-14.525425108
  0
LINE
  5
3A5
100
AcDbEntity
  8
0
100
AcDbLine
 62
253
  6
CONTINUOUS
 10
-0.4059020918
 20
-14.0372775267
 11
-0.2440920079
 21
-14.0254576223
  0
LINE
  5
3A6
100
AcDbEntity
  8
0
100
AcDbLine
 62
253
  6
CONTINUOUS
 10
-0.3546841813
 20
-13.5334871191
 11
-0.1913987518
 21
-13.5216995387
  0
LINE
  5
3A7
100
AcDbEntity
  8
0
100
AcDbLine
 62
253
  6
CONTINUOUS
 10
-0.2412602762
 20
-15.0252403239
 11
0.2115757374
 21
-14.9930624317
  0
LINE
  5
3A8
100
AcDbEntity
  8
0
100
AcDbLine
 62
253
  6
CONTINUOUS
 10
-0.2437322527
 20
-14.525425108
 11
0.261928458
 21
-14.4894037233
  0
LINE
  5
3A9
100
AcDbEntity
  8
0
100
AcDbLine
 62
253
  6
CONTINUOUS
 10
-0.2440920079
 20
-14.0254576223
 11
0.2653462185
 21
-13.9891599292
  0
LINE
  5
3AA
100
AcDbEntity
  8
0
100
AcDbLine
 62
253
  6
CONTINUOUS
 10
-0.1913987518
 20
-13.5216995387
 11
0.2627635098
 21
-13.4893546623
  0
LINE
  5
3AB
100
AcDbEntity
  8
0
100
AcDbLine
 62
7
  6
CONTINUOUS
 10
11.7125
 20
-15.0744680986
 11
11.009375
 21
-15.0744680986
  0
LINE
  5
3AC
100
AcDbEntity
  8
0
100
AcDbLine
 62
7
  6
CONTINUOUS
 10
9.446875
 20
-15.0478723571
 11
9.1604167163
 21
-15.0478723571
  0
LINE
  5
3AD
100
AcDbEntity
  8
0
100
AcDbLine
 62
7
  6
CONTINUOUS
 10
11.0354165673
 20
-14.9680850953
 11
11.5822915673
 21
-14.9680850953
  0
LINE
  5
3AE
100
AcDbEntity
  8
0
100
AcDbLine
 62
7
  6
CONTINUOUS
 10
9.1604167163
 20
-14.9414893538
 11
9.446875
 21
-14.9414893538
  0
LINE
  5
3AF
100
AcDbEntity
  8
0
100
AcDbLine
 62
7
  6
CONTINUOUS
 10
8.9260417163
 20
-14.8617021292
 11
8.7958332837
 21
-14.8617021292
  0
LINE
  5
3B0
100
AcDbEntity
  8
0
100
AcDbLine
 62
7
  6
CONTINUOUS
 10
10.30625
 20
-14.7819149047
 11
10.15
 21
-14.7819149047
  0
LINE
  5
3B1
100
AcDbEntity
  8
0
100
AcDbLine
 62
7
  6
CONTINUOUS
 10
9.2645832837
 20
-14.7553191632
 11
9.1083332837
 21
-14.7553191632
  0
LINE
  5
3B2
100
AcDbEntity
  8
0
100
AcDbLine
 62
7
  6
CONTINUOUS
 10
9.1083332837
 20
-14.6489361972
 11
9.2645832837
 21
-14.6489361972
  0
LINE
  5
3B3
100
AcDbEntity
  8
0
100
AcDbLine
 62
7
  6
CONTINUOUS
 10
10.15
 20
-14.6489361972
 11
10.30625
 21
-14.6489361972
  0
LINE
  5
3B4
100
AcDbEntity
  8
0
100
AcDbLine
 62
7
  6
CONTINUOUS
 10
13.1708331347
 20
-14.6489361972
 11
13.3010418654
 21
-14.6489361972
  0
LINE
  5
3B5
100
AcDbEntity
  8
0
100
AcDbLine
 62
7
  6
CONTINUOUS
 10
13.509375
 20
-14.6489361972
 11
13.6395831347
 21
-14.6489361972
  0
LINE
  5
3B6
100
AcDbEntity
  8
0
100
AcDbLine
 62
7
  6
CONTINUOUS
 10
13.8739581347
 20
-14.6489361972
 11
13.978125
 21
-14.6489361972
  0
LINE
  5
3B7
100
AcDbEntity
  8
0
100
AcDbLine
 62
7
  6
CONTINUOUS
 10
13.3010418654
 20
-14.3829787075
 11
13.1708331347
 21
-14.3829787075
  0
LINE
  5
3B8
100
AcDbEntity
  8
0
100
AcDbLine
 62
7
  6
CONTINUOUS
 10
-0.9625
 20
-14.3
 11
-0.7487315826
 21
-14.3
  0
LINE
  5
3B9
100
AcDbEntity
  8
0
100
AcDbLine
 62
7
  6
CONTINUOUS
 10
7.3375
 20
-14.25
 11
7.571875
 21
-14.25
  0
LINE
  5
3BA
100
AcDbEntity
  8
0
100
AcDbLine
 62
7
  6
CONTINUOUS
 10
8.353125
 20
-14.25
 11
8.5875
 21
-14.25
  0
LINE
  5
3BB
100
AcDbEntity
  8
0
100
AcDbLine
 62
7
  6
CONTINUOUS
 10
10.540625
 20
-14.25
 11
10.6708334327
 21
-14.25
  0
LINE
  5
3BC
100
AcDbEntity
  8
0
100
AcDbLine
 62
7
  6
CONTINUOUS
 10
13.1708331347
 20
-14.25
 11
13.3010418654
 21
-14.25
  0
LINE
  5
3BD
100
AcDbEntity
  8
0
100
AcDbLine
 62
7
  6
CONTINUOUS
 10
-0.9625
 20
-13.9
 11
-0.2150230578
 21
-13.9
  0
LINE
  5
3BE
100
AcDbEntity
  8
0
100
AcDbLine
 62
7
  6
CONTINUOUS
 10
-0.3460313884
 20
-13.838651565
 11
0.1021280852
 21
-13.874700526
  0
LINE
  5
3BF
100
AcDbEntity
  8
0
100
AcDbLine
 62
7
  6
CONTINUOUS
 10
-0.350812613
 20
-13.3382579429
 11
0.1021271042
 21
-13.3747067588
  0
LINE
  5
3C0
100
AcDbEntity
  8
0
100
AcDbLine
 62
7
  6
CONTINUOUS
 10
-0.3600316071
 20
-14.3374709808
 11
0.1021309841
 21
-14.3746946354
  0
LINE
  5
3C1
100
AcDbEntity
  8
0
100
AcDbLine
 62
7
  6
CONTINUOUS
 10
0.318619381
 20
-13.6423753683
 11
0.102284409
 21
-13.6247034044
  0
LINE
  5
3C2
100
AcDbEntity
  8
0
100
AcDbLine
 62
7
  6
CONTINUOUS
 10
0.32570039
 20
-14.6429596783
 11
0.1022917654
 21
-14.6246913306
  0
LINE
  5
3C3
100
AcDbEntity
  8
0
100
AcDbLine
 62
7
  6
CONTINUOUS
 10
0.3349577014
 20
-14.1437469096
 11
0.1024282903
 21
-14.1247083927
  0
LINE
  5
3C4
100
AcDbEntity
  8
0
100
AcDbLine
 62
7
  6
CONTINUOUS
 10
-0.441563178
 20
-14.8304794861
 11
-0.3411759768
 21
-14.8390428622
  0
LINE
  5
3C5
100
AcDbEntity
  8
0
100
AcDbLine
 62
7
  6
CONTINUOUS
 10
-0.4669749611
 20
-13.8282590543
 11
-0.3460313884
 21
-13.838651565
  0
LINE
  5
3C6
100
AcDbEntity
  8
0
100
AcDbLine
 62
7
  6
CONTINUOUS
 10
0.4403145021
 20
-14.6528579699
 11
0.32570039
 21
-14.6429596783
  0
LINE
  5
3C7
100
AcDbEntity
  8
0
100
AcDbLine
 62
7
  6
CONTINUOUS
 10
0.4434672054
 20
-13.6531529108
 11
0.318619381
 21
-13.6423753683
  0
LINE
  5
3C8
100
AcDbEntity
  8
0
100
AcDbLine
 62
7
  6
CONTINUOUS
 10
-0.4750328008
 20
-13.3275506025
 11
-0.350812613
 21
-13.3382579429
  0
LINE
  5
3C9
100
AcDbEntity
  8
0
100
AcDbLine
 62
7
  6
CONTINUOUS
 10
-0.4752334095
 20
-14.3275174394
 11
-0.3600316071
 21
-14.3374709808
  0
LINE
  5
3CA
100
AcDbEntity
  8
0
100
AcDbLine
 62
7
  6
CONTINUOUS
 10
0.4580087789
 20
-14.1544432204
 11
0.3349577014
 21
-14.1437469096
  0
LINE
  5
3CB
100
AcDbEntity
  8
0
100
AcDbLine
 62
7
  6
CONTINUOUS
 10
-0.5282223061
 20
-14.8227146459
 11
-0.441563178
 21
-14.8304794861
  0
LINE
  5
3CC
100
AcDbEntity
  8
0
100
AcDbLine
 62
7
  6
CONTINUOUS
 10
0.522083955
 20
-14.6602843499
 11
0.4403145021
 21
-14.6528579699
  0
LINE
  5
3CD
100
AcDbEntity
  8
0
100
AcDbLine
 62
7
  6
CONTINUOUS
 10
-0.5548905488
 20
-13.8202421793
 11
-0.4669749611
 21
-13.8282590543
  0
LINE
  5
3CE
100
AcDbEntity
  8
0
100
AcDbLine
 62
7
  6
CONTINUOUS
 10
0.537615899
 20
-13.6617508796
 11
0.4434672054
 21
-13.6531529108
  0
LINE
  5
3CF
100
AcDbEntity
  8
0
100
AcDbLine
 62
7
  6
CONTINUOUS
 10
-0.5589890537
 20
-14.3198497788
 11
-0.4752334095
 21
-14.3275174394
  0
LINE
  5
3D0
100
AcDbEntity
  8
0
100
AcDbLine
 62
253
  6
CONTINUOUS
 10
0.2260217488
 20
-14.2625637045
 11
-0.1505571161
 21
-14.228044159
  0
LINE
  5
3D1
100
AcDbEntity
  8
0
100
AcDbLine
 62
253
  6
CONTINUOUS
 10
0.2244335473
 20
-13.7624196529
 11
-0.1509860184
 21
-13.7280109319
  0
LINE
  5
3D2
100
AcDbEntity
  8
0
100
AcDbLine
 62
7
  6
CONTINUOUS
 10
-0.5645652714
 20
-13.3193352557
 11
-0.4750328008
 21
-13.3275506025
  0
LINE
  5
3D3
100
AcDbEntity
  8
0
100
AcDbLine
 62
7
  6
CONTINUOUS
 10
0.5507806699
 20
-14.1629910534
 11
0.4580087789
 21
-14.1544432204
  0
LINE
  5
3D4
100
AcDbEntity
  8
0
100
AcDbLine
 62
253
  6
CONTINUOUS
 10
-0.1969036934
 20
-14.7237533913
 11
-0.2853151012
 21
-14.7154192922
  0
LINE
  5
3D5
100
AcDbEntity
  8
0
100
AcDbLine
 62
253
  6
CONTINUOUS
 10
-0.1505571161
 20
-14.228044159
 11
-0.2871368467
 21
-14.2152521716
  0
LINE
  5
3D6
100
AcDbEntity
  8
0
100
AcDbLine
 62
253
  6
CONTINUOUS
 10
-0.1509860184
 20
-13.7280109319
 11
-0.2863205549
 21
-13.7153357972
  0
LINE
  5
3D7
100
AcDbEntity
  8
0
100
AcDbLine
 62
7
  6
CONTINUOUS
 10
-0.5880097206
 20
-14.8170722626
 11
-0.5282223061
 21
-14.8227146459
  0
LINE
  5
3D8
100
AcDbEntity
  8
0
100
AcDbLine
 62
7
  6
CONTINUOUS
 10
0.5992274037
 20
-14.667673726
 11
0.522083955
 21
-14.6602843499
  0
LINE
  5
3D9
100
AcDbEntity
  8
0
100
AcDbLine
 62
7
  6
CONTINUOUS
 10
0.6040844392
 20
-13.6681634124
 11
0.537615899
 21
-13.6617508796
  0
LINE
  5
3DA
100
AcDbEntity
  8
0
100
AcDbLine
 62
7
  6
CONTINUOUS
 10
-0.6152804763
 20
-13.8144079823
 11
-0.5548905488
 21
-13.8202421793
  0
LINE
  5
3DB
100
AcDbEntity
  8
0
100
AcDbLine
 62
7
  6
CONTINUOUS
 10
-0.6167668545
 20
-14.3142561293
 11
-0.5589890537
 21
-14.3198497788
  0
LINE
  5
3DC
100
AcDbEntity
  8
0
100
AcDbLine
 62
253
  6
CONTINUOUS
 10
0.3609080721
 20
-14.2756238436
 11
0.2260217488
 21
-14.2625637045
  0
LINE
  5
3DD
100
AcDbEntity
  8
0
100
AcDbLine
 62
253
  6
CONTINUOUS
 10
0.3599295736
 20
-13.7755338427
 11
0.2244335473
 21
-13.7624196529
  0
LINE
  5
3DE
100
AcDbEntity
  8
0
100
AcDbLine
 62
253
  6
CONTINUOUS
 10
-0.2853151012
 20
-14.7154192922
 11
-0.3712254675
 21
-14.7070153092
  0
LINE
  5
3DF
100
AcDbEntity
  8
0
100
AcDbLine
 62
253
  6
CONTINUOUS
 10
-0.2863205549
 20
-13.7153357972
 11
-0.3724592958
 21
-13.7069065469
  0
LINE
  5
3E0
100
AcDbEntity
  8
0
100
AcDbLine
 62
253
  6
CONTINUOUS
 10
-0.2871368467
 20
-14.2152521716
 11
-0.3734318017
 21
-14.2068012923
  0
LINE
  5
3E1
100
AcDbEntity
  8
0
100
AcDbLine
 62
7
  6
CONTINUOUS
 10
0.6162426079
 20
-14.1693698779
 11
0.5507806699
 21
-14.1629910534
  0
LINE
  5
3E2
100
AcDbEntity
  8
0
100
AcDbLine
 62
7
  6
CONTINUOUS
 10
-0.6256288466
 20
-13.3133815734
 11
-0.5645652714
 21
-13.3193352557
  0
LINE
  5
3E3
100
AcDbEntity
  8
0
100
AcDbLine
 62
253
  6
CONTINUOUS
 10
0.4046902274
 20
-14.7800482362
 11
0.3497565056
 21
-14.774515923
  0
LINE
  5
3E4
100
AcDbEntity
  8
0
100
AcDbLine
 62
7
  6
CONTINUOUS
 10
-0.6433684206
 20
-14.8115652675
 11
-0.5880097206
 21
-14.8170722626
  0
LINE
  5
3E5
100
AcDbEntity
  8
0
100
AcDbLine
 62
7
  6
CONTINUOUS
 10
0.6477018335
 20
-14.6725612559
 11
0.5992274037
 21
-14.667673726
  0
LINE
  5
3E6
100
AcDbEntity
  8
0
100
AcDbLine
 62
7
  6
CONTINUOUS
 10
-0.6633906021
 20
-13.3095104723
 11
-0.6256288466
 21
-13.3133815734
  0
LINE
  5
3E7
100
AcDbEntity
  8
0
100
AcDbLine
 62
253
  6
CONTINUOUS
 10
0.4467821227
 20
-14.2844373995
 11
0.3609080721
 21
-14.2756238436
  0
LINE
  5
3E8
100
AcDbEntity
  8
0
100
AcDbLine
 62
253
  6
CONTINUOUS
 10
0.4458026007
 20
-13.7843393428
 11
0.3599295736
 21
-13.7755338427
  0
LINE
  5
3E9
100
AcDbEntity
  8
0
100
AcDbLine
 62
7
  6
CONTINUOUS
 10
0.6665169996
 20
-13.6745306653
 11
0.6040844392
 21
-13.6681634124
  0
LINE
  5
3EA
100
AcDbEntity
  8
0
100
AcDbLine
 62
253
  6
CONTINUOUS
 10
-0.3712254675
 20
-14.7070153092
 11
-0.4520397071
 21
-14.6986941377
  0
LINE
  5
3EB
100
AcDbEntity
  8
0
100
AcDbLine
 62
7
  6
CONTINUOUS
 10
-0.6701879257
 20
-14.3087841635
 11
-0.6167668545
 21
-14.3142561293
  0
LINE
  5
3EC
100
AcDbEntity
  8
0
100
AcDbLine
 62
7
  6
CONTINUOUS
 10
-0.6708899858
 20
-13.8087141671
 11
-0.6152804763
 21
-13.8144079823
  0
LINE
  5
3ED
100
AcDbEntity
  8
0
100
AcDbLine
 62
253
  6
CONTINUOUS
 10
-0.3734318017
 20
-14.2068012923
 11
-0.4547139985
 21
-14.1984143343
  0
LINE
  5
3EE
100
AcDbEntity
  8
0
100
AcDbLine
 62
253
  6
CONTINUOUS
 10
-0.3724592958
 20
-13.7069065469
 11
-0.4539536753
 21
-13.6985024239
  0
LINE
  5
3EF
100
AcDbEntity
  8
0
100
AcDbLine
 62
7
  6
CONTINUOUS
 10
0.6776792299
 20
-14.1757031351
 11
0.6162426079
 21
-14.1693698779
  0
LINE
  5
3F0
100
AcDbEntity
  8
0
100
AcDbLine
 62
7
  6
CONTINUOUS
 10
-0.6778598567
 20
-14.80796006
 11
-0.6433684206
 21
-14.8115652675
  0
LINE
  5
3F1
100
AcDbEntity
  8
0
100
AcDbLine
 62
7
  6
CONTINUOUS
 10
0.6936110992
 20
-14.6774082602
 11
0.6477018335
 21
-14.6725612559
  0
LINE
  5
3F2
100
AcDbEntity
  8
0
100
AcDbLine
 62
253
  6
CONTINUOUS
 10
0.4877877328
 20
-14.7888323363
 11
0.4046902274
 21
-14.7800482362
  0
LINE
  5
3F3
100
AcDbEntity
  8
0
100
AcDbLine
 62
7
  6
CONTINUOUS
 10
-0.6988034376
 20
-13.3057149297
 11
-0.6633906021
 21
-13.3095104723
  0
LINE
  5
3F4
100
AcDbEntity
  8
0
100
AcDbLine
 62
7
  6
CONTINUOUS
 10
0.7057576153
 20
-13.6787461647
 11
0.6665169996
 21
-13.6745306653
  0
LINE
  5
3F5
100
AcDbEntity
  8
0
100
AcDbLine
 62
7
  6
CONTINUOUS
 10
-0.7033817813
 20
-14.3051973652
 11
-0.6701879257
 21
-14.3087841635
  0
LINE
  5
3F6
100
AcDbEntity
  8
0
100
AcDbLine
 62
7
  6
CONTINUOUS
 10
-0.7053176756
 20
-13.8049895811
 11
-0.6708899858
 21
-13.8087141671
  0
LINE
  5
3F7
100
AcDbEntity
  8
0
100
AcDbLine
 62
7
  6
CONTINUOUS
 10
0.7162180019
 20
-14.179892828
 11
0.6776792299
 21
-14.1757031351
  0
LINE
  5
3F8
100
AcDbEntity
  8
0
100
AcDbLine
 62
7
  6
CONTINUOUS
 10
-0.7104734202
 20
-14.8043998103
 11
-0.6778598567
 21
-14.80796006
  0
LWPOLYLINE
  5
3F9
100
AcDbEntity
  8
0
100
AcDbPolyline
 62
253
  6
CONTINUOUS
 90
4
 70
0
 10
-0.4520397071
 20
-14.6986941377
 10
-0.5275708146
 20
-14.6903708656
 10
-0.5630988409
 20
-14.6861994163
 10
-0.5899292076
 20
-14.6828905519
  0
LINE
  5
3FA
100
AcDbEntity
  8
0
100
AcDbLine
 62
7
  6
CONTINUOUS
 10
0.7367898746
 20
-14.6822042962
 11
0.6936110992
 21
-14.6774082602
  0
LWPOLYLINE
  5
3FB
100
AcDbEntity
  8
0
100
AcDbPolyline
 62
253
  6
CONTINUOUS
 90
4
 70
0
 10
-0.4547139985
 20
-14.1984143343
 10
-0.5300862391
 20
-14.1900874014
 10
-0.5652947598
 20
-14.1859432931
 10
-0.5899242566
 20
-14.1828972211
  0
LWPOLYLINE
  5
3FC
100
AcDbEntity
  8
0
100
AcDbPolyline
 62
253
  6
CONTINUOUS
 90
4
 70
0
 10
-0.4539536753
 20
-13.6985024239
 10
-0.5295688878
 20
-13.6901509974
 10
-0.5649222856
 20
-13.6859919815
 10
-0.589935226
 20
-13.6829012586
  0
LINE
  5
3FD
100
AcDbEntity
  8
0
100
AcDbLine
 62
7
  6
CONTINUOUS
 10
0.7430446563
 20
-13.682938064
 11
0.7057576153
 21
-13.6787461647
  0
LINE
  5
3FE
100
AcDbEntity
  8
0
100
AcDbLine
 62
7
  6
CONTINUOUS
 10
-0.7318969301
 20
-13.3019909983
 11
-0.6988034376
 21
-13.3057149297
  0
LINE
  5
3FF
100
AcDbEntity
  8
0
100
AcDbLine
 62
7
  6
CONTINUOUS
 10
-0.7346637584
 20
-14.3016545218
 11
-0.7033817813
 21
-14.3051973652
  0
LINE
  5
400
100
AcDbEntity
  8
0
100
AcDbLine
 62
7
  6
CONTINUOUS
 10
-0.7376429353
 20
-13.8013170546
 11
-0.7053176756
 21
-13.8049895811
  0
LINE
  5
401
100
AcDbEntity
  8
0
100
AcDbLine
 62
7
  6
CONTINUOUS
 10
0.7527211515
 20
-14.1840510239
 11
0.7162180019
 21
-14.179892828
  0
LINE
  5
402
100
AcDbEntity
  8
0
100
AcDbLine
 62
7
  6
CONTINUOUS
 10
-0.741240017
 20
-14.800878872
 11
-0.7104734202
 21
-14.8043998103
  0
LINE
  5
403
100
AcDbEntity
  8
0
100
AcDbLine
 62
7
  6
CONTINUOUS
 10
0.7771122766
 20
-14.6869399611
 11
0.7367898746
 21
-14.6822042962
  0
LINE
  5
404
100
AcDbEntity
  8
0
100
AcDbLine
 62
7
  6
CONTINUOUS
 10
0.7783696732
 20
-13.6871096987
 11
0.7430446563
 21
-13.682938064
  0
LINE
  5
405
100
AcDbEntity
  8
0
100
AcDbLine
 62
7
  6
CONTINUOUS
 10
-0.7627047153
 20
-13.2983348681
 11
-0.7318969301
 21
-13.3019909983
  0
LINE
  5
406
100
AcDbEntity
  8
0
100
AcDbLine
 62
7
  6
CONTINUOUS
 10
-0.7640755493
 20
-14.2981497686
 11
-0.7346637584
 21
-14.3016545218
  0
LINE
  5
407
100
AcDbEntity
  8
0
100
AcDbLine
 62
7
  6
CONTINUOUS
 10
0.7871726533
 20
-14.1881775543
 11
0.7527211515
 21
-14.1840510239
  0
LINE
  5
408
100
AcDbEntity
  8
0
100
AcDbLine
 62
7
  6
CONTINUOUS
 10
-0.7678931908
 20
-13.7976908992
 11
-0.7376429353
 21
-13.8013170546
  0
LINE
  5
409
100
AcDbEntity
  8
0
100
AcDbLine
 62
7
  6
CONTINUOUS
 10
-0.7702063553
 20
-14.7973892242
 11
-0.741240017
 21
-14.800878872
  0
LINE
  5
40A
100
AcDbEntity
  8
0
100
AcDbLine
 62
7
  6
CONTINUOUS
 10
0.8116616131
 20
-13.6912565836
 11
0.7783696732
 21
-13.6871096987
  0
LINE
  5
40B
100
AcDbEntity
  8
0
100
AcDbLine
 62
7
  6
CONTINUOUS
 10
-0.7916524664
 20
-14.29467752
 11
-0.7640755493
 21
-14.2981497686
  0
LINE
  5
40C
100
AcDbEntity
  8
0
100
AcDbLine
 62
7
  6
CONTINUOUS
 10
-0.7912846722
 20
-13.2947418616
 11
-0.7627047153
 21
-13.2983348681
  0
LINE
  5
40D
100
AcDbEntity
  8
0
100
AcDbLine
 62
7
  6
CONTINUOUS
 10
0.8195962427
 20
-14.1922767003
 11
0.7871726533
 21
-14.1881775543
  0
LINE
  5
40E
100
AcDbEntity
  8
0
100
AcDbLine
 62
7
  6
CONTINUOUS
 10
-0.7974244969
 20
-14.7939210873
 11
-0.7702063553
 21
-14.7973892242
  0
LWPOLYLINE
  5
40F
100
AcDbEntity
  8
0
100
AcDbPolyline
 62
253
  6
CONTINUOUS
 90
8
 70
0
 10
0.7206571669
 20
-13.8182088212
 10
0.7031466247
 20
-13.8155626293
 10
0.671390343
 20
-13.8110668349
 10
0.6377953833
 20
-13.8065818663
 10
0.6024620735
 20
-13.8021083637
 10
0.5654898938
 20
-13.7976468693
 10
0.5269778792
 20
-13.7931978525
 10
0.4458026007
 20
-13.7843393428
  0
LWPOLYLINE
  5
410
100
AcDbEntity
  8
0
100
AcDbPolyline
 62
253
  6
CONTINUOUS
 90
7
 70
0
 10
0.7206635961
 20
-14.8181979547
 10
0.7036767518
 20
-14.8156249735
 10
0.6718849795
 20
-14.8111172717
 10
0.6381656387
 20
-14.8066139327
 10
0.6026648579
 20
-14.8021206254
 10
0.5656410669
 20
-14.7976547079
 10
0.4877877328
 20
-14.7888323363
  0
LWPOLYLINE
  5
411
100
AcDbEntity
  8
0
100
AcDbPolyline
 62
253
  6
CONTINUOUS
 90
8
 70
0
 10
0.7206404194
 20
-14.3182041214
 10
0.7047926285
 20
-14.3157987562
 10
0.6729573204
 20
-14.3112746487
 10
0.6392647805
 20
-14.3067635121
 10
0.6038566878
 20
-14.3022719569
 10
0.5667913552
 20
-14.2977943872
 10
0.5281821823
 20
-14.2933300326
 10
0.4467821227
 20
-14.2844373995
  0
LINE
  5
412
100
AcDbEntity
  8
0
100
AcDbLine
 62
7
  6
CONTINUOUS
 10
9.134375
 20
-16.5319149047
 11
8.978125
 21
-16.5053191632
  0
LINE
  5
413
100
AcDbEntity
  8
0
100
AcDbLine
 62
7
  6
CONTINUOUS
 10
9.0041667163
 20
-16.3989361972
 11
9.1604167163
 21
-16.4255319387
  0
LINE
  5
414
100
AcDbEntity
  8
0
100
AcDbLine
 62
7
  6
CONTINUOUS
 10
11.9208334327
 20
-16.3989361972
 11
12.0770834327
 21
-16.4255319387
  0
LINE
  5
415
100
AcDbEntity
  8
0
100
AcDbLine
 62
7
  6
CONTINUOUS
 10
11.321875
 20
-15.5
 11
11.165625
 21
-15.4734042562
  0
LINE
  5
416
100
AcDbEntity
  8
0
100
AcDbLine
 62
7
  6
CONTINUOUS
 10
7.9885416418
 20
-16.0
 11
8.11875
 21
-16.0265957415
  0
LINE
  5
417
100
AcDbEntity
  8
0
100
AcDbLine
 62
7
  6
CONTINUOUS
 10
7.65
 20
-17.0638297908
 11
7.7541666791
 21
-17.0904255323
  0
LINE
  5
418
100
AcDbEntity
  8
0
100
AcDbLine
 62
7
  6
CONTINUOUS
 10
8.8739582837
 20
-17.1170212738
 11
8.978125
 21
-17.1436170246
  0
LINE
  5
419
100
AcDbEntity
  8
0
100
AcDbLine
 62
7
  6
CONTINUOUS
 10
11.7125
 20
-17.25
 11
11.6083334327
 21
-17.2234042562
  0
LINE
  5
41A
100
AcDbEntity
  8
0
100
AcDbLine
 62
7
  6
CONTINUOUS
 10
8.0927083582
 20
-16.1861701906
 11
7.9885416418
 21
-16.1595744491
  0
LWPOLYLINE
  5
41B
100
AcDbEntity
  8
0
100
AcDbPolyline
 62
7
  6
CONTINUOUS
 90
17
 70
0
 10
-0.9625
 20
-14.7639394446
 10
-0.9573619799
 20
-14.7653955264
 10
-0.949949063
 20
-14.7673598581
 10
-0.9422791148
 20
-14.7692676709
 10
-0.9343251839
 20
-14.7711309097
 10
-0.9260898548
 20
-14.7729534712
 10
-0.9175139244
 20
-14.7747517335
 10
-0.908577863
 20
-14.7765316696
 10
-0.89927975
 20
-14.7782952561
 10
-0.8895931919
 20
-14.7800487407
 10
-0.879504753
 20
-14.7817953404
 10
-0.8690118118
 20
-14.7835361716
 10
-0.8581112323
 20
-14.7852724014
 10
-0.846799731
 20
-14.7870051619
 10
-0.8350722207
 20
-14.7887359007
 10
-0.8229304367
 20
-14.790465296
 10
-0.7974244969
 20
-14.7939210873
  0
LWPOLYLINE
  5
41C
100
AcDbEntity
  8
0
100
AcDbPolyline
 62
7
  6
CONTINUOUS
 90
19
 70
0
 10
-0.9625
 20
-13.7639550691
 10
-0.9595045601
 20
-13.7648237621
 10
-0.9519381955
 20
-13.7668686128
 10
-0.9440954805
 20
-13.7688511317
 10
-0.9359495654
 20
-13.7707836266
 10
-0.92749509
 20
-13.7726723962
 10
-0.9187054081
 20
-13.7745278597
 10
-0.909581312
 20
-13.7763535943
 10
-0.9001086585
 20
-13.7781557189
 10
-0.890249836
 20
-13.7799437284
 10
-0.8800006323
 20
-13.781720064
 10
-0.8693558705
 20
-13.7834871221
 10
-0.8582798919
 20
-13.7852518388
 10
-0.8467644421
 20
-13.7870161132
 10
-0.8348080491
 20
-13.7887806967
 10
-0.8223858036
 20
-13.7905496078
 10
-0.8094910535
 20
-13.79232394
 10
-0.796121065
 20
-13.7941042052
 10
-0.7678931908
 20
-13.7976908992
  0
LWPOLYLINE
  5
41D
100
AcDbEntity
  8
0
100
AcDbPolyline
 62
7
  6
CONTINUOUS
 90
18
 70
0
 10
-0.9625
 20
-14.2639435853
 10
-0.960776167
 20
-14.2644489672
 10
-0.9535299291
 20
-14.2664330952
 10
-0.9460355969
 20
-14.2683567906
 10
-0.9382655623
 20
-14.2702324681
 10
-0.9302188477
 20
-14.2720649005
 10
-0.9218414581
 20
-14.2738697224
 10
-0.9131118463
 20
-14.2756535386
 10
-0.9040274865
 20
-14.2774185095
 10
-0.8945716136
 20
-14.279169309
 10
-0.8847390312
 20
-14.2809082615
 10
-0.8745231444
 20
-14.2826380407
 10
-0.8639131078
 20
-14.2843617643
 10
-0.8529120517
 20
-14.2860800711
 10
-0.8415125677
 20
-14.2877951732
 10
-0.8296911493
 20
-14.2895113609
 10
-0.817443727
 20
-14.2912297509
 10
-0.7916524664
 20
-14.29467752
  0
LWPOLYLINE
  5
41E
100
AcDbEntity
  8
0
100
AcDbPolyline
 62
7
  6
CONTINUOUS
 90
20
 70
0
 10
1.0375
 20
-14.2327224408
 10
1.0340908284
 20
-14.2316492706
 10
1.0261194952
 20
-14.2293066008
 10
1.0179753062
 20
-14.2270626555
 10
1.0095479469
 20
-14.2248778073
 10
1.0008140137
 20
-14.22274066
 10
0.9917774377
 20
-14.2206475646
 10
0.9823706521
 20
-14.2185796805
 10
0.9725749154
 20
-14.2165312608
 10
0.9623883524
 20
-14.2145005527
 10
0.9517706562
 20
-14.2124786914
 10
0.9407069764
 20
-14.2104626398
 10
0.9291930106
 20
-14.2084513424
 10
0.9172083743
 20
-14.2064407298
 10
0.904746025
 20
-14.2044292667
 10
0.8918022437
 20
-14.2024160395
 10
0.8783646361
 20
-14.2003988936
 10
0.8644273851
 20
-14.1983768231
 10
0.8499888805
 20
-14.1963494672
 10
0.8195962427
 20
-14.1922767003
  0
LWPOLYLINE
  5
41F
100
AcDbEntity
  8
0
100
AcDbPolyline
 62
7
  6
CONTINUOUS
 90
21
 70
0
 10
1.0375
 20
-14.7327086421
 10
1.0354186366
 20
-14.7320443485
 10
1.027293808
 20
-14.7296286569
 10
1.0189048741
 20
-14.7272966207
 10
1.0101443577
 20
-14.7250122377
 10
1.0009760439
 20
-14.7227634729
 10
0.9913910979
 20
-14.7205461905
 10
0.9813266932
 20
-14.7183448399
 10
0.9707607098
 20
-14.7161541579
 10
0.9596777824
 20
-14.7139705642
 10
0.9480315794
 20
-14.7117851052
 10
0.9358034725
 20
-14.7095949864
 10
0.922978802
 20
-14.7073983287
 10
0.9095206914
 20
-14.7051898065
 10
0.8954103827
 20
-14.7029675802
 10
0.8806361476
 20
-14.7007310065
 10
0.8651746125
 20
-14.6984777619
 10
0.8490080585
 20
-14.6962065375
 10
0.8321276408
 20
-14.6939173024
 10
0.8145271432
 20
-14.6916102946
 10
0.7771122766
 20
-14.6869399611
  0
LINE
  5
420
100
AcDbEntity
  8
0
100
AcDbLine
 62
7
  6
CONTINUOUS
 10
8.8479167163
 20
-17.2234042562
 11
8.7697917163
 21
-17.1968085123
  0
LINE
  5
421
100
AcDbEntity
  8
0
100
AcDbLine
 62
253
  6
CONTINUOUS
 10
-12.7125
 20
21.5
 11
-12.7125
 21
22.5
  0
LINE
  5
422
100
AcDbEntity
  8
0
100
AcDbLine
 62
7
  6
CONTINUOUS
 10
-12.4625
 20
22.25
 11
-12.4625
 21
21.75
  0
LINE
  5
423
100
AcDbEntity
  8
0
100
AcDbLine
 62
7
  6
CONTINUOUS
 10
-5.0716689775
 20
17.14989566
 11
-4.9814946849
 21
17.3264871612
  0
LINE
  5
424
100
AcDbEntity
  8
0
100
AcDbLine
 62
7
  6
CONTINUOUS
 10
-4.9428485672
 20
17.3012596389
 11
-5.0716689775
 21
17.0616001981
  0
LINE
  5
425
100
AcDbEntity
  8
0
100
AcDbLine
 62
7
  6
CONTINUOUS
 10
-5.3550738766
 20
15.4092100464
 11
-5.3164277589
 21
15.4722784191
  0
LINE
  5
426
100
AcDbEntity
  8
0
100
AcDbLine
 62
7
  6
CONTINUOUS
 10
-5.1360791736
 20
15.4218236632
 11
-5.097433056
 21
15.4848918915
  0
LINE
  5
427
100
AcDbEntity
  8
0
100
AcDbLine
 62
7
  6
CONTINUOUS
 10
-5.3550738766
 20
14.8542087422
 11
-5.3164277589
 21
14.9172771148
  0
LINE
  5
428
100
AcDbEntity
  8
0
100
AcDbLine
 62
7
  6
CONTINUOUS
 10
-5.1360791736
 20
14.8668223589
 11
-5.097433056
 21
14.9298907316
  0
LINE
  5
429
100
AcDbEntity
  8
0
100
AcDbLine
 62
7
  6
CONTINUOUS
 10
-4.7753820404
 20
15.2326186895
 11
-4.8140281614
 21
15.1695503168
  0
LINE
  5
42A
100
AcDbEntity
  8
0
100
AcDbLine
 62
7
  6
CONTINUOUS
 10
-4.7753820404
 20
14.6776173853
 11
-4.8140281614
 21
14.6145491569
  0
LINE
  5
42B
100
AcDbEntity
  8
0
100
AcDbLine
 62
7
  6
CONTINUOUS
 10
-5.264899602
 20
15.4344374244
 11
-5.2906636804
 21
15.3965962853
  0
LINE
  5
42C
100
AcDbEntity
  8
0
100
AcDbLine
 62
7
  6
CONTINUOUS
 10
-5.0459048991
 20
15.4470508968
 11
-5.0716689775
 21
15.4092100464
  0
LINE
  5
42D
100
AcDbEntity
  8
0
100
AcDbLine
 62
7
  6
CONTINUOUS
 10
-5.264899602
 20
14.8794361201
 11
-5.2906636804
 21
14.8415951254
  0
LINE
  5
42E
100
AcDbEntity
  8
0
100
AcDbLine
 62
7
  6
CONTINUOUS
 10
-4.8655563228
 20
15.2073913116
 11
-4.8397922444
 21
15.2452323063
  0
LINE
  5
42F
100
AcDbEntity
  8
0
100
AcDbLine
 62
7
  6
CONTINUOUS
 10
-5.0459048991
 20
14.8920497369
 11
-5.0716689775
 21
14.8542087422
  0
LINE
  5
430
100
AcDbEntity
  8
0
100
AcDbLine
 62
7
  6
CONTINUOUS
 10
-4.8655563228
 20
14.6523901517
 11
-4.8397922444
 21
14.6902311464
  0
LINE
  5
431
100
AcDbEntity
  8
0
100
AcDbLine
 62
7
  6
CONTINUOUS
 10
-5.3550738766
 20
13.731592589
 11
-5.3164277589
 21
13.7820472005
  0
LWPOLYLINE
  5
432
100
AcDbEntity
  8
0
100
AcDbPolyline
 62
253
  6
CONTINUOUS
 90
6
 70
0
 10
-1.0247350797
 20
-12.1
 10
-1.0168989028
 20
-12.0984125616
 10
-0.9956649638
 20
-12.0946541667
 10
-0.9718216562
 20
-12.0908945779
 10
-0.9454887506
 20
-12.0871392667
 10
-0.9167035833
 20
-12.0833814803
  0
LWPOLYLINE
  5
433
100
AcDbEntity
  8
0
100
AcDbPolyline
 62
7
  6
CONTINUOUS
 90
17
 70
0
 10
-0.8383195588
 20
-12.461145922
 10
-0.8483373813
 20
-12.4626362585
 10
-0.8580102921
 20
-12.4641222119
 10
-0.8673510801
 20
-12.4656055828
 10
-0.8763637321
 20
-12.4670868927
 10
-0.8850562458
 20
-12.4685673634
 10
-0.8934483712
 20
-12.4700504353
 10
-0.9015435177
 20
-12.4715369357
 10
-0.9093508011
 20
-12.4730288204
 10
-0.9168994123
 20
-12.4745323199
 10
-0.9241909811
 20
-12.4760487465
 10
-0.9312365224
 20
-12.477581522
 10
-0.938080107
 20
-12.4791421808
 10
-0.944718556
 20
-12.4807326733
 10
-0.9511671761
 20
-12.4823596895
 10
-0.9574980914
 20
-12.4840464071
 10
-0.9625
 20
-12.4854579723
  0
LWPOLYLINE
  5
434
100
AcDbEntity
  8
0
100
AcDbPolyline
 62
7
  6
CONTINUOUS
 90
17
 70
0
 10
-0.8306520723
 20
-12.9600323572
 10
-0.8418480028
 20
-12.9616606073
 10
-0.8525893051
 20
-12.9632766371
 10
-0.8628903996
 20
-12.9648819972
 10
-0.8727598577
 20
-12.9664774065
 10
-0.8822099484
 20
-12.9680642145
 10
-0.891262894
 20
-12.9696455257
 10
-0.8999270388
 20
-12.9712219742
 10
-0.9082202781
 20
-12.972795976
 10
-0.9161809446
 20
-12.9743743719
 10
-0.9238165779
 20
-12.9759585639
 10
-0.9311444801
 20
-12.9775521553
 10
-0.9382171804
 20
-12.9791674325
 10
-0.9450375948
 20
-12.9808066874
 10
-0.9516252761
 20
-12.9824765468
 10
-0.958056718
 20
-12.9842002527
 10
-0.9625
 20
-12.9854629241
  0
LINE
  5
435
100
AcDbEntity
  8
0
100
AcDbLine
 62
7
  6
CONTINUOUS
 10
-0.814203488
 20
-11.7094689087
 11
-0.7966160456
 21
-11.7068736635
  0
LWPOLYLINE
  5
436
100
AcDbEntity
  8
0
100
AcDbPolyline
 62
7
  6
CONTINUOUS
 90
34
 70
0
 10
0.8649577266
 20
-11.5509772244
 10
0.878283917
 20
-11.5490430536
 10
0.8910913427
 20
-11.5471225588
 10
0.9033896632
 20
-11.5452150627
 10
0.9151919173
 20
-11.543319318
 10
0.9265052328
 20
-11.5414349856
 10
0.9373440315
 20
-11.5395606767
 10
0.9477347144
 20
-11.5376929987
 10
0.9576860758
 20
-11.535831475
 10
0.9672156192
 20
-11.5339739213
 10
0.9763627714
 20
-11.5321133379
 10
0.9851355547
 20
-11.5302484299
 10
0.99355068
 20
-11.5283758906
 10
1.0016599511
 20
-11.5264836309
 10
1.0094664392
 20
-11.524569649
 10
1.0169894896
 20
-11.5226276472
 10
1.0243040522
 20
-11.5206348957
 10
1.0314093064
 20
-11.5185864744
 10
1.0383235371
 20
-11.5164712255
 10
1.0451489371
 20
-11.5142481377
 10
1.051891552
 20
-11.5119010308
 10
1.0585544877
 20
-11.5094125376
 10
1.0652376458
 20
-11.5067226168
 10
1.071938839
 20
-11.5038015088
 10
1.0786611971
 20
-11.5006122119
 10
1.0855107074
 20
-11.497055361
 10
1.0924892535
 20
-11.4930627514
 10
1.0995512376
 20
-11.4885814726
 10
1.1067132154
 20
-11.4835036901
 10
1.1139344643
 20
-11.477732768
 10
1.1211134438
 20
-11.4711986202
 10
1.1281485291
 20
-11.46381691
 10
1.1349950208
 20
-11.4554355
 10
1.1375
 20
-11.4518068993
  0
LWPOLYLINE
  5
437
100
AcDbEntity
  8
0
100
AcDbPolyline
 62
7
  6
CONTINUOUS
 90
19
 70
0
 10
0.8634400989
 20
-12.5511798193
 10
0.8769886536
 20
-12.549217704
 10
0.8900122757
 20
-12.5472686391
 10
0.9025211206
 20
-12.5453320322
 10
0.9145217029
 20
-12.5434078629
 10
0.9260222589
 20
-12.5414958884
 10
0.9370380694
 20
-12.5395946717
 10
0.9475892893
 20
-12.5377017492
 10
0.9576823447
 20
-12.5358169773
 10
0.9673369344
 20
-12.5339376844
 10
0.9765942701
 20
-12.5320564124
 10
0.9854628478
 20
-12.5301716234
 10
0.9939593869
 20
-12.5282798602
 10
1.0021369246
 20
-12.526368575
 10
1.0100013039
 20
-12.5244348712
 10
1.0175708902
 20
-12.5224726808
 10
1.0249166602
 20
-12.5204606266
 10
1.0320369764
 20
-12.5183946201
 10
1.0375
 20
-12.5167110862
  0
LWPOLYLINE
  5
438
100
AcDbEntity
  8
0
100
AcDbPolyline
 62
7
  6
CONTINUOUS
 90
33
 70
0
 10
0.8634605723
 20
-12.0511874995
 10
0.8771956338
 20
-12.0491986383
 10
0.8904329734
 20
-12.0472160324
 10
0.9031775936
 20
-12.0452393661
 10
0.9154352544
 20
-12.0432682129
 10
0.9272164828
 20
-12.0413013411
 10
0.9385365024
 20
-12.0393365756
 10
0.9494020186
 20
-12.0373730539
 10
0.9598255408
 20
-12.0354087759
 10
0.9698341101
 20
-12.0334386132
 10
0.9794340617
 20
-12.0314610307
 10
0.9886406569
 20
-12.0294724695
 10
0.9974975106
 20
-12.0274623551
 10
1.0060129776
 20
-12.02542688
 10
1.0142016456
 20
-12.023360299
 10
1.0221212034
 20
-12.0212443387
 10
1.0297789217
 20
-12.0190717693
 10
1.0371934798
 20
-12.0168311347
 10
1.0444458325
 20
-12.0144885768
 10
1.0515389715
 20
-12.0120303301
 10
1.058496471
 20
-12.0094337703
 10
1.0654328375
 20
-12.0066346118
 10
1.072356527
 20
-12.0035991312
 10
1.0792690951
 20
-12.0002912462
 10
1.0862691774
 20
-11.9966156257
 10
1.0933645987
 20
-11.9925022132
 10
1.10050962
 20
-11.9878996257
 10
1.107705081
 20
-11.9827129815
 10
1.1149095473
 20
-11.9768528104
 10
1.1220307925
 20
-11.9702503375
 10
1.1289698079
 20
-11.9628319418
 10
1.1356831085
 20
-11.9544640262
 10
1.1375
 20
-11.9517870908
  0
LWPOLYLINE
  5
439
100
AcDbEntity
  8
0
100
AcDbPolyline
 62
7
  6
CONTINUOUS
 90
33
 70
0
 10
-0.8283160763
 20
-11.9597131222
 10
-0.8397927593
 20
-11.9613735524
 10
-0.8507987915
 20
-11.9630212702
 10
-0.8613467175
 20
-11.9646572999
 10
-0.8714464087
 20
-11.9662822918
 10
-0.8811118717
 20
-11.9678976012
 10
-0.8903643362
 20
-11.9695059696
 10
-0.8992113762
 20
-11.9711079456
 10
-0.907671428
 20
-11.9727061133
 10
-0.9157833864
 20
-11.9743074771
 10
-0.9235543778
 20
-11.9759134353
 10
-0.931002751
 20
-11.9775278766
 10
-0.9381843274
 20
-11.9791639125
 10
-0.9451046911
 20
-11.9808247028
 10
-0.9517818623
 20
-11.9825167954
 10
-0.9582895717
 20
-11.9842629698
 10
-0.9646244246
 20
-11.98606794
 10
-0.9708114878
 20
-11.9879450801
 10
-0.9769650606
 20
-11.9899398462
 10
-0.9830896097
 20
-11.9920695469
 10
-0.9891908188
 20
-11.9943543733
 10
-0.9953834965
 20
-11.9968633108
 10
-1.0016716176
 20
-11.9996338974
 10
-1.0080459301
 20
-12.0027038677
 10
-1.0145970522
 20
-12.0061722818
 10
-1.0213264196
 20
-12.0101146941
 10
-1.0281771163
 20
-12.014586025
 10
-1.0351341046
 20
-12.0196822459
 10
-1.0421601536
 20
-12.0255109775
 10
-1.0491330391
 20
-12.0321336234
 10
-1.0558971691
 20
-12.0395723322
 10
-1.0624026969
 20
-12.0479413203
 10
-1.0625
 20
-12.0480897831
  0
LWPOLYLINE
  5
43A
100
AcDbEntity
  8
0
100
AcDbPolyline
 62
253
  6
CONTINUOUS
 90
7
 70
0
 10
-0.9625
 20
-12.5895584263
 10
-0.9473836549
 20
-12.5873868417
 10
-0.9185114138
 20
-12.5835984218
 10
-0.8871222591
 20
-12.5797987716
 10
-0.8533470111
 20
-12.5759918737
 10
-0.8173059447
 20
-12.5721790321
 10
-0.7790849372
 20
-12.5683578332
  0
LINE
  5
43B
100
AcDbEntity
  8
0
100
AcDbLine
 62
7
  6
CONTINUOUS
 10
0.8492978859
 20
-12.8014436358
 11
0.8262844113
 21
-12.8047954878
  0
LINE
  5
43C
100
AcDbEntity
  8
0
100
AcDbLine
 62
7
  6
CONTINUOUS
 10
-0.8100841463
 20
-12.7088279074
 11
-0.7921529677
 21
-12.7062197992
  0
LINE
  5
43D
100
AcDbEntity
  8
0
100
AcDbLine
 62
7
  6
CONTINUOUS
 10
0.8481816232
 20
-12.3016185639
 11
0.8257392435
 21
-12.3048823109
  0
LINE
  5
43E
100
AcDbEntity
  8
0
100
AcDbLine
 62
7
  6
CONTINUOUS
 10
0.8473727172
 20
-11.3017548923
 11
0.8250696982
 21
-11.304988113
  0
LWPOLYLINE
  5
43F
100
AcDbEntity
  8
0
100
AcDbPolyline
 62
7
  6
CONTINUOUS
 90
19
 70
0
 10
0.85628151
 20
-13.0521826493
 10
0.8704489102
 20
-13.0501649567
 10
0.8841185556
 20
-13.0481526006
 10
0.897292437
 20
-13.0461452506
 10
0.9099742047
 20
-13.0441423351
 10
0.9221709163
 20
-13.0421427134
 10
0.9338936625
 20
-13.040144465
 10
0.9451482801
 20
-13.0381464232
 10
0.9559441411
 20
-13.0361467015
 10
0.9663017034
 20
-13.034141077
 10
0.9762274576
 20
-13.0321279992
 10
0.9857385373
 20
-13.0301038696
 10
0.9948759455
 20
-13.0280591711
 10
1.0036463481
 20
-13.0259910043
 10
1.0120695243
 20
-13.023892971
 10
1.0202099149
 20
-13.0217456711
 10
1.0280789089
 20
-13.0195409854
 10
1.0356914193
 20
-13.0172687635
 10
1.0375
 20
-13.016691698
  0
LWPOLYLINE
  5
440
100
AcDbEntity
  8
0
100
AcDbPolyline
 62
253
  6
CONTINUOUS
 90
7
 70
0
 10
-0.9625
 20
-13.089544401
 10
-0.9450197772
 20
-13.0870577454
 10
-0.9161730114
 20
-13.08330229
 10
-0.8849169679
 20
-13.0795393803
 10
-0.851337719
 20
-13.0757683981
 10
-0.8155009119
 20
-13.0719866407
 10
-0.7774855337
 20
-13.0681931414
  0
LINE
  5
441
100
AcDbEntity
  8
0
100
AcDbLine
 62
7
  6
CONTINUOUS
 10
0.8431011642
 20
-11.8023854945
 11
0.8198905456
 21
-11.8057107498
  0
LINE
  5
442
100
AcDbEntity
  8
0
100
AcDbLine
 62
7
  6
CONTINUOUS
 10
-0.8038551776
 20
-13.2079007285
 11
-0.7844701411
 21
-13.2051449405
  0
LINE
  5
443
100
AcDbEntity
  8
0
100
AcDbLine
 62
7
  6
CONTINUOUS
 10
-0.8172252888
 20
-12.4581494227
 11
-0.8383195588
 21
-12.461145922
  0
LINE
  5
444
100
AcDbEntity
  8
0
100
AcDbLine
 62
7
  6
CONTINUOUS
 10
-0.8023808712
 20
-12.2076986745
 11
-0.7825031045
 21
-12.2048842225
  0
LINE
  5
445
100
AcDbEntity
  8
0
100
AcDbLine
 62
7
  6
CONTINUOUS
 10
-0.7966160456
 20
-11.7068736635
 11
-0.7775441791
 21
-11.7042182558
  0
LINE
  5
446
100
AcDbEntity
  8
0
100
AcDbLine
 62
7
  6
CONTINUOUS
 10
0.8367182445
 20
-11.5548881546
 11
0.8649577266
 21
-11.5509772244
  0
LINE
  5
447
100
AcDbEntity
  8
0
100
AcDbLine
 62
7
  6
CONTINUOUS
 10
-0.8068579838
 20
-12.9567361552
 11
-0.8306520723
 21
-12.9600323572
  0
LINE
  5
448
100
AcDbEntity
  8
0
100
AcDbLine
 62
7
  6
CONTINUOUS
 10
0.8347394365
 20
-12.5551438607
 11
0.8634400989
 21
-12.5511798193
  0
LINE
  5
449
100
AcDbEntity
  8
0
100
AcDbLine
 62
7
  6
CONTINUOUS
 10
0.8344779444
 20
-12.0551860221
 11
0.8634605723
 21
-12.0511874995
  0
LINE
  5
44A
100
AcDbEntity
  8
0
100
AcDbLine
 62
7
  6
CONTINUOUS
 10
-0.8039079744
 20
-11.9563513049
 11
-0.8283160763
 21
-11.9597131222
  0
LINE
  5
44B
100
AcDbEntity
  8
0
100
AcDbLine
 62
7
  6
CONTINUOUS
 10
0.8262844113
 20
-12.8047954878
 11
0.8013211422
 21
-12.8082244182
  0
LINE
  5
44C
100
AcDbEntity
  8
0
100
AcDbLine
 62
7
  6
CONTINUOUS
 10
-0.7921529677
 20
-12.7062197992
 11
-0.7725182339
 21
-12.7035251089
  0
LINE
  5
44D
100
AcDbEntity
  8
0
100
AcDbLine
 62
7
  6
CONTINUOUS
 10
0.8257392435
 20
-12.3048823109
 11
0.8013595825
 21
-12.308230026
  0
LINE
  5
44E
100
AcDbEntity
  8
0
100
AcDbLine
 62
7
  6
CONTINUOUS
 10
0.8250696982
 20
-11.304988113
 11
0.8008951325
 21
-11.3083005134
  0
LINE
  5
44F
100
AcDbEntity
  8
0
100
AcDbLine
 62
7
  6
CONTINUOUS
 10
0.8264548897
 20
-13.056234194
 11
0.85628151
 21
-13.0521826493
  0
LINE
  5
450
100
AcDbEntity
  8
0
100
AcDbLine
 62
7
  6
CONTINUOUS
 10
0.8198905456
 20
-11.8057107498
 11
0.7947410869
 21
-11.8091127856
  0
LINE
  5
451
100
AcDbEntity
  8
0
100
AcDbLine
 62
7
  6
CONTINUOUS
 10
-0.7844701411
 20
-13.2051449405
 11
-0.7632577303
 21
-13.2023000975
  0
LINE
  5
452
100
AcDbEntity
  8
0
100
AcDbLine
 62
7
  6
CONTINUOUS
 10
-0.7946858234
 20
-12.4551274059
 11
-0.8172252888
 21
-12.4581494227
  0
LINE
  5
453
100
AcDbEntity
  8
0
100
AcDbLine
 62
7
  6
CONTINUOUS
 10
-0.7825031045
 20
-12.2048842225
 11
-0.7607270586
 21
-12.201978826
  0
LINE
  5
454
100
AcDbEntity
  8
0
100
AcDbLine
 62
7
  6
CONTINUOUS
 10
-0.7775441791
 20
-11.7042182558
 11
-0.7570106768
 21
-11.7015095556
  0
LINE
  5
455
100
AcDbEntity
  8
0
100
AcDbLine
 62
7
  6
CONTINUOUS
 10
0.80631562
 20
-11.5588580206
 11
0.8367182445
 21
-11.5548881546
  0
LINE
  5
456
100
AcDbEntity
  8
0
100
AcDbLine
 62
7
  6
CONTINUOUS
 10
-0.7811387214
 20
-12.9533831951
 11
-0.8068579838
 21
-12.9567361552
  0
LINE
  5
457
100
AcDbEntity
  8
0
100
AcDbLine
 62
7
  6
CONTINUOUS
 10
0.8013211422
 20
-12.8082244182
 11
0.7744110216
 21
-12.8117236415
  0
LINE
  5
458
100
AcDbEntity
  8
0
100
AcDbLine
 62
7
  6
CONTINUOUS
 10
0.8038810184
 20
-12.5591587233
 11
0.8347394365
 21
-12.5551438607
  0
LINE
  5
459
100
AcDbEntity
  8
0
100
AcDbLine
 62
7
  6
CONTINUOUS
 10
-0.7725182339
 20
-12.7035251089
 11
-0.7511271084
 21
-12.7007442323
  0
LINE
  5
45A
100
AcDbEntity
  8
0
100
AcDbLine
 62
7
  6
CONTINUOUS
 10
0.8013595825
 20
-12.308230026
 11
0.7750101509
 21
-12.311657382
  0
LINE
  5
45B
100
AcDbEntity
  8
0
100
AcDbLine
 62
7
  6
CONTINUOUS
 10
0.8008951325
 20
-11.3083005134
 11
0.7748276566
 21
-11.3116884292
  0
LINE
  5
45C
100
AcDbEntity
  8
0
100
AcDbLine
 62
7
  6
CONTINUOUS
 10
0.8034784936
 20
-12.0592133125
 11
0.8344779444
 21
-12.0551860221
  0
LINE
  5
45D
100
AcDbEntity
  8
0
100
AcDbLine
 62
7
  6
CONTINUOUS
 10
-0.7774964702
 20
-11.9529313466
 11
-0.8039079744
 21
-11.9563513049
  0
LINE
  5
45E
100
AcDbEntity
  8
0
100
AcDbLine
 62
7
  6
CONTINUOUS
 10
0.7947410869
 20
-11.8091127856
 11
0.7676654843
 21
-11.812584847
  0
LINE
  5
45F
100
AcDbEntity
  8
0
100
AcDbLine
 62
7
  6
CONTINUOUS
 10
0.7945543924
 20
-13.0603187763
 11
0.8264548897
 21
-13.056234194
  0
LINE
  5
460
100
AcDbEntity
  8
0
100
AcDbLine
 62
7
  6
CONTINUOUS
 10
-0.770668119
 20
-12.4520750715
 11
-0.7946858234
 21
-12.4551274059
  0
LINE
  5
461
100
AcDbEntity
  8
0
100
AcDbLine
 62
7
  6
CONTINUOUS
 10
-0.7632577303
 20
-13.2023000975
 11
-0.740187869
 21
-13.1993698795
  0
LINE
  5
462
100
AcDbEntity
  8
0
100
AcDbLine
 62
7
  6
CONTINUOUS
 10
-0.7607270586
 20
-12.201978826
 11
-0.7370232482
 21
-12.1989875497
  0
LINE
  5
463
100
AcDbEntity
  8
0
100
AcDbLine
 62
7
  6
CONTINUOUS
 10
-0.7570106768
 20
-11.7015095556
 11
-0.7350315159
 21
-11.6987522173
  0
LINE
  5
464
100
AcDbEntity
  8
0
100
AcDbLine
 62
7
  6
CONTINUOUS
 10
0.7748276566
 20
-11.3116884292
 11
0.7468451551
 21
-11.3151491085
  0
LINE
  5
465
100
AcDbEntity
  8
0
100
AcDbLine
 62
7
  6
CONTINUOUS
 10
-0.7511271084
 20
-12.7007442323
 11
-0.7279129436
 21
-12.6978755094
  0
LINE
  5
466
100
AcDbEntity
  8
0
100
AcDbLine
 62
7
  6
CONTINUOUS
 10
0.7750101509
 20
-12.311657382
 11
0.7466649098
 21
-12.3151610034
  0
LINE
  5
467
100
AcDbEntity
  8
0
100
AcDbLine
 62
7
  6
CONTINUOUS
 10
0.7744110216
 20
-12.8117236415
 11
0.7455840083
 21
-12.8152844933
  0
LINE
  5
468
100
AcDbEntity
  8
0
100
AcDbLine
 62
7
  6
CONTINUOUS
 10
0.7736982255
 20
-11.5628890225
 11
0.80631562
 21
-11.5588580206
  0
LINE
  5
469
100
AcDbEntity
  8
0
100
AcDbLine
 62
7
  6
CONTINUOUS
 10
-0.7534301601
 20
-12.9499691949
 11
-0.7811387214
 21
-12.9533831951
  0
LINE
  5
46A
100
AcDbEntity
  8
0
100
AcDbLine
 62
7
  6
CONTINUOUS
 10
0.7707621599
 20
-12.5632325934
 11
0.8038810184
 21
-12.5591587233
  0
LINE
  5
46B
100
AcDbEntity
  8
0
100
AcDbLine
 62
7
  6
CONTINUOUS
 10
0.770434344
 20
-12.0632745218
 11
0.8034784936
 21
-12.0592133125
  0
LWPOLYLINE
  5
46C
100
AcDbEntity
  8
0
100
AcDbPolyline
 62
253
  6
CONTINUOUS
 90
5
 70
0
 10
-0.9167035833
 20
-12.0833814803
 10
-0.8854026081
 20
-12.0796046313
 10
-0.8515411486
 20
-12.0757983741
 10
-0.8152539052
 20
-12.0719715479
 10
-0.7767611461
 20
-12.0681364084
  0
LINE
  5
46D
100
AcDbEntity
  8
0
100
AcDbLine
 62
7
  6
CONTINUOUS
 10
0.7676654843
 20
-11.812584847
 11
0.738678314
 21
-11.8161214477
  0
LINE
  5
46E
100
AcDbEntity
  8
0
100
AcDbLine
 62
7
  6
CONTINUOUS
 10
-0.7490081843
 20
-11.9494492692
 11
-0.7774964702
 21
-11.9529313466
  0
LINE
  5
46F
100
AcDbEntity
  8
0
100
AcDbLine
 62
7
  6
CONTINUOUS
 10
0.7605082547
 20
-13.0644446363
 11
0.7945543924
 21
-13.0603187763
  0
LINE
  5
470
100
AcDbEntity
  8
0
100
AcDbLine
 62
7
  6
CONTINUOUS
 10
-0.745126316
 20
-12.4489863863
 11
-0.770668119
 21
-12.4520750715
  0
LINE
  5
471
100
AcDbEntity
  8
0
100
AcDbLine
 62
7
  6
CONTINUOUS
 10
-0.740187869
 20
-13.1993698795
 11
-0.7152433937
 21
-13.1963584652
  0
LINE
  5
472
100
AcDbEntity
  8
0
100
AcDbLine
 62
7
  6
CONTINUOUS
 10
-0.7370232482
 20
-12.1989875497
 11
-0.7113959708
 21
-12.1959169693
  0
LINE
  5
473
100
AcDbEntity
  8
0
100
AcDbLine
 62
7
  6
CONTINUOUS
 10
-0.7350315159
 20
-11.6987522173
 11
-0.7116170133
 21
-11.6959492832
  0
LINE
  5
474
100
AcDbEntity
  8
0
100
AcDbLine
 62
7
  6
CONTINUOUS
 10
0.7468451551
 20
-11.3151491085
 11
0.7169236974
 21
-11.3186806888
  0
LINE
  5
475
100
AcDbEntity
  8
0
100
AcDbLine
 62
7
  6
CONTINUOUS
 10
-0.7279129436
 20
-12.6978755094
 11
-0.70279299
 21
-12.6949153324
  0
LINE
  5
476
100
AcDbEntity
  8
0
100
AcDbLine
 62
7
  6
CONTINUOUS
 10
0.7466649098
 20
-12.3151610034
 11
0.7163148649
 21
-12.3187379584
  0
LINE
  5
477
100
AcDbEntity
  8
0
100
AcDbLine
 62
7
  6
CONTINUOUS
 10
0.7455840083
 20
-12.8152844933
 11
0.7148752838
 21
-12.8188994082
  0
LINE
  5
478
100
AcDbEntity
  8
0
100
AcDbLine
 62
7
  6
CONTINUOUS
 10
-0.7279050724
 20
-11.4469914244
 11
-0.7546190129
 21
-11.4501292568
  0
LINE
  5
479
100
AcDbEntity
  8
0
100
AcDbLine
 62
7
  6
CONTINUOUS
 10
0.7388076218
 20
-11.5669844003
 11
0.7736982255
 21
-11.5628890225
  0
LINE
  5
47A
100
AcDbEntity
  8
0
100
AcDbLine
 62
7
  6
CONTINUOUS
 10
-0.7236701574
 20
-12.9464900577
 11
-0.7534301601
 21
-12.9499691949
  0
LINE
  5
47B
100
AcDbEntity
  8
0
100
AcDbLine
 62
7
  6
CONTINUOUS
 10
0.7353043068
 20
-12.5673722829
 11
0.7707621599
 21
-12.5632325934
  0
LINE
  5
47C
100
AcDbEntity
  8
0
100
AcDbLine
 62
7
  6
CONTINUOUS
 10
0.7352663454
 20
-12.0673802944
 11
0.770434344
 21
-12.0632745218
  0
LINE
  5
47D
100
AcDbEntity
  8
0
100
AcDbLine
 62
7
  6
CONTINUOUS
 10
0.738678314
 20
-11.8161214477
 11
0.7078220929
 21
-11.8197151541
  0
LINE
  5
47E
100
AcDbEntity
  8
0
100
AcDbLine
 62
7
  6
CONTINUOUS
 10
-0.7183878774
 20
-11.9459013522
 11
-0.7490081843
 21
-11.9494492692
  0
LINE
  5
47F
100
AcDbEntity
  8
0
100
AcDbLine
 62
7
  6
CONTINUOUS
 10
-0.7180482546
 20
-12.4458596488
 11
-0.745126316
 21
-12.4489863863
  0
LINE
  5
480
100
AcDbEntity
  8
0
100
AcDbLine
 62
7
  6
CONTINUOUS
 10
-0.7152433937
 20
-13.1963584652
 11
-0.6884387703
 21
-13.1932724532
  0
LINE
  5
481
100
AcDbEntity
  8
0
100
AcDbLine
 62
7
  6
CONTINUOUS
 10
0.7241892119
 20
-13.0686251629
 11
0.7605082547
 21
-13.0644446363
  0
LINE
  5
482
100
AcDbEntity
  8
0
100
AcDbLine
 62
7
  6
CONTINUOUS
 10
-0.7116170133
 20
-11.6959492832
 11
-0.6867832949
 21
-11.6931037873
  0
LINE
  5
483
100
AcDbEntity
  8
0
100
AcDbLine
 62
7
  6
CONTINUOUS
 10
-0.7113959708
 20
-12.1959169693
 11
-0.6838692738
 21
-12.1927732078
  0
LINE
  5
484
100
AcDbEntity
  8
0
100
AcDbLine
 62
7
  6
CONTINUOUS
 10
0.7169236974
 20
-11.3186806888
 11
0.6850374445
 21
-11.3222820667
  0
LINE
  5
485
100
AcDbEntity
  8
0
100
AcDbLine
 62
7
  6
CONTINUOUS
 10
-0.70279299
 20
-12.6949153324
 11
-0.6757117258
 21
-12.6918632354
  0
LINE
  5
486
100
AcDbEntity
  8
0
100
AcDbLine
 62
7
  6
CONTINUOUS
 10
0.7163148649
 20
-12.3187379584
 11
0.6839566295
 21
-12.3223857582
  0
LINE
  5
487
100
AcDbEntity
  8
0
100
AcDbLine
 62
7
  6
CONTINUOUS
 10
0.7148752838
 20
-12.8188994082
 11
0.6823165695
 21
-12.8225630917
  0
LINE
  5
488
100
AcDbEntity
  8
0
100
AcDbLine
 62
7
  6
CONTINUOUS
 10
-0.6996453325
 20
-11.4438175939
 11
-0.7279050724
 21
-11.4469914244
  0
LINE
  5
489
100
AcDbEntity
  8
0
100
AcDbLine
 62
7
  6
CONTINUOUS
 10
0.7015568196
 20
-11.5711505645
 11
0.7388076218
 21
-11.5669844003
  0
LINE
  5
48A
100
AcDbEntity
  8
0
100
AcDbLine
 62
7
  6
CONTINUOUS
 10
0.7078220929
 20
-11.8197151541
 11
0.6751432759
 21
-11.8233596267
  0
LINE
  5
48B
100
AcDbEntity
  8
0
100
AcDbLine
 62
7
  6
CONTINUOUS
 10
-0.6917984332
 20
-12.9429418074
 11
-0.7236701574
 21
-12.9464900577
  0
LINE
  5
48C
100
AcDbEntity
  8
0
100
AcDbLine
 62
7
  6
CONTINUOUS
 10
0.6978620194
 20
-12.0715435828
 11
0.7352663454
 21
-12.0673802944
  0
LINE
  5
48D
100
AcDbEntity
  8
0
100
AcDbLine
 62
7
  6
CONTINUOUS
 10
0.697379274
 20
-12.5715903833
 11
0.7353043068
 21
-12.5673722829
  0
LINE
  5
48E
100
AcDbEntity
  8
0
100
AcDbLine
 62
7
  6
CONTINUOUS
 10
-0.6894248811
 20
-12.4426932632
 11
-0.7180482546
 21
-12.4458596488
  0
LINE
  5
48F
100
AcDbEntity
  8
0
100
AcDbLine
 62
7
  6
CONTINUOUS
 10
-0.6884387703
 20
-13.1932724532
 11
-0.6597778879
 21
-13.1901157571
  0
LINE
  5
490
100
AcDbEntity
  8
0
100
AcDbLine
 62
7
  6
CONTINUOUS
 10
-0.6855961979
 20
-11.9422842739
 11
-0.7183878774
 21
-11.9459013522
  0
LINE
  5
491
100
AcDbEntity
  8
0
100
AcDbLine
 62
7
  6
CONTINUOUS
 10
0.6854834412
 20
-13.0728711878
 11
0.7241892119
 21
-13.0686251629
  0
LINE
  5
492
100
AcDbEntity
  8
0
100
AcDbLine
 62
7
  6
CONTINUOUS
 10
-0.6838692738
 20
-12.1927732078
 11
-0.6544617184
 21
-12.1895601795
  0
LINE
  5
493
100
AcDbEntity
  8
0
100
AcDbLine
 62
7
  6
CONTINUOUS
 10
-0.6867832949
 20
-11.6931037873
 11
-0.6469060687
 21
-11.6887596975
  0
LINE
  5
494
100
AcDbEntity
  8
0
100
AcDbLine
 62
7
  6
CONTINUOUS
 10
0.6618574262
 20
-11.5753936023
 11
0.7015568196
 21
-11.5711505645
  0
LINE
  5
495
100
AcDbEntity
  8
0
100
AcDbLine
 62
7
  6
CONTINUOUS
 10
0.6581442718
 20
-12.0757720957
 11
0.6978620194
 21
-12.0715435828
  0
LINE
  5
496
100
AcDbEntity
  8
0
100
AcDbLine
 62
7
  6
CONTINUOUS
 10
-0.6577665727
 20
-12.9393215738
 11
-0.6917984332
 21
-12.9429418074
  0
LINE
  5
497
100
AcDbEntity
  8
0
100
AcDbLine
 62
7
  6
CONTINUOUS
 10
0.6568618812
 20
-12.5758979279
 11
0.697379274
 21
-12.5715903833
  0
LINE
  5
498
100
AcDbEntity
  8
0
100
AcDbLine
 62
7
  6
CONTINUOUS
 10
0.6850374445
 20
-11.3222820667
 11
0.6334756398
 21
-11.3278130272
  0
LINE
  5
499
100
AcDbEntity
  8
0
100
AcDbLine
 62
7
  6
CONTINUOUS
 10
-0.6757117258
 20
-12.6918632354
 11
-0.6313427787
 21
-12.6871159368
  0
LINE
  5
49A
100
AcDbEntity
  8
0
100
AcDbLine
 62
7
  6
CONTINUOUS
 10
0.6839566295
 20
-12.3223857582
 11
0.6316538792
 21
-12.3279861398
  0
LINE
  5
49B
100
AcDbEntity
  8
0
100
AcDbLine
 62
7
  6
CONTINUOUS
 10
0.6823165695
 20
-12.8225630917
 11
0.6301597413
 21
-12.8281365393
  0
LINE
  5
49C
100
AcDbEntity
  8
0
100
AcDbLine
 62
7
  6
CONTINUOUS
 10
-0.6543660951
 20
-11.4389884334
 11
-0.6996453325
 21
-11.4438175939
  0
LINE
  5
49D
100
AcDbEntity
  8
0
100
AcDbLine
 62
7
  6
CONTINUOUS
 10
-0.6506062121
 20
-11.9385955312
 11
-0.6855961979
 21
-11.9422842739
  0
LINE
  5
49E
100
AcDbEntity
  8
0
100
AcDbLine
 62
7
  6
CONTINUOUS
 10
0.6751432759
 20
-11.8233596267
 11
0.622806187
 21
-11.8289110584
  0
LINE
  5
49F
100
AcDbEntity
  8
0
100
AcDbLine
 62
7
  6
CONTINUOUS
 10
-0.643595987
 20
-12.4378676895
 11
-0.6894248811
 21
-12.4426932632
  0
LINE
  5
4A0
100
AcDbEntity
  8
0
100
AcDbLine
 62
7
  6
CONTINUOUS
 10
-0.6597778879
 20
-13.1901157571
 11
-0.6133644859
 21
-13.1852590982
  0
LINE
  5
4A1
100
AcDbEntity
  8
0
100
AcDbLine
 62
7
  6
CONTINUOUS
 10
-0.6544617184
 20
-12.1895601795
 11
-0.6069122574
 21
-12.1846213157
  0
LINE
  5
4A2
100
AcDbEntity
  8
0
100
AcDbLine
 62
7
  6
CONTINUOUS
 10
0.6227873867
 20
-13.0793804317
 11
0.6854834412
 21
-13.0728711878
  0
LINE
  5
4A3
100
AcDbEntity
  8
0
100
AcDbLine
 62
7
  6
CONTINUOUS
 10
-0.6469060687
 20
-11.6887596975
 11
-0.6039643499
 21
-11.6843294084
  0
LINE
  5
4A4
100
AcDbEntity
  8
0
100
AcDbLine
 62
7
  6
CONTINUOUS
 10
0.6334756398
 20
-11.3278130272
 11
0.5774055835
 21
-11.3334978413
  0
LINE
  5
4A5
100
AcDbEntity
  8
0
100
AcDbLine
 62
7
  6
CONTINUOUS
 10
0.6316538792
 20
-12.3279861398
 11
0.5748474784
 21
-12.3337366038
  0
LINE
  5
4A6
100
AcDbEntity
  8
0
100
AcDbLine
 62
7
  6
CONTINUOUS
 10
0.5975933739
 20
-11.581910943
 11
0.6618574262
 21
-11.5753936023
  0
LINE
  5
4A7
100
AcDbEntity
  8
0
100
AcDbLine
 62
7
  6
CONTINUOUS
 10
0.6301597413
 20
-12.8281365393
 11
0.5742552443
 21
-12.8337876782
  0
LINE
  5
4A8
100
AcDbEntity
  8
0
100
AcDbLine
 62
7
  6
CONTINUOUS
 10
-0.6313427787
 20
-12.6871159368
 11
-0.5825573398
 21
-12.6821842571
  0
LINE
  5
4A9
100
AcDbEntity
  8
0
100
AcDbLine
 62
7
  6
CONTINUOUS
 10
0.5939840753
 20
-12.0822603702
 11
0.6581442718
 21
-12.0757720957
  0
LINE
  5
4AA
100
AcDbEntity
  8
0
100
AcDbLine
 62
7
  6
CONTINUOUS
 10
-0.605685776
 20
-11.4340764042
 11
-0.6543660951
 21
-11.4389884334
  0
LINE
  5
4AB
100
AcDbEntity
  8
0
100
AcDbLine
 62
7
  6
CONTINUOUS
 10
-0.6025876476
 20
-12.9337507361
 11
-0.6577665727
 21
-12.9393215738
  0
LINE
  5
4AC
100
AcDbEntity
  8
0
100
AcDbLine
 62
7
  6
CONTINUOUS
 10
0.5910050941
 20
-12.5825440055
 11
0.6568618812
 21
-12.5758979279
  0
LINE
  5
4AD
100
AcDbEntity
  8
0
100
AcDbLine
 62
7
  6
CONTINUOUS
 10
0.622806187
 20
-11.8289110584
 11
0.5666678752
 21
-11.8345488472
  0
LINE
  5
4AE
100
AcDbEntity
  8
0
100
AcDbLine
 62
7
  6
CONTINUOUS
 10
-0.5939682259
 20
-11.9329237889
 11
-0.6506062121
 21
-11.9385955312
  0
LINE
  5
4AF
100
AcDbEntity
  8
0
100
AcDbLine
 62
7
  6
CONTINUOUS
 10
-0.5943238555
 20
-12.4329497713
 11
-0.643595987
 21
-12.4378676895
  0
LINE
  5
4B0
100
AcDbEntity
  8
0
100
AcDbLine
 62
7
  6
CONTINUOUS
 10
-0.6133644859
 20
-13.1852590982
 11
-0.5629647382
 21
-13.1802679051
  0
LINE
  5
4B1
100
AcDbEntity
  8
0
100
AcDbLine
 62
7
  6
CONTINUOUS
 10
-0.6069122574
 20
-12.1846213157
 11
-0.5553675092
 21
-12.1795500632
  0
LINE
  5
4B2
100
AcDbEntity
  8
0
100
AcDbLine
 62
7
  6
CONTINUOUS
 10
0.5542605305
 20
-13.0860861668
 11
0.6227873867
 21
-13.0793804317
  0
LWPOLYLINE
  5
4B3
100
AcDbEntity
  8
0
100
AcDbPolyline
 62
253
  6
CONTINUOUS
 90
10
 70
0
 10
0.7277419818
 20
-12.9517353718
 10
0.772019464
 20
-12.9475014886
 10
0.8143761045
 20
-12.9432572741
 10
0.8547035823
 20
-12.9390025974
 10
0.892950194
 20
-12.9347336125
 10
0.9289858138
 20
-12.9304553742
 10
0.9626263637
 20
-12.9261813054
 10
0.9937333846
 20
-12.9219225367
 10
1.0223284039
 20
-12.9176693584
 10
1.0375
 20
-12.9151926871
  0
LWPOLYLINE
  5
4B4
100
AcDbEntity
  8
0
100
AcDbPolyline
 62
253
  6
CONTINUOUS
 90
10
 70
0
 10
0.7248775604
 20
-12.4520073851
 10
0.76945644
 20
-12.4477553224
 10
0.8121186238
 20
-12.4434933894
 10
0.8527029368
 20
-12.4392269334
 10
0.8911433134
 20
-12.4349516162
 10
0.9273366883
 20
-12.4306677526
 10
0.9612188208
 20
-12.4263742239
 10
0.9927010015
 20
-12.422073474
 10
1.0216771051
 20
-12.4177713003
 10
1.0375
 20
-12.4151930164
  0
LWPOLYLINE
  5
4B5
100
AcDbEntity
  8
0
100
AcDbPolyline
 62
253
  6
CONTINUOUS
 90
15
 70
0
 10
0.7247410112
 20
-11.9520280576
 10
0.7690695216
 20
-11.9477989918
 10
0.811527707
 20
-11.9435576913
 10
0.8520083998
 20
-11.9393045794
 10
0.8903954289
 20
-11.9350410707
 10
0.9265809255
 20
-11.9307677863
 10
0.9604585888
 20
-11.9264851694
 10
0.9919281109
 20
-11.9221944194
 10
1.0209254089
 20
-11.9178959982
 10
1.0473880323
 20
-11.9135908275
 10
1.0712484807
 20
-11.9092809045
 10
1.0924497205
 20
-11.9049666683
 10
1.110932095
 20
-11.9006490866
 10
1.1266307031
 20
-11.8963309595
 10
1.1375
 20
-11.8926828844
  0
LINE
  5
4B6
100
AcDbEntity
  8
0
100
AcDbLine
 62
7
  6
CONTINUOUS
 10
-0.6039643499
 20
-11.6843294084
 11
-0.5421388024
 21
-11.6782955054
  0
LWPOLYLINE
  5
4B7
100
AcDbEntity
  8
0
100
AcDbPolyline
 62
253
  6
CONTINUOUS
 90
14
 70
0
 10
0.724255414
 20
-11.4520822784
 10
0.7687035876
 20
-11.4478446809
 10
0.8112239761
 20
-11.4435977247
 10
0.8517398992
 20
-11.439340143
 10
0.8901969363
 20
-11.4350677723
 10
0.926452658
 20
-11.4307859332
 10
0.9603159314
 20
-11.4265076563
 10
0.9916354864
 20
-11.4222444112
 10
1.0204268363
 20
-11.4179860808
 10
1.0467478472
 20
-11.4137133098
 10
1.070572574
 20
-11.4094194133
 10
1.0917933404
 20
-11.4051124011
 10
1.1103414031
 20
-11.4007949533
 10
1.1261592675
 20
-11.3964677713
  0
LINE
  5
4B8
100
AcDbEntity
  8
0
100
AcDbLine
 62
7
  6
CONTINUOUS
 10
0.5774055835
 20
-11.3334978413
 11
0.5168496182
 21
-11.3393361988
  0
LINE
  5
4B9
100
AcDbEntity
  8
0
100
AcDbLine
 62
7
  6
CONTINUOUS
 10
0.5748474784
 20
-12.3337366038
 11
0.5135777708
 21
-12.3396333192
  0
LINE
  5
4BA
100
AcDbEntity
  8
0
100
AcDbLine
 62
7
  6
CONTINUOUS
 10
-0.5825573398
 20
-12.6821842571
 11
-0.529493341
 21
-12.6770867372
  0
LINE
  5
4BB
100
AcDbEntity
  8
0
100
AcDbLine
 62
7
  6
CONTINUOUS
 10
0.5275368156
 20
-11.5886271626
 11
0.5975933739
 21
-11.581910943
  0
LINE
  5
4BC
100
AcDbEntity
  8
0
100
AcDbLine
 62
7
  6
CONTINUOUS
 10
0.5240460638
 20
-12.0889481395
 11
0.5939840753
 21
-12.0822603702
  0
LINE
  5
4BD
100
AcDbEntity
  8
0
100
AcDbLine
 62
7
  6
CONTINUOUS
 10
-0.5424364035
 20
-12.928005686
 11
-0.6025876476
 21
-12.9337507361
  0
LINE
  5
4BE
100
AcDbEntity
  8
0
100
AcDbLine
 62
7
  6
CONTINUOUS
 10
0.5187314233
 20
-12.589436853
 11
0.5910050941
 21
-12.5825440055
  0
LINE
  5
4BF
100
AcDbEntity
  8
0
100
AcDbLine
 62
7
  6
CONTINUOUS
 10
0.5742552443
 20
-12.8337876782
 11
0.4943690033
 21
-12.8414188229
  0
LINE
  5
4C0
100
AcDbEntity
  8
0
100
AcDbLine
 62
7
  6
CONTINUOUS
 10
-0.5356864336
 20
-11.4273987042
 11
-0.605685776
 21
-11.4340764042
  0
LINE
  5
4C1
100
AcDbEntity
  8
0
100
AcDbLine
 62
7
  6
CONTINUOUS
 10
-0.5323508611
 20
-11.9270815551
 11
-0.5939682259
 21
-11.9329237889
  0
LINE
  5
4C2
100
AcDbEntity
  8
0
100
AcDbLine
 62
7
  6
CONTINUOUS
 10
0.5666678752
 20
-11.8345488472
 11
0.4863484433
 21
-11.8421744409
  0
LINE
  5
4C3
100
AcDbEntity
  8
0
100
AcDbLine
 62
7
  6
CONTINUOUS
 10
-0.5234004026
 20
-12.4262495311
 11
-0.5943238555
 21
-12.4329497713
  0
LINE
  5
4C4
100
AcDbEntity
  8
0
100
AcDbLine
 62
7
  6
CONTINUOUS
 10
-0.5629647382
 20
-13.1802679051
 11
-0.4899460855
 21
-13.1734262533
  0
LINE
  5
4C5
100
AcDbEntity
  8
0
100
AcDbLine
 62
7
  6
CONTINUOUS
 10
0.4798310619
 20
-13.0929989503
 11
0.5542605305
 21
-13.0860861668
  0
LINE
  5
4C6
100
AcDbEntity
  8
0
100
AcDbLine
 62
7
  6
CONTINUOUS
 10
-0.5553675092
 20
-12.1795500632
 11
-0.4806713464
 21
-12.172594328
  0
LINE
  5
4C7
100
AcDbEntity
  8
0
100
AcDbLine
 62
253
  6
CONTINUOUS
 10
-0.7790849372
 20
-12.5683578332
 11
-0.6964296572
 21
-12.5606810658
  0
LINE
  5
4C8
100
AcDbEntity
  8
0
100
AcDbLine
 62
253
  6
CONTINUOUS
 10
-0.7774855337
 20
-13.0681931414
 11
-0.6952513832
 21
-13.0605684538
  0
LINE
  5
4C9
100
AcDbEntity
  8
0
100
AcDbLine
 62
7
  6
CONTINUOUS
 10
-0.5421388024
 20
-11.6782955054
 11
-0.475327915
 21
-11.672119808
  0
LINE
  5
4CA
100
AcDbEntity
  8
0
100
AcDbLine
 62
253
  6
CONTINUOUS
 10
-0.7789344066
 20
-11.5683518944
 11
-0.6968605347
 21
-11.5607326014
  0
LINE
  5
4CB
100
AcDbEntity
  8
0
100
AcDbLine
 62
253
  6
CONTINUOUS
 10
-0.7767611461
 20
-12.0681364084
 11
-0.6937117891
 21
-12.0604478968
  0
LINE
  5
4CC
100
AcDbEntity
  8
0
100
AcDbLine
 62
7
  6
CONTINUOUS
 10
0.5168496182
 20
-11.3393361988
 11
0.4292498627
 21
-11.3473584675
  0
LINE
  5
4CD
100
AcDbEntity
  8
0
100
AcDbLine
 62
7
  6
CONTINUOUS
 10
-0.529493341
 20
-12.6770867372
 11
-0.4524294361
 21
-12.6700556482
  0
LINE
  5
4CE
100
AcDbEntity
  8
0
100
AcDbLine
 62
7
  6
CONTINUOUS
 10
0.5135777708
 20
-12.3396333192
 11
0.4250782702
 21
-12.3477184058
  0
LINE
  5
4CF
100
AcDbEntity
  8
0
100
AcDbLine
 62
7
  6
CONTINUOUS
 10
0.4943690033
 20
-12.8414188229
 11
0.4085456565
 21
-12.8491770473
  0
LINE
  5
4D0
100
AcDbEntity
  8
0
100
AcDbLine
 62
7
  6
CONTINUOUS
 10
-0.4545819665
 20
-12.9200636116
 11
-0.5424364035
 21
-12.928005686
  0
LINE
  5
4D1
100
AcDbEntity
  8
0
100
AcDbLine
 62
7
  6
CONTINUOUS
 10
0.4253156653
 20
-11.5978872018
 11
0.5275368156
 21
-11.5886271626
  0
LINE
  5
4D2
100
AcDbEntity
  8
0
100
AcDbLine
 62
7
  6
CONTINUOUS
 10
0.4217375648
 20
-12.0981946752
 11
0.5240460638
 21
-12.0889481395
  0
LINE
  5
4D3
100
AcDbEntity
  8
0
100
AcDbLine
 62
7
  6
CONTINUOUS
 10
0.4863484433
 20
-11.8421744409
 11
0.4001571394
 21
-11.8499261948
  0
LINE
  5
4D4
100
AcDbEntity
  8
0
100
AcDbLine
 62
253
  6
CONTINUOUS
 10
0.6338822369
 20
-12.9601738549
 11
0.7277419818
 21
-12.9517353718
  0
LINE
  5
4D5
100
AcDbEntity
  8
0
100
AcDbLine
 62
7
  6
CONTINUOUS
 10
-0.4400573618
 20
-11.4188092595
 11
-0.5356864336
 21
-11.4273987042
  0
LINE
  5
4D6
100
AcDbEntity
  8
0
100
AcDbLine
 62
7
  6
CONTINUOUS
 10
0.412794481
 20
-12.5989739382
 11
0.5187314233
 21
-12.589436853
  0
LINE
  5
4D7
100
AcDbEntity
  8
0
100
AcDbLine
 62
253
  6
CONTINUOUS
 10
0.6310347304
 20
-12.4604281414
 11
0.7248775604
 21
-12.4520073851
  0
LINE
  5
4D8
100
AcDbEntity
  8
0
100
AcDbLine
 62
253
  6
CONTINUOUS
 10
0.6309223874
 20
-11.9604459136
 11
0.7247410112
 21
-11.9520280576
  0
LINE
  5
4D9
100
AcDbEntity
  8
0
100
AcDbLine
 62
7
  6
CONTINUOUS
 10
-0.4424576836
 20
-11.9190114459
 11
-0.5323508611
 21
-11.9270815551
  0
LINE
  5
4DA
100
AcDbEntity
  8
0
100
AcDbLine
 62
253
  6
CONTINUOUS
 10
0.6299888514
 20
-11.4605314246
 11
0.724255414
 21
-11.4520822784
  0
LINE
  5
4DB
100
AcDbEntity
  8
0
100
AcDbLine
 62
7
  6
CONTINUOUS
 10
-0.4899460855
 20
-13.1734262533
 11
-0.4104185268
 21
-13.1663579781
  0
LINE
  5
4DC
100
AcDbEntity
  8
0
100
AcDbLine
 62
7
  6
CONTINUOUS
 10
-0.4265610808
 20
-12.4176235977
 11
-0.5234004026
 21
-12.4262495311
  0
LINE
  5
4DD
100
AcDbEntity
  8
0
100
AcDbLine
 62
7
  6
CONTINUOUS
 10
-0.4806713464
 20
-12.172594328
 11
-0.3987220536
 21
-12.1653568313
  0
LINE
  5
4DE
100
AcDbEntity
  8
0
100
AcDbLine
 62
7
  6
CONTINUOUS
 10
0.3724439743
 20
-13.1024656818
 11
0.4798310619
 21
-13.0929989503
  0
LINE
  5
4DF
100
AcDbEntity
  8
0
100
AcDbLine
 62
7
  6
CONTINUOUS
 10
-0.475327915
 20
-11.672119808
 11
-0.3849358155
 21
-11.6641764544
  0
LINE
  5
4E0
100
AcDbEntity
  8
0
100
AcDbLine
 62
7
  6
CONTINUOUS
 10
0.4292498627
 20
-11.3473584675
 11
0.3342327817
 21
-11.3556378633
  0
LINE
  5
4E1
100
AcDbEntity
  8
0
100
AcDbLine
 62
7
  6
CONTINUOUS
 10
-0.4524294361
 20
-12.6700556482
 11
-0.3682709729
 21
-12.6627412611
  0
LINE
  5
4E2
100
AcDbEntity
  8
0
100
AcDbLine
 62
7
  6
CONTINUOUS
 10
0.4250782702
 20
-12.3477184058
 11
0.3291252452
 21
-12.3560583505
  0
LINE
  5
4E3
100
AcDbEntity
  8
0
100
AcDbLine
 62
7
  6
CONTINUOUS
 10
0.4085456565
 20
-12.8491770473
 11
0.316605244
 21
-12.8571158199
  0
LINE
  5
4E4
100
AcDbEntity
  8
0
100
AcDbLine
 62
7
  6
CONTINUOUS
 10
0.4001571394
 20
-11.8499261948
 11
0.3080037944
 21
-11.8578551463
  0
LINE
  5
4E5
100
AcDbEntity
  8
0
100
AcDbLine
 62
253
  6
CONTINUOUS
 10
-0.6968605347
 20
-11.5607326014
 11
-0.6074398809
 21
-11.553077242
  0
LINE
  5
4E6
100
AcDbEntity
  8
0
100
AcDbLine
 62
253
  6
CONTINUOUS
 10
-0.6952513832
 20
-13.0605684538
 11
-0.6053776319
 21
-13.0528865023
  0
LINE
  5
4E7
100
AcDbEntity
  8
0
100
AcDbLine
 62
253
  6
CONTINUOUS
 10
-0.6964296572
 20
-12.5606810658
 11
-0.6062983538
 21
-12.5529672947
  0
LINE
  5
4E8
100
AcDbEntity
  8
0
100
AcDbLine
 62
253
  6
CONTINUOUS
 10
-0.6937117891
 20
-12.0604478968
 11
-0.6031888775
 21
-12.0527179066
  0
LINE
  5
4E9
100
AcDbEntity
  8
0
100
AcDbLine
 62
7
  6
CONTINUOUS
 10
-0.3326423963
 20
-12.9096444233
 11
-0.4545819665
 21
-12.9200636116
  0
LINE
  5
4EA
100
AcDbEntity
  8
0
100
AcDbLine
 62
7
  6
CONTINUOUS
 10
0.2884002223
 20
-11.6095885279
 11
0.4253156653
 21
-11.5978872018
  0
LINE
  5
4EB
100
AcDbEntity
  8
0
100
AcDbLine
 62
7
  6
CONTINUOUS
 10
0.2820649875
 20
-12.1101081327
 11
0.4217375648
 21
-12.0981946752
  0
LINE
  5
4EC
100
AcDbEntity
  8
0
100
AcDbLine
 62
7
  6
CONTINUOUS
 10
-0.4104185268
 20
-13.1663579781
 11
-0.3002859397
 21
-13.1570229061
  0
LINE
  5
4ED
100
AcDbEntity
  8
0
100
AcDbLine
 62
7
  6
CONTINUOUS
 10
0.2699715344
 20
-12.6111041587
 11
0.412794481
 21
-12.5989739382
  0
LINE
  5
4EE
100
AcDbEntity
  8
0
100
AcDbLine
 62
7
  6
CONTINUOUS
 10
-0.3987220536
 20
-12.1653568313
 11
-0.2845228663
 21
-12.1557329665
  0
LINE
  5
4EF
100
AcDbEntity
  8
0
100
AcDbLine
 62
253
  6
CONTINUOUS
 10
0.5340076307
 20
-12.9685512474
 11
0.6338822369
 21
-12.9601738549
  0
LINE
  5
4F0
100
AcDbEntity
  8
0
100
AcDbLine
 62
7
  6
CONTINUOUS
 10
-0.2910098354
 20
-11.9062137737
 11
-0.4424576836
 21
-11.9190114459
  0
LINE
  5
4F1
100
AcDbEntity
  8
0
100
AcDbLine
 62
253
  6
CONTINUOUS
 10
0.5316335868
 20
-12.4687524162
 11
0.6310347304
 21
-12.4604281414
  0
LINE
  5
4F2
100
AcDbEntity
  8
0
100
AcDbLine
 62
253
  6
CONTINUOUS
 10
0.5310589723
 20
-11.9688037882
 11
0.6309223874
 21
-11.9604459136
  0
LINE
  5
4F3
100
AcDbEntity
  8
0
100
AcDbLine
 62
253
  6
CONTINUOUS
 10
0.5296362237
 20
-11.4689251206
 11
0.6299888514
 21
-11.4605314246
  0
LINE
  5
4F4
100
AcDbEntity
  8
0
100
AcDbLine
 62
7
  6
CONTINUOUS
 10
-0.2897878302
 20
-11.4061190669
 11
-0.4400573618
 21
-11.4188092595
  0
LINE
  5
4F5
100
AcDbEntity
  8
0
100
AcDbLine
 62
7
  6
CONTINUOUS
 10
-0.3849358155
 20
-11.6641764544
 11
-0.2665191786
 21
-11.6542569554
  0
LINE
  5
4F6
100
AcDbEntity
  8
0
100
AcDbLine
 62
7
  6
CONTINUOUS
 10
-0.3682709729
 20
-12.6627412611
 11
-0.2530843024
 21
-12.6531427768
  0
LINE
  5
4F7
100
AcDbEntity
  8
0
100
AcDbLine
 62
7
  6
CONTINUOUS
 10
-0.2746603586
 20
-12.4048656406
 11
-0.4265610808
 21
-12.4176235977
  0
LINE
  5
4F8
100
AcDbEntity
  8
0
100
AcDbLine
 62
7
  6
CONTINUOUS
 10
0.3342327817
 20
-11.3556378633
 11
0.2062247313
 21
-11.3663118832
  0
LINE
  5
4F9
100
AcDbEntity
  8
0
100
AcDbLine
 62
7
  6
CONTINUOUS
 10
0.3291252452
 20
-12.3560583505
 11
0.1995026565
 21
-12.3668481006
  0
LINE
  5
4FA
100
AcDbEntity
  8
0
100
AcDbLine
 62
7
  6
CONTINUOUS
 10
0.316605244
 20
-12.8571158199
 11
0.1929947493
 21
-12.8673722457
  0
LINE
  5
4FB
100
AcDbEntity
  8
0
100
AcDbLine
 62
7
  6
CONTINUOUS
 10
0.3080037944
 20
-11.8578551463
 11
0.1841809675
 21
-11.8681043352
  0
LINE
  5
4FC
100
AcDbEntity
  8
0
100
AcDbLine
 62
7
  6
CONTINUOUS
 10
0.1697879299
 20
-13.1192861124
 11
0.3724439743
 21
-13.1024656818
  0
LINE
  5
4FD
100
AcDbEntity
  8
0
100
AcDbLine
 62
7
  6
CONTINUOUS
 10
-0.3002859397
 20
-13.1570229061
 11
-0.1491162389
 21
-13.1447290956
  0
LINE
  5
4FE
100
AcDbEntity
  8
0
100
AcDbLine
 62
7
  6
CONTINUOUS
 10
-0.2845228663
 20
-12.1557329665
 11
-0.1279793734
 21
-12.1430502857
  0
LINE
  5
4FF
100
AcDbEntity
  8
0
100
AcDbLine
 62
7
  6
CONTINUOUS
 10
-0.2665191786
 20
-11.6542569554
 11
-0.0926611276
 21
-11.6402406648
  0
LWPOLYLINE
  5
500
100
AcDbEntity
  8
0
100
AcDbPolyline
 62
7
  6
CONTINUOUS
 90
3
 70
0
 10
0.2062247313
 20
-11.3663118832
 10
0.0149452906
 20
-11.3816911626
 10
-0.0666126817
 20
-11.3881701759
  0
LINE
  5
501
100
AcDbEntity
  8
0
100
AcDbLine
 62
7
  6
CONTINUOUS
 10
-0.1491162389
 20
-13.1447290956
 11
0.1697879299
 21
-13.1192861124
  0
LINE
  5
502
100
AcDbEntity
  8
0
100
AcDbLine
 62
7
  6
CONTINUOUS
 10
0.1929947493
 20
-12.8673722457
 11
-0.0531948827
 21
-12.8870851795
  0
LINE
  5
503
100
AcDbEntity
  8
0
100
AcDbLine
 62
7
  6
CONTINUOUS
 10
-0.0531948827
 20
-12.8870851795
 11
-0.3326423963
 21
-12.9096444233
  0
LINE
  5
504
100
AcDbEntity
  8
0
100
AcDbLine
 62
7
  6
CONTINUOUS
 10
-0.0464489037
 20
-12.6365524901
 11
0.2699715344
 21
-12.6111041587
  0
LINE
  5
505
100
AcDbEntity
  8
0
100
AcDbLine
 62
7
  6
CONTINUOUS
 10
-0.2530843024
 20
-12.6531427768
 11
-0.0464489037
 21
-12.6365524901
  0
LINE
  5
506
100
AcDbEntity
  8
0
100
AcDbLine
 62
7
  6
CONTINUOUS
 10
0.1995026565
 20
-12.3668481006
 11
-0.0755685349
 21
-12.3888684626
  0
LINE
  5
507
100
AcDbEntity
  8
0
100
AcDbLine
 62
7
  6
CONTINUOUS
 10
-0.0755685349
 20
-12.3888684626
 11
-0.2746603586
 21
-12.4048656406
  0
LINE
  5
508
100
AcDbEntity
  8
0
100
AcDbLine
 62
7
  6
CONTINUOUS
 10
-0.1279793734
 20
-12.1430502857
 11
0.0159134202
 21
-12.1316054828
  0
LINE
  5
509
100
AcDbEntity
  8
0
100
AcDbLine
 62
7
  6
CONTINUOUS
 10
0.0159134202
 20
-12.1316054828
 11
0.2820649875
 21
-12.1101081327
  0
LINE
  5
50A
100
AcDbEntity
  8
0
100
AcDbLine
 62
7
  6
CONTINUOUS
 10
0.1841809675
 20
-11.8681043352
 11
-0.2910098354
 21
-11.9062137737
  0
LINE
  5
50B
100
AcDbEntity
  8
0
100
AcDbLine
 62
7
  6
CONTINUOUS
 10
-0.0926611276
 20
-11.6402406648
 11
0.2884002223
 21
-11.6095885279
  0
LINE
  5
50C
100
AcDbEntity
  8
0
100
AcDbLine
 62
7
  6
CONTINUOUS
 10
-0.0666126817
 20
-11.3881701759
 11
-0.2897878302
 21
-11.4061190669
  0
LINE
  5
50D
100
AcDbEntity
  8
0
100
AcDbLine
 62
253
  6
CONTINUOUS
 10
-0.6074398809
 20
-11.553077242
 11
-0.5115121849
 21
-11.5453734835
  0
LINE
  5
50E
100
AcDbEntity
  8
0
100
AcDbLine
 62
253
  6
CONTINUOUS
 10
-0.6053776319
 20
-13.0528865023
 11
-0.5088144185
 21
-13.0451442758
  0
LINE
  5
50F
100
AcDbEntity
  8
0
100
AcDbLine
 62
253
  6
CONTINUOUS
 10
-0.6062983538
 20
-12.5529672947
 11
-0.5103856719
 21
-12.5452729018
  0
LINE
  5
510
100
AcDbEntity
  8
0
100
AcDbLine
 62
253
  6
CONTINUOUS
 10
-0.6031888775
 20
-12.0527179066
 11
-0.5061551338
 21
-12.0449476178
  0
LINE
  5
511
100
AcDbEntity
  8
0
100
AcDbLine
 62
253
  6
CONTINUOUS
 10
0.4292093467
 20
-12.976859333
 11
0.5340076307
 21
-12.9685512474
  0
LINE
  5
512
100
AcDbEntity
  8
0
100
AcDbLine
 62
253
  6
CONTINUOUS
 10
0.4269593472
 20
-12.4770386616
 11
0.5316335868
 21
-12.4687524162
  0
LINE
  5
513
100
AcDbEntity
  8
0
100
AcDbLine
 62
253
  6
CONTINUOUS
 10
0.426269602
 20
-11.9770972836
 11
0.5310589723
 21
-11.9688037882
  0
LINE
  5
514
100
AcDbEntity
  8
0
100
AcDbLine
 62
253
  6
CONTINUOUS
 10
0.4243328277
 20
-11.4772549962
 11
0.5296362237
 21
-11.4689251206
  0
LINE
  5
515
100
AcDbEntity
  8
0
100
AcDbLine
 62
253
  6
CONTINUOUS
 10
-0.5088144185
 20
-13.0451442758
 11
-0.406531978
 21
-13.0373386744
  0
LINE
  5
516
100
AcDbEntity
  8
0
100
AcDbLine
 62
253
  6
CONTINUOUS
 10
-0.5103856719
 20
-12.5452729018
 11
-0.4086077994
 21
-12.5375017406
  0
LINE
  5
517
100
AcDbEntity
  8
0
100
AcDbLine
 62
253
  6
CONTINUOUS
 10
-0.5115121849
 20
-11.5453734835
 11
-0.4099514472
 21
-11.5376134637
  0
LINE
  5
518
100
AcDbEntity
  8
0
100
AcDbLine
 62
253
  6
CONTINUOUS
 10
-0.5061551338
 20
-12.0449476178
 11
-0.4039045341
 21
-12.0371557345
  0
LINE
  5
519
100
AcDbEntity
  8
0
100
AcDbLine
 62
253
  6
CONTINUOUS
 10
0.2651824125
 20
-12.9891846384
 11
0.4292093467
 21
-12.976859333
  0
LINE
  5
51A
100
AcDbEntity
  8
0
100
AcDbLine
 62
253
  6
CONTINUOUS
 10
0.2628916537
 20
-12.4893588951
 11
0.4269593472
 21
-12.4770386616
  0
LINE
  5
51B
100
AcDbEntity
  8
0
100
AcDbLine
 62
253
  6
CONTINUOUS
 10
0.2622941386
 20
-11.9894101346
 11
0.426269602
 21
-11.9770972836
  0
LINE
  5
51C
100
AcDbEntity
  8
0
100
AcDbLine
 62
253
  6
CONTINUOUS
 10
0.2595703843
 20
-11.4896160206
 11
0.4243328277
 21
-11.4772549962
  0
LINE
  5
51D
100
AcDbEntity
  8
0
100
AcDbLine
 62
253
  6
CONTINUOUS
 10
-0.4099514472
 20
-11.5376134637
 11
-0.2491110671
 21
-11.5258508683
  0
LINE
  5
51E
100
AcDbEntity
  8
0
100
AcDbLine
 62
253
  6
CONTINUOUS
 10
-0.406531978
 20
-13.0373386744
 11
-0.2446032153
 21
-13.0255072132
  0
LINE
  5
51F
100
AcDbEntity
  8
0
100
AcDbLine
 62
253
  6
CONTINUOUS
 10
-0.4086077994
 20
-12.5375017406
 11
-0.2467267493
 21
-12.5256658568
  0
LINE
  5
520
100
AcDbEntity
  8
0
100
AcDbLine
 62
253
  6
CONTINUOUS
 10
-0.4039045341
 20
-12.0371557345
 11
-0.2432085634
 21
-12.0254206817
  0
LINE
  5
521
100
AcDbEntity
  8
0
100
AcDbLine
 62
253
  6
CONTINUOUS
 10
-0.2446032153
 20
-13.0255072132
 11
0.2651824125
 21
-12.9891846384
  0
LINE
  5
522
100
AcDbEntity
  8
0
100
AcDbLine
 62
253
  6
CONTINUOUS
 10
-0.2467267493
 20
-12.5256658568
 11
0.2628916537
 21
-12.4893588951
  0
LINE
  5
523
100
AcDbEntity
  8
0
100
AcDbLine
 62
253
  6
CONTINUOUS
 10
-0.2432085634
 20
-12.0254206817
 11
0.2622941386
 21
-11.9894101346
  0
LINE
  5
524
100
AcDbEntity
  8
0
100
AcDbLine
 62
253
  6
CONTINUOUS
 10
-0.2491110671
 20
-11.5258508683
 11
0.2595703843
 21
-11.4896160206
  0
LINE
  5
525
100
AcDbEntity
  8
0
100
AcDbLine
 62
7
  6
CONTINUOUS
 10
2.6125
 20
-12.1
 11
1.0375
 21
-12.1
  0
LINE
  5
526
100
AcDbEntity
  8
0
100
AcDbLine
 62
7
  6
CONTINUOUS
 10
-0.9625
 20
-12.1
 11
-2.5375
 21
-12.1
  0
LINE
  5
527
100
AcDbEntity
  8
0
100
AcDbLine
 62
7
  6
CONTINUOUS
 10
-0.4625
 20
-11.415
 11
-1.0625
 21
-11.415
  0
LINE
  5
528
100
AcDbEntity
  8
0
100
AcDbLine
 62
7
  6
CONTINUOUS
 10
-0.3519982773
 20
-12.8381645327
 11
0.102129735
 21
-12.8747137489
  0
LINE
  5
529
100
AcDbEntity
  8
0
100
AcDbLine
 62
7
  6
CONTINUOUS
 10
-0.3488608422
 20
-12.3384347353
 11
0.1021311591
 21
-12.3747209261
  0
LINE
  5
52A
100
AcDbEntity
  8
0
100
AcDbLine
 62
7
  6
CONTINUOUS
 10
0.3136302558
 20
-12.1419765694
 11
0.1022910694
 21
-12.1247240699
  0
LINE
  5
52B
100
AcDbEntity
  8
0
100
AcDbLine
 62
7
  6
CONTINUOUS
 10
0.321195351
 20
-12.6426072401
 11
0.1022914199
 21
-12.6247176714
  0
LINE
  5
52C
100
AcDbEntity
  8
0
100
AcDbLine
 62
7
  6
CONTINUOUS
 10
0.3299361803
 20
-13.1433375556
 11
0.1022902298
 21
-13.1247104027
  0
LINE
  5
52D
100
AcDbEntity
  8
0
100
AcDbLine
 62
7
  6
CONTINUOUS
 10
-0.3864104223
 20
-11.8352725008
 11
-0.2088200567
 21
-11.8499269324
  0
LINE
  5
52E
100
AcDbEntity
  8
0
100
AcDbLine
 62
7
  6
CONTINUOUS
 10
-0.4608058955
 20
-12.3288227874
 11
-0.3488608422
 21
-12.3384347353
  0
LINE
  5
52F
100
AcDbEntity
  8
0
100
AcDbLine
 62
7
  6
CONTINUOUS
 10
0.441345334
 20
-13.1529700909
 11
0.3299361803
 21
-13.1433375556
  0
LINE
  5
530
100
AcDbEntity
  8
0
100
AcDbLine
 62
7
  6
CONTINUOUS
 10
0.4459851718
 20
-12.153394907
 11
0.3136302558
 21
-12.1419765694
  0
LINE
  5
531
100
AcDbEntity
  8
0
100
AcDbLine
 62
7
  6
CONTINUOUS
 10
-0.4788236353
 20
-12.8272195071
 11
-0.3519982773
 21
-12.8381645327
  0
LINE
  5
532
100
AcDbEntity
  8
0
100
AcDbLine
 62
7
  6
CONTINUOUS
 10
0.4548537154
 20
-12.6541800097
 11
0.321195351
 21
-12.6426072401
  0
LINE
  5
533
100
AcDbEntity
  8
0
100
AcDbLine
 62
7
  6
CONTINUOUS
 10
-0.4835718681
 20
-11.8268065592
 11
-0.3864104223
 21
-11.8352725008
  0
LINE
  5
534
100
AcDbEntity
  8
0
100
AcDbLine
 62
7
  6
CONTINUOUS
 10
0.5201422595
 20
-13.1601219973
 11
0.441345334
 21
-13.1529700909
  0
LINE
  5
535
100
AcDbEntity
  8
0
100
AcDbLine
 62
7
  6
CONTINUOUS
 10
-0.5410262714
 20
-12.3215611095
 11
-0.4608058955
 21
-12.3288227874
  0
LINE
  5
536
100
AcDbEntity
  8
0
100
AcDbLine
 62
7
  6
CONTINUOUS
 10
-0.547578154
 20
-12.8209446456
 11
-0.4788236353
 21
-12.8272195071
  0
LINE
  5
537
100
AcDbEntity
  8
0
100
AcDbLine
 62
253
  6
CONTINUOUS
 10
0.2264274175
 20
-13.2626157954
 11
-0.1502823917
 21
-13.2280825992
  0
LINE
  5
538
100
AcDbEntity
  8
0
100
AcDbLine
 62
253
  6
CONTINUOUS
 10
0.2262679838
 20
-12.7626077099
 11
-0.1505645009
 21
-12.7280646548
  0
LINE
  5
539
100
AcDbEntity
  8
0
100
AcDbLine
 62
253
  6
CONTINUOUS
 10
0.2246601608
 20
-12.2624626549
 11
-0.1506564812
 21
-12.2280621876
  0
LINE
  5
53A
100
AcDbEntity
  8
0
100
AcDbLine
 62
7
  6
CONTINUOUS
 10
0.542077092
 20
-12.1621930479
 11
0.4459851718
 21
-12.153394907
  0
LINE
  5
53B
100
AcDbEntity
  8
0
100
AcDbLine
 62
7
  6
CONTINUOUS
 10
0.5435596614
 20
-11.6623394021
 11
0.4752327841
 21
-11.6560293508
  0
LINE
  5
53C
100
AcDbEntity
  8
0
100
AcDbLine
 62
7
  6
CONTINUOUS
 10
0.5500284575
 20
-12.6629374191
 11
0.4548537154
 21
-12.6541800097
  0
LINE
  5
53D
100
AcDbEntity
  8
0
100
AcDbLine
 62
7
  6
CONTINUOUS
 10
-0.5712295689
 20
-11.8187209979
 11
-0.4835718681
 21
-11.8268065592
  0
LINE
  5
53E
100
AcDbEntity
  8
0
100
AcDbLine
 62
253
  6
CONTINUOUS
 10
-0.1502823917
 20
-13.2280825992
 11
-0.2863755965
 21
-13.2153373921
  0
LINE
  5
53F
100
AcDbEntity
  8
0
100
AcDbLine
 62
253
  6
CONTINUOUS
 10
-0.1505645009
 20
-12.7280646548
 11
-0.2868282819
 21
-12.7153003052
  0
LINE
  5
540
100
AcDbEntity
  8
0
100
AcDbLine
 62
253
  6
CONTINUOUS
 10
-0.1506564812
 20
-12.2280621876
 11
-0.2856334301
 21
-12.2154222059
  0
LINE
  5
541
100
AcDbEntity
  8
0
100
AcDbLine
 62
7
  6
CONTINUOUS
 10
-0.5961352628
 20
-12.3163156157
 11
-0.5410262714
 21
-12.3215611095
  0
LINE
  5
542
100
AcDbEntity
  8
0
100
AcDbLine
 62
7
  6
CONTINUOUS
 10
0.5942774467
 20
-13.1672042785
 11
0.5201422595
 21
-13.1601219973
  0
LINE
  5
543
100
AcDbEntity
  8
0
100
AcDbLine
 62
7
  6
CONTINUOUS
 10
-0.6107773433
 20
-12.8148695017
 11
-0.547578154
 21
-12.8209446456
  0
LINE
  5
544
100
AcDbEntity
  8
0
100
AcDbLine
 62
7
  6
CONTINUOUS
 10
0.6082479768
 20
-12.1686002518
 11
0.542077092
 21
-12.1621930479
  0
LINE
  5
545
100
AcDbEntity
  8
0
100
AcDbLine
 62
253
  6
CONTINUOUS
 10
0.3615656531
 20
-12.7757104889
 11
0.2262679838
 21
-12.7626077099
  0
LINE
  5
546
100
AcDbEntity
  8
0
100
AcDbLine
 62
253
  6
CONTINUOUS
 10
0.3604841483
 20
-12.2756074094
 11
0.2246601608
 21
-12.2624626549
  0
LINE
  5
547
100
AcDbEntity
  8
0
100
AcDbLine
 62
7
  6
CONTINUOUS
 10
0.6106450813
 20
-11.6688429546
 11
0.5435596614
 21
-11.6623394021
  0
LINE
  5
548
100
AcDbEntity
  8
0
100
AcDbLine
 62
253
  6
CONTINUOUS
 10
-0.2863755965
 20
-13.2153373921
 11
-0.3725100119
 21
-13.2069085009
  0
LINE
  5
549
100
AcDbEntity
  8
0
100
AcDbLine
 62
253
  6
CONTINUOUS
 10
0.3624843307
 20
-13.2757954873
 11
0.2264274175
 21
-13.2626157954
  0
LINE
  5
54A
100
AcDbEntity
  8
0
100
AcDbLine
 62
253
  6
CONTINUOUS
 10
-0.2856334301
 20
-12.2154222059
 11
-0.3715777711
 21
-12.2070129075
  0
LINE
  5
54B
100
AcDbEntity
  8
0
100
AcDbLine
 62
253
  6
CONTINUOUS
 10
-0.2868282819
 20
-12.7153003052
 11
-0.3730520623
 21
-12.7068598116
  0
LINE
  5
54C
100
AcDbEntity
  8
0
100
AcDbLine
 62
7
  6
CONTINUOUS
 10
0.6148036086
 20
-12.6692469418
 11
0.5500284575
 21
-12.6629374191
  0
LINE
  5
54D
100
AcDbEntity
  8
0
100
AcDbLine
 62
7
  6
CONTINUOUS
 10
-0.6309074103
 20
-11.8128714367
 11
-0.5712295689
 21
-11.8187209979
  0
LINE
  5
54E
100
AcDbEntity
  8
0
100
AcDbLine
 62
253
  6
CONTINUOUS
 10
-0.3676779436
 20
-11.7074072349
 11
-0.4119811348
 21
-11.702919359
  0
LINE
  5
54F
100
AcDbEntity
  8
0
100
AcDbLine
 62
7
  6
CONTINUOUS
 10
-0.6471412338
 20
-12.3112119231
 11
-0.5961352628
 21
-12.3163156157
  0
LINE
  5
550
100
AcDbEntity
  8
0
100
AcDbLine
 62
7
  6
CONTINUOUS
 10
0.6634162893
 20
-13.1742144444
 11
0.5942774467
 21
-13.1672042785
  0
LINE
  5
551
100
AcDbEntity
  8
0
100
AcDbLine
 62
253
  6
CONTINUOUS
 10
0.4464275849
 20
-12.2844254657
 11
0.3604841483
 21
-12.2756074094
  0
LINE
  5
552
100
AcDbEntity
  8
0
100
AcDbLine
 62
253
  6
CONTINUOUS
 10
0.447154619
 20
-11.7845096773
 11
0.3813564223
 21
-11.7777273605
  0
LINE
  5
553
100
AcDbEntity
  8
0
100
AcDbLine
 62
253
  6
CONTINUOUS
 10
0.448375803
 20
-13.2846163943
 11
0.3624843307
 21
-13.2757954873
  0
LINE
  5
554
100
AcDbEntity
  8
0
100
AcDbLine
 62
253
  6
CONTINUOUS
 10
0.4476563912
 20
-12.7845473614
 11
0.3615656531
 21
-12.7757104889
  0
LINE
  5
555
100
AcDbEntity
  8
0
100
AcDbLine
 62
7
  6
CONTINUOUS
 10
-0.6678541265
 20
-11.8090631559
 11
-0.6309074103
 21
-11.8128714367
  0
LINE
  5
556
100
AcDbEntity
  8
0
100
AcDbLine
 62
7
  6
CONTINUOUS
 10
-0.6685095782
 20
-12.8089777658
 11
-0.6107773433
 21
-12.8148695017
  0
LINE
  5
557
100
AcDbEntity
  8
0
100
AcDbLine
 62
7
  6
CONTINUOUS
 10
0.6693263648
 20
-12.1748473047
 11
0.6082479768
 21
-12.1686002518
  0
LINE
  5
558
100
AcDbEntity
  8
0
100
AcDbLine
 62
253
  6
CONTINUOUS
 10
-0.3715777711
 20
-12.2070129075
 11
-0.4530150448
 21
-12.1986227279
  0
LINE
  5
559
100
AcDbEntity
  8
0
100
AcDbLine
 62
253
  6
CONTINUOUS
 10
-0.3725100119
 20
-13.2069085009
 11
-0.4534157255
 21
-13.1985669012
  0
LINE
  5
55A
100
AcDbEntity
  8
0
100
AcDbLine
 62
253
  6
CONTINUOUS
 10
-0.3730520623
 20
-12.7068598116
 11
-0.4543837524
 21
-12.6984724687
  0
LINE
  5
55B
100
AcDbEntity
  8
0
100
AcDbLine
 62
7
  6
CONTINUOUS
 10
0.6722367809
 20
-11.6751588075
 11
0.6106450813
 21
-11.6688429546
  0
LINE
  5
55C
100
AcDbEntity
  8
0
100
AcDbLine
 62
7
  6
CONTINUOUS
 10
0.6744199092
 20
-12.6753811677
 11
0.6148036086
 21
-12.6692469418
  0
LINE
  5
55D
100
AcDbEntity
  8
0
100
AcDbLine
 62
7
  6
CONTINUOUS
 10
-0.6941751228
 20
-12.3062329026
 11
-0.6471412338
 21
-12.3112119231
  0
LWPOLYLINE
  5
55E
100
AcDbEntity
  8
0
100
AcDbPolyline
 62
253
  6
CONTINUOUS
 90
5
 70
0
 10
-0.4119811348
 20
-11.702919359
 10
-0.4901549159
 20
-11.6946111739
 10
-0.5272918367
 20
-11.6904405464
 10
-0.5628877612
 20
-11.6862653607
 10
-0.5899528189
 20
-11.6829305189
  0
LINE
  5
55F
100
AcDbEntity
  8
0
100
AcDbLine
 62
7
  6
CONTINUOUS
 10
0.7066221636
 20
-13.1788485894
 11
0.6634162893
 21
-13.1742144444
  0
LINE
  5
560
100
AcDbEntity
  8
0
100
AcDbLine
 62
7
  6
CONTINUOUS
 10
0.707227599
 20
-12.1789255159
 11
0.6693263648
 21
-12.1748473047
  0
LINE
  5
561
100
AcDbEntity
  8
0
100
AcDbLine
 62
7
  6
CONTINUOUS
 10
-0.7025427568
 20
-11.8053238929
 11
-0.6678541265
 21
-11.8090631559
  0
LINE
  5
562
100
AcDbEntity
  8
0
100
AcDbLine
 62
7
  6
CONTINUOUS
 10
-0.7040200115
 20
-12.8051440485
 11
-0.6685095782
 21
-12.8089777658
  0
LINE
  5
563
100
AcDbEntity
  8
0
100
AcDbLine
 62
7
  6
CONTINUOUS
 10
0.7115295242
 20
-12.679396527
 11
0.6744199092
 21
-12.6753811677
  0
LINE
  5
564
100
AcDbEntity
  8
0
100
AcDbLine
 62
7
  6
CONTINUOUS
 10
0.7104099443
 20
-11.679282901
 11
0.6722367809
 21
-11.6751588075
  0
LWPOLYLINE
  5
565
100
AcDbEntity
  8
0
100
AcDbPolyline
 62
253
  6
CONTINUOUS
 90
4
 70
0
 10
-0.4534157255
 20
-13.1985669012
 10
-0.5289689028
 20
-13.1902270755
 10
-0.5645096944
 20
-13.1860486728
 10
-0.5899279058
 20
-13.1829095438
  0
LWPOLYLINE
  5
566
100
AcDbEntity
  8
0
100
AcDbPolyline
 62
253
  6
CONTINUOUS
 90
4
 70
0
 10
-0.4530150448
 20
-12.1986227279
 10
-0.5286760002
 20
-12.1902771796
 10
-0.5640562272
 20
-12.186118157
 10
-0.5899338218
 20
-12.1829221675
  0
LWPOLYLINE
  5
567
100
AcDbEntity
  8
0
100
AcDbPolyline
 62
253
  6
CONTINUOUS
 90
4
 70
0
 10
-0.4543837524
 20
-12.6984724687
 10
-0.5298295641
 20
-12.6901359884
 10
-0.5650799653
 20
-12.6859858616
 10
-0.5899162818
 20
-12.6829151717
  0
LINE
  5
568
100
AcDbEntity
  8
0
100
AcDbLine
 62
7
  6
CONTINUOUS
 10
-0.7233910057
 20
-12.3029757324
 11
-0.6941751228
 21
-12.3062329026
  0
LINE
  5
569
100
AcDbEntity
  8
0
100
AcDbLine
 62
7
  6
CONTINUOUS
 10
0.7429009271
 20
-12.1829372285
 11
0.707227599
 21
-12.1789255159
  0
LINE
  5
56A
100
AcDbEntity
  8
0
100
AcDbLine
 62
7
  6
CONTINUOUS
 10
0.7474438302
 20
-13.183451126
 11
0.7066221636
 21
-13.1788485894
  0
LINE
  5
56B
100
AcDbEntity
  8
0
100
AcDbLine
 62
7
  6
CONTINUOUS
 10
0.7466368088
 20
-12.6833646895
 11
0.7115295242
 21
-12.679396527
  0
LINE
  5
56C
100
AcDbEntity
  8
0
100
AcDbLine
 62
7
  6
CONTINUOUS
 10
0.7464268023
 20
-11.6833535126
 11
0.7104099443
 21
-11.679282901
  0
LINE
  5
56D
100
AcDbEntity
  8
0
100
AcDbLine
 62
7
  6
CONTINUOUS
 10
-0.7350006889
 20
-11.8016496921
 11
-0.7025427568
 21
-11.8053238929
  0
LINE
  5
56E
100
AcDbEntity
  8
0
100
AcDbLine
 62
7
  6
CONTINUOUS
 10
-0.7371935918
 20
-12.8013803581
 11
-0.7040200115
 21
-12.8051440485
  0
LINE
  5
56F
100
AcDbEntity
  8
0
100
AcDbLine
 62
7
  6
CONTINUOUS
 10
-0.7509398157
 20
-12.2997634483
 11
-0.7233910057
 21
-12.3029757324
  0
LINE
  5
570
100
AcDbEntity
  8
0
100
AcDbLine
 62
7
  6
CONTINUOUS
 10
0.7763712207
 20
-12.1868841674
 11
0.7429009271
 21
-12.1829372285
  0
LINE
  5
571
100
AcDbEntity
  8
0
100
AcDbLine
 62
7
  6
CONTINUOUS
 10
0.7798513241
 20
-12.6872997822
 11
0.7466368088
 21
-12.6833646895
  0
LINE
  5
572
100
AcDbEntity
  8
0
100
AcDbLine
 62
7
  6
CONTINUOUS
 10
0.7803641558
 20
-11.6873784833
 11
0.7464268023
 21
-11.6833535126
  0
LINE
  5
573
100
AcDbEntity
  8
0
100
AcDbLine
 62
7
  6
CONTINUOUS
 10
0.7858061599
 20
-13.1880195412
 11
0.7474438302
 21
-13.183451126
  0
LINE
  5
574
100
AcDbEntity
  8
0
100
AcDbLine
 62
7
  6
CONTINUOUS
 10
-0.7652790572
 20
-11.7980363279
 11
-0.7350006889
 21
-11.8016496921
  0
LINE
  5
575
100
AcDbEntity
  8
0
100
AcDbLine
 62
7
  6
CONTINUOUS
 10
-0.7680857835
 20
-12.7976805626
 11
-0.7371935918
 21
-12.8013803581
  0
LINE
  5
576
100
AcDbEntity
  8
0
100
AcDbLine
 62
7
  6
CONTINUOUS
 10
-0.7768696551
 20
-12.2965904994
 11
-0.7509398157
 21
-12.2997634483
  0
LINE
  5
577
100
AcDbEntity
  8
0
100
AcDbLine
 62
7
  6
CONTINUOUS
 10
0.807680656
 20
-12.1907675549
 11
0.7763712207
 21
-12.1868841674
  0
LINE
  5
578
100
AcDbEntity
  8
0
100
AcDbLine
 62
7
  6
CONTINUOUS
 10
0.8111405181
 20
-12.6912000321
 11
0.7798513241
 21
-12.6872997822
  0
LINE
  5
579
100
AcDbEntity
  8
0
100
AcDbLine
 62
7
  6
CONTINUOUS
 10
0.8123228787
 20
-11.6913698017
 11
0.7803641558
 21
-11.6873784833
  0
LINE
  5
57A
100
AcDbEntity
  8
0
100
AcDbLine
 62
7
  6
CONTINUOUS
 10
-0.7934449242
 20
-11.7944779947
 11
-0.7652790572
 21
-11.7980363279
  0
LINE
  5
57B
100
AcDbEntity
  8
0
100
AcDbLine
 62
7
  6
CONTINUOUS
 10
-0.8012339418
 20
-12.2934501181
 11
-0.7768696551
 21
-12.2965904994
  0
LINE
  5
57C
100
AcDbEntity
  8
0
100
AcDbLine
 62
7
  6
CONTINUOUS
 10
0.8368817175
 20
-12.1945884241
 11
0.807680656
 21
-12.1907675549
  0
LINE
  5
57D
100
AcDbEntity
  8
0
100
AcDbLine
 62
7
  6
CONTINUOUS
 10
0.8405001843
 20
-12.695066203
 11
0.8111405181
 21
-12.6912000321
  0
LINE
  5
57E
100
AcDbEntity
  8
0
100
AcDbLine
 62
7
  6
CONTINUOUS
 10
0.8422895281
 20
-11.6953260692
 11
0.8123228787
 21
-11.6913698017
  0
LWPOLYLINE
  5
57F
100
AcDbEntity
  8
0
100
AcDbPolyline
 62
253
  6
CONTINUOUS
 90
8
 70
0
 10
0.7206615655
 20
-12.318231467
 10
0.7034086829
 20
-12.3156202224
 10
0.6717383548
 20
-12.3111307
 10
0.6382194458
 20
-12.3066532056
 10
0.6029370293
 20
-12.3021862386
 10
0.5660062794
 20
-12.2977301661
 10
0.5275434521
 20
-12.2932854222
 10
0.4464275849
 20
-12.2844254657
  0
LWPOLYLINE
  5
580
100
AcDbEntity
  8
0
100
AcDbPolyline
 62
253
  6
CONTINUOUS
 90
8
 70
0
 10
0.7206505959
 20
-11.8182375834
 10
0.7038152224
 20
-11.8156885901
 10
0.6720446046
 20
-11.8111828939
 10
0.6383796278
 20
-11.8066824115
 10
0.6029460018
 20
-11.8021926129
 10
0.5659617101
 20
-11.7977287056
 10
0.5276769031
 20
-11.7933048821
 10
0.447154619
 20
-11.7845096773
  0
LWPOLYLINE
  5
581
100
AcDbEntity
  8
0
100
AcDbPolyline
 62
253
  6
CONTINUOUS
 90
8
 70
0
 10
0.7206865927
 20
-13.3182192722
 10
0.7052182524
 20
-13.3158691314
 10
0.6734792524
 20
-13.3113579506
 10
0.6398060247
 20
-13.3068493146
 10
0.6043439053
 20
-13.3023493068
 10
0.5673328547
 20
-13.29787409
 10
0.5290076505
 20
-13.2934366859
 10
0.448375803
 20
-13.2846163943
  0
LWPOLYLINE
  5
582
100
AcDbEntity
  8
0
100
AcDbPolyline
 62
253
  6
CONTINUOUS
 90
8
 70
0
 10
0.7206745176
 20
-12.8182245885
 10
0.7055699533
 20
-12.8159278407
 10
0.6737977002
 20
-12.8114088007
 10
0.6401432186
 20
-12.8069002295
 10
0.6047610479
 20
-12.8024080476
 10
0.5677213481
 20
-12.7979272371
 10
0.5291264555
 20
-12.7934574216
 10
0.4476563912
 20
-12.7845473614
  0
LINE
  5
583
100
AcDbEntity
  8
0
100
AcDbLine
 62
7
  6
CONTINUOUS
 10
9.2645832837
 20
-14.6489361972
 11
9.4208332837
 21
-14.6755319387
  0
LINE
  5
584
100
AcDbEntity
  8
0
100
AcDbLine
 62
7
  6
CONTINUOUS
 10
11.4520834327
 20
-14.7819149047
 11
11.2958334327
 21
-14.7553191632
  0
LINE
  5
585
100
AcDbEntity
  8
0
100
AcDbLine
 62
7
  6
CONTINUOUS
 10
11.321875
 20
-14.6489361972
 11
11.478125
 21
-14.6755319387
  0
LINE
  5
586
100
AcDbEntity
  8
0
100
AcDbLine
 62
7
  6
CONTINUOUS
 10
12.025
 20
-16.5319149047
 11
11.9208334327
 21
-16.5053191632
  0
LINE
  5
587
100
AcDbEntity
  8
0
100
AcDbLine
 62
7
  6
CONTINUOUS
 10
12.9625
 20
-16.5319149047
 11
12.8583331347
 21
-16.5053191632
  0
LINE
  5
588
100
AcDbEntity
  8
0
100
AcDbLine
 62
7
  6
CONTINUOUS
 10
9.05625
 20
-15.5
 11
8.9520832836
 21
-15.4734042562
  0
LINE
  5
589
100
AcDbEntity
  8
0
100
AcDbLine
 62
7
  6
CONTINUOUS
 10
10.15
 20
-15.5
 11
10.0458334327
 21
-15.4734042562
  0
LINE
  5
58A
100
AcDbEntity
  8
0
100
AcDbLine
 62
7
  6
CONTINUOUS
 10
10.0979165673
 20
-15.3404255323
 11
10.2020834327
 21
-15.3670212738
  0
LINE
  5
58B
100
AcDbEntity
  8
0
100
AcDbLine
 62
7
  6
CONTINUOUS
 10
11.1916665673
 20
-15.3670212738
 11
11.2958334327
 21
-15.3936170246
  0
LINE
  5
58C
100
AcDbEntity
  8
0
100
AcDbLine
 62
7
  6
CONTINUOUS
 10
9.36875
 20
-14.7819149047
 11
9.2645832837
 21
-14.7553191632
  0
LINE
  5
58D
100
AcDbEntity
  8
0
100
AcDbLine
 62
7
  6
CONTINUOUS
 10
10.4104165673
 20
-14.8085106462
 11
10.30625
 21
-14.7819149047
  0
LINE
  5
58E
100
AcDbEntity
  8
0
100
AcDbLine
 62
7
  6
CONTINUOUS
 10
10.30625
 20
-14.6489361972
 11
10.4104165673
 21
-14.6755319387
  0
LWPOLYLINE
  5
58F
100
AcDbEntity
  8
0
100
AcDbPolyline
 62
7
  6
CONTINUOUS
 90
19
 70
0
 10
-0.9625
 20
-12.7639741647
 10
-0.9577870435
 20
-12.7653131883
 10
-0.9505327647
 20
-12.7672428563
 10
-0.9430192152
 20
-12.7691202725
 10
-0.9352390756
 20
-12.7709522891
 10
-0.9271223926
 20
-12.7727587141
 10
-0.9186456792
 20
-12.7745464227
 10
-0.9098023111
 20
-12.7763181456
 10
-0.9005530799
 20
-12.7780825567
 10
-0.8908800727
 20
-12.7798432928
 10
-0.8807751222
 20
-12.7816019477
 10
-0.8702195191
 20
-12.7833617682
 10
-0.85920522
 20
-12.7851239746
 10
-0.8477197587
 20
-12.7868904019
 10
-0.8357419375
 20
-12.7886639972
 10
-0.823263082
 20
-12.790445632
 10
-0.8102732241
 20
-12.7922363186
 10
-0.7967511145
 20
-12.794038576
 10
-0.7680857835
 20
-12.7976805626
  0
LWPOLYLINE
  5
590
100
AcDbEntity
  8
0
100
AcDbPolyline
 62
7
  6
CONTINUOUS
 90
18
 70
0
 10
-0.9625
 20
-13.2639649207
 10
-0.9596039007
 20
-13.2648036624
 10
-0.952490283
 20
-13.266731582
 10
-0.9451595014
 20
-13.2685969125
 10
-0.9376020109
 20
-13.2704081941
 10
-0.9297419222
 20
-13.2721879586
 10
-0.9215589903
 20
-13.2739433807
 10
-0.913049154
 20
-13.2756775436
 10
-0.9041641142
 20
-13.2774017418
 10
-0.8948880622
 20
-13.2791196891
 10
-0.8852145987
 20
-13.2808330844
 10
-0.8751127515
 20
-13.2825476345
 10
-0.8645720525
 20
-13.2842650399
 10
-0.8535833258
 20
-13.2859866842
 10
-0.8421196011
 20
-13.2877165032
 10
-0.8301698297
 20
-13.2894557078
 10
-0.8177262963
 20
-13.2912049753
 10
-0.7912846722
 20
-13.2947418616
  0
LWPOLYLINE
  5
591
100
AcDbEntity
  8
0
100
AcDbPolyline
 62
7
  6
CONTINUOUS
 90
19
 70
0
 10
-0.9625
 20
-12.2639712099
 10
-0.9602463519
 20
-12.2646253816
 10
-0.9537049828
 20
-12.2664116746
 10
-0.946977274
 20
-12.2681450699
 10
-0.9400680598
 20
-12.2698294681
 10
-0.9329181771
 20
-12.2714830929
 10
-0.9255100487
 20
-12.2731122776
 10
-0.9178429352
 20
-12.2747191441
 10
-0.9098867884
 20
-12.2763114888
 10
-0.9016289554
 20
-12.2778927776
 10
-0.8930669245
 20
-12.2794642862
 10
-0.8841908791
 20
-12.2810285101
 10
-0.8749960973
 20
-12.2825868506
 10
-0.8654770792
 20
-12.2841407349
 10
-0.8556274386
 20
-12.2856916661
 10
-0.8454537548
 20
-12.2872393163
 10
-0.8349466081
 20
-12.288785848
 10
-0.8240774654
 20
-12.290335897
 10
-0.8012339418
 20
-12.2934501181
  0
LWPOLYLINE
  5
592
100
AcDbEntity
  8
0
100
AcDbPolyline
 62
7
  6
CONTINUOUS
 90
20
 70
0
 10
1.0375
 20
-13.7327048161
 10
1.0306823772
 20
-13.7306253027
 10
1.0227334379
 20
-13.7283562633
 10
1.0145101601
 20
-13.7261512238
 10
1.0059910146
 20
-13.723998432
 10
0.9971754332
 20
-13.721892585
 10
0.9879923629
 20
-13.7198132107
 10
0.9784218929
 20
-13.7177540154
 10
0.9684610172
 20
-13.7157128623
 10
0.9580668451
 20
-13.7136800635
 10
0.9472236459
 20
-13.7116523195
 10
0.9359257214
 20
-13.7096284474
 10
0.9241483259
 20
-13.7076040951
 10
0.9118784023
 20
-13.7055773499
 10
0.8991101907
 20
-13.7035476245
 10
0.8858331553
 20
-13.7015136182
 10
0.8720388802
 20
-13.6994743181
 10
0.8577245522
 20
-13.6974291928
 10
0.8428916278
 20
-13.6953782248
 10
0.8116616131
 20
-13.6912565836
  0
LWPOLYLINE
  5
593
100
AcDbEntity
  8
0
100
AcDbPolyline
 62
7
  6
CONTINUOUS
 90
20
 70
0
 10
1.0375
 20
-12.7327253625
 10
1.0335563247
 20
-12.7314936858
 10
1.0264271733
 20
-12.7293997977
 10
1.0190711951
 20
-12.7273626665
 10
1.0114895859
 20
-12.7253777522
 10
1.00362416
 20
-12.7234259497
 10
0.9954595186
 20
-12.7215010246
 10
0.9869894848
 20
-12.7195994582
 10
0.9781724163
 20
-12.7177105687
 10
0.9689950016
 20
-12.7158308981
 10
0.9594506455
 20
-12.7139586234
 10
0.9495104603
 20
-12.7120879181
 10
0.9391625324
 20
-12.710216713
 10
0.9284005614
 20
-12.7083440838
 10
0.9172064594
 20
-12.7064671989
 10
0.9055703488
 20
-12.7045848409
 10
0.8934861303
 20
-12.7026964667
 10
0.8809437805
 20
-12.7008009613
 10
0.8679353491
 20
-12.698897598
 10
0.8405001843
 20
-12.695066203
  0
LWPOLYLINE
  5
594
100
AcDbEntity
  8
0
100
AcDbPolyline
 62
7
  6
CONTINUOUS
 90
21
 70
0
 10
1.0375
 20
-12.2327436247
 10
1.0339848195
 20
-12.2316421081
 10
1.0270248013
 20
-12.2295881707
 10
1.0199121421
 20
-12.227605523
 10
1.0126392379
 20
-12.2256850103
 10
1.0051246041
 20
-12.2238005118
 10
0.9973493318
 20
-12.2219448693
 10
0.9893155551
 20
-12.220116501
 10
0.9809709937
 20
-12.2183022138
 10
0.9723011635
 20
-12.2164984776
 10
0.9633016174
 20
-12.2147039121
 10
0.953934443
 20
-12.2129106598
 10
0.9441894328
 20
-12.2111168901
 10
0.9340595224
 20
-12.2093214649
 10
0.9235104036
 20
-12.2075187323
 10
0.9125293967
 20
-12.2057072315
 10
0.9011108373
 20
-12.203886722
 10
0.8892303846
 20
-12.2020540957
 10
0.876875632
 20
-12.2002083293
 10
0.8640409308
 20
-12.198349437
 10
0.8368817175
 20
-12.1945884241
  0
LWPOLYLINE
  5
595
100
AcDbEntity
  8
0
100
AcDbPolyline
 62
7
  6
CONTINUOUS
 90
20
 70
0
 10
1.0375
 20
-13.2327262754
 10
1.0337001292
 20
-13.2315295968
 10
1.0249236975
 20
-13.2289664073
 10
1.015791508
 20
-13.2264835952
 10
1.0062915183
 20
-13.224069661
 10
0.9964426813
 20
-13.2217210846
 10
0.9862047277
 20
-13.2194210706
 10
0.9754993354
 20
-13.2171477364
 10
0.9643071507
 20
-13.2148946048
 10
0.9526252802
 20
-13.2126590804
 10
0.9404049457
 20
-13.2104305389
 10
0.9276303521
 20
-13.2082055844
 10
0.9142974533
 20
-13.2059831097
 10
0.9003788542
 20
-13.2037583724
 10
0.8858628681
 20
-13.2015296023
 10
0.8707447318
 20
-13.1992961931
 10
0.8550109931
 20
-13.1970563261
 10
0.83865282
 20
-13.1948089857
 10
0.8216664582
 20
-13.1925538936
 10
0.7858061599
 20
-13.1880195412
  0
LINE
  5
596
100
AcDbEntity
  8
0
100
AcDbLine
 62
7
  6
CONTINUOUS
 10
10.6447915673
 20
-16.3989361972
 11
10.7229165673
 21
-16.4255319387
  0
LINE
  5
597
100
AcDbEntity
  8
0
100
AcDbLine
 62
7
  6
CONTINUOUS
 10
11.0614584327
 20
-16.3989361972
 11
11.1395834327
 21
-16.4255319387
  0
LINE
  5
598
100
AcDbEntity
  8
0
100
AcDbLine
 62
7
  6
CONTINUOUS
 10
12.9625
 20
-16.3989361972
 11
13.040625
 21
-16.4255319387
  0
LINE
  5
599
100
AcDbEntity
  8
0
100
AcDbLine
 62
7
  6
CONTINUOUS
 10
7.6239583395
 20
-17.2234042562
 11
7.5197916605
 21
-17.1702127662
  0
LINE
  5
59A
100
AcDbEntity
  8
0
100
AcDbLine
 62
253
  6
CONTINUOUS
 10
-10.9625
 20
-22.5
 11
-10.9625
 21
-21.5
  0
LINE
  5
59B
100
AcDbEntity
  8
0
100
AcDbLine
 62
7
  6
CONTINUOUS
 10
-10.7125
 20
-21.75
 11
-10.7125
 21
-22.25
  0
LINE
  5
59C
100
AcDbEntity
  8
0
100
AcDbLine
 62
7
  6
CONTINUOUS
 10
-5.2906636804
 20
16.8345542297
 11
-5.3035457197
 21
16.7967132349
  0
LINE
  5
59D
100
AcDbEntity
  8
0
100
AcDbLine
 62
7
  6
CONTINUOUS
 10
-5.2906636804
 20
15.3965962853
 11
-5.3035457197
 21
15.3587552905
  0
LINE
  5
59E
100
AcDbEntity
  8
0
100
AcDbLine
 62
7
  6
CONTINUOUS
 10
-5.2906636804
 20
14.8415951254
 11
-5.3035457197
 21
14.8037541306
  0
LINE
  5
59F
100
AcDbEntity
  8
0
100
AcDbLine
 62
7
  6
CONTINUOUS
 10
-5.0716689775
 20
15.4092100464
 11
-5.0845510167
 21
15.3713690517
  0
LINE
  5
5A0
100
AcDbEntity
  8
0
100
AcDbLine
 62
7
  6
CONTINUOUS
 10
-5.0716689775
 20
14.8542087422
 11
-5.0845510167
 21
14.8163677474
  0
LINE
  5
5A1
100
AcDbEntity
  8
0
100
AcDbLine
 62
7
  6
CONTINUOUS
 10
-4.8397922444
 20
15.2452323063
 11
-4.8269102052
 21
15.2830733011
  0
LINE
  5
5A2
100
AcDbEntity
  8
0
100
AcDbLine
 62
7
  6
CONTINUOUS
 10
-5.2906636804
 20
13.7189789
 11
-5.3035457197
 21
13.6811379053
  0
LINE
  5
5A3
100
AcDbEntity
  8
0
100
AcDbLine
 62
7
  6
CONTINUOUS
 10
-5.0716689775
 20
13.1765913028
 11
-5.1618432521
 21
13.0
  0
LINE
  5
5A4
100
AcDbEntity
  8
0
100
AcDbLine
 62
7
  6
CONTINUOUS
 10
-5.2004893698
 20
13.0252273306
 11
-5.0716689775
 21
13.2648869632
  0
LWPOLYLINE
  5
5A5
100
AcDbEntity
  8
0
100
AcDbPolyline
 62
7
  6
CONTINUOUS
 90
33
 70
0
 10
-0.8362238269
 20
-11.4608587233
 10
-0.8464396045
 20
-11.4623679535
 10
-0.856311121
 20
-11.463873653
 10
-0.8658469463
 20
-11.4653772367
 10
-0.8750499624
 20
-11.4668793045
 10
-0.8839267456
 20
-11.4683810989
 10
-0.8924934148
 20
-11.4698856652
 10
-0.9007535951
 20
-11.4713940983
 10
-0.9087150349
 20
-11.4729083387
 10
-0.9164018831
 20
-11.4744338248
 10
-0.9238165781
 20
-11.4759720515
 10
-0.9309715338
 20
-11.4775265191
 10
-0.9379074299
 20
-11.4791077141
 10
-0.9446237491
 20
-11.4807178288
 10
-0.9511367982
 20
-11.4823634168
 10
-0.9575133934
 20
-11.4840658
 10
-0.9637473382
 20
-11.4858294228
 10
-0.9698582831
 20
-11.4876667784
 10
-0.9759518
 20
-11.4896207904
 10
-0.9820235739
 20
-11.4917058304
 10
-0.9880834157
 20
-11.4939433178
 10
-0.9942580549
 20
-11.4964065235
 10
-1.0005514701
 20
-11.4991342015
 10
-1.0069490245
 20
-11.5021633009
 10
-1.0135464989
 20
-11.5055965327
 10
-1.020347645
 20
-11.5095137483
 10
-1.0272906199
 20
-11.5139715319
 10
-1.0343570344
 20
-11.5190682045
 10
-1.0415115868
 20
-11.5249189302
 10
-1.0486248577
 20
-11.5315880259
 10
-1.0555252627
 20
-11.539092951
 10
-1.0621628119
 20
-11.5475557274
 10
-1.0625
 20
-11.5480667711
  0
LINE
  5
5A6
100
AcDbEntity
  8
0
100
AcDbLine
 62
7
  6
CONTINUOUS
 10
-0.8147491023
 20
-11.4578278485
 11
-0.8362238269
 21
-11.4608587233
  0
LINE
  5
5A7
100
AcDbEntity
  8
0
100
AcDbLine
 62
7
  6
CONTINUOUS
 10
-0.7918214521
 20
-11.4547716449
 11
-0.8147491023
 21
-11.4578278485
  0
LWPOLYLINE
  5
5A8
100
AcDbEntity
  8
0
100
AcDbPolyline
 62
7
  6
CONTINUOUS
 90
3
 70
0
 10
-0.7546190129
 20
-11.4501292568
 10
-0.7674003816
 20
-11.4516851147
 10
-0.7918214521
 20
-11.4547716449
  0
LINE
  5
5A9
100
AcDbEntity
  8
0
100
AcDbLine
 62
7
  6
CONTINUOUS
 10
-2.5375
 20
-11.0781138903
 11
-2.4625
 21
-11.0781138903
  0
LINE
  5
5AA
100
AcDbEntity
  8
0
100
AcDbLine
 62
7
  6
CONTINUOUS
 10
2.5375
 20
-11.0781138903
 11
2.6125
 21
-11.0781138903
  0
LINE
  5
5AB
100
AcDbEntity
  8
0
100
AcDbLine
 62
7
  6
CONTINUOUS
 10
16.9375
 20
-10.85
 11
3.7875
 21
-10.85
  0
LINE
  5
5AC
100
AcDbEntity
  8
0
100
AcDbLine
 62
7
  6
CONTINUOUS
 10
-3.7125
 20
-10.85
 11
-16.8625
 21
-10.85
  0
LINE
  5
5AD
100
AcDbEntity
  8
0
100
AcDbLine
 62
253
  6
CONTINUOUS
 10
-17.1125
 20
-10.6
 11
-3.7125
 21
-10.6
  0
LINE
  5
5AE
100
AcDbEntity
  8
0
100
AcDbLine
 62
253
  6
CONTINUOUS
 10
3.7875
 20
-10.6
 11
17.1875
 21
-10.6
  0
LINE
  5
5AF
100
AcDbEntity
  8
0
100
AcDbLine
 62
253
  6
CONTINUOUS
 10
2.5375
 20
-10.395
 11
-2.4625
 21
-10.395
  0
LINE
  5
5B0
100
AcDbEntity
  8
0
100
AcDbLine
 62
253
  6
CONTINUOUS
 10
15.7875
 20
-10.0
 11
2.6125
 21
-10.0
  0
LINE
  5
5B1
100
AcDbEntity
  8
0
100
AcDbLine
 62
253
  6
CONTINUOUS
 10
-2.5375
 20
-10.0
 11
-15.7125
 21
-10.0
  0
LINE
  5
5B2
100
AcDbEntity
  8
0
100
AcDbLine
 62
253
  6
CONTINUOUS
 10
-2.4625
 20
-9.9392857143
 11
2.5375
 21
-9.9392857143
  0
LINE
  5
5B3
100
AcDbEntity
  8
0
100
AcDbLine
 62
7
  6
CONTINUOUS
 10
-15.4625
 20
-9.75
 11
-2.5375
 21
-9.75
  0
LINE
  5
5B4
100
AcDbEntity
  8
0
100
AcDbLine
 62
7
  6
CONTINUOUS
 10
2.6125
 20
-9.75
 11
15.5375
 21
-9.75
  0
LINE
  5
5B5
100
AcDbEntity
  8
0
100
AcDbLine
 62
253
  6
CONTINUOUS
 10
18.0375
 20
-9.7201984777
 11
15.5375
 21
-9.7201984777
  0
LINE
  5
5B6
100
AcDbEntity
  8
0
100
AcDbLine
 62
253
  6
CONTINUOUS
 10
-15.4625
 20
-9.7201984777
 11
-17.9625
 21
-9.7201984777
  0
LINE
  5
5B7
100
AcDbEntity
  8
0
100
AcDbLine
 62
253
  6
CONTINUOUS
 10
15.7875
 20
-9.4721991227
 11
17.7875
 21
-9.4721991227
  0
LINE
  5
5B8
100
AcDbEntity
  8
0
100
AcDbLine
 62
253
  6
CONTINUOUS
 10
-17.7125
 20
-9.4721989998
 11
-15.7125
 21
-9.4721989998
  0
LINE
  5
5B9
100
AcDbEntity
  8
0
100
AcDbLine
 62
7
  6
CONTINUOUS
 10
-3.1625
 20
-9.3781138903
 11
-2.4625
 21
-9.3781138903
  0
LINE
  5
5BA
100
AcDbEntity
  8
0
100
AcDbLine
 62
7
  6
CONTINUOUS
 10
3.2375
 20
-9.3781138903
 11
2.5375
 21
-9.3781138903
  0
LWPOLYLINE
  5
5BB
100
AcDbEntity
  8
0
100
AcDbPolyline
 62
253
  6
CONTINUOUS
 90
13
 70
0
 10
-15.7125
 20
-9.4721989998
 10
-15.6798684519
 20
-9.4743206697
 10
-15.6477952387
 20
-9.4806493771
 10
-15.6168291419
 20
-9.491076836
 10
-15.5875
 20
-9.5054246297
 10
-15.5603096427
 20
-9.5234472635
 10
-15.5357233047
 20
-9.5448363652
 10
-15.5141616649
 20
-9.5692259612
 10
-15.4959936491
 20
-9.5961987388
 10
-15.4815301169
 20
-9.6252931863
 10
-15.4710185434
 20
-9.6560114897
 10
-15.4646387847
 20
-9.6878280502
 10
-15.4625
 20
-9.7201984777
  0
LINE
  5
5BC
100
AcDbEntity
  8
0
100
AcDbLine
 62
7
  6
CONTINUOUS
 10
13.978125
 20
-14.7819149047
 11
13.8739581347
 21
-14.7553191632
  0
LINE
  5
5BD
100
AcDbEntity
  8
0
100
AcDbLine
 62
7
  6
CONTINUOUS
 10
11.165625
 20
-15.4734042562
 11
11.0875
 21
-15.4468085123
  0
LINE
  5
5BE
100
AcDbEntity
  8
0
100
AcDbLine
 62
7
  6
CONTINUOUS
 10
13.978125
 20
-14.6489361972
 11
14.05625
 21
-14.6755319387
  0
LINE
  5
5BF
100
AcDbEntity
  8
0
100
AcDbLine
 62
7
  6
CONTINUOUS
 10
8.821875
 20
-17.0904255323
 11
8.8739582837
 21
-17.1170212738
  0
LINE
  5
5C0
100
AcDbEntity
  8
0
100
AcDbLine
 62
7
  6
CONTINUOUS
 10
8.11875
 20
-16.0265957415
 11
8.2229166418
 21
-16.0797872245
  0
LINE
  5
5C1
100
AcDbEntity
  8
0
100
AcDbLine
 62
7
  6
CONTINUOUS
 10
11.6083334327
 20
-17.2234042562
 11
11.55625
 21
-17.1968085123
  0
LINE
  5
5C2
100
AcDbEntity
  8
0
100
AcDbLine
 62
7
  6
CONTINUOUS
 10
11.6083334327
 20
-17.0904255323
 11
11.7125
 21
-17.1436170246
  0
LINE
  5
5C3
100
AcDbEntity
  8
0
100
AcDbLine
 62
7
  6
CONTINUOUS
 10
10.6447915673
 20
-16.5319149047
 11
10.5927084327
 21
-16.5053191632
  0
LINE
  5
5C4
100
AcDbEntity
  8
0
100
AcDbLine
 62
7
  6
CONTINUOUS
 10
8.9520832836
 20
-15.4734042562
 11
8.9
 21
-15.4468085123
  0
LINE
  5
5C5
100
AcDbEntity
  8
0
100
AcDbLine
 62
7
  6
CONTINUOUS
 10
11.0614584327
 20
-16.5319149047
 11
11.009375
 21
-16.5053191632
  0
LINE
  5
5C6
100
AcDbEntity
  8
0
100
AcDbLine
 62
7
  6
CONTINUOUS
 10
8.9520832837
 20
-15.3404255323
 11
9.05625
 21
-15.3936170246
  0
LINE
  5
5C7
100
AcDbEntity
  8
0
100
AcDbLine
 62
7
  6
CONTINUOUS
 10
7.571875
 20
-17.0106382892
 11
7.65
 21
-17.0638297908
  0
LINE
  5
5C8
100
AcDbEntity
  8
0
100
AcDbLine
 62
7
  6
CONTINUOUS
 10
-8.2125
 20
-22.25
 11
-8.2125
 21
-21.75
  0
LINE
  5
5C9
100
AcDbEntity
  8
0
100
AcDbLine
 62
253
  6
CONTINUOUS
 10
-7.9625
 20
-21.5
 11
-7.9625
 21
-22.5
  0
LINE
  5
5CA
100
AcDbEntity
  8
0
100
AcDbLine
 62
7
  6
CONTINUOUS
 10
-7.5885006068
 20
15.8376936849
 11
-7.5885006068
 21
15.3987911858
  0
LINE
  5
5CB
100
AcDbEntity
  8
0
100
AcDbLine
 62
7
  6
CONTINUOUS
 10
-5.3679559158
 20
16.7840994738
 11
-5.3550738766
 21
16.8471677021
  0
LINE
  5
5CC
100
AcDbEntity
  8
0
100
AcDbLine
 62
7
  6
CONTINUOUS
 10
-5.3679559158
 20
15.3461416737
 11
-5.3550738766
 21
15.4092100464
  0
LINE
  5
5CD
100
AcDbEntity
  8
0
100
AcDbLine
 62
7
  6
CONTINUOUS
 10
-5.3679559158
 20
14.7911403695
 11
-5.3550738766
 21
14.8542087422
  0
LINE
  5
5CE
100
AcDbEntity
  8
0
100
AcDbLine
 62
7
  6
CONTINUOUS
 10
-5.1489612129
 20
15.3587552905
 11
-5.1360791736
 21
15.4218236632
  0
LINE
  5
5CF
100
AcDbEntity
  8
0
100
AcDbLine
 62
7
  6
CONTINUOUS
 10
-5.1489612129
 20
14.8037541306
 11
-5.1360791736
 21
14.8668223589
  0
LINE
  5
5D0
100
AcDbEntity
  8
0
100
AcDbLine
 62
7
  6
CONTINUOUS
 10
-5.3679559158
 20
13.6685242163
 11
-5.3550738766
 21
13.731592589
  0
LINE
  5
5D1
100
AcDbEntity
  8
0
100
AcDbLine
 62
7
  6
CONTINUOUS
 10
-4.7625
 20
15.2956870622
 11
-4.7753820404
 21
15.2326186895
  0
LINE
  5
5D2
100
AcDbEntity
  8
0
100
AcDbLine
 62
7
  6
CONTINUOUS
 10
-4.7625
 20
14.7406857579
 11
-4.7753820404
 21
14.6776173853
  0
LINE
  5
5D3
100
AcDbEntity
  8
0
100
AcDbLine
 62
7
  6
CONTINUOUS
 10
-4.8397922444
 20
14.6902311464
 11
-4.8269102052
 21
14.7280721411
  0
LINE
  5
5D4
100
AcDbEntity
  8
0
100
AcDbLine
 62
7
  6
CONTINUOUS
 10
15.7875
 20
-9.15
 11
17.7875
 21
-9.15
  0
LINE
  5
5D5
100
AcDbEntity
  8
0
100
AcDbLine
 62
7
  6
CONTINUOUS
 10
-15.7125
 20
-9.15
 11
-17.7125
 21
-9.15
  0
LINE
  5
5D6
100
AcDbEntity
  8
0
100
AcDbLine
 62
7
  6
CONTINUOUS
 10
2.8875
 20
-8.25
 11
2.5375
 21
-8.25
  0
LINE
  5
5D7
100
AcDbEntity
  8
0
100
AcDbLine
 62
7
  6
CONTINUOUS
 10
-2.4625
 20
-8.25
 11
-2.8125
 21
-8.25
  0
LINE
  5
5D8
100
AcDbEntity
  8
0
100
AcDbLine
 62
7
  6
CONTINUOUS
 10
-17.9625
 20
-8.25
 11
-18.0125
 21
-8.25
  0
LINE
  5
5D9
100
AcDbEntity
  8
0
100
AcDbLine
 62
253
  6
CONTINUOUS
 10
-2.4625
 20
-7.7760599446
 11
2.5375
 21
-7.7760599446
  0
LINE
  5
5DA
100
AcDbEntity
  8
0
100
AcDbLine
 62
253
  6
CONTINUOUS
 10
-18.0125
 20
-7.45
 11
-17.9625
 21
-7.45
  0
LWPOLYLINE
  5
5DB
100
AcDbEntity
  8
0
100
AcDbPolyline
 62
253
  6
CONTINUOUS
 90
13
 70
0
 10
17.7875
 20
-9.4721989998
 10
17.8201287454
 20
-9.4743203037
 10
17.8522002058
 20
-9.4806481663
 10
17.8831656215
 20
-9.4910746844
 10
17.9124953192
 20
-9.505421949
 10
17.9396870218
 20
-9.5234447247
 10
17.964274646
 20
-9.5448343323
 10
17.9858373851
 20
-9.5692247331
 10
18.0040062923
 20
-9.596198638
 10
18.0184701974
 20
-9.625293939
 10
18.0289817289
 20
-9.6560124978
 10
18.0353613169
 20
-9.6878288157
 10
18.0375
 20
-9.7201984777
  0
LINE
  5
5DC
100
AcDbEntity
  8
0
100
AcDbLine
 62
7
  6
CONTINUOUS
 10
12.0770834327
 20
-16.5585106462
 11
12.025
 21
-16.5319149047
  0
LINE
  5
5DD
100
AcDbEntity
  8
0
100
AcDbLine
 62
7
  6
CONTINUOUS
 10
9.4208332837
 20
-14.8085106462
 11
9.36875
 21
-14.7819149047
  0
LINE
  5
5DE
100
AcDbEntity
  8
0
100
AcDbLine
 62
7
  6
CONTINUOUS
 10
13.0145831346
 20
-16.5585106462
 11
12.9625
 21
-16.5319149047
  0
LINE
  5
5DF
100
AcDbEntity
  8
0
100
AcDbLine
 62
7
  6
CONTINUOUS
 10
11.1395834327
 20
-15.3404255323
 11
11.1916665673
 21
-15.3670212738
  0
LINE
  5
5E0
100
AcDbEntity
  8
0
100
AcDbLine
 62
7
  6
CONTINUOUS
 10
10.4104165673
 20
-14.6755319387
 11
10.4625
 21
-14.7021276802
  0
LINE
  5
5E1
100
AcDbEntity
  8
0
100
AcDbLine
 62
7
  6
CONTINUOUS
 10
9.1604167163
 20
-16.4255319387
 11
9.290625
 21
-16.5053191632
  0
LINE
  5
5E2
100
AcDbEntity
  8
0
100
AcDbLine
 62
7
  6
CONTINUOUS
 10
8.7697917163
 20
-17.1968085123
 11
8.6916667164
 21
-17.1436170247
  0
LINE
  5
5E3
100
AcDbEntity
  8
0
100
AcDbLine
 62
7
  6
CONTINUOUS
 10
8.1708333582
 20
-16.2393616736
 11
8.0927083582
 21
-16.1861701906
  0
LINE
  5
5E4
100
AcDbEntity
  8
0
100
AcDbLine
 62
7
  6
CONTINUOUS
 10
9.2125
 20
-16.5851063877
 11
9.134375
 21
-16.5319149047
  0
LINE
  5
5E5
100
AcDbEntity
  8
0
100
AcDbLine
 62
7
  6
CONTINUOUS
 10
-7.2961805187
 20
13.7573769886
 11
-7.2961805187
 21
14.1962794876
  0
LINE
  5
5E6
100
AcDbEntity
  8
0
100
AcDbLine
 62
7
  6
CONTINUOUS
 10
-6.2059593023
 20
14.1625341066
 11
-6.2059593023
 21
15.0
  0
LINE
  5
5E7
100
AcDbEntity
  8
0
100
AcDbLine
 62
7
  6
CONTINUOUS
 10
-6.2059593023
 20
15.4396802326
 11
-6.2059593023
 21
16.0663191246
  0
LINE
  5
5E8
100
AcDbEntity
  8
0
100
AcDbLine
 62
7
  6
CONTINUOUS
 10
-5.9625
 20
16.0663191246
 11
-5.9625
 21
15.4396802326
  0
LINE
  5
5E9
100
AcDbEntity
  8
0
100
AcDbLine
 62
7
  6
CONTINUOUS
 10
-5.9625
 20
15.0
 11
-5.9625
 21
14.1625341066
  0
LINE
  5
5EA
100
AcDbEntity
  8
0
100
AcDbLine
 62
7
  6
CONTINUOUS
 10
-2.4625
 20
-7.4281138903
 11
2.5375
 21
-7.4281138903
  0
LINE
  5
5EB
100
AcDbEntity
  8
0
100
AcDbLine
 62
253
  6
CONTINUOUS
 10
2.5375
 20
-7.2038534546
 11
-2.4625
 21
-7.2038534546
  0
LINE
  5
5EC
100
AcDbEntity
  8
0
100
AcDbLine
 62
7
  6
CONTINUOUS
 10
2.5375
 20
-7.065
 11
-2.4625
 21
-7.065
  0
LINE
  5
5ED
100
AcDbEntity
  8
0
100
AcDbLine
 62
7
  6
CONTINUOUS
 10
14.0302081346
 20
-14.8085106462
 11
13.978125
 21
-14.7819149047
  0
LINE
  5
5EE
100
AcDbEntity
  8
0
100
AcDbLine
 62
7
  6
CONTINUOUS
 10
11.478125
 20
-14.6755319387
 11
11.6083334327
 21
-14.7553191632
  0
LINE
  5
5EF
100
AcDbEntity
  8
0
100
AcDbLine
 62
7
  6
CONTINUOUS
 10
10.0458334327
 20
-15.4734042562
 11
9.9677084327
 21
-15.4202127662
  0
LINE
  5
5F0
100
AcDbEntity
  8
0
100
AcDbLine
 62
7
  6
CONTINUOUS
 10
10.0197915673
 20
-15.2872340493
 11
10.0979165673
 21
-15.3404255323
  0
LINE
  5
5F1
100
AcDbEntity
  8
0
100
AcDbLine
 62
7
  6
CONTINUOUS
 10
9.4208332837
 20
-14.6755319387
 11
9.4989582837
 21
-14.7287234217
  0
LINE
  5
5F2
100
AcDbEntity
  8
0
100
AcDbLine
 62
7
  6
CONTINUOUS
 10
12.0770834327
 20
-16.4255319387
 11
12.1552084327
 21
-16.4787234217
  0
LINE
  5
5F3
100
AcDbEntity
  8
0
100
AcDbLine
 62
7
  6
CONTINUOUS
 10
11.0875
 20
-15.4468085123
 11
11.009375
 21
-15.3936170246
  0
LINE
  5
5F4
100
AcDbEntity
  8
0
100
AcDbLine
 62
7
  6
CONTINUOUS
 10
10.4885415673
 20
-14.8617021292
 11
10.4104165673
 21
-14.8085106462
  0
LINE
  5
5F5
100
AcDbEntity
  8
0
100
AcDbLine
 62
7
  6
CONTINUOUS
 10
13.040625
 20
-16.4255319387
 11
13.11875
 21
-16.4787234217
  0
LINE
  5
5F6
100
AcDbEntity
  8
0
100
AcDbLine
 62
7
  6
CONTINUOUS
 10
11.5302084327
 20
-14.8351063877
 11
11.4520834327
 21
-14.7819149047
  0
LWPOLYLINE
  5
5F7
100
AcDbEntity
  8
0
100
AcDbPolyline
 62
7
  6
CONTINUOUS
 90
5
 70
0
 10
14.4375
 20
-21.75
 10
14.4360894495
 20
-21.7487067489
 10
14.4322413035
 20
-21.7448436815
 10
14.4259555619
 20
-21.7384556273
 10
14.4059020837
 20
-21.7184540141
  0
LINE
  5
5F8
100
AcDbEntity
  8
0
100
AcDbLine
 62
7
  6
CONTINUOUS
 10
7.5197916605
 20
-17.1702127662
 11
7.415625
 21
-17.0638297908
  0
LINE
  5
5F9
100
AcDbEntity
  8
0
100
AcDbLine
 62
7
  6
CONTINUOUS
 10
8.6916667164
 20
-17.1436170247
 11
8.6395832837
 21
-17.0904255323
  0
LINE
  5
5FA
100
AcDbEntity
  8
0
100
AcDbLine
 62
7
  6
CONTINUOUS
 10
8.74375
 20
-17.0106382891
 11
8.821875
 21
-17.0904255323
  0
LWPOLYLINE
  5
5FB
100
AcDbEntity
  8
0
100
AcDbPolyline
 62
7
  6
CONTINUOUS
 90
34
 70
0
 10
1.1375
 20
-11.797622275
 10
1.1357114255
 20
-11.7949831728
 10
1.1289375835
 20
-11.7865418978
 10
1.1219441658
 20
-11.7790771835
 10
1.1147752765
 20
-11.772447658
 10
1.1075355058
 20
-11.7665781046
 10
1.1003209397
 20
-11.7613972503
 10
1.0931754146
 20
-11.7568128877
 10
1.0861012727
 20
-11.7527285429
 10
1.0791485082
 20
-11.749091564
 10
1.0723104255
 20
-11.7458293154
 10
1.0654879883
 20
-11.7428439757
 10
1.0586880703
 20
-11.7401009116
 10
1.051901957
 20
-11.7375643219
 10
1.0450025706
 20
-11.7351641479
 10
1.0379698969
 20
-11.7328787696
 10
1.0308042429
 20
-11.7306956016
 10
1.0234089555
 20
-11.7285763127
 10
1.015758967
 20
-11.7265085506
 10
1.0078534738
 20
-11.7244876703
 10
0.9996347863
 20
-11.7224958068
 10
0.9910852258
 20
-11.7205269859
 10
0.9821975591
 20
-11.7185781566
 10
0.9729335759
 20
-11.7166401447
 10
0.9632792414
 20
-11.7147098247
 10
0.9532255745
 20
-11.7127853324
 10
0.9427449938
 20
-11.7108615933
 10
0.9318235112
 20
-11.7089365386
 10
0.9204535534
 20
-11.7070093637
 10
0.9086210659
 20
-11.705078012
 10
0.8963189705
 20
-11.7031414423
 10
0.8835415085
 20
-11.7011988521
 10
0.8702809203
 20
-11.6992491803
 10
0.8422895281
 20
-11.6953260692
  0
LWPOLYLINE
  5
5FC
100
AcDbEntity
  8
0
100
AcDbPolyline
 62
7
  6
CONTINUOUS
 90
33
 70
0
 10
-1.0625
 20
-11.7013539614
 10
-1.061743624
 20
-11.7024855584
 10
-1.0551575253
 20
-11.7108004346
 10
-1.0482949001
 20
-11.7182062844
 10
-1.0412081854
 20
-11.724808005
 10
-1.0340512101
 20
-11.7306279352
 10
-1.0269340967
 20
-11.735732067
 10
-1.0198949734
 20
-11.7402219739
 10
-1.0129667904
 20
-11.7441805259
 10
-1.0062152712
 20
-11.7476597691
 10
-0.9996232811
 20
-11.7507441891
 10
-0.9930820508
 20
-11.7535389789
 10
-0.9865946419
 20
-11.7560827603
 10
-0.9801512703
 20
-11.7584134969
 10
-0.9736169598
 20
-11.7606037809
 10
-0.9669643546
 20
-11.7626779527
 10
-0.9601932102
 20
-11.7646491051
 10
-0.9532109644
 20
-11.7665535298
 10
-0.9459958989
 20
-11.7684029505
 10
-0.938539776
 20
-11.7702044201
 10
-0.9307748234
 20
-11.7719775664
 10
-0.9226780353
 20
-11.7737292233
 10
-0.9142419721
 20
-11.7754622554
 10
-0.9054261859
 20
-11.7771857123
 10
-0.8962148467
 20
-11.7789031545
 10
-0.8865996703
 20
-11.7806166283
 10
-0.8765569932
 20
-11.7823306299
 10
-0.866075191
 20
-11.7840471882
 10
-0.8551467992
 20
-11.7857675293
 10
-0.8437588107
 20
-11.7874936502
 10
-0.8319065766
 20
-11.7892261748
 10
-0.8195802884
 20
-11.7909664522
 10
-0.7934449242
 20
-11.7944779947
  0
LWPOLYLINE
  5
5FD
100
AcDbEntity
  8
0
100
AcDbPolyline
 62
253
  6
CONTINUOUS
 90
13
 70
0
 10
-16.8625
 20
22.0347932752
 10
-16.8646010775
 20
22.0392946682
 10
-16.8708336408
 20
22.0437018441
 10
-16.8810416914
 20
22.0479427777
 10
-16.8949216207
 20
22.0519288973
 10
-16.9122454075
 20
22.0556219134
 10
-16.9330498955
 20
22.0590180556
 10
-16.9572767103
 20
22.0620675567
 10
-16.9844782387
 20
22.064678387
 10
-17.0141261935
 20
22.0667796607
 10
-17.0456884957
 20
22.0683210611
 10
-17.0786731245
 20
22.0692665795
 10
-17.1125
 20
22.0695865505
  0
LINE
  5
5FE
100
AcDbEntity
  8
0
100
AcDbLine
 62
7
  6
CONTINUOUS
 10
-5.3679559158
 20
13.3657962945
 11
-5.3679559158
 21
13.6685242163
  0
LINE
  5
5FF
100
AcDbEntity
  8
0
100
AcDbLine
 62
7
  6
CONTINUOUS
 10
-5.3679559158
 20
14.1352298421
 11
-5.3679559158
 21
14.2361392095
  0
LINE
  5
600
100
AcDbEntity
  8
0
100
AcDbLine
 62
7
  6
CONTINUOUS
 10
-5.3679559158
 20
14.7406857579
 11
-5.3679559158
 21
14.7911403695
  0
LINE
  5
601
100
AcDbEntity
  8
0
100
AcDbLine
 62
7
  6
CONTINUOUS
 10
-5.3679559158
 20
15.2956870622
 11
-5.3679559158
 21
15.3461416737
  0
LINE
  5
602
100
AcDbEntity
  8
0
100
AcDbLine
 62
7
  6
CONTINUOUS
 10
-5.3679559158
 20
15.9263703559
 11
-5.3679559158
 21
16.3804622928
  0
LINE
  5
603
100
AcDbEntity
  8
0
100
AcDbLine
 62
7
  6
CONTINUOUS
 10
-5.3679559158
 20
16.4813715159
 11
-5.3679559158
 21
16.7840994738
  0
LINE
  5
604
100
AcDbEntity
  8
0
100
AcDbLine
 62
7
  6
CONTINUOUS
 10
-5.3035457197
 20
16.7967132349
 11
-5.3035457197
 21
16.5570535053
  0
LINE
  5
605
100
AcDbEntity
  8
0
100
AcDbLine
 62
7
  6
CONTINUOUS
 10
-5.3035457197
 20
15.3587552905
 11
-5.3035457197
 21
15.283073301
  0
LINE
  5
606
100
AcDbEntity
  8
0
100
AcDbLine
 62
7
  6
CONTINUOUS
 10
-5.3035457197
 20
14.8037541306
 11
-5.3035457197
 21
14.7280721411
  0
LINE
  5
607
100
AcDbEntity
  8
0
100
AcDbLine
 62
7
  6
CONTINUOUS
 10
-5.3035457197
 20
13.6811379053
 11
-5.3035457197
 21
13.441478284
  0
LINE
  5
608
100
AcDbEntity
  8
0
100
AcDbLine
 62
7
  6
CONTINUOUS
 10
-5.2906636804
 20
16.3804622928
 11
-5.2906636804
 21
16.0020523454
  0
LINE
  5
609
100
AcDbEntity
  8
0
100
AcDbLine
 62
7
  6
CONTINUOUS
 10
-5.2262534843
 20
15.5227328863
 11
-5.2262534843
 21
15.4596646579
  0
LINE
  5
60A
100
AcDbEntity
  8
0
100
AcDbLine
 62
7
  6
CONTINUOUS
 10
-5.2262534843
 20
14.9677317264
 11
-5.2262534843
 21
14.9046633537
  0
LINE
  5
60B
100
AcDbEntity
  8
0
100
AcDbLine
 62
7
  6
CONTINUOUS
 10
-5.1489612129
 20
14.7406857579
 11
-5.1489612129
 21
14.8037541306
  0
LINE
  5
60C
100
AcDbEntity
  8
0
100
AcDbLine
 62
7
  6
CONTINUOUS
 10
-5.1489612129
 20
15.2956870622
 11
-5.1489612129
 21
15.3587552905
  0
LINE
  5
60D
100
AcDbEntity
  8
0
100
AcDbLine
 62
7
  6
CONTINUOUS
 10
-5.1231971344
 20
16.0020523454
 11
-5.1231971344
 21
16.3300075369
  0
LINE
  5
60E
100
AcDbEntity
  8
0
100
AcDbLine
 62
7
  6
CONTINUOUS
 10
-5.1103150952
 20
13.441478284
 11
-5.1103150952
 21
13.6811379053
  0
LINE
  5
60F
100
AcDbEntity
  8
0
100
AcDbLine
 62
7
  6
CONTINUOUS
 10
-5.1103150952
 20
16.5570535053
 11
-5.1103150952
 21
16.7967132349
  0
LINE
  5
610
100
AcDbEntity
  8
0
100
AcDbLine
 62
7
  6
CONTINUOUS
 10
-5.0845510167
 20
15.3713690517
 11
-5.0845510167
 21
15.283073301
  0
LINE
  5
611
100
AcDbEntity
  8
0
100
AcDbLine
 62
7
  6
CONTINUOUS
 10
-5.0845510167
 20
14.8163677474
 11
-5.0845510167
 21
14.7280721411
  0
LINE
  5
612
100
AcDbEntity
  8
0
100
AcDbLine
 62
7
  6
CONTINUOUS
 10
-5.0459048991
 20
16.3300075369
 11
-5.0459048991
 21
16.0020523454
  0
LINE
  5
613
100
AcDbEntity
  8
0
100
AcDbLine
 62
7
  6
CONTINUOUS
 10
-5.0459048991
 20
15.6488696316
 11
-5.0459048991
 21
15.8254608442
  0
LINE
  5
614
100
AcDbEntity
  8
0
100
AcDbLine
 62
7
  6
CONTINUOUS
 10
-5.0330228598
 20
16.7714857126
 11
-5.0330228598
 21
16.5570535053
  0
LINE
  5
615
100
AcDbEntity
  8
0
100
AcDbLine
 62
7
  6
CONTINUOUS
 10
-5.0330228598
 20
13.6685242163
 11
-5.0330228598
 21
13.441478284
  0
LINE
  5
616
100
AcDbEntity
  8
0
100
AcDbLine
 62
7
  6
CONTINUOUS
 10
-4.9814946849
 20
15.8254608442
 11
-4.9814946849
 21
15.6488696316
  0
LINE
  5
617
100
AcDbEntity
  8
0
100
AcDbLine
 62
7
  6
CONTINUOUS
 10
-4.9686126457
 20
14.0721615416
 11
-4.9686126457
 21
14.2992074379
  0
LINE
  5
618
100
AcDbEntity
  8
0
100
AcDbLine
 62
7
  6
CONTINUOUS
 10
-4.9170844888
 20
14.311821199
 11
-4.9170844888
 21
14.0595478527
  0
LINE
  5
619
100
AcDbEntity
  8
0
100
AcDbLine
 62
253
  6
CONTINUOUS
 10
-4.8625
 20
-22.5
 11
-4.8625
 21
-19.6998511944
  0
LINE
  5
61A
100
AcDbEntity
  8
0
100
AcDbLine
 62
7
  6
CONTINUOUS
 10
-4.8269102052
 20
14.7280721411
 11
-4.8269102052
 21
14.8163677474
  0
LINE
  5
61B
100
AcDbEntity
  8
0
100
AcDbLine
 62
7
  6
CONTINUOUS
 10
-4.8269102052
 20
15.2830733011
 11
-4.8269102052
 21
15.3713690517
  0
LINE
  5
61C
100
AcDbEntity
  8
0
100
AcDbLine
 62
7
  6
CONTINUOUS
 10
-4.7625
 20
16.9606906863
 11
-4.7625
 21
16.8723952244
  0
LINE
  5
61D
100
AcDbEntity
  8
0
100
AcDbLine
 62
7
  6
CONTINUOUS
 10
-4.7625
 20
16.5570535053
 11
-4.7625
 21
16.4813715159
  0
LINE
  5
61E
100
AcDbEntity
  8
0
100
AcDbLine
 62
7
  6
CONTINUOUS
 10
-4.7625
 20
16.0020523454
 11
-4.7625
 21
15.9263703559
  0
LINE
  5
61F
100
AcDbEntity
  8
0
100
AcDbLine
 62
7
  6
CONTINUOUS
 10
-4.7625
 20
15.3587552905
 11
-4.7625
 21
15.2956870622
  0
LINE
  5
620
100
AcDbEntity
  8
0
100
AcDbLine
 62
7
  6
CONTINUOUS
 10
-4.7625
 20
14.8037541306
 11
-4.7625
 21
14.7406857579
  0
LINE
  5
621
100
AcDbEntity
  8
0
100
AcDbLine
 62
7
  6
CONTINUOUS
 10
-4.7625
 20
14.4379578
 11
-4.7625
 21
14.3622758106
  0
LINE
  5
622
100
AcDbEntity
  8
0
100
AcDbLine
 62
7
  6
CONTINUOUS
 10
-4.7625
 20
14.0090931689
 11
-4.7625
 21
13.9334111795
  0
LINE
  5
623
100
AcDbEntity
  8
0
100
AcDbLine
 62
7
  6
CONTINUOUS
 10
-4.7625
 20
13.441478284
 11
-4.7625
 21
13.3657962945
  0
LINE
  5
624
100
AcDbEntity
  8
0
100
AcDbLine
 62
7
  6
CONTINUOUS
 10
-4.6125
 20
-19.8441887617
 11
-4.6125
 21
-22.25
  0
LINE
  5
625
100
AcDbEntity
  8
0
100
AcDbLine
 62
7
  6
CONTINUOUS
 10
-4.6125
 20
-18.0
 11
-4.6125
 21
-10.85
  0
LINE
  5
626
100
AcDbEntity
  8
0
100
AcDbLine
 62
7
  6
CONTINUOUS
 10
-3.7125
 20
-18.0
 11
-3.7125
 21
-10.6
  0
LWPOLYLINE
  5
627
100
AcDbEntity
  8
0
100
AcDbPolyline
 62
7
  6
CONTINUOUS
 90
5
 70
0
 10
-15.4625
 20
-9.75
 10
-15.4637932511
 20
-9.7514105505
 10
-15.4676563185
 20
-9.7552586965
 10
-15.4740443727
 20
-9.7615444381
 10
-15.4940459859
 20
-9.7815979163
  0
LWPOLYLINE
  5
628
100
AcDbEntity
  8
0
100
AcDbPolyline
 62
7
  6
CONTINUOUS
 90
3
 70
0
 10
-15.5409119507
 20
-9.828482012
 10
-15.5606639191
 20
-9.8481640787
 10
-15.6056362939
 20
-9.8932531709
  0
LWPOLYLINE
  5
629
100
AcDbEntity
  8
0
100
AcDbPolyline
 62
7
  6
CONTINUOUS
 90
3
 70
0
 10
-15.4940459859
 20
-9.7815979163
 10
-15.5075269864
 20
-9.795027236
 10
-15.5409119507
 20
-9.828482012
  0
LWPOLYLINE
  5
62A
100
AcDbEntity
  8
0
100
AcDbPolyline
 62
7
  6
CONTINUOUS
 90
5
 70
0
 10
-15.6056362939
 20
-9.8932531709
 10
-15.6305658829
 20
-9.9180660067
 10
-15.6568983374
 20
-9.9440404417
 10
-15.6843150469
 20
-9.9713517728
 10
-15.7125
 20
-10.0
  0
LINE
  5
62B
100
AcDbEntity
  8
0
100
AcDbLine
 62
7
  6
CONTINUOUS
 10
14.05625
 20
-14.6755319387
 11
14.134375
 21
-14.7287234217
  0
LWPOLYLINE
  5
62C
100
AcDbEntity
  8
0
100
AcDbPolyline
 62
7
  6
CONTINUOUS
 90
3
 70
0
 10
14.359017988
 20
-21.6715880493
 10
14.3393359213
 20
-21.6518360809
 10
14.2942468291
 20
-21.6068637061
  0
LWPOLYLINE
  5
62D
100
AcDbEntity
  8
0
100
AcDbPolyline
 62
7
  6
CONTINUOUS
 90
3
 70
0
 10
14.4059020837
 20
-21.7184540141
 10
14.392472764
 20
-21.7049730136
 10
14.359017988
 20
-21.6715880493
  0
LWPOLYLINE
  5
62E
100
AcDbEntity
  8
0
100
AcDbPolyline
 62
7
  6
CONTINUOUS
 90
5
 70
0
 10
14.2942468291
 20
-21.6068637061
 10
14.2694339933
 20
-21.5819341171
 10
14.2434595583
 20
-21.5556016626
 10
14.2161482272
 20
-21.5281849531
 10
14.1875
 20
-21.5
  0
LINE
  5
62F
100
AcDbEntity
  8
0
100
AcDbLine
 62
7
  6
CONTINUOUS
 10
8.2229166418
 20
-16.0797872245
 11
8.3270833582
 21
-16.1861701906
  0
LINE
  5
630
100
AcDbEntity
  8
0
100
AcDbLine
 62
7
  6
CONTINUOUS
 10
8.9
 20
-15.4468085123
 11
8.821875
 21
-15.3670212738
  0
LINE
  5
631
100
AcDbEntity
  8
0
100
AcDbLine
 62
7
  6
CONTINUOUS
 10
10.6708334327
 20
-16.5585106462
 11
10.6447915673
 21
-16.5319149047
  0
LINE
  5
632
100
AcDbEntity
  8
0
100
AcDbLine
 62
7
  6
CONTINUOUS
 10
10.7229165673
 20
-16.4255319387
 11
10.8010415673
 21
-16.5053191632
  0
LINE
  5
633
100
AcDbEntity
  8
0
100
AcDbLine
 62
7
  6
CONTINUOUS
 10
11.55625
 20
-17.1968085123
 11
11.478125
 21
-17.1170212738
  0
LINE
  5
634
100
AcDbEntity
  8
0
100
AcDbLine
 62
7
  6
CONTINUOUS
 10
9.9677084327
 20
-15.4202127662
 11
9.8895834327
 21
-15.3404255323
  0
LINE
  5
635
100
AcDbEntity
  8
0
100
AcDbLine
 62
7
  6
CONTINUOUS
 10
11.0875
 20
-16.5585106462
 11
11.0614584327
 21
-16.5319149047
  0
LINE
  5
636
100
AcDbEntity
  8
0
100
AcDbLine
 62
7
  6
CONTINUOUS
 10
-3.1625
 20
-9.3781138903
 11
-3.1625
 21
-9.75
  0
LINE
  5
637
100
AcDbEntity
  8
0
100
AcDbLine
 62
7
  6
CONTINUOUS
 10
-2.8125
 20
-19.6998511944
 11
-2.8125
 21
-18.0
  0
LINE
  5
638
100
AcDbEntity
  8
0
100
AcDbLine
 62
7
  6
CONTINUOUS
 10
-2.8125
 20
-9.3781138903
 11
-2.8125
 21
-8.25
  0
LINE
  5
639
100
AcDbEntity
  8
0
100
AcDbLine
 62
7
  6
CONTINUOUS
 10
-2.5375
 20
-12.1
 11
-2.5375
 21
-9.75
  0
LINE
  5
63A
100
AcDbEntity
  8
0
100
AcDbLine
 62
7
  6
CONTINUOUS
 10
-2.4625
 20
-7.065
 11
-2.4625
 21
-12.1
  0
LINE
  5
63B
100
AcDbEntity
  8
0
100
AcDbLine
 62
7
  6
CONTINUOUS
 10
-2.4625
 20
-18.0
 11
-2.4625
 21
-19.5
  0
LINE
  5
63C
100
AcDbEntity
  8
0
100
AcDbLine
 62
7
  6
CONTINUOUS
 10
11.1395834327
 20
-16.4255319387
 11
11.1916665673
 21
-16.4787234217
  0
LINE
  5
63D
100
AcDbEntity
  8
0
100
AcDbLine
 62
7
  6
CONTINUOUS
 10
9.4989582837
 20
-14.7287234217
 11
9.5510417163
 21
-14.7819149047
  0
LINE
  5
63E
100
AcDbEntity
  8
0
100
AcDbLine
 62
7
  6
CONTINUOUS
 10
11.009375
 20
-15.3936170246
 11
10.9572915673
 21
-15.3404255323
  0
LINE
  5
63F
100
AcDbEntity
  8
0
100
AcDbLine
 62
7
  6
CONTINUOUS
 10
12.1552084327
 20
-16.4787234217
 11
12.2072915673
 21
-16.5319149047
  0
LINE
  5
640
100
AcDbEntity
  8
0
100
AcDbLine
 62
7
  6
CONTINUOUS
 10
10.4625
 20
-14.7021276802
 11
10.5145834327
 21
-14.7553191632
  0
LINE
  5
641
100
AcDbEntity
  8
0
100
AcDbLine
 62
7
  6
CONTINUOUS
 10
11.0614584327
 20
-15.2606382891
 11
11.1395834327
 21
-15.3404255323
  0
LINE
  5
642
100
AcDbEntity
  8
0
100
AcDbLine
 62
7
  6
CONTINUOUS
 10
13.0666668654
 20
-16.6117021292
 11
13.0145831346
 21
-16.5585106462
  0
LINE
  5
643
100
AcDbEntity
  8
0
100
AcDbLine
 62
7
  6
CONTINUOUS
 10
13.11875
 20
-16.4787234217
 11
13.1708331347
 21
-16.5319149047
  0
LINE
  5
644
100
AcDbEntity
  8
0
100
AcDbLine
 62
7
  6
CONTINUOUS
 10
9.290625
 20
-16.5053191632
 11
9.36875
 21
-16.6117021292
  0
LINE
  5
645
100
AcDbEntity
  8
0
100
AcDbLine
 62
7
  6
CONTINUOUS
 10
7.5197916605
 20
-16.9308510646
 11
7.571875
 21
-17.0106382892
  0
LINE
  5
646
100
AcDbEntity
  8
0
100
AcDbLine
 62
7
  6
CONTINUOUS
 10
-5.3550738766
 20
14.6776173852
 11
-5.3679559158
 21
14.7406857579
  0
LINE
  5
647
100
AcDbEntity
  8
0
100
AcDbLine
 62
7
  6
CONTINUOUS
 10
-5.3550738766
 20
15.2326186895
 11
-5.3679559158
 21
15.2956870622
  0
LINE
  5
648
100
AcDbEntity
  8
0
100
AcDbLine
 62
7
  6
CONTINUOUS
 10
-5.0459048991
 20
13.731592589
 11
-5.0330228598
 21
13.6685242163
  0
LINE
  5
649
100
AcDbEntity
  8
0
100
AcDbLine
 62
7
  6
CONTINUOUS
 10
-5.1360791736
 20
14.6776173852
 11
-5.1489612129
 21
14.7406857579
  0
LINE
  5
64A
100
AcDbEntity
  8
0
100
AcDbLine
 62
7
  6
CONTINUOUS
 10
-5.1360791736
 20
15.2326186895
 11
-5.1489612129
 21
15.2956870622
  0
LINE
  5
64B
100
AcDbEntity
  8
0
100
AcDbLine
 62
7
  6
CONTINUOUS
 10
-4.7753820404
 20
14.8668223589
 11
-4.7625
 21
14.8037541306
  0
LINE
  5
64C
100
AcDbEntity
  8
0
100
AcDbLine
 62
7
  6
CONTINUOUS
 10
-1.4625
 20
-18.0
 11
-1.4625
 21
-19.75
  0
LINE
  5
64D
100
AcDbEntity
  8
0
100
AcDbLine
 62
7
  6
CONTINUOUS
 10
-1.2125
 20
-7.065
 11
-1.2125
 21
-1.5
  0
LINE
  5
64E
100
AcDbEntity
  8
0
100
AcDbLine
 62
7
  6
CONTINUOUS
 10
-1.0625
 20
-11.415
 11
-1.0625
 21
-12.1
  0
LINE
  5
64F
100
AcDbEntity
  8
0
100
AcDbLine
 62
7
  6
CONTINUOUS
 10
-0.9625
 20
-15.4
 11
-0.9625
 21
-12.1
  0
LINE
  5
650
100
AcDbEntity
  8
0
100
AcDbLine
 62
253
  6
CONTINUOUS
 10
0.0374999103
 20
-13.369543605
 11
0.0375001559
 21
-13.1298768378
  0
LINE
  5
651
100
AcDbEntity
  8
0
100
AcDbLine
 62
7
  6
CONTINUOUS
 10
-1.2125
 20
-1.5
 11
1.2875
 21
-1.5
  0
LINE
  5
652
100
AcDbEntity
  8
0
100
AcDbLine
 62
7
  6
CONTINUOUS
 10
14.0822918654
 20
-14.8617021292
 11
14.0302081346
 21
-14.8085106462
  0
LINE
  5
653
100
AcDbEntity
  8
0
100
AcDbLine
 62
7
  6
CONTINUOUS
 10
14.134375
 20
-14.7287234217
 11
14.1864581347
 21
-14.7819149047
  0
LINE
  5
654
100
AcDbEntity
  8
0
100
AcDbLine
 62
7
  6
CONTINUOUS
 10
9.2645832837
 20
-16.6648936123
 11
9.2125
 21
-16.5851063877
  0
LINE
  5
655
100
AcDbEntity
  8
0
100
AcDbLine
 62
7
  6
CONTINUOUS
 10
7.415625
 20
-17.0638297908
 11
7.3635416674
 21
-16.9574468061
  0
LINE
  5
656
100
AcDbEntity
  8
0
100
AcDbLine
 62
7
  6
CONTINUOUS
 10
8.6395832837
 20
-17.0904255323
 11
8.5875
 21
-16.9840425477
  0
LINE
  5
657
100
AcDbEntity
  8
0
100
AcDbLine
 62
7
  6
CONTINUOUS
 10
-5.1103150952
 20
13.6811379053
 11
-5.1231971344
 21
13.7189789
  0
LINE
  5
658
100
AcDbEntity
  8
0
100
AcDbLine
 62
7
  6
CONTINUOUS
 10
-5.3035457197
 20
14.7280721411
 11
-5.2906636804
 21
14.6902311464
  0
LINE
  5
659
100
AcDbEntity
  8
0
100
AcDbLine
 62
7
  6
CONTINUOUS
 10
-5.3035457197
 20
15.283073301
 11
-5.2906636804
 21
15.2452323063
  0
LINE
  5
65A
100
AcDbEntity
  8
0
100
AcDbLine
 62
7
  6
CONTINUOUS
 10
-5.0845510167
 20
14.7280721411
 11
-5.0716689775
 21
14.6902311464
  0
LINE
  5
65B
100
AcDbEntity
  8
0
100
AcDbLine
 62
7
  6
CONTINUOUS
 10
-5.0845510167
 20
15.283073301
 11
-5.0716689775
 21
15.2452323063
  0
LINE
  5
65C
100
AcDbEntity
  8
0
100
AcDbLine
 62
7
  6
CONTINUOUS
 10
-4.8269102052
 20
14.8163677474
 11
-4.8397922444
 21
14.8542087421
  0
LINE
  5
65D
100
AcDbEntity
  8
0
100
AcDbLine
 62
7
  6
CONTINUOUS
 10
-4.7753820404
 20
15.4218236632
 11
-4.7625
 21
15.3587552905
  0
LINE
  5
65E
100
AcDbEntity
  8
0
100
AcDbLine
 62
7
  6
CONTINUOUS
 10
1.0375
 20
-12.1
 11
1.0375
 21
-15.4
  0
LINE
  5
65F
100
AcDbEntity
  8
0
100
AcDbLine
 62
7
  6
CONTINUOUS
 10
1.1375
 20
-12.1
 11
1.1375
 21
-11.415
  0
LINE
  5
660
100
AcDbEntity
  8
0
100
AcDbLine
 62
7
  6
CONTINUOUS
 10
1.2875
 20
-1.5
 11
1.2875
 21
-7.065
  0
LINE
  5
661
100
AcDbEntity
  8
0
100
AcDbLine
 62
7
  6
CONTINUOUS
 10
1.5375
 20
-19.75
 11
1.5375
 21
-18.0
  0
LINE
  5
662
100
AcDbEntity
  8
0
100
AcDbLine
 62
7
  6
CONTINUOUS
 10
11.6083334327
 20
-14.7553191632
 11
11.6864584327
 21
-14.8617021292
  0
LINE
  5
663
100
AcDbEntity
  8
0
100
AcDbLine
 62
7
  6
CONTINUOUS
 10
10.540625
 20
-14.9414893538
 11
10.4885415673
 21
-14.8617021292
  0
LINE
  5
664
100
AcDbEntity
  8
0
100
AcDbLine
 62
7
  6
CONTINUOUS
 10
11.5822915673
 20
-14.9148936123
 11
11.5302084327
 21
-14.8351063877
  0
LINE
  5
665
100
AcDbEntity
  8
0
100
AcDbLine
 62
7
  6
CONTINUOUS
 10
-5.0716689775
 20
13.2648869632
 11
-4.9428485672
 21
13.0252273306
  0
LINE
  5
666
100
AcDbEntity
  8
0
100
AcDbLine
 62
7
  6
CONTINUOUS
 10
-4.9814946849
 20
13.0
 11
-5.0716689775
 21
13.1765913028
  0
LINE
  5
667
100
AcDbEntity
  8
0
100
AcDbLine
 62
7
  6
CONTINUOUS
 10
8.7177082837
 20
-16.9574468061
 11
8.74375
 21
-17.0106382891
  0
LINE
  5
668
100
AcDbEntity
  8
0
100
AcDbLine
 62
7
  6
CONTINUOUS
 10
8.9260417163
 20
-15.2872340493
 11
8.9520832837
 21
-15.3404255323
  0
LINE
  5
669
100
AcDbEntity
  8
0
100
AcDbLine
 62
7
  6
CONTINUOUS
 10
9.4989582837
 20
-15.5
 11
9.4729167163
 21
-15.4468085123
  0
LINE
  5
66A
100
AcDbEntity
  8
0
100
AcDbLine
 62
7
  6
CONTINUOUS
 10
9.446875
 20
-14.8617021292
 11
9.4208332837
 21
-14.8085106462
  0
LINE
  5
66B
100
AcDbEntity
  8
0
100
AcDbLine
 62
7
  6
CONTINUOUS
 10
9.8895834327
 20
-15.3404255323
 11
9.8635415673
 21
-15.2872340493
  0
LINE
  5
66C
100
AcDbEntity
  8
0
100
AcDbLine
 62
7
  6
CONTINUOUS
 10
7.8583333209
 20
-15.5
 11
7.49375
 21
-14.5159574151
  0
LINE
  5
66D
100
AcDbEntity
  8
0
100
AcDbLine
 62
7
  6
CONTINUOUS
 10
-4.8269102052
 20
15.3713690517
 11
-4.8397922444
 21
15.4092100464
  0
LINE
  5
66E
100
AcDbEntity
  8
0
100
AcDbLine
 62
7
  6
CONTINUOUS
 10
-5.1103150952
 20
16.7967132349
 11
-5.1231971344
 21
16.8345542297
  0
LINE
  5
66F
100
AcDbEntity
  8
0
100
AcDbLine
 62
7
  6
CONTINUOUS
 10
2.5375
 20
-18.0
 11
2.5375
 21
-19.5
  0
LINE
  5
670
100
AcDbEntity
  8
0
100
AcDbLine
 62
7
  6
CONTINUOUS
 10
2.5375
 20
-12.1
 11
2.5375
 21
-7.065
  0
LINE
  5
671
100
AcDbEntity
  8
0
100
AcDbLine
 62
7
  6
CONTINUOUS
 10
2.6125
 20
-12.1
 11
2.6125
 21
-9.75
  0
LINE
  5
672
100
AcDbEntity
  8
0
100
AcDbLine
 62
7
  6
CONTINUOUS
 10
2.8875
 20
-8.25
 11
2.8875
 21
-9.3781138903
  0
LINE
  5
673
100
AcDbEntity
  8
0
100
AcDbLine
 62
7
  6
CONTINUOUS
 10
2.8875
 20
-18.0
 11
2.8875
 21
-19.6998511944
  0
LINE
  5
674
100
AcDbEntity
  8
0
100
AcDbLine
 62
7
  6
CONTINUOUS
 10
3.2375
 20
-9.3781138903
 11
3.2375
 21
-9.75
  0
LINE
  5
675
100
AcDbEntity
  8
0
100
AcDbLine
 62
7
  6
CONTINUOUS
 10
3.7875
 20
-10.6
 11
3.7875
 21
-18.0
  0
LWPOLYLINE
  5
676
100
AcDbEntity
  8
0
100
AcDbPolyline
 62
7
  6
CONTINUOUS
 90
5
 70
0
 10
15.5375
 20
-9.75
 10
15.5389105505
 20
-9.7512932511
 10
15.5427586965
 20
-9.7551563185
 10
15.5490444381
 20
-9.7615443727
 10
15.5578523794
 20
-9.7703698213
  0
LWPOLYLINE
  5
677
100
AcDbEntity
  8
0
100
AcDbPolyline
 62
7
  6
CONTINUOUS
 90
6
 70
0
 10
15.6572772311
 20
-9.8698045236
 10
15.6807531709
 20
-9.8931362939
 10
15.7055660067
 20
-9.9180658829
 10
15.7315404417
 20
-9.9443983374
 10
15.7588517728
 20
-9.9718150469
 10
15.7875
 20
-10.0
  0
LWPOLYLINE
  5
678
100
AcDbEntity
  8
0
100
AcDbPolyline
 62
7
  6
CONTINUOUS
 90
3
 70
0
 10
15.5578523794
 20
-9.7703698213
 10
15.5690979163
 20
-9.7815459859
 10
15.5981627326
 20
-9.8106919431
  0
LWPOLYLINE
  5
679
100
AcDbEntity
  8
0
100
AcDbPolyline
 62
7
  6
CONTINUOUS
 90
3
 70
0
 10
15.5981627326
 20
-9.8106919431
 10
15.615982012
 20
-9.8284119507
 10
15.6572772311
 20
-9.8698045236
  0
LINE
  5
67A
100
AcDbEntity
  8
0
100
AcDbLine
 62
7
  6
CONTINUOUS
 10
-5.2906636804
 20
14.6902311464
 11
-5.264899602
 21
14.6523901517
  0
LINE
  5
67B
100
AcDbEntity
  8
0
100
AcDbLine
 62
7
  6
CONTINUOUS
 10
-5.0845510167
 20
14.6019353958
 11
-5.1360791736
 21
14.6776173852
  0
LINE
  5
67C
100
AcDbEntity
  8
0
100
AcDbLine
 62
7
  6
CONTINUOUS
 10
-5.0716689775
 20
14.6902311464
 11
-5.0459048991
 21
14.6523901517
  0
LINE
  5
67D
100
AcDbEntity
  8
0
100
AcDbLine
 62
7
  6
CONTINUOUS
 10
-7.5885006068
 20
15.3987911858
 11
-7.7235475296
 21
15.60136157
  0
LINE
  5
67E
100
AcDbEntity
  8
0
100
AcDbLine
 62
7
  6
CONTINUOUS
 10
-7.8585944524
 20
15.8039319542
 11
-7.9936413752
 21
16.0065023383
  0
LINE
  5
67F
100
AcDbEntity
  8
0
100
AcDbLine
 62
7
  6
CONTINUOUS
 10
-7.3577114627
 20
15.8452522813
 11
-7.4927583855
 21
16.0478226654
  0
LINE
  5
680
100
AcDbEntity
  8
0
100
AcDbLine
 62
7
  6
CONTINUOUS
 10
-5.3164277589
 20
14.6145491569
 11
-5.3550738766
 21
14.6776173852
  0
LINE
  5
681
100
AcDbEntity
  8
0
100
AcDbLine
 62
7
  6
CONTINUOUS
 10
-5.3164277589
 20
15.1695503168
 11
-5.3550738766
 21
15.2326186895
  0
LINE
  5
682
100
AcDbEntity
  8
0
100
AcDbLine
 62
7
  6
CONTINUOUS
 10
-4.8140281614
 20
14.9298907316
 11
-4.7753820404
 21
14.8668223589
  0
LINE
  5
683
100
AcDbEntity
  8
0
100
AcDbLine
 62
7
  6
CONTINUOUS
 10
-4.8140281614
 20
15.4848918915
 11
-4.7753820404
 21
15.4218236632
  0
LINE
  5
684
100
AcDbEntity
  8
0
100
AcDbLine
 62
7
  6
CONTINUOUS
 10
-5.0716689775
 20
17.0616001981
 11
-5.2004893698
 21
17.3012596389
  0
LINE
  5
685
100
AcDbEntity
  8
0
100
AcDbLine
 62
7
  6
CONTINUOUS
 10
-5.0845510167
 20
16.897622458
 11
-5.0587869383
 21
16.8471677021
  0
LINE
  5
686
100
AcDbEntity
  8
0
100
AcDbLine
 62
7
  6
CONTINUOUS
 10
-5.1618432521
 20
17.3264871612
 11
-5.0716689775
 21
17.14989566
  0
LINE
  5
687
100
AcDbEntity
  8
0
100
AcDbLine
 62
7
  6
CONTINUOUS
 10
10.696875
 20
-16.6117021292
 11
10.6708334327
 21
-16.5585106462
  0
LINE
  5
688
100
AcDbEntity
  8
0
100
AcDbLine
 62
7
  6
CONTINUOUS
 10
11.1135415673
 20
-16.6117021292
 11
11.0875
 21
-16.5585106462
  0
LINE
  5
689
100
AcDbEntity
  8
0
100
AcDbLine
 62
7
  6
CONTINUOUS
 10
11.5822915673
 20
-17.0372340493
 11
11.6083334327
 21
-17.0904255323
  0
LINE
  5
68A
100
AcDbEntity
  8
0
100
AcDbLine
 62
7
  6
CONTINUOUS
 10
10.5145834327
 20
-14.7553191632
 11
10.540625
 21
-14.8085106462
  0
LINE
  5
68B
100
AcDbEntity
  8
0
100
AcDbLine
 62
7
  6
CONTINUOUS
 10
10.9572915673
 20
-15.3404255323
 11
10.9052084327
 21
-15.2340425476
  0
LINE
  5
68C
100
AcDbEntity
  8
0
100
AcDbLine
 62
7
  6
CONTINUOUS
 10
11.0354165673
 20
-15.2074468061
 11
11.0614584327
 21
-15.2606382891
  0
LINE
  5
68D
100
AcDbEntity
  8
0
100
AcDbLine
 62
7
  6
CONTINUOUS
 10
12.1552084327
 20
-17.25
 11
12.1291665673
 21
-17.1968085123
  0
LINE
  5
68E
100
AcDbEntity
  8
0
100
AcDbLine
 62
7
  6
CONTINUOUS
 10
12.103125
 20
-16.6117021292
 11
12.0770834327
 21
-16.5585106462
  0
LINE
  5
68F
100
AcDbEntity
  8
0
100
AcDbLine
 62
7
  6
CONTINUOUS
 10
9.9677084327
 20
-15.1542553231
 11
10.0197915673
 21
-15.2872340493
  0
LINE
  5
690
100
AcDbEntity
  8
0
100
AcDbLine
 62
7
  6
CONTINUOUS
 10
7.571875
 20
-14.25
 11
7.9625
 21
-15.3670212738
  0
LINE
  5
691
100
AcDbEntity
  8
0
100
AcDbLine
 62
7
  6
CONTINUOUS
 10
8.196875
 20
-16.3191489726
 11
8.1708333582
 21
-16.2393616736
  0
LINE
  5
692
100
AcDbEntity
  8
0
100
AcDbLine
 62
7
  6
CONTINUOUS
 10
8.6916667163
 20
-16.8776595816
 11
8.7177082837
 21
-16.9574468061
  0
LINE
  5
693
100
AcDbEntity
  8
0
100
AcDbLine
 62
7
  6
CONTINUOUS
 10
7.49375
 20
-16.8244680986
 11
7.5197916605
 21
-16.9308510646
  0
LINE
  5
694
100
AcDbEntity
  8
0
100
AcDbLine
 62
7
  6
CONTINUOUS
 10
7.3635416674
 20
-16.9574468061
 11
7.3375
 21
-16.8244680986
  0
LINE
  5
695
100
AcDbEntity
  8
0
100
AcDbLine
 62
7
  6
CONTINUOUS
 10
4.6875
 20
-22.25
 11
4.6875
 21
-19.8441887617
  0
LINE
  5
696
100
AcDbEntity
  8
0
100
AcDbLine
 62
7
  6
CONTINUOUS
 10
4.6875
 20
-18.0
 11
4.6875
 21
-10.85
  0
LINE
  5
697
100
AcDbEntity
  8
0
100
AcDbLine
 62
253
  6
CONTINUOUS
 10
4.9375
 20
-19.6998511944
 11
4.9375
 21
-22.5
  0
LINE
  5
698
100
AcDbEntity
  8
0
100
AcDbLine
 62
7
  6
CONTINUOUS
 10
-18.0375
 20
4.5
 11
-18.0125
 21
4.5
  0
LINE
  5
699
100
AcDbEntity
  8
0
100
AcDbLine
 62
7
  6
CONTINUOUS
 10
-5.0845510167
 20
13.7820472005
 11
-5.0459048991
 21
13.731592589
  0
LINE
  5
69A
100
AcDbEntity
  8
0
100
AcDbLine
 62
7
  6
CONTINUOUS
 10
-5.2906636804
 20
15.2452323063
 11
-5.264899602
 21
15.2073913116
  0
LINE
  5
69B
100
AcDbEntity
  8
0
100
AcDbLine
 62
7
  6
CONTINUOUS
 10
-5.0845510167
 20
15.1569367
 11
-5.1360791736
 21
15.2326186895
  0
LINE
  5
69C
100
AcDbEntity
  8
0
100
AcDbLine
 62
7
  6
CONTINUOUS
 10
-4.8397922444
 20
14.8542087421
 11
-4.8655563228
 21
14.8920497369
  0
LINE
  5
69D
100
AcDbEntity
  8
0
100
AcDbLine
 62
7
  6
CONTINUOUS
 10
-5.0716689775
 20
15.2452323063
 11
-5.045904899
 21
15.2073913116
  0
LINE
  5
69E
100
AcDbEntity
  8
0
100
AcDbLine
 62
7
  6
CONTINUOUS
 10
-4.8397922444
 20
15.4092100464
 11
-4.8655563228
 21
15.4470508968
  0
LINE
  5
69F
100
AcDbEntity
  8
0
100
AcDbLine
 62
7
  6
CONTINUOUS
 10
13.5875
 20
-16.3989361972
 11
13.8739581346
 21
-16.9574468061
  0
LINE
  5
6A0
100
AcDbEntity
  8
0
100
AcDbLine
 62
7
  6
CONTINUOUS
 10
13.7958331347
 20
-17.1436170246
 11
13.43125
 21
-16.3989361972
  0
LINE
  5
6A1
100
AcDbEntity
  8
0
100
AcDbLine
 62
7
  6
CONTINUOUS
 10
11.1916665673
 20
-16.4787234217
 11
11.24375
 21
-16.6117021292
  0
LINE
  5
6A2
100
AcDbEntity
  8
0
100
AcDbLine
 62
7
  6
CONTINUOUS
 10
9.4729167163
 20
-15.4468085123
 11
9.446875
 21
-15.3670212738
  0
LINE
  5
6A3
100
AcDbEntity
  8
0
100
AcDbLine
 62
7
  6
CONTINUOUS
 10
9.603125
 20
-15.4202127662
 11
9.6291667163
 21
-15.5
  0
LINE
  5
6A4
100
AcDbEntity
  8
0
100
AcDbLine
 62
7
  6
CONTINUOUS
 10
9.5510417163
 20
-14.7819149047
 11
9.5770832837
 21
-14.8617021292
  0
LINE
  5
6A5
100
AcDbEntity
  8
0
100
AcDbLine
 62
7
  6
CONTINUOUS
 10
11.009375
 20
-15.1276595816
 11
11.0354165673
 21
-15.2074468061
  0
LINE
  5
6A6
100
AcDbEntity
  8
0
100
AcDbLine
 62
7
  6
CONTINUOUS
 10
8.821875
 20
-15.3670212738
 11
8.7958332837
 21
-15.2606382892
  0
LINE
  5
6A7
100
AcDbEntity
  8
0
100
AcDbLine
 62
7
  6
CONTINUOUS
 10
9.36875
 20
-16.6117021292
 11
9.3947917163
 21
-16.7180850953
  0
LINE
  5
6A8
100
AcDbEntity
  8
0
100
AcDbLine
 62
7
  6
CONTINUOUS
 10
9.8635415673
 20
-15.2872340493
 11
9.8375
 21
-15.1808510646
  0
LINE
  5
6A9
100
AcDbEntity
  8
0
100
AcDbLine
 62
7
  6
CONTINUOUS
 10
8.3270833582
 20
-16.1861701906
 11
8.353125
 21
-16.3191489726
  0
LINE
  5
6AA
100
AcDbEntity
  8
0
100
AcDbLine
 62
7
  6
CONTINUOUS
 10
8.5875
 20
-16.9840425477
 11
8.5614583582
 21
-16.8244680986
  0
LINE
  5
6AB
100
AcDbEntity
  8
0
100
AcDbLine
 62
7
  6
CONTINUOUS
 10
7.3375
 20
-16.8244680986
 11
7.3375
 21
-16.4255319387
  0
LINE
  5
6AC
100
AcDbEntity
  8
0
100
AcDbLine
 62
7
  6
CONTINUOUS
 10
7.3375
 20
-15.5
 11
7.3375
 21
-14.25
  0
LINE
  5
6AD
100
AcDbEntity
  8
0
100
AcDbLine
 62
7
  6
CONTINUOUS
 10
7.49375
 20
-14.5159574151
 11
7.49375
 21
-15.5
  0
LINE
  5
6AE
100
AcDbEntity
  8
0
100
AcDbLine
 62
7
  6
CONTINUOUS
 10
7.49375
 20
-16.4255319387
 11
7.49375
 21
-16.8244680986
  0
LINE
  5
6AF
100
AcDbEntity
  8
0
100
AcDbLine
 62
7
  6
CONTINUOUS
 10
7.5375
 20
16.4001933533
 11
7.5375
 21
17.2
  0
LINE
  5
6B0
100
AcDbEntity
  8
0
100
AcDbLine
 62
253
  6
CONTINUOUS
 10
-17.9625
 20
7.45
 11
-18.0125
 21
7.45
  0
LINE
  5
6B1
100
AcDbEntity
  8
0
100
AcDbLine
 62
7
  6
CONTINUOUS
 10
-18.0375
 20
7.5
 11
-18.0125
 21
7.5
  0
LINE
  5
6B2
100
AcDbEntity
  8
0
100
AcDbLine
 62
7
  6
CONTINUOUS
 10
17.7875
 20
7.55
 11
15.5375
 21
7.55
  0
LINE
  5
6B3
100
AcDbEntity
  8
0
100
AcDbLine
 62
7
  6
CONTINUOUS
 10
-15.4625
 20
7.55
 11
-17.7125
 21
7.55
  0
LINE
  5
6B4
100
AcDbEntity
  8
0
100
AcDbLine
 62
253
  6
CONTINUOUS
 10
-17.9625
 20
7.8
 11
-15.4625
 21
7.8
  0
LINE
  5
6B5
100
AcDbEntity
  8
0
100
AcDbLine
 62
253
  6
CONTINUOUS
 10
15.5375
 20
7.8
 11
18.0375
 21
7.8
  0
LINE
  5
6B6
100
AcDbEntity
  8
0
100
AcDbLine
 62
7
  6
CONTINUOUS
 10
-6.7959446424
 20
13.7164880704
 11
-7.1611335959
 21
13.9599473727
  0
LINE
  5
6B7
100
AcDbEntity
  8
0
100
AcDbLine
 62
7
  6
CONTINUOUS
 10
-7.5269696628
 20
14.203838084
 11
-8.2237834059
 21
14.6683805794
  0
LINE
  5
6B8
100
AcDbEntity
  8
0
100
AcDbLine
 62
7
  6
CONTINUOUS
 10
-8.0887364831
 20
14.8709509636
 11
-7.39192274
 21
14.4064084682
  0
LINE
  5
6B9
100
AcDbEntity
  8
0
100
AcDbLine
 62
7
  6
CONTINUOUS
 10
-7.0260866731
 20
14.1625177569
 11
-6.6608977196
 21
13.9190584546
  0
LINE
  5
6BA
100
AcDbEntity
  8
0
100
AcDbLine
 62
7
  6
CONTINUOUS
 10
-5.1231971344
 20
13.7189789
 11
-5.1489612129
 21
13.7442062058
  0
LINE
  5
6BB
100
AcDbEntity
  8
0
100
AcDbLine
 62
7
  6
CONTINUOUS
 10
-5.0459048991
 20
14.6523901517
 11
-5.0201408206
 21
14.6271627737
  0
LINE
  5
6BC
100
AcDbEntity
  8
0
100
AcDbLine
 62
7
  6
CONTINUOUS
 10
-5.045904899
 20
15.2073913116
 11
-5.0201408206
 21
15.182164078
  0
LINE
  5
6BD
100
AcDbEntity
  8
0
100
AcDbLine
 62
7
  6
CONTINUOUS
 10
12.1291665673
 20
-17.1968085123
 11
12.103125
 21
-17.1170212738
  0
LINE
  5
6BE
100
AcDbEntity
  8
0
100
AcDbLine
 62
7
  6
CONTINUOUS
 10
12.259375
 20
-17.1702127662
 11
12.2854165673
 21
-17.25
  0
LINE
  5
6BF
100
AcDbEntity
  8
0
100
AcDbLine
 62
7
  6
CONTINUOUS
 10
12.2072915673
 20
-16.5319149047
 11
12.2333334327
 21
-16.6117021292
  0
LINE
  5
6C0
100
AcDbEntity
  8
0
100
AcDbLine
 62
7
  6
CONTINUOUS
 10
13.1708331347
 20
-16.5319149047
 11
13.196875
 21
-16.6117021293
  0
LINE
  5
6C1
100
AcDbEntity
  8
0
100
AcDbLine
 62
7
  6
CONTINUOUS
 10
11.478125
 20
-17.1170212738
 11
11.4520834327
 21
-17.0106382892
  0
LINE
  5
6C2
100
AcDbEntity
  8
0
100
AcDbLine
 62
7
  6
CONTINUOUS
 10
11.6864584327
 20
-14.8617021292
 11
11.7125
 21
-14.9680850953
  0
LINE
  5
6C3
100
AcDbEntity
  8
0
100
AcDbLine
 62
7
  6
CONTINUOUS
 10
9.5770832837
 20
-15.2872340493
 11
9.603125
 21
-15.4202127662
  0
LINE
  5
6C4
100
AcDbEntity
  8
0
100
AcDbLine
 62
7
  6
CONTINUOUS
 10
7.9525
 20
17.2
 11
7.9525
 21
16.4001933533
  0
LINE
  5
6C5
100
AcDbEntity
  8
0
100
AcDbLine
 62
7
  6
CONTINUOUS
 10
7.9625
 20
-16.7180850953
 11
7.9625
 21
-16.5585106462
  0
LINE
  5
6C6
100
AcDbEntity
  8
0
100
AcDbLine
 62
7
  6
CONTINUOUS
 10
8.196875
 20
-16.9308510646
 11
8.196875
 21
-16.7180850953
  0
LINE
  5
6C7
100
AcDbEntity
  8
0
100
AcDbLine
 62
7
  6
CONTINUOUS
 10
8.353125
 20
-16.5585106462
 11
8.353125
 21
-16.9574468061
  0
LINE
  5
6C8
100
AcDbEntity
  8
0
100
AcDbLine
 62
7
  6
CONTINUOUS
 10
8.43125
 20
-15.5
 11
8.43125
 21
-14.5159574151
  0
LINE
  5
6C9
100
AcDbEntity
  8
0
100
AcDbLine
 62
7
  6
CONTINUOUS
 10
8.5875
 20
-14.25
 11
8.5875
 21
-15.5
  0
LINE
  5
6CA
100
AcDbEntity
  8
0
100
AcDbLine
 62
7
  6
CONTINUOUS
 10
8.6916667163
 20
-16.8244680986
 11
8.6916667163
 21
-16.8776595816
  0
LINE
  5
6CB
100
AcDbEntity
  8
0
100
AcDbLine
 62
7
  6
CONTINUOUS
 10
8.7177082837
 20
-16.6914893538
 11
8.7177082837
 21
-16.7180850953
  0
LINE
  5
6CC
100
AcDbEntity
  8
0
100
AcDbLine
 62
7
  6
CONTINUOUS
 10
8.7958332837
 20
-15.2606382892
 11
8.7958332837
 21
-15.1808510646
  0
LINE
  5
6CD
100
AcDbEntity
  8
0
100
AcDbLine
 62
7
  6
CONTINUOUS
 10
8.7958332837
 20
-14.8617021292
 11
8.7958332837
 21
-14.8085106462
  0
LINE
  5
6CE
100
AcDbEntity
  8
0
100
AcDbLine
 62
7
  6
CONTINUOUS
 10
8.9260417163
 20
-15.2340425476
 11
8.9260417163
 21
-15.2872340493
  0
LINE
  5
6CF
100
AcDbEntity
  8
0
100
AcDbLine
 62
7
  6
CONTINUOUS
 10
9.2645832837
 20
-16.7180850953
 11
9.2645832837
 21
-16.6648936123
  0
LINE
  5
6D0
100
AcDbEntity
  8
0
100
AcDbLine
 62
7
  6
CONTINUOUS
 10
9.3947917163
 20
-16.7180850953
 11
9.3947917163
 21
-16.8244680986
  0
LINE
  5
6D1
100
AcDbEntity
  8
0
100
AcDbLine
 62
7
  6
CONTINUOUS
 10
9.446875
 20
-15.2074468061
 11
9.446875
 21
-15.0478723571
  0
LINE
  5
6D2
100
AcDbEntity
  8
0
100
AcDbLine
 62
7
  6
CONTINUOUS
 10
9.446875
 20
-14.9414893538
 11
9.446875
 21
-14.8617021292
  0
LINE
  5
6D3
100
AcDbEntity
  8
0
100
AcDbLine
 62
7
  6
CONTINUOUS
 10
9.5770832837
 20
-14.8617021292
 11
9.5770832837
 21
-15.2872340493
  0
LINE
  5
6D4
100
AcDbEntity
  8
0
100
AcDbLine
 62
7
  6
CONTINUOUS
 10
9.603125
 20
-17.25
 11
9.603125
 21
-16.3989361972
  0
LINE
  5
6D5
100
AcDbEntity
  8
0
100
AcDbLine
 62
7
  6
CONTINUOUS
 10
9.7333332837
 20
-16.3989361972
 11
9.7333332837
 21
-16.5585106462
  0
LINE
  5
6D6
100
AcDbEntity
  8
0
100
AcDbLine
 62
7
  6
CONTINUOUS
 10
9.7333332837
 20
-16.7180850953
 11
9.7333332837
 21
-17.25
  0
LINE
  5
6D7
100
AcDbEntity
  8
0
100
AcDbLine
 62
7
  6
CONTINUOUS
 10
9.8375
 20
-15.1808510646
 11
9.8375
 21
-14.9680850953
  0
LWPOLYLINE
  5
6D8
100
AcDbEntity
  8
0
100
AcDbPolyline
 62
7
  6
CONTINUOUS
 90
5
 70
0
 10
-8.2125
 20
-21.75
 10
-8.2112067489
 20
-21.7485894495
 10
-8.2073436815
 20
-21.7447413035
 10
-8.2009556273
 20
-21.7384555619
 10
-8.1809540141
 20
-21.7184020837
  0
LWPOLYLINE
  5
6D9
100
AcDbEntity
  8
0
100
AcDbPolyline
 62
7
  6
CONTINUOUS
 90
3
 70
0
 10
-8.1340880493
 20
-21.671517988
 10
-8.1143360809
 20
-21.6518359213
 10
-8.0693637061
 20
-21.6067468291
  0
LWPOLYLINE
  5
6DA
100
AcDbEntity
  8
0
100
AcDbPolyline
 62
7
  6
CONTINUOUS
 90
3
 70
0
 10
-8.1809540141
 20
-21.7184020837
 10
-8.1674730136
 20
-21.704972764
 10
-8.1340880493
 20
-21.671517988
  0
LWPOLYLINE
  5
6DB
100
AcDbEntity
  8
0
100
AcDbPolyline
 62
7
  6
CONTINUOUS
 90
5
 70
0
 10
-8.0693637061
 20
-21.6067468291
 10
-8.0444341171
 20
-21.5819339933
 10
-8.0181016626
 20
-21.5559595583
 10
-7.9906849531
 20
-21.5286482272
 10
-7.9625
 20
-21.5
  0
LINE
  5
6DC
100
AcDbEntity
  8
0
100
AcDbLine
 62
7
  6
CONTINUOUS
 10
-18.0125
 20
8.25
 11
-17.9625
 21
8.25
  0
LINE
  5
6DD
100
AcDbEntity
  8
0
100
AcDbLine
 62
7
  6
CONTINUOUS
 10
15.5375
 20
8.8
 11
-15.4625
 21
8.8
  0
LINE
  5
6DE
100
AcDbEntity
  8
0
100
AcDbLine
 62
253
  6
CONTINUOUS
 10
-15.4625
 20
9.05
 11
15.5375
 21
9.05
  0
LINE
  5
6DF
100
AcDbEntity
  8
0
100
AcDbLine
 62
253
  6
CONTINUOUS
 10
17.0302245859
 20
9.65
 11
-16.9552245859
 21
9.65
  0
LINE
  5
6E0
100
AcDbEntity
  8
0
100
AcDbLine
 62
7
  6
CONTINUOUS
 10
-5.1618432521
 20
13.0
 11
-5.2004893698
 21
13.0252273306
  0
LINE
  5
6E1
100
AcDbEntity
  8
0
100
AcDbLine
 62
7
  6
CONTINUOUS
 10
-5.264899602
 20
14.6523901517
 11
-5.2262534843
 21
14.6271627737
  0
LINE
  5
6E2
100
AcDbEntity
  8
0
100
AcDbLine
 62
7
  6
CONTINUOUS
 10
-4.8655563228
 20
14.8920497369
 11
-4.9042024495
 21
14.9172771148
  0
LINE
  5
6E3
100
AcDbEntity
  8
0
100
AcDbLine
 62
7
  6
CONTINUOUS
 10
-5.264899602
 20
15.2073913116
 11
-5.2262534843
 21
15.182164078
  0
LINE
  5
6E4
100
AcDbEntity
  8
0
100
AcDbLine
 62
7
  6
CONTINUOUS
 10
-6.0842296512
 20
15.1962209302
 11
-6.4494186046
 21
15.4396802326
  0
LINE
  5
6E5
100
AcDbEntity
  8
0
100
AcDbLine
 62
7
  6
CONTINUOUS
 10
-5.1360791736
 20
13.8198881953
 11
-5.0845510167
 21
13.7820472005
  0
LINE
  5
6E6
100
AcDbEntity
  8
0
100
AcDbLine
 62
7
  6
CONTINUOUS
 10
-5.264899602
 20
14.5767081622
 11
-5.3164277589
 21
14.6145491569
  0
LINE
  5
6E7
100
AcDbEntity
  8
0
100
AcDbLine
 62
7
  6
CONTINUOUS
 10
-5.264899602
 20
15.1317093221
 11
-5.3164277589
 21
15.1695503168
  0
LINE
  5
6E8
100
AcDbEntity
  8
0
100
AcDbLine
 62
7
  6
CONTINUOUS
 10
-4.8655563228
 20
14.9677317264
 11
-4.8140281614
 21
14.9298907316
  0
LINE
  5
6E9
100
AcDbEntity
  8
0
100
AcDbLine
 62
7
  6
CONTINUOUS
 10
-4.8655563228
 20
15.5227328863
 11
-4.8140281614
 21
15.4848918915
  0
LINE
  5
6EA
100
AcDbEntity
  8
0
100
AcDbLine
 62
7
  6
CONTINUOUS
 10
-5.1231971344
 20
16.8345542297
 11
-5.1489612129
 21
16.8597814632
  0
LINE
  5
6EB
100
AcDbEntity
  8
0
100
AcDbLine
 62
7
  6
CONTINUOUS
 10
14.1864581347
 20
-14.7819149047
 11
14.2125
 21
-14.8617021293
  0
LINE
  5
6EC
100
AcDbEntity
  8
0
100
AcDbLine
 62
7
  6
CONTINUOUS
 10
12.2333334327
 20
-17.0372340493
 11
12.259375
 21
-17.1702127662
  0
LINE
  5
6ED
100
AcDbEntity
  8
0
100
AcDbLine
 62
7
  6
CONTINUOUS
 10
13.0927081347
 20
-16.7446808368
 11
13.0666668654
 21
-16.6117021292
  0
LINE
  5
6EE
100
AcDbEntity
  8
0
100
AcDbLine
 62
7
  6
CONTINUOUS
 10
13.196875
 20
-16.6117021293
 11
13.2229168654
 21
-16.7446808368
  0
LINE
  5
6EF
100
AcDbEntity
  8
0
100
AcDbLine
 62
7
  6
CONTINUOUS
 10
10.9052084327
 20
-15.2340425476
 11
10.8791665673
 21
-15.0744680986
  0
LINE
  5
6F0
100
AcDbEntity
  8
0
100
AcDbLine
 62
7
  6
CONTINUOUS
 10
9.9677084327
 20
-14.9946808368
 11
9.9677084327
 21
-15.1542553231
  0
LINE
  5
6F1
100
AcDbEntity
  8
0
100
AcDbLine
 62
7
  6
CONTINUOUS
 10
10.071875
 20
-16.3989361972
 11
10.071875
 21
-16.5319149047
  0
LINE
  5
6F2
100
AcDbEntity
  8
0
100
AcDbLine
 62
7
  6
CONTINUOUS
 10
10.2802084327
 20
-17.25
 11
10.2802084327
 21
-16.3989361972
  0
LINE
  5
6F3
100
AcDbEntity
  8
0
100
AcDbLine
 62
7
  6
CONTINUOUS
 10
10.4104165673
 20
-16.3989361972
 11
10.4104165673
 21
-16.4787234217
  0
LINE
  5
6F4
100
AcDbEntity
  8
0
100
AcDbLine
 62
7
  6
CONTINUOUS
 10
10.4104165673
 20
-16.5851063877
 11
10.4104165673
 21
-17.25
  0
LINE
  5
6F5
100
AcDbEntity
  8
0
100
AcDbLine
 62
7
  6
CONTINUOUS
 10
10.540625
 20
-15.5
 11
10.540625
 21
-15.3404255323
  0
LINE
  5
6F6
100
AcDbEntity
  8
0
100
AcDbLine
 62
7
  6
CONTINUOUS
 10
10.540625
 20
-15.2074468061
 11
10.540625
 21
-14.9414893538
  0
LINE
  5
6F7
100
AcDbEntity
  8
0
100
AcDbLine
 62
7
  6
CONTINUOUS
 10
10.540625
 20
-14.8085106462
 11
10.540625
 21
-14.25
  0
LINE
  5
6F8
100
AcDbEntity
  8
0
100
AcDbLine
 62
7
  6
CONTINUOUS
 10
10.6708334327
 20
-14.25
 11
10.6708334327
 21
-15.5
  0
LINE
  5
6F9
100
AcDbEntity
  8
0
100
AcDbLine
 62
7
  6
CONTINUOUS
 10
10.696875
 20
-17.25
 11
10.696875
 21
-16.6117021292
  0
LINE
  5
6FA
100
AcDbEntity
  8
0
100
AcDbLine
 62
7
  6
CONTINUOUS
 10
10.8270834327
 20
-16.6117021292
 11
10.8270834327
 21
-17.25
  0
LINE
  5
6FB
100
AcDbEntity
  8
0
100
AcDbLine
 62
7
  6
CONTINUOUS
 10
11.009375
 20
-15.0744680986
 11
11.009375
 21
-15.1276595816
  0
LINE
  5
6FC
100
AcDbEntity
  8
0
100
AcDbLine
 62
7
  6
CONTINUOUS
 10
11.0354165673
 20
-14.9414893538
 11
11.0354165673
 21
-14.9680850953
  0
LINE
  5
6FD
100
AcDbEntity
  8
0
100
AcDbLine
 62
7
  6
CONTINUOUS
 10
11.1135415673
 20
-17.25
 11
11.1135415673
 21
-16.6117021292
  0
LINE
  5
6FE
100
AcDbEntity
  8
0
100
AcDbLine
 62
7
  6
CONTINUOUS
 10
11.24375
 20
-16.6117021292
 11
11.24375
 21
-17.25
  0
LINE
  5
6FF
100
AcDbEntity
  8
0
100
AcDbLine
 62
7
  6
CONTINUOUS
 10
11.4520834327
 20
-17.0106382892
 11
11.4520834327
 21
-16.9308510646
  0
LINE
  5
700
100
AcDbEntity
  8
0
100
AcDbLine
 62
7
  6
CONTINUOUS
 10
11.4520834327
 20
-16.6117021292
 11
11.4520834327
 21
-16.5585106462
  0
LINE
  5
701
100
AcDbEntity
  8
0
100
AcDbLine
 62
7
  6
CONTINUOUS
 10
11.5822915673
 20
-16.9840425476
 11
11.5822915673
 21
-17.0372340493
  0
LINE
  5
702
100
AcDbEntity
  8
0
100
AcDbLine
 62
7
  6
CONTINUOUS
 10
11.5822915673
 20
-14.9680850953
 11
11.5822915673
 21
-14.9148936123
  0
LINE
  5
703
100
AcDbEntity
  8
0
100
AcDbLine
 62
7
  6
CONTINUOUS
 10
11.7125
 20
-14.9680850953
 11
11.7125
 21
-15.0744680986
  0
LINE
  5
704
100
AcDbEntity
  8
0
100
AcDbLine
 62
7
  6
CONTINUOUS
 10
8.5614583582
 20
-16.8244680986
 11
8.5875
 21
-16.6648936123
  0
LINE
  5
705
100
AcDbEntity
  8
0
100
AcDbLine
 62
7
  6
CONTINUOUS
 10
7.3375
 20
-16.4255319387
 11
7.3635416674
 21
-16.2925531566
  0
LINE
  5
706
100
AcDbEntity
  8
0
100
AcDbLine
 62
7
  6
CONTINUOUS
 10
7.5197916605
 20
-16.3191489726
 11
7.49375
 21
-16.4255319387
  0
LWPOLYLINE
  5
707
100
AcDbEntity
  8
0
100
AcDbPolyline
 62
7
  6
CONTINUOUS
 90
24
 70
0
 10
0.9680724121
 20
-11.7774264285
 10
0.9683041807
 20
-11.7773226896
 10
0.9685058168
 20
-11.7772358516
 10
0.967977989
 20
-11.7774410058
 10
0.9668321302
 20
-11.7778558727
 10
0.9650567925
 20
-11.7784565095
 10
0.9626247544
 20
-11.7792272691
 10
0.9596375303
 20
-11.7801169583
 10
0.9560977455
 20
-11.7811113171
 10
0.9519827185
 20
-11.7822045858
 10
0.9473631273
 20
-11.7833684371
 10
0.9422445204
 20
-11.784594616
 10
0.936609092
 20
-11.7858811436
 10
0.9304943625
 20
-11.7872142475
 10
0.9239004736
 20
-11.7885898467
 10
0.9168164712
 20
-11.7900064895
 10
0.9092626902
 20
-11.7914568984
 10
0.9012370605
 20
-11.7929388215
 10
0.8927314918
 20
-11.7944512837
 10
0.883756537
 20
-11.7959902248
 10
0.8743091819
 20
-11.7975542784
 10
0.8643826365
 20
-11.7991427993
 10
0.8539811068
 20
-11.8007535067
 10
0.8431011642
 20
-11.8023854945
  0
LWPOLYLINE
  5
708
100
AcDbEntity
  8
0
100
AcDbPolyline
 62
7
  6
CONTINUOUS
 90
24
 70
0
 10
0.9681335888
 20
-12.2773759953
 10
0.9683232451
 20
-12.2772917974
 10
0.9684367663
 20
-12.2772427426
 10
0.9678485859
 20
-12.2774708722
 10
0.9666914006
 20
-12.2778896848
 10
0.9649682708
 20
-12.2784738467
 10
0.9626457361
 20
-12.2792130725
 10
0.9598097608
 20
-12.2800628876
 10
0.9564634659
 20
-12.281009935
 10
0.952582481
 20
-12.2820498094
 10
0.9482136792
 20
-12.2831605941
 10
0.9433544987
 20
-12.2843359179
 10
0.9379931779
 20
-12.2855723039
 10
0.9321643263
 20
-12.2868565551
 10
0.9258671619
 20
-12.2881847362
 10
0.9190911347
 20
-12.2895552835
 10
0.9118560502
 20
-12.2909609384
 10
0.9041600765
 20
-12.2923993727
 10
0.8959945271
 20
-12.2938697113
 10
0.8873680936
 20
-12.2953681605
 10
0.8782772034
 20
-12.2968934011
 10
0.8687150535
 20
-12.2984447549
 10
0.8586845466
 20
-12.3000200935
 10
0.8481816232
 20
-12.3016185639
  0
LWPOLYLINE
  5
709
100
AcDbEntity
  8
0
100
AcDbPolyline
 62
7
  6
CONTINUOUS
 90
23
 70
0
 10
0.9683856831
 20
-11.2772904118
 10
0.9685461575
 20
-11.277220156
 10
0.9678528997
 20
-11.2774839029
 10
0.9665755543
 20
-11.2779401915
 10
0.9647324132
 20
-11.2785572518
 10
0.9622896568
 20
-11.2793257042
 10
0.959338305
 20
-11.2802006829
 10
0.9558826026
 20
-11.2811693487
 10
0.9519005017
 20
-11.2822273886
 10
0.9474454391
 20
-11.2833520462
 10
0.9425173357
 20
-11.284536837
 10
0.9371018786
 20
-11.2857792213
 10
0.9312315351
 20
-11.2870667337
 10
0.9249047287
 20
-11.2883957197
 10
0.9181106365
 20
-11.2897647331
 10
0.9108678686
 20
-11.2911668008
 10
0.9031751803
 20
-11.2925994847
 10
0.895022391
 20
-11.2940621667
 10
0.886414163
 20
-11.2955517181
 10
0.8773467551
 20
-11.2970669495
 10
0.8678159339
 20
-11.2986070188
 10
0.8578254563
 20
-11.3001699379
 10
0.8473727172
 20
-11.3017548923
  0
LWPOLYLINE
  5
70A
100
AcDbEntity
  8
0
100
AcDbPolyline
 62
7
  6
CONTINUOUS
 90
23
 70
0
 10
-0.8977266772
 20
-13.2259403561
 10
-0.898118836
 20
-13.2261095268
 10
-0.898773909
 20
-13.2263777873
 10
-0.8987075668
 20
-13.2263538946
 10
-0.8980775029
 20
-13.2261347801
 10
-0.8968909713
 20
-13.2257482699
 10
-0.8951108574
 20
-13.2252046824
 10
-0.8928380698
 20
-13.2245522474
 10
-0.8900773397
 20
-13.2238045545
 10
-0.8868042173
 20
-13.2229660355
 10
-0.8830784977
 20
-13.2220609331
 10
-0.8789003746
 20
-13.2210959569
 10
-0.8742540627
 20
-13.2200735709
 10
-0.8691765228
 20
-13.2190069692
 10
-0.8636684991
 20
-13.2179002337
 10
-0.8577163515
 20
-13.2167542615
 10
-0.8513353738
 20
-13.2155752023
 10
-0.8445225179
 20
-13.2143651912
 10
-0.8372684964
 20
-13.2131249557
 10
-0.829578658
 20
-13.2118573796
 10
-0.821448914
 20
-13.2105635041
 10
-0.8128737676
 20
-13.2092440439
 10
-0.8038551776
 20
-13.2079007285
  0
LWPOLYLINE
  5
70B
100
AcDbEntity
  8
0
100
AcDbPolyline
 62
7
  6
CONTINUOUS
 90
20
 70
0
 10
-0.8983508711
 20
-12.2262285207
 10
-0.8980707861
 20
-12.2261322587
 10
-0.8969460538
 20
-12.2257642275
 10
-0.8952174952
 20
-12.2252346539
 10
-0.8929777983
 20
-12.2245905494
 10
-0.8902277707
 20
-12.2238454248
 10
-0.8869453535
 20
-12.2230050646
 10
-0.8831921345
 20
-12.2220946282
 10
-0.8789683544
 20
-12.2211211589
 10
-0.8742583809
 20
-12.2200874208
 10
-0.8691010336
 20
-12.2190071644
 10
-0.8634968744
 20
-12.2178845372
 10
-0.8574324215
 20
-12.2167205522
 10
-0.8509249768
 20
-12.2155217629
 10
-0.8439707516
 20
-12.2142901707
 10
-0.8365603423
 20
-12.2130266246
 10
-0.8287014308
 20
-12.2117346719
 10
-0.8203892159
 20
-12.210415473
 10
-0.8116152822
 20
-12.2090695203
 10
-0.8023808712
 20
-12.2076986745
  0
LWPOLYLINE
  5
70C
100
AcDbEntity
  8
0
100
AcDbPolyline
 62
7
  6
CONTINUOUS
 90
19
 70
0
 10
-0.8983188162
 20
-11.7262364148
 10
-0.898036824
 20
-11.7261397291
 10
-0.8968697823
 20
-11.7257583768
 10
-0.8951010059
 20
-11.7252169503
 10
-0.8928341815
 20
-11.7245651273
 10
-0.8900730095
 20
-11.7238165547
 10
-0.8867941135
 20
-11.7229762554
 10
-0.8830659222
 20
-11.7220707531
 10
-0.8788918505
 20
-11.7211073703
 10
-0.8742558593
 20
-11.7200883349
 10
-0.8692005941
 20
-11.7190278452
 10
-0.8637290457
 20
-11.7179299667
 10
-0.8578328652
 20
-11.7167960024
 10
-0.851539664
 20
-11.715633693
 10
-0.8448508666
 20
-11.7144451559
 10
-0.8377618122
 20
-11.713231256
 10
-0.8302910074
 20
-11.7119965559
 10
-0.8224393303
 20
-11.7107422846
 10
-0.814203488
 20
-11.7094689087
  0
LWPOLYLINE
  5
70D
100
AcDbEntity
  8
0
100
AcDbPolyline
 62
7
  6
CONTINUOUS
 90
20
 70
0
 10
-0.8984594843
 20
-12.7262601928
 10
-0.8981795271
 20
-12.7261643914
 10
-0.8970587636
 20
-12.7257985018
 10
-0.8953641133
 20
-12.7252792904
 10
-0.8932031473
 20
-12.7246561452
 10
-0.8905848697
 20
-12.7239428673
 10
-0.8874859686
 20
-12.7231431866
 10
-0.8839663206
 20
-12.72228066
 10
-0.8800290649
 20
-12.7213620067
 10
-0.8756598625
 20
-12.7203893176
 10
-0.8708921157
 20
-12.7193745578
 10
-0.8657254546
 20
-12.7183211987
 10
-0.8601499886
 20
-12.7172305071
 10
-0.8541841922
 20
-12.7161089208
 10
-0.8478259952
 20
-12.7149583842
 10
-0.8410675212
 20
-12.7137796508
 10
-0.8339177919
 20
-12.7125762287
 10
-0.8263758059
 20
-12.7113496048
 10
-0.8184326778
 20
-12.7100998913
 10
-0.8100841463
 20
-12.7088279074
  0
LWPOLYLINE
  5
70E
100
AcDbEntity
  8
0
100
AcDbPolyline
 62
253
  6
CONTINUOUS
 90
12
 70
0
 10
-1.0625
 20
-11.6092207029
 10
-1.0517976784
 20
-11.6060931895
 10
-1.0361522686
 20
-11.6023356858
 10
-1.0177509057
 20
-11.5985766184
 10
-0.9966268174
 20
-11.5948148306
 10
-0.9728420571
 20
-11.5910495088
 10
-0.9464805037
 20
-11.5872801567
 10
-0.9176253628
 20
-11.5835061334
 10
-0.886358525
 20
-11.5797266873
 10
-0.8527635558
 20
-11.5759413185
 10
-0.8169263427
 20
-11.5721497697
 10
-0.7789344066
 20
-11.5683518944
  0
LWPOLYLINE
  5
70F
100
AcDbEntity
  8
0
100
AcDbPolyline
 62
7
  6
CONTINUOUS
 90
12
 70
0
 10
-17.7450894847
 20
10.0498702939
 10
-17.7771304209
 20
10.0494241645
 10
-17.8080751348
 20
10.0486735443
 10
-17.8373948742
 20
10.0476636557
 10
-17.8645862085
 20
10.0464077516
 10
-17.8891803797
 20
10.0448866985
 10
-17.9107533069
 20
10.0431627405
 10
-17.928937259
 20
10.0412831336
 10
-17.9434223433
 20
10.0392169223
 10
-17.9539567922
 20
10.0370018584
 10
-17.9603541816
 20
10.0347434738
 10
-17.9625
 20
10.0325182969
  0
LINE
  5
710
100
AcDbEntity
  8
0
100
AcDbLine
 62
7
  6
CONTINUOUS
 10
-16.8625
 20
9.9
 11
16.9375
 21
9.9
  0
LINE
  5
711
100
AcDbEntity
  8
0
100
AcDbLine
 62
7
  6
CONTINUOUS
 10
-17.1125
 20
10.05
 11
-17.7450894847
 21
10.0498702939
  0
LINE
  5
712
100
AcDbEntity
  8
0
100
AcDbLine
 62
253
  6
CONTINUOUS
 10
-16.8625
 20
10.15
 11
16.9375
 21
10.15
  0
LINE
  5
713
100
AcDbEntity
  8
0
100
AcDbLine
 62
7
  6
CONTINUOUS
 10
-5.1489612129
 20
13.7442062058
 11
-5.1876073305
 21
13.7568198948
  0
LINE
  5
714
100
AcDbEntity
  8
0
100
AcDbLine
 62
7
  6
CONTINUOUS
 10
-5.1747252913
 20
13.8325018842
 11
-5.1360791736
 21
13.8198881953
  0
LINE
  5
715
100
AcDbEntity
  8
0
100
AcDbLine
 62
7
  6
CONTINUOUS
 10
-4.7625
 20
13.9334111795
 11
-5.3679559158
 21
14.1352298421
  0
LINE
  5
716
100
AcDbEntity
  8
0
100
AcDbLine
 62
7
  6
CONTINUOUS
 10
-5.2004893698
 20
14.5514807842
 11
-5.264899602
 21
14.5767081622
  0
LINE
  5
717
100
AcDbEntity
  8
0
100
AcDbLine
 62
7
  6
CONTINUOUS
 10
-7.9936413752
 20
16.0065023383
 11
-7.5885006068
 21
15.8376936849
  0
LINE
  5
718
100
AcDbEntity
  8
0
100
AcDbLine
 62
7
  6
CONTINUOUS
 10
-4.8655563228
 20
15.4470508968
 11
-4.9042024495
 21
15.4722784191
  0
LINE
  5
719
100
AcDbEntity
  8
0
100
AcDbLine
 62
7
  6
CONTINUOUS
 10
-4.9814946849
 20
17.3264871612
 11
-4.9428485672
 21
17.3012596389
  0
LINE
  5
71A
100
AcDbEntity
  8
0
100
AcDbLine
 62
7
  6
CONTINUOUS
 10
-5.1360791736
 20
16.9354634527
 11
-5.0845510167
 21
16.897622458
  0
LINE
  5
71B
100
AcDbEntity
  8
0
100
AcDbLine
 62
7
  6
CONTINUOUS
 10
14.1083331347
 20
-14.9946808368
 11
14.0822918654
 21
-14.8617021292
  0
LINE
  5
71C
100
AcDbEntity
  8
0
100
AcDbLine
 62
7
  6
CONTINUOUS
 10
14.2125
 20
-14.8617021293
 11
14.2385418654
 21
-14.9946808368
  0
LINE
  5
71D
100
AcDbEntity
  8
0
100
AcDbLine
 62
7
  6
CONTINUOUS
 10
12.103125
 20
-16.9574468061
 11
12.103125
 21
-16.7978723571
  0
LINE
  5
71E
100
AcDbEntity
  8
0
100
AcDbLine
 62
7
  6
CONTINUOUS
 10
12.103125
 20
-16.6914893538
 11
12.103125
 21
-16.6117021292
  0
LINE
  5
71F
100
AcDbEntity
  8
0
100
AcDbLine
 62
7
  6
CONTINUOUS
 10
12.2333334327
 20
-16.6117021292
 11
12.2333334327
 21
-17.0372340493
  0
LINE
  5
720
100
AcDbEntity
  8
0
100
AcDbLine
 62
7
  6
CONTINUOUS
 10
12.49375
 20
-17.25
 11
12.49375
 21
-16.3989361972
  0
LINE
  5
721
100
AcDbEntity
  8
0
100
AcDbLine
 62
7
  6
CONTINUOUS
 10
12.5375
 20
21.75
 11
12.5375
 21
22.25
  0
LINE
  5
722
100
AcDbEntity
  8
0
100
AcDbLine
 62
7
  6
CONTINUOUS
 10
12.6239581347
 20
-16.3989361972
 11
12.6239581347
 21
-16.5319149047
  0
LINE
  5
723
100
AcDbEntity
  8
0
100
AcDbLine
 62
7
  6
CONTINUOUS
 10
12.6239581347
 20
-16.6382978708
 11
12.6239581347
 21
-17.25
  0
LINE
  5
724
100
AcDbEntity
  8
0
100
AcDbLine
 62
253
  6
CONTINUOUS
 10
12.7875
 20
22.5
 11
12.7875
 21
21.5
  0
LINE
  5
725
100
AcDbEntity
  8
0
100
AcDbLine
 62
7
  6
CONTINUOUS
 10
13.0927081347
 20
-17.25
 11
13.0927081347
 21
-16.7446808368
  0
LINE
  5
726
100
AcDbEntity
  8
0
100
AcDbLine
 62
7
  6
CONTINUOUS
 10
13.1708331347
 20
-15.5
 11
13.1708331347
 21
-14.6489361972
  0
LINE
  5
727
100
AcDbEntity
  8
0
100
AcDbLine
 62
7
  6
CONTINUOUS
 10
13.1708331347
 20
-14.3829787075
 11
13.1708331347
 21
-14.25
  0
LINE
  5
728
100
AcDbEntity
  8
0
100
AcDbLine
 62
7
  6
CONTINUOUS
 10
13.2229168654
 20
-16.7446808368
 11
13.2229168654
 21
-17.25
  0
LINE
  5
729
100
AcDbEntity
  8
0
100
AcDbLine
 62
7
  6
CONTINUOUS
 10
13.3010418654
 20
-14.25
 11
13.3010418654
 21
-14.3829787075
  0
LINE
  5
72A
100
AcDbEntity
  8
0
100
AcDbLine
 62
7
  6
CONTINUOUS
 10
13.3010418654
 20
-14.6489361972
 11
13.3010418654
 21
-15.5
  0
LINE
  5
72B
100
AcDbEntity
  8
0
100
AcDbLine
 62
7
  6
CONTINUOUS
 10
13.509375
 20
-15.5
 11
13.509375
 21
-14.6489361972
  0
LINE
  5
72C
100
AcDbEntity
  8
0
100
AcDbLine
 62
7
  6
CONTINUOUS
 10
13.6395831347
 20
-14.6489361972
 11
13.6395831347
 21
-14.7819149047
  0
LINE
  5
72D
100
AcDbEntity
  8
0
100
AcDbLine
 62
7
  6
CONTINUOUS
 10
13.6395831347
 20
-14.8882978708
 11
13.6395831347
 21
-15.5
  0
LINE
  5
72E
100
AcDbEntity
  8
0
100
AcDbLine
 62
7
  6
CONTINUOUS
 10
10.8791665673
 20
-15.0744680986
 11
10.9052084327
 21
-14.9148936123
  0
LINE
  5
72F
100
AcDbEntity
  8
0
100
AcDbLine
 62
7
  6
CONTINUOUS
 10
8.353125
 20
-16.9574468061
 11
8.3270833582
 21
-17.0638297908
  0
LINE
  5
730
100
AcDbEntity
  8
0
100
AcDbLine
 62
7
  6
CONTINUOUS
 10
9.8375
 20
-14.9680850953
 11
9.8635415673
 21
-14.8617021293
  0
LINE
  5
731
100
AcDbEntity
  8
0
100
AcDbLine
 62
7
  6
CONTINUOUS
 10
9.3947917163
 20
-16.9840425476
 11
9.36875
 21
-17.0904255323
  0
LINE
  5
732
100
AcDbEntity
  8
0
100
AcDbLine
 62
7
  6
CONTINUOUS
 10
8.1708333582
 20
-17.0106382892
 11
8.196875
 21
-16.9308510646
  0
LINE
  5
733
100
AcDbEntity
  8
0
100
AcDbLine
 62
7
  6
CONTINUOUS
 10
8.9520832837
 20
-15.1542553231
 11
8.9260417163
 21
-15.2340425476
  0
LINE
  5
734
100
AcDbEntity
  8
0
100
AcDbLine
 62
7
  6
CONTINUOUS
 10
7.9625
 20
-15.3670212738
 11
8.353125
 21
-14.25
  0
LINE
  5
735
100
AcDbEntity
  8
0
100
AcDbLine
 62
7
  6
CONTINUOUS
 10
8.43125
 20
-14.5159574151
 11
8.0666666418
 21
-15.5
  0
LWPOLYLINE
  5
736
100
AcDbEntity
  8
0
100
AcDbPolyline
 62
7
  6
CONTINUOUS
 90
23
 70
0
 10
0.9682261015
 20
-12.7773298462
 10
0.9684298715
 20
-12.7772393106
 10
0.9685241636
 20
-12.7771980928
 10
0.9678598006
 20
-12.7774543128
 10
0.9665664324
 20
-12.7779186845
 10
0.964637664
 20
-12.7785657023
 10
0.9620417087
 20
-12.7793812605
 10
0.9588869862
 20
-12.7803123858
 10
0.9551813324
 20
-12.7813436579
 10
0.9508981319
 20
-12.7824706793
 10
0.9461006598
 20
-12.7836672718
 10
0.9407917385
 20
-12.7849256864
 10
0.9349538172
 20
-12.7862436323
 10
0.9286199705
 20
-12.7876081918
 10
0.9217889716
 20
-12.7890152834
 10
0.9144488513
 20
-12.7904634181
 10
0.9066173909
 20
-12.7919459563
 10
0.8982921222
 20
-12.7934608465
 10
0.8894678364
 20
-12.7950067192
 10
0.8801580502
 20
-12.7965792236
 10
0.8703611372
 20
-12.7981769771
 10
0.8600718959
 20
-12.7997992951
 10
0.8492978859
 20
-12.8014436358
  0
LWPOLYLINE
  5
737
100
AcDbEntity
  8
0
100
AcDbPolyline
 62
7
  6
CONTINUOUS
 90
23
 70
0
 10
0.9683404375
 20
-13.2772721495
 10
0.9685002869
 20
-13.2772021366
 10
0.9684749897
 20
-13.2772110807
 10
0.9677394094
 20
-13.2774920315
 10
0.9663717301
 20
-13.2779788999
 10
0.9643450958
 20
-13.2786530376
 10
0.9616276782
 20
-13.2794993146
 10
0.9583021491
 20
-13.2804715963
 10
0.9543596988
 20
-13.2815570984
 10
0.9497728591
 20
-13.2827493487
 10
0.9446084062
 20
-13.2840197087
 10
0.9388663713
 20
-13.2853597337
 10
0.9325221411
 20
-13.2867673971
 10
0.9256106758
 20
-13.2882283166
 10
0.9181263969
 20
-13.2897383229
 10
0.9100540899
 20
-13.2912956789
 10
0.901417305
 20
-13.2928920634
 10
0.8922112132
 20
-13.2945253182
 10
0.8824283535
 20
-13.2961939576
 10
0.8720900828
 20
-13.297891996
 10
0.8611939151
 20
-13.2996179475
 10
0.8497333516
 20
-13.3013710937
 10
0.8377250978
 20
-13.3031474091
  0
LWPOLYLINE
  5
738
100
AcDbEntity
  8
0
100
AcDbPolyline
 62
7
  6
CONTINUOUS
 90
23
 70
0
 10
-0.8978283552
 20
-15.2259464792
 10
-0.8982114726
 20
-15.2261107226
 10
-0.8988247734
 20
-15.2263605943
 10
-0.8987311113
 20
-15.2263268669
 10
-0.8980672447
 20
-15.2260974307
 10
-0.8968344464
 20
-15.2256983327
 10
-0.8950005289
 20
-15.2251418343
 10
-0.8926653721
 20
-15.2244757517
 10
-0.8898338326
 20
-15.2237137981
 10
-0.8864801738
 20
-15.2228601892
 10
-0.882660778
 20
-15.2219383558
 10
-0.8783750783
 20
-15.2209550239
 10
-0.873605758
 20
-15.2199125224
 10
-0.8683840594
 20
-15.2188230018
 10
-0.8627066871
 20
-15.2176900475
 10
-0.8565602885
 20
-15.2165149661
 10
-0.849960463
 20
-15.215304215
 10
-0.8429024876
 20
-15.2140598683
 10
-0.8353746656
 20
-15.2127826231
 10
-0.8273811899
 20
-15.2114756992
 10
-0.8189155872
 20
-15.2101402723
 10
-0.8099678548
 20
-15.2087768172
 10
-0.8005372675
 20
-15.2073868921
  0
LWPOLYLINE
  5
739
100
AcDbEntity
  8
0
100
AcDbPolyline
 62
7
  6
CONTINUOUS
 90
23
 70
0
 10
0.9684067675
 20
-14.2772400552
 10
0.9684601218
 20
-14.2772174605
 10
0.9681055685
 20
-14.2773570368
 10
0.9670074744
 20
-14.2777603865
 10
0.9652872405
 20
-14.2783487569
 10
0.9629436319
 20
-14.2790983126
 10
0.9599455304
 20
-14.2799977684
 10
0.9563816957
 20
-14.2810040394
 10
0.9522533623
 20
-14.282104893
 10
0.9475399721
 20
-14.2832950953
 10
0.9423006662
 20
-14.2845511388
 10
0.9365361431
 20
-14.2858664608
 10
0.9302308934
 20
-14.2872387493
 10
0.9234206973
 20
-14.2886553606
 10
0.9161040894
 20
-14.2901127896
 10
0.9082704604
 20
-14.2916096278
 10
0.8999424634
 20
-14.2931385576
 10
0.8911196979
 20
-14.294697235
 10
0.8817926685
 20
-14.2962850875
 10
0.8719702147
 20
-14.297898595
 10
0.8616502464
 20
-14.2995363601
 10
0.8508252124
 20
-14.3011979485
 10
0.8394946371
 20
-14.3028819124
  0
LWPOLYLINE
  5
73A
100
AcDbEntity
  8
0
100
AcDbPolyline
 62
7
  6
CONTINUOUS
 90
23
 70
0
 10
0.9685686822
 20
-13.7771818326
 10
0.9686111436
 20
-13.7771638969
 10
0.968215624
 20
-13.7773190301
 10
0.9670583787
 20
-13.7777423099
 10
0.9652616584
 20
-13.7783543878
 10
0.962820466
 20
-13.7791322335
 10
0.9596997921
 20
-13.7800648392
 10
0.9559884249
 20
-13.7811082098
 10
0.9516840138
 20
-13.7822502299
 10
0.9467613261
 20
-13.7834859717
 10
0.9412803523
 20
-13.784790981
 10
0.93523979
 20
-13.786158484
 10
0.9286209657
 20
-13.7875861937
 10
0.9214609324
 20
-13.7890606759
 10
0.9137588927
 20
-13.7905778207
 10
0.9054996304
 20
-13.7921366572
 10
0.8966992009
 20
-13.7937306563
 10
0.8873534813
 20
-13.7953576016
 10
0.8774510688
 20
-13.7970166985
 10
0.8669968679
 20
-13.7987046654
 10
0.8559865751
 20
-13.8004203464
 10
0.8444153742
 20
-13.8021628827
 10
0.8322886275
 20
-13.8039300536
  0
LWPOLYLINE
  5
73B
100
AcDbEntity
  8
0
100
AcDbPolyline
 62
7
  6
CONTINUOUS
 90
22
 70
0
 10
-0.8980665112
 20
-14.2260790562
 10
-0.8983629281
 20
-14.2262024469
 10
-0.898716072
 20
-14.2263427465
 10
-0.8983388238
 20
-14.2262071794
 10
-0.8973642646
 20
-14.2258803
 10
-0.8957911755
 20
-14.2253872376
 10
-0.8935863568
 20
-14.2247402831
 10
-0.8908494432
 20
-14.223986229
 10
-0.8875848929
 20
-14.2231387116
 10
-0.8837648135
 20
-14.2222017272
 10
-0.8794439899
 20
-14.2211979373
 10
-0.8746203001
 20
-14.2201337483
 10
-0.8692790901
 20
-14.2190119632
 10
-0.8634578156
 20
-14.2178453687
 10
-0.8571540884
 20
-14.2166373092
 10
-0.8503580524
 20
-14.2153894009
 10
-0.8430970007
 20
-14.2141095445
 10
-0.8353692877
 20
-14.2127997221
 10
-0.8271668875
 20
-14.2114606687
 10
-0.8185085192
 20
-14.2100971981
 10
-0.8093932311
 20
-14.2087105654
 10
-0.7998145281
 20
-14.2073010796
  0
LWPOLYLINE
  5
73C
100
AcDbEntity
  8
0
100
AcDbPolyline
 62
7
  6
CONTINUOUS
 90
21
 70
0
 10
-0.8986579873
 20
-14.7263011774
 10
-0.8985505423
 20
-14.7262626204
 10
-0.8978974318
 20
-14.7260386113
 10
-0.8967224426
 20
-14.7256598853
 10
-0.8951207577
 20
-14.7251735904
 10
-0.893099162
 20
-14.7245932105
 10
-0.8906401078
 20
-14.7239239486
 10
-0.8878041951
 20
-14.7231904112
 10
-0.8845963322
 20
-14.7223997644
 10
-0.881003422
 20
-14.7215541543
 10
-0.8770581812
 20
-14.7206657604
 10
-0.8727615509
 20
-14.7197382948
 10
-0.868104464
 20
-14.7187730346
 10
-0.8631031378
 20
-14.7177761489
 10
-0.8577558993
 20
-14.7167496495
 10
-0.8520556853
 20
-14.7156943718
 10
-0.8460091449
 20
-14.7146135144
 10
-0.8396117296
 20
-14.7135080067
 10
-0.8328584101
 20
-14.7123786213
 10
-0.8257541977
 20
-14.7112276693
 10
-0.8182936554
 20
-14.7100555922
  0
LWPOLYLINE
  5
73D
100
AcDbEntity
  8
0
100
AcDbPolyline
 62
7
  6
CONTINUOUS
 90
20
 70
0
 10
-0.8984042824
 20
-13.7262397042
 10
-0.8980732128
 20
-13.7261263828
 10
-0.8967867821
 20
-13.7257083217
 10
-0.8948217678
 20
-13.7251121712
 10
-0.8922823559
 20
-13.7243908455
 10
-0.8891709587
 20
-13.7235601935
 10
-0.8854573074
 20
-13.7226257877
 10
-0.881211065
 20
-13.7216160922
 10
-0.8764317246
 20
-13.7205390693
 10
-0.871097538
 20
-13.7193972165
 10
-0.8652490529
 20
-13.7182053653
 10
-0.8588829696
 20
-13.7169676575
 10
-0.8519833021
 20
-13.7156854455
 10
-0.8445730291
 20
-13.7143668084
 10
-0.8366472726
 20
-13.713013774
 10
-0.8281984023
 20
-13.7116275329
 10
-0.8192476349
 20
-13.7102136205
 10
-0.8097923572
 20
-13.7087732581
 10
-0.7998268893
 20
-13.7073070763
 10
-0.7893693594
 20
-13.705818962
  0
LINE
  5
73E
100
AcDbEntity
  8
0
100
AcDbLine
 62
7
  6
CONTINUOUS
 10
-4.7625
 20
13.3657962945
 11
-5.3679559158
 21
13.3657962945
  0
LINE
  5
73F
100
AcDbEntity
  8
0
100
AcDbLine
 62
7
  6
CONTINUOUS
 10
-5.3035457197
 20
13.441478284
 11
-5.1103150952
 21
13.441478284
  0
LINE
  5
740
100
AcDbEntity
  8
0
100
AcDbLine
 62
7
  6
CONTINUOUS
 10
-5.0330228598
 20
13.441478284
 11
-4.7625
 21
13.441478284
  0
LINE
  5
741
100
AcDbEntity
  8
0
100
AcDbLine
 62
7
  6
CONTINUOUS
 10
-5.1103150952
 20
14.5388671675
 11
-5.2004893698
 21
14.5514807842
  0
LINE
  5
742
100
AcDbEntity
  8
0
100
AcDbLine
 62
7
  6
CONTINUOUS
 10
-5.1876073305
 20
14.6145491569
 11
-5.1103150952
 21
14.6019353958
  0
LINE
  5
743
100
AcDbEntity
  8
0
100
AcDbLine
 62
7
  6
CONTINUOUS
 10
-5.3164277589
 20
14.1856845258
 11
-4.9686126457
 21
14.0721615416
  0
LINE
  5
744
100
AcDbEntity
  8
0
100
AcDbLine
 62
7
  6
CONTINUOUS
 10
-4.9170844888
 20
14.0595478527
 11
-4.7625
 21
14.0090931689
  0
LINE
  5
745
100
AcDbEntity
  8
0
100
AcDbLine
 62
7
  6
CONTINUOUS
 10
-5.2262534843
 20
14.6271627737
 11
-5.1876073305
 21
14.6145491569
  0
LINE
  5
746
100
AcDbEntity
  8
0
100
AcDbLine
 62
7
  6
CONTINUOUS
 10
-5.0201408206
 20
14.6271627737
 11
-4.9814946849
 21
14.6145491569
  0
LINE
  5
747
100
AcDbEntity
  8
0
100
AcDbLine
 62
7
  6
CONTINUOUS
 10
-4.9042024495
 20
14.9172771148
 11
-4.9428485672
 21
14.9298907316
  0
LINE
  5
748
100
AcDbEntity
  8
0
100
AcDbLine
 62
7
  6
CONTINUOUS
 10
-5.2262534843
 20
15.182164078
 11
-5.1876073306
 21
15.1695503168
  0
LINE
  5
749
100
AcDbEntity
  8
0
100
AcDbLine
 62
7
  6
CONTINUOUS
 10
-5.0201408206
 20
15.182164078
 11
-4.9814946849
 21
15.1695503168
  0
LINE
  5
74A
100
AcDbEntity
  8
0
100
AcDbLine
 62
7
  6
CONTINUOUS
 10
-4.9042024495
 20
15.4722784191
 11
-4.9428485672
 21
15.4848918915
  0
LINE
  5
74B
100
AcDbEntity
  8
0
100
AcDbLine
 62
7
  6
CONTINUOUS
 10
-4.929966528
 20
14.9929591043
 11
-4.8655563228
 21
14.9677317264
  0
LINE
  5
74C
100
AcDbEntity
  8
0
100
AcDbLine
 62
7
  6
CONTINUOUS
 10
-5.2004893698
 20
15.1064820885
 11
-5.264899602
 21
15.1317093221
  0
LINE
  5
74D
100
AcDbEntity
  8
0
100
AcDbLine
 62
7
  6
CONTINUOUS
 10
-4.929966528
 20
15.5479604086
 11
-4.8655563228
 21
15.5227328863
  0
LINE
  5
74E
100
AcDbEntity
  8
0
100
AcDbLine
 62
7
  6
CONTINUOUS
 10
14.1083331347
 20
-15.5
 11
14.1083331347
 21
-14.9946808368
  0
LINE
  5
74F
100
AcDbEntity
  8
0
100
AcDbLine
 62
253
  6
CONTINUOUS
 10
14.1875
 20
-22.5
 11
14.1875
 21
-21.5
  0
LINE
  5
750
100
AcDbEntity
  8
0
100
AcDbLine
 62
7
  6
CONTINUOUS
 10
14.2385418654
 20
-14.9946808368
 11
14.2385418654
 21
-15.5
  0
LINE
  5
751
100
AcDbEntity
  8
0
100
AcDbLine
 62
7
  6
CONTINUOUS
 10
14.4375
 20
-21.75
 11
14.4375
 21
-22.25
  0
LINE
  5
752
100
AcDbEntity
  8
0
100
AcDbLine
 62
7
  6
CONTINUOUS
 10
15.4375
 20
18.75
 11
15.4375
 21
21.15
  0
LINE
  5
753
100
AcDbEntity
  8
0
100
AcDbLine
 62
7
  6
CONTINUOUS
 10
15.5375
 20
-9.75
 11
15.5375
 21
-9.4
  0
LINE
  5
754
100
AcDbEntity
  8
0
100
AcDbLine
 62
7
  6
CONTINUOUS
 10
15.5375
 20
7.55
 11
15.5375
 21
9.05
  0
LINE
  5
755
100
AcDbEntity
  8
0
100
AcDbLine
 62
7
  6
CONTINUOUS
 10
11.7125
 20
-15.2340425476
 11
11.6864584327
 21
-15.3404255323
  0
LINE
  5
756
100
AcDbEntity
  8
0
100
AcDbLine
 62
7
  6
CONTINUOUS
 10
9.2385417163
 20
-17.0638297908
 11
9.2645832837
 21
-16.9840425476
  0
LINE
  5
757
100
AcDbEntity
  8
0
100
AcDbLine
 62
7
  6
CONTINUOUS
 10
9.99375
 20
-14.9148936123
 11
9.9677084327
 21
-14.9946808368
  0
LINE
  5
758
100
AcDbEntity
  8
0
100
AcDbLine
 62
7
  6
CONTINUOUS
 10
7.3635416674
 20
-16.2925531566
 11
7.415625
 21
-16.1861701906
  0
LINE
  5
759
100
AcDbEntity
  8
0
100
AcDbLine
 62
7
  6
CONTINUOUS
 10
8.7958332837
 20
-14.8085106462
 11
8.821875
 21
-14.7553191632
  0
LINE
  5
75A
100
AcDbEntity
  8
0
100
AcDbLine
 62
7
  6
CONTINUOUS
 10
8.9520832837
 20
-14.8085106462
 11
8.9260417163
 21
-14.8617021292
  0
LINE
  5
75B
100
AcDbEntity
  8
0
100
AcDbLine
 62
7
  6
CONTINUOUS
 10
8.7958332837
 20
-15.1808510646
 11
8.8479167163
 21
-15.0744680986
  0
LINE
  5
75C
100
AcDbEntity
  8
0
100
AcDbLine
 62
7
  6
CONTINUOUS
 10
8.5875
 20
-16.6648936123
 11
8.6395832837
 21
-16.5585106462
  0
LINE
  5
75D
100
AcDbEntity
  8
0
100
AcDbLine
 62
7
  6
CONTINUOUS
 10
8.74375
 20
-16.6382978708
 11
8.7177082837
 21
-16.6914893538
  0
LINE
  5
75E
100
AcDbEntity
  8
0
100
AcDbLine
 62
7
  6
CONTINUOUS
 10
9.4208332837
 20
-15.2606382892
 11
9.446875
 21
-15.2074468061
  0
LINE
  5
75F
100
AcDbEntity
  8
0
100
AcDbLine
 62
7
  6
CONTINUOUS
 10
9.446875
 20
-15.3670212738
 11
9.4208332837
 21
-15.4202127662
  0
LINE
  5
760
100
AcDbEntity
  8
0
100
AcDbLine
 62
7
  6
CONTINUOUS
 10
9.8635415673
 20
-14.8617021293
 11
9.8895834327
 21
-14.8085106462
  0
LINE
  5
761
100
AcDbEntity
  8
0
100
AcDbLine
 62
7
  6
CONTINUOUS
 10
7.571875
 20
-16.2393616736
 11
7.5197916605
 21
-16.3191489726
  0
LWPOLYLINE
  5
762
100
AcDbEntity
  8
0
100
AcDbPolyline
 62
7
  6
CONTINUOUS
 90
23
 70
0
 10
0.9682928909
 20
-14.7772695768
 10
0.9684372489
 20
-14.7772067169
 10
0.9683542383
 20
-14.7772393929
 10
0.9675549847
 20
-14.7775428114
 10
0.9661531823
 20
-14.7780389049
 10
0.9641461874
 20
-14.7787035283
 10
0.9614994021
 20
-14.779525652
 10
0.9582877286
 20
-14.7804638964
 10
0.9545097905
 20
-14.7815050454
 10
0.9501356142
 20
-14.7826448814
 10
0.9451961604
 20
-14.7838645381
 10
0.9396805604
 20
-14.7851577758
 10
0.933569032
 20
-14.7865212833
 10
0.9268768703
 20
-14.787944833
 10
0.9195842815
 20
-14.7894266677
 10
0.9116830072
 20
-14.7909629012
 10
0.9032075135
 20
-14.7925422992
 10
0.8941474809
 20
-14.7941631071
 10
0.8844932098
 20
-14.7958236282
 10
0.8742866011
 20
-14.7975139446
 10
0.8635278758
 20
-14.7992320137
 10
0.8522065161
 20
-14.8009776537
 10
0.8403543654
 20
-14.8027444629
  0
LINE
  5
763
100
AcDbEntity
  8
0
100
AcDbLine
 62
7
  6
CONTINUOUS
 10
-4.929966528
 20
14.5514807842
 11
-5.0201408206
 21
14.5388671675
  0
LINE
  5
764
100
AcDbEntity
  8
0
100
AcDbLine
 62
7
  6
CONTINUOUS
 10
-5.1876073305
 20
13.7568198948
 11
-5.2262534843
 21
13.7568198948
  0
LINE
  5
765
100
AcDbEntity
  8
0
100
AcDbLine
 62
7
  6
CONTINUOUS
 10
-5.2262534843
 20
13.8325018842
 11
-5.1747252913
 21
13.8325018842
  0
LINE
  5
766
100
AcDbEntity
  8
0
100
AcDbLine
 62
7
  6
CONTINUOUS
 10
-5.0201408206
 20
14.5388671675
 11
-5.1103150952
 21
14.5388671675
  0
LINE
  5
767
100
AcDbEntity
  8
0
100
AcDbLine
 62
7
  6
CONTINUOUS
 10
-5.1103150952
 20
14.6019353958
 11
-5.0845510167
 21
14.6019353958
  0
LINE
  5
768
100
AcDbEntity
  8
0
100
AcDbLine
 62
7
  6
CONTINUOUS
 10
-4.9814946849
 20
14.6145491569
 11
-4.9428485672
 21
14.6145491569
  0
LINE
  5
769
100
AcDbEntity
  8
0
100
AcDbLine
 62
7
  6
CONTINUOUS
 10
-4.9428485672
 20
14.9298907316
 11
-4.9814946849
 21
14.9298907316
  0
LINE
  5
76A
100
AcDbEntity
  8
0
100
AcDbLine
 62
7
  6
CONTINUOUS
 10
-4.9943767422
 20
14.9929591043
 11
-4.929966528
 21
14.9929591043
  0
LINE
  5
76B
100
AcDbEntity
  8
0
100
AcDbLine
 62
7
  6
CONTINUOUS
 10
-6.2059593023
 20
15.0
 11
-5.9625
 21
15.0
  0
LINE
  5
76C
100
AcDbEntity
  8
0
100
AcDbLine
 62
7
  6
CONTINUOUS
 10
6.37
 20
15.0
 11
6.7825
 21
15.0
  0
LINE
  5
76D
100
AcDbEntity
  8
0
100
AcDbLine
 62
7
  6
CONTINUOUS
 10
8.7075
 20
15.0
 11
9.12
 21
15.0
  0
LINE
  5
76E
100
AcDbEntity
  8
0
100
AcDbLine
 62
7
  6
CONTINUOUS
 10
-5.0201408206
 20
15.0938683274
 11
-5.1103150952
 21
15.0938683274
  0
LINE
  5
76F
100
AcDbEntity
  8
0
100
AcDbLine
 62
7
  6
CONTINUOUS
 10
-5.1103150952
 20
15.1569367
 11
-5.0845510167
 21
15.1569367
  0
LINE
  5
770
100
AcDbEntity
  8
0
100
AcDbLine
 62
7
  6
CONTINUOUS
 10
-4.9814946849
 20
15.1695503168
 11
-4.9428485672
 21
15.1695503168
  0
LINE
  5
771
100
AcDbEntity
  8
0
100
AcDbLine
 62
7
  6
CONTINUOUS
 10
-6.4494186046
 20
15.4396802326
 11
-6.2059593023
 21
15.4396802326
  0
LINE
  5
772
100
AcDbEntity
  8
0
100
AcDbLine
 62
7
  6
CONTINUOUS
 10
-5.9625
 20
15.4396802326
 11
-5.7190406977
 21
15.4396802326
  0
LINE
  5
773
100
AcDbEntity
  8
0
100
AcDbLine
 62
7
  6
CONTINUOUS
 10
-4.9428485672
 20
15.4848918915
 11
-4.9814946849
 21
15.4848918915
  0
LINE
  5
774
100
AcDbEntity
  8
0
100
AcDbLine
 62
7
  6
CONTINUOUS
 10
-4.9943767422
 20
15.5479604086
 11
-4.929966528
 21
15.5479604086
  0
LINE
  5
775
100
AcDbEntity
  8
0
100
AcDbLine
 62
7
  6
CONTINUOUS
 10
-5.1103150952
 20
15.0938683274
 11
-5.2004893698
 21
15.1064820885
  0
LINE
  5
776
100
AcDbEntity
  8
0
100
AcDbLine
 62
7
  6
CONTINUOUS
 10
-5.1876073306
 20
15.1695503168
 11
-5.1103150952
 21
15.1569367
  0
LINE
  5
777
100
AcDbEntity
  8
0
100
AcDbLine
 62
7
  6
CONTINUOUS
 10
-5.1489612129
 20
16.8597814632
 11
-5.1876073305
 21
16.8723952244
  0
LINE
  5
778
100
AcDbEntity
  8
0
100
AcDbLine
 62
7
  6
CONTINUOUS
 10
-5.1747252913
 20
16.9480772139
 11
-5.1360791736
 21
16.9354634527
  0
LINE
  5
779
100
AcDbEntity
  8
0
100
AcDbLine
 62
253
  6
CONTINUOUS
 10
15.7875
 20
-9.15
 11
15.7875
 21
-10.0
  0
LINE
  5
77A
100
AcDbEntity
  8
0
100
AcDbLine
 62
7
  6
CONTINUOUS
 10
15.9375
 20
21.3930573436
 11
15.9375
 21
21.375
  0
LINE
  5
77B
100
AcDbEntity
  8
0
100
AcDbLine
 62
7
  6
CONTINUOUS
 10
16.7875
 20
21.375
 11
16.7875
 21
18.5211293438
  0
LINE
  5
77C
100
AcDbEntity
  8
0
100
AcDbLine
 62
7
  6
CONTINUOUS
 10
16.9375
 20
22.25
 11
16.9375
 21
9.89929792
  0
LINE
  5
77D
100
AcDbEntity
  8
0
100
AcDbLine
 62
7
  6
CONTINUOUS
 10
16.9375
 20
-22.25
 11
16.9375
 21
-10.85
  0
LINE
  5
77E
100
AcDbEntity
  8
0
100
AcDbLine
 62
253
  6
CONTINUOUS
 10
17.1875
 20
22.5
 11
17.1875
 21
10.05
  0
LINE
  5
77F
100
AcDbEntity
  8
0
100
AcDbLine
 62
253
  6
CONTINUOUS
 10
17.1875
 20
-10.6
 11
17.1875
 21
-22.5
  0
LINE
  5
780
100
AcDbEntity
  8
0
100
AcDbLine
 62
253
  6
CONTINUOUS
 10
15.5375
 20
-9.7201984777
 11
15.5396386339
 21
-9.687829186
  0
LWPOLYLINE
  5
781
100
AcDbEntity
  8
0
100
AcDbPolyline
 62
253
  6
CONTINUOUS
 90
12
 70
0
 10
15.5396386339
 20
-9.687829186
 10
15.5460181141
 20
-9.6560130791
 10
15.5565295384
 20
-9.6252945716
 10
15.5709934179
 20
-9.596199136
 10
15.5891624185
 20
-9.569224987
 10
15.6107253101
 20
-9.5448343759
 10
15.6353131384
 20
-9.5234446027
 10
15.6625050872
 20
-9.5054217162
 10
15.6918349302
 20
-9.4910744577
 10
15.7228003136
 20
-9.4806480282
 10
15.7548715904
 20
-9.4743202599
 10
15.7875
 20
-9.4721989998
  0
LINE
  5
782
100
AcDbEntity
  8
0
100
AcDbLine
 62
7
  6
CONTINUOUS
 10
11.55625
 20
-15.3138297908
 11
11.5822915673
 21
-15.2340425476
  0
LINE
  5
783
100
AcDbEntity
  8
0
100
AcDbLine
 62
7
  6
CONTINUOUS
 10
11.6083334327
 20
-16.9042553231
 11
11.5822915673
 21
-16.9840425476
  0
LINE
  5
784
100
AcDbEntity
  8
0
100
AcDbLine
 62
7
  6
CONTINUOUS
 10
10.540625
 20
-15.3404255323
 11
10.5145834327
 21
-15.3936170246
  0
LINE
  5
785
100
AcDbEntity
  8
0
100
AcDbLine
 62
7
  6
CONTINUOUS
 10
10.9052084327
 20
-14.9148936123
 11
10.9572915673
 21
-14.8085106462
  0
LINE
  5
786
100
AcDbEntity
  8
0
100
AcDbLine
 62
7
  6
CONTINUOUS
 10
11.0614584327
 20
-14.8882978708
 11
11.0354165673
 21
-14.9414893538
  0
LINE
  5
787
100
AcDbEntity
  8
0
100
AcDbLine
 62
7
  6
CONTINUOUS
 10
10.853125
 20
-16.5585106462
 11
10.8270834327
 21
-16.6117021292
  0
LINE
  5
788
100
AcDbEntity
  8
0
100
AcDbLine
 62
7
  6
CONTINUOUS
 10
10.0458334327
 20
-14.8351063877
 11
9.99375
 21
-14.9148936123
  0
LINE
  5
789
100
AcDbEntity
  8
0
100
AcDbLine
 62
7
  6
CONTINUOUS
 10
10.4885415673
 20
-15.2872340493
 11
10.540625
 21
-15.2074468061
  0
LINE
  5
78A
100
AcDbEntity
  8
0
100
AcDbLine
 62
7
  6
CONTINUOUS
 10
7.415625
 20
-16.1861701906
 11
7.5197916605
 21
-16.0797872245
  0
LINE
  5
78B
100
AcDbEntity
  8
0
100
AcDbLine
 62
7
  6
CONTINUOUS
 10
8.821875
 20
-14.7553191632
 11
8.8739582837
 21
-14.7021276802
  0
LINE
  5
78C
100
AcDbEntity
  8
0
100
AcDbLine
 62
7
  6
CONTINUOUS
 10
8.8479167163
 20
-15.0744680986
 11
8.9
 21
-15.0212765783
  0
LINE
  5
78D
100
AcDbEntity
  8
0
100
AcDbLine
 62
7
  6
CONTINUOUS
 10
9.0041667163
 20
-15.1010638401
 11
8.9520832837
 21
-15.1542553231
  0
LINE
  5
78E
100
AcDbEntity
  8
0
100
AcDbLine
 62
7
  6
CONTINUOUS
 10
9.3427082837
 20
-15.3404255323
 11
9.4208332837
 21
-15.2606382892
  0
LINE
  5
78F
100
AcDbEntity
  8
0
100
AcDbLine
 62
7
  6
CONTINUOUS
 10
9.8895834327
 20
-14.8085106462
 11
9.9677084327
 21
-14.7287234217
  0
LINE
  5
790
100
AcDbEntity
  8
0
100
AcDbLine
 62
7
  6
CONTINUOUS
 10
8.8739582837
 20
-14.7021276802
 11
8.9260417163
 21
-14.6755319387
  0
LINE
  5
791
100
AcDbEntity
  8
0
100
AcDbLine
 62
7
  6
CONTINUOUS
 10
9.0041667163
 20
-14.7819149047
 11
8.9520832837
 21
-14.8085106462
  0
LINE
  5
792
100
AcDbEntity
  8
0
100
AcDbLine
 62
7
  6
CONTINUOUS
 10
8.9
 20
-15.0212765783
 11
9.0041667163
 21
-14.9680850953
  0
LINE
  5
793
100
AcDbEntity
  8
0
100
AcDbLine
 62
7
  6
CONTINUOUS
 10
9.05625
 20
-15.0744680986
 11
9.0041667163
 21
-15.1010638401
  0
LINE
  5
794
100
AcDbEntity
  8
0
100
AcDbLine
 62
7
  6
CONTINUOUS
 10
11.0875
 20
-14.7021276802
 11
11.165625
 21
-14.6755319387
  0
LINE
  5
795
100
AcDbEntity
  8
0
100
AcDbLine
 62
7
  6
CONTINUOUS
 10
-4.929966528
 20
15.1064820885
 11
-5.0201408206
 21
15.0938683274
  0
LINE
  5
796
100
AcDbEntity
  8
0
100
AcDbLine
 62
7
  6
CONTINUOUS
 10
-4.9814946849
 20
15.6488696316
 11
-5.0459048991
 21
15.6488696316
  0
LINE
  5
797
100
AcDbEntity
  8
0
100
AcDbLine
 62
7
  6
CONTINUOUS
 10
-5.0459048991
 20
15.8254608442
 11
-4.9814946849
 21
15.8254608442
  0
LINE
  5
798
100
AcDbEntity
  8
0
100
AcDbLine
 62
7
  6
CONTINUOUS
 10
-4.7625
 20
15.9263703559
 11
-5.3679559158
 21
15.9263703559
  0
LINE
  5
799
100
AcDbEntity
  8
0
100
AcDbLine
 62
7
  6
CONTINUOUS
 10
-5.2906636804
 20
16.0020523454
 11
-5.1231971344
 21
16.0020523454
  0
LINE
  5
79A
100
AcDbEntity
  8
0
100
AcDbLine
 62
7
  6
CONTINUOUS
 10
-5.0459048991
 20
16.0020523454
 11
-4.7625
 21
16.0020523454
  0
LINE
  5
79B
100
AcDbEntity
  8
0
100
AcDbLine
 62
7
  6
CONTINUOUS
 10
-5.1231971344
 20
16.3300075369
 11
-5.0459048991
 21
16.3300075369
  0
LINE
  5
79C
100
AcDbEntity
  8
0
100
AcDbLine
 62
7
  6
CONTINUOUS
 10
-5.3679559158
 20
16.3804622928
 11
-5.2906636804
 21
16.3804622928
  0
LINE
  5
79D
100
AcDbEntity
  8
0
100
AcDbLine
 62
7
  6
CONTINUOUS
 10
-4.7625
 20
16.4813715159
 11
-5.3679559158
 21
16.4813715159
  0
LINE
  5
79E
100
AcDbEntity
  8
0
100
AcDbLine
 62
7
  6
CONTINUOUS
 10
-5.3035457197
 20
16.5570535053
 11
-5.1103150952
 21
16.5570535053
  0
LINE
  5
79F
100
AcDbEntity
  8
0
100
AcDbLine
 62
7
  6
CONTINUOUS
 10
-5.0330228598
 20
16.5570535053
 11
-4.7625
 21
16.5570535053
  0
LINE
  5
7A0
100
AcDbEntity
  8
0
100
AcDbLine
 62
7
  6
CONTINUOUS
 10
-5.1876073305
 20
16.8723952244
 11
-5.2262534843
 21
16.8723952244
  0
LINE
  5
7A1
100
AcDbEntity
  8
0
100
AcDbLine
 62
7
  6
CONTINUOUS
 10
-5.2262534843
 20
16.9480772139
 11
-5.1747252913
 21
16.9480772139
  0
LINE
  5
7A2
100
AcDbEntity
  8
0
100
AcDbLine
 62
7
  6
CONTINUOUS
 10
7.5375
 20
17.2
 11
7.9525
 21
17.2
  0
LINE
  5
7A3
100
AcDbEntity
  8
0
100
AcDbLine
 62
7
  6
CONTINUOUS
 10
6.37
 20
17.3375
 11
6.785
 21
17.3375
  0
LINE
  5
7A4
100
AcDbEntity
  8
0
100
AcDbLine
 62
7
  6
CONTINUOUS
 10
8.705
 20
17.3375
 11
9.12
 21
17.3375
  0
LINE
  5
7A5
100
AcDbEntity
  8
0
100
AcDbLine
 62
253
  6
CONTINUOUS
 10
17.7875
 20
-22.5
 11
17.7875
 21
22.5
  0
LINE
  5
7A6
100
AcDbEntity
  8
0
100
AcDbLine
 62
7
  6
CONTINUOUS
 10
18.0375
 20
-22.25
 11
18.0375
 21
22.25
  0
LINE
  5
7A7
100
AcDbEntity
  8
0
100
AcDbLine
 62
7
  6
CONTINUOUS
 10
13.5875
 20
-17.6755319014
 11
13.7958331347
 21
-17.1436170246
  0
LINE
  5
7A8
100
AcDbEntity
  8
0
100
AcDbLine
 62
7
  6
CONTINUOUS
 10
14.2645831347
 20
-16.3989361972
 11
13.74375
 21
-17.6755319014
  0
LINE
  5
7A9
100
AcDbEntity
  8
0
100
AcDbLine
 62
7
  6
CONTINUOUS
 10
13.8739581346
 20
-16.9574468061
 11
14.1083331347
 21
-16.3989361972
  0
LINE
  5
7AA
100
AcDbEntity
  8
0
100
AcDbLine
 62
7
  6
CONTINUOUS
 10
11.4520834327
 20
-16.5585106462
 11
11.478125
 21
-16.5053191632
  0
LINE
  5
7AB
100
AcDbEntity
  8
0
100
AcDbLine
 62
7
  6
CONTINUOUS
 10
11.6083334327
 20
-16.5585106462
 11
11.5822915673
 21
-16.6117021292
  0
LINE
  5
7AC
100
AcDbEntity
  8
0
100
AcDbLine
 62
7
  6
CONTINUOUS
 10
11.4520834327
 20
-16.9308510646
 11
11.5041665673
 21
-16.8244680986
  0
LINE
  5
7AD
100
AcDbEntity
  8
0
100
AcDbLine
 62
7
  6
CONTINUOUS
 10
12.0770834327
 20
-17.0106382892
 11
12.103125
 21
-16.9574468061
  0
LINE
  5
7AE
100
AcDbEntity
  8
0
100
AcDbLine
 62
7
  6
CONTINUOUS
 10
12.103125
 20
-17.1170212738
 11
12.0770834327
 21
-17.1702127662
  0
LINE
  5
7AF
100
AcDbEntity
  8
0
100
AcDbLine
 62
7
  6
CONTINUOUS
 10
9.8114582837
 20
-16.6117021292
 11
9.7333332837
 21
-16.7180850953
  0
LINE
  5
7B0
100
AcDbEntity
  8
0
100
AcDbLine
 62
7
  6
CONTINUOUS
 10
8.6395832837
 20
-16.5585106462
 11
8.6916667163
 21
-16.5053191632
  0
LINE
  5
7B1
100
AcDbEntity
  8
0
100
AcDbLine
 62
7
  6
CONTINUOUS
 10
8.821875
 20
-16.5585106462
 11
8.74375
 21
-16.6382978708
  0
LINE
  5
7B2
100
AcDbEntity
  8
0
100
AcDbLine
 62
7
  6
CONTINUOUS
 10
8.3270833582
 20
-17.0638297908
 11
8.2229166418
 21
-17.1702127662
  0
LINE
  5
7B3
100
AcDbEntity
  8
0
100
AcDbLine
 62
7
  6
CONTINUOUS
 10
10.9572915673
 20
-14.8085106462
 11
11.009375
 21
-14.7553191632
  0
LINE
  5
7B4
100
AcDbEntity
  8
0
100
AcDbLine
 62
7
  6
CONTINUOUS
 10
10.5145834327
 20
-15.3936170246
 11
10.4625
 21
-15.4468085123
  0
LINE
  5
7B5
100
AcDbEntity
  8
0
100
AcDbLine
 62
7
  6
CONTINUOUS
 10
11.1395834327
 20
-14.8085106462
 11
11.0614584327
 21
-14.8882978708
  0
LINE
  5
7B6
100
AcDbEntity
  8
0
100
AcDbLine
 62
7
  6
CONTINUOUS
 10
9.7333332837
 20
-16.5585106462
 11
9.7854167163
 21
-16.5053191632
  0
LINE
  5
7B7
100
AcDbEntity
  8
0
100
AcDbLine
 62
7
  6
CONTINUOUS
 10
9.36875
 20
-17.0904255323
 11
9.290625
 21
-17.1702127662
  0
LINE
  5
7B8
100
AcDbEntity
  8
0
100
AcDbLine
 62
7
  6
CONTINUOUS
 10
10.4104165673
 20
-16.4787234217
 11
10.4625
 21
-16.4255319387
  0
LINE
  5
7B9
100
AcDbEntity
  8
0
100
AcDbLine
 62
7
  6
CONTINUOUS
 10
10.4625
 20
-16.5319149047
 11
10.4104165673
 21
-16.5851063877
  0
LINE
  5
7BA
100
AcDbEntity
  8
0
100
AcDbLine
 62
7
  6
CONTINUOUS
 10
11.6864584327
 20
-15.3404255323
 11
11.6083334327
 21
-15.4202127662
  0
LINE
  5
7BB
100
AcDbEntity
  8
0
100
AcDbLine
 62
7
  6
CONTINUOUS
 10
10.8010415673
 20
-16.5053191632
 11
10.8791665673
 21
-16.4255319387
  0
LINE
  5
7BC
100
AcDbEntity
  8
0
100
AcDbLine
 62
7
  6
CONTINUOUS
 10
10.8791665673
 20
-16.5319149047
 11
10.853125
 21
-16.5585106462
  0
LINE
  5
7BD
100
AcDbEntity
  8
0
100
AcDbLine
 62
7
  6
CONTINUOUS
 10
7.65
 20
-16.1861701906
 11
7.571875
 21
-16.2393616736
  0
LINE
  5
7BE
100
AcDbEntity
  8
0
100
AcDbLine
 62
7
  6
CONTINUOUS
 10
9.9677084327
 20
-14.7287234217
 11
10.0458334327
 21
-14.6755319387
  0
LINE
  5
7BF
100
AcDbEntity
  8
0
100
AcDbLine
 62
7
  6
CONTINUOUS
 10
9.4208332837
 20
-15.4202127662
 11
9.3427082837
 21
-15.4734042562
  0
LINE
  5
7C0
100
AcDbEntity
  8
0
100
AcDbLine
 62
7
  6
CONTINUOUS
 10
11.009375
 20
-14.7553191632
 11
11.0875
 21
-14.7021276802
  0
LINE
  5
7C1
100
AcDbEntity
  8
0
100
AcDbLine
 62
7
  6
CONTINUOUS
 10
8.6916667163
 20
-16.5053191632
 11
8.7697917163
 21
-16.4521276802
  0
LINE
  5
7C2
100
AcDbEntity
  8
0
100
AcDbLine
 62
7
  6
CONTINUOUS
 10
10.4104165673
 20
-15.3404255323
 11
10.4885415673
 21
-15.2872340493
  0
LINE
  5
7C3
100
AcDbEntity
  8
0
100
AcDbLine
 62
7
  6
CONTINUOUS
 10
8.0927083582
 20
-17.0638297908
 11
8.1708333582
 21
-17.0106382892
  0
LINE
  5
7C4
100
AcDbEntity
  8
0
100
AcDbLine
 62
7
  6
CONTINUOUS
 10
9.7854167163
 20
-16.5053191632
 11
9.8635415673
 21
-16.4521276802
  0
LINE
  5
7C5
100
AcDbEntity
  8
0
100
AcDbLine
 62
7
  6
CONTINUOUS
 10
11.478125
 20
-15.3670212738
 11
11.55625
 21
-15.3138297908
  0
LINE
  5
7C6
100
AcDbEntity
  8
0
100
AcDbLine
 62
7
  6
CONTINUOUS
 10
9.1604167163
 20
-17.1170212738
 11
9.2385417163
 21
-17.0638297908
  0
LINE
  5
7C7
100
AcDbEntity
  8
0
100
AcDbLine
 62
7
  6
CONTINUOUS
 10
2.8875
 20
-19.6998511944
 11
2.4195017651
 21
-19.9700501013
  0
LINE
  5
7C8
100
AcDbEntity
  8
0
100
AcDbLine
 62
7
  6
CONTINUOUS
 10
7.5197916605
 20
-16.0797872245
 11
7.6239583395
 21
-16.0265957415
  0
LINE
  5
7C9
100
AcDbEntity
  8
0
100
AcDbLine
 62
7
  6
CONTINUOUS
 10
10.15
 20
-14.7819149047
 11
10.0458334327
 21
-14.8351063877
  0
LINE
  5
7CA
100
AcDbEntity
  8
0
100
AcDbLine
 62
7
  6
CONTINUOUS
 10
11.1916665673
 20
-14.7819149047
 11
11.1395834327
 21
-14.8085106462
  0
LINE
  5
7CB
100
AcDbEntity
  8
0
100
AcDbLine
 62
7
  6
CONTINUOUS
 10
10.4625
 20
-15.4468085123
 11
10.4104165673
 21
-15.4734042562
  0
LINE
  5
7CC
100
AcDbEntity
  8
0
100
AcDbLine
 62
7
  6
CONTINUOUS
 10
8.8739582837
 20
-16.5319149047
 11
8.821875
 21
-16.5585106462
  0
LINE
  5
7CD
100
AcDbEntity
  8
0
100
AcDbLine
 62
7
  6
CONTINUOUS
 10
11.6083334327
 20
-15.4202127662
 11
11.5041665673
 21
-15.4734042562
  0
LINE
  5
7CE
100
AcDbEntity
  8
0
100
AcDbLine
 62
7
  6
CONTINUOUS
 10
8.2229166418
 20
-17.1702127662
 11
8.11875
 21
-17.2234042562
  0
LINE
  5
7CF
100
AcDbEntity
  8
0
100
AcDbLine
 62
7
  6
CONTINUOUS
 10
9.915625
 20
-16.5585106462
 11
9.8114582837
 21
-16.6117021292
  0
LINE
  5
7D0
100
AcDbEntity
  8
0
100
AcDbLine
 62
7
  6
CONTINUOUS
 10
9.2125
 20
-15.3936170246
 11
9.3427082837
 21
-15.3404255323
  0
LINE
  5
7D1
100
AcDbEntity
  8
0
100
AcDbLine
 62
7
  6
CONTINUOUS
 10
8.7697917163
 20
-16.4521276802
 11
8.8479167163
 21
-16.4255319387
  0
LINE
  5
7D2
100
AcDbEntity
  8
0
100
AcDbLine
 62
7
  6
CONTINUOUS
 10
9.8635415673
 20
-16.4521276802
 11
9.9416665673
 21
-16.4255319387
  0
LINE
  5
7D3
100
AcDbEntity
  8
0
100
AcDbLine
 62
7
  6
CONTINUOUS
 10
10.4625
 20
-16.4255319387
 11
10.540625
 21
-16.3989361972
  0
LINE
  5
7D4
100
AcDbEntity
  8
0
100
AcDbLine
 62
7
  6
CONTINUOUS
 10
10.540625
 20
-16.5053191632
 11
10.4625
 21
-16.5319149047
  0
LINE
  5
7D5
100
AcDbEntity
  8
0
100
AcDbLine
 62
7
  6
CONTINUOUS
 10
10.8791665673
 20
-16.4255319387
 11
10.9572915673
 21
-16.3989361972
  0
LINE
  5
7D6
100
AcDbEntity
  8
0
100
AcDbLine
 62
7
  6
CONTINUOUS
 10
16.6875
 20
18.5
 11
15.6875
 21
18.5
  0
LINE
  5
7D7
100
AcDbEntity
  8
0
100
AcDbLine
 62
7
  6
CONTINUOUS
 10
-15.6125
 20
18.5
 11
-16.6125
 21
18.5
  0
LINE
  5
7D8
100
AcDbEntity
  8
0
100
AcDbLine
 62
7
  6
CONTINUOUS
 10
16.9163706562
 20
18.65
 11
16.7875
 21
18.65
  0
LINE
  5
7D9
100
AcDbEntity
  8
0
100
AcDbLine
 62
7
  6
CONTINUOUS
 10
-16.7125
 20
18.65
 11
-16.8413706562
 21
18.65
  0
LWPOLYLINE
  5
7DA
100
AcDbEntity
  8
0
100
AcDbPolyline
 62
7
  6
CONTINUOUS
 90
4
 70
0
 10
16.9375
 20
9.89929792
 10
16.9387900335
 20
9.8963020877
 10
16.9420961428
 20
9.8908040814
 10
16.9474183277
 20
9.8826686446
  0
LWPOLYLINE
  5
7DB
100
AcDbEntity
  8
0
100
AcDbPolyline
 62
7
  6
CONTINUOUS
 90
5
 70
0
 10
16.9375
 20
-10.85
 10
16.9387932511
 20
-10.8485894495
 10
16.9426563185
 20
-10.8447413035
 10
16.9490443727
 20
-10.8384555619
 10
16.9690459859
 20
-10.8184020837
  0
LINE
  5
7DC
100
AcDbEntity
  8
0
100
AcDbLine
 62
7
  6
CONTINUOUS
 10
11.478125
 20
-16.5053191632
 11
11.5302084327
 21
-16.4521276802
  0
LINE
  5
7DD
100
AcDbEntity
  8
0
100
AcDbLine
 62
7
  6
CONTINUOUS
 10
11.5041665673
 20
-16.8244680986
 11
11.55625
 21
-16.7712765783
  0
LINE
  5
7DE
100
AcDbEntity
  8
0
100
AcDbLine
 62
7
  6
CONTINUOUS
 10
13.6395831347
 20
-14.7819149047
 11
13.6916668654
 21
-14.7287234217
  0
LINE
  5
7DF
100
AcDbEntity
  8
0
100
AcDbLine
 62
7
  6
CONTINUOUS
 10
11.6604165673
 20
-16.8510638401
 11
11.6083334327
 21
-16.9042553231
  0
LINE
  5
7E0
100
AcDbEntity
  8
0
100
AcDbLine
 62
7
  6
CONTINUOUS
 10
13.6916668653
 20
-14.8351063877
 11
13.6395831347
 21
-14.8882978708
  0
LINE
  5
7E1
100
AcDbEntity
  8
0
100
AcDbLine
 62
7
  6
CONTINUOUS
 10
11.9989584327
 20
-17.0904255323
 11
12.0770834327
 21
-17.0106382892
  0
LINE
  5
7E2
100
AcDbEntity
  8
0
100
AcDbLine
 62
7
  6
CONTINUOUS
 10
12.6239581347
 20
-16.5319149047
 11
12.6760418654
 21
-16.4787234217
  0
LINE
  5
7E3
100
AcDbEntity
  8
0
100
AcDbLine
 62
7
  6
CONTINUOUS
 10
12.6760418653
 20
-16.5851063877
 11
12.6239581347
 21
-16.6382978708
  0
LWPOLYLINE
  5
7E4
100
AcDbEntity
  8
0
100
AcDbPolyline
 62
7
  6
CONTINUOUS
 90
3
 70
0
 10
17.0159119507
 20
-10.771517988
 10
17.0356639191
 20
-10.7518359213
 10
17.0806362939
 20
-10.7067468291
  0
LWPOLYLINE
  5
7E5
100
AcDbEntity
  8
0
100
AcDbPolyline
 62
7
  6
CONTINUOUS
 90
3
 70
0
 10
16.9690459859
 20
-10.8184020837
 10
16.9825269864
 20
-10.804972764
 10
17.0159119507
 20
-10.771517988
  0
LWPOLYLINE
  5
7E6
100
AcDbEntity
  8
0
100
AcDbPolyline
 62
7
  6
CONTINUOUS
 90
5
 70
0
 10
17.0806362939
 20
-10.7067468291
 10
17.1055658829
 20
-10.6819339933
 10
17.1318983374
 20
-10.6559595583
 10
17.1593150469
 20
-10.6286482272
 10
17.1875
 20
-10.6
  0
LINE
  5
7E7
100
AcDbEntity
  8
0
100
AcDbLine
 62
7
  6
CONTINUOUS
 10
13.6916668654
 20
-14.7287234217
 11
13.7697918654
 21
-14.6755319387
  0
LINE
  5
7E8
100
AcDbEntity
  8
0
100
AcDbLine
 62
7
  6
CONTINUOUS
 10
13.7697918653
 20
-14.7819149047
 11
13.6916668653
 21
-14.8351063877
  0
LINE
  5
7E9
100
AcDbEntity
  8
0
100
AcDbLine
 62
7
  6
CONTINUOUS
 10
12.6760418654
 20
-16.4787234217
 11
12.7541668654
 21
-16.4255319387
  0
LINE
  5
7EA
100
AcDbEntity
  8
0
100
AcDbLine
 62
7
  6
CONTINUOUS
 10
12.7541668653
 20
-16.5319149047
 11
12.6760418653
 21
-16.5851063877
  0
LINE
  5
7EB
100
AcDbEntity
  8
0
100
AcDbLine
 62
7
  6
CONTINUOUS
 10
12.0770834327
 20
-17.1702127662
 11
11.9989584327
 21
-17.2234042562
  0
LINE
  5
7EC
100
AcDbEntity
  8
0
100
AcDbLine
 62
7
  6
CONTINUOUS
 10
9.290625
 20
-17.1702127662
 11
9.1864582837
 21
-17.2234042562
  0
LINE
  5
7ED
100
AcDbEntity
  8
0
100
AcDbLine
 62
7
  6
CONTINUOUS
 10
10.93125
 20
-16.5053191632
 11
10.8791665673
 21
-16.5319149047
  0
LINE
  5
7EE
100
AcDbEntity
  8
0
100
AcDbLine
 62
7
  6
CONTINUOUS
 10
11.5302084327
 20
-16.4521276802
 11
11.5822915673
 21
-16.4255319387
  0
LINE
  5
7EF
100
AcDbEntity
  8
0
100
AcDbLine
 62
7
  6
CONTINUOUS
 10
11.6604165673
 20
-16.5319149047
 11
11.6083334327
 21
-16.5585106462
  0
LINE
  5
7F0
100
AcDbEntity
  8
0
100
AcDbLine
 62
7
  6
CONTINUOUS
 10
11.55625
 20
-16.7712765783
 11
11.6604165673
 21
-16.7180850953
  0
LINE
  5
7F1
100
AcDbEntity
  8
0
100
AcDbLine
 62
7
  6
CONTINUOUS
 10
11.7125
 20
-16.8244680986
 11
11.6604165673
 21
-16.8510638401
  0
LINE
  5
7F2
100
AcDbEntity
  8
0
100
AcDbLine
 62
7
  6
CONTINUOUS
 10
11.86875
 20
-17.1436170246
 11
11.9989584327
 21
-17.0904255323
  0
LINE
  5
7F3
100
AcDbEntity
  8
0
100
AcDbLine
 62
7
  6
CONTINUOUS
 10
-16.8625
 20
19.5
 11
-16.7125
 21
19.5
  0
LINE
  5
7F4
100
AcDbEntity
  8
0
100
AcDbLine
 62
7
  6
CONTINUOUS
 10
16.9375
 20
19.5
 11
16.7875
 21
19.5
  0
LINE
  5
7F5
100
AcDbEntity
  8
0
100
AcDbLine
 62
7
  6
CONTINUOUS
 10
-16.8625
 20
19.6
 11
-16.7125
 21
19.6
  0
LINE
  5
7F6
100
AcDbEntity
  8
0
100
AcDbLine
 62
7
  6
CONTINUOUS
 10
16.7875
 20
19.6
 11
16.9375
 21
19.6
  0
LINE
  5
7F7
100
AcDbEntity
  8
0
100
AcDbLine
 62
7
  6
CONTINUOUS
 10
-16.7125
 20
21.375
 11
-16.4655862024
 21
21.375
  0
LINE
  5
7F8
100
AcDbEntity
  8
0
100
AcDbLine
 62
7
  6
CONTINUOUS
 10
-16.1094137976
 20
21.375
 11
-15.5047286323
 21
21.375
  0
LINE
  5
7F9
100
AcDbEntity
  8
0
100
AcDbLine
 62
7
  6
CONTINUOUS
 10
15.5797286323
 20
21.375
 11
16.1844137976
 21
21.375
  0
LINE
  5
7FA
100
AcDbEntity
  8
0
100
AcDbLine
 62
7
  6
CONTINUOUS
 10
16.5405862024
 20
21.375
 11
16.7875
 21
21.375
  0
LINE
  5
7FB
100
AcDbEntity
  8
0
100
AcDbLine
 62
7
  6
CONTINUOUS
 10
15.9375
 20
21.3930573436
 11
16.1679004044
 21
21.3930573436
  0
LINE
  5
7FC
100
AcDbEntity
  8
0
100
AcDbLine
 62
7
  6
CONTINUOUS
 10
-15.8625
 20
21.3930573436
 11
-16.0929004044
 21
21.3930573436
  0
LINE
  5
7FD
100
AcDbEntity
  8
0
100
AcDbLine
 62
7
  6
CONTINUOUS
 10
16.5570995956
 20
21.3930573436
 11
16.7430223058
 21
21.3930573436
  0
LINE
  5
7FE
100
AcDbEntity
  8
0
100
AcDbLine
 62
7
  6
CONTINUOUS
 10
-16.4820995956
 20
21.3930573436
 11
-16.6680223058
 21
21.3930573436
  0
LINE
  5
7FF
100
AcDbEntity
  8
0
100
AcDbLine
 62
7
  6
CONTINUOUS
 10
-16.6125
 20
21.4
 11
-16.4875
 21
21.4
  0
LINE
  5
800
100
AcDbEntity
  8
0
100
AcDbLine
 62
7
  6
CONTINUOUS
 10
-16.0875
 20
21.4
 11
-15.6125
 21
21.4
  0
LINE
  5
801
100
AcDbEntity
  8
0
100
AcDbLine
 62
7
  6
CONTINUOUS
 10
15.6875
 20
21.4
 11
16.1625
 21
21.4
  0
LINE
  5
802
100
AcDbEntity
  8
0
100
AcDbLine
 62
7
  6
CONTINUOUS
 10
16.5625
 20
21.4
 11
16.6875
 21
21.4
  0
LWPOLYLINE
  5
803
100
AcDbEntity
  8
0
100
AcDbPolyline
 62
7
  6
CONTINUOUS
 90
13
 70
0
 10
18.0375
 20
10.0325182969
 10
18.0353553336
 20
10.0347428214
 10
18.0289604403
 20
10.0370008667
 10
18.0184283931
 20
10.0392159031
 10
18.0039436491
 20
10.0412823915
 10
17.985757082
 20
10.043162412
 10
17.9641801259
 20
10.0448867162
 10
17.9395807301
 20
10.0464081029
 10
17.91238324
 20
10.0476642088
 10
17.8830600159
 20
10.0486739811
 10
17.8521164101
 20
10.0494243028
 10
17.820080512
 20
10.0498702191
 10
17.1875
 20
10.05
  0
LWPOLYLINE
  5
804
100
AcDbEntity
  8
0
100
AcDbPolyline
 62
7
  6
CONTINUOUS
 90
12
 70
0
 10
16.9474183277
 20
9.8826686446
 10
16.9651228322
 20
9.8576671748
 10
16.9754813369
 20
9.8415913216
 10
16.9863766038
 20
9.8240427858
 10
16.9977700853
 20
9.8050643228
 10
17.0080282781
 20
9.7847577991
 10
17.0170601914
 20
9.7632560488
 10
17.024956816
 20
9.7409206216
 10
17.0303576208
 20
9.7181670847
 10
17.0328090956
 20
9.69530486
 10
17.0327647506
 20
9.6725122526
 10
17.0302245859
 20
9.65
  0
LWPOLYLINE
  5
805
100
AcDbEntity
  8
0
100
AcDbPolyline
 62
253
  6
CONTINUOUS
 90
13
 70
0
 10
17.1875
 20
22.0695865506
 10
17.1548684519
 20
22.0692888893
 10
17.1227952387
 20
22.0684009985
 10
17.0918291419
 20
22.0669380702
 10
17.0625
 20
22.0649251356
 10
17.0353096427
 20
22.0623966365
 10
17.0107233047
 20
22.0593958362
 10
16.9891616649
 20
22.0559740793
 10
16.9709936491
 20
22.052189913
 10
16.9565301169
 20
22.0481080853
 10
16.9460185434
 20
22.0437984376
 10
16.9396387847
 20
22.0393347091
 10
16.9375
 20
22.0347932753
  0
LWPOLYLINE
  5
806
100
AcDbEntity
  8
0
100
AcDbPolyline
 62
253
  6
CONTINUOUS
 90
13
 70
0
 10
-17.7125
 20
22.0695865506
 10
-17.7451315481
 20
22.0692888893
 10
-17.7772047613
 20
22.0684009985
 10
-17.8081708581
 20
22.0669380702
 10
-17.8375
 20
22.0649251356
 10
-17.8646903573
 20
22.0623966365
 10
-17.8892766953
 20
22.0593958362
 10
-17.9108383351
 20
22.0559740793
 10
-17.9290063509
 20
22.052189913
 10
-17.9434698831
 20
22.0481080853
 10
-17.9539814566
 20
22.0437984376
 10
-17.9603612153
 20
22.0393347091
 10
-17.9625
 20
22.0347932753
  0
LINE
  5
807
100
AcDbEntity
  8
0
100
AcDbLine
 62
253
  6
CONTINUOUS
 10
12.7875
 20
21.5
 11
-12.7125
 21
21.5
  0
LINE
  5
808
100
AcDbEntity
  8
0
100
AcDbLine
 62
7
  6
CONTINUOUS
 10
-12.4625
 20
21.75
 11
12.5375
 21
21.75
  0
LINE
  5
809
100
AcDbEntity
  8
0
100
AcDbLine
 62
253
  6
CONTINUOUS
 10
17.7875
 20
22.0695865505
 11
17.1875
 21
22.0695865505
  0
LINE
  5
80A
100
AcDbEntity
  8
0
100
AcDbLine
 62
253
  6
CONTINUOUS
 10
-17.1125
 20
22.0695865505
 11
-17.7125
 21
22.0695865505
  0
LINE
  5
80B
100
AcDbEntity
  8
0
100
AcDbLine
 62
253
  6
CONTINUOUS
 10
16.9375
 20
22.25
 11
-16.8625
 21
22.25
  0
LINE
  5
80C
100
AcDbEntity
  8
0
100
AcDbLine
 62
7
  6
CONTINUOUS
 10
-17.7125
 20
22.5
 11
17.7875
 21
22.5
  0
LWPOLYLINE
  5
80D
100
AcDbEntity
  8
0
100
AcDbPolyline
 62
7
  6
CONTINUOUS
 90
5
 70
0
 10
12.5375
 20
21.75
 10
12.5391344225
 20
21.7486518601
 10
12.5430369051
 20
21.7446982018
 10
12.5492074476
 20
21.7382925778
 10
12.5575695837
 20
21.7297462349
  0
LINE
  5
80E
100
AcDbEntity
  8
0
100
AcDbLine
 62
7
  6
CONTINUOUS
 10
12.7567899162
 20
21.5303641478
 11
12.7875
 21
21.5
  0
LWPOLYLINE
  5
80F
100
AcDbEntity
  8
0
100
AcDbPolyline
 62
7
  6
CONTINUOUS
 90
3
 70
0
 10
12.5575695837
 20
21.7297462349
 10
12.6160496894
 20
21.6717192996
 10
12.6563489495
 20
21.6309495722
  0
LWPOLYLINE
  5
810
100
AcDbEntity
  8
0
100
AcDbPolyline
 62
7
  6
CONTINUOUS
 90
3
 70
0
 10
12.6563489495
 20
21.6309495722
 10
12.7019067603
 20
21.5855938759
 10
12.7567899162
 20
21.5303641478
  0
LWPOLYLINE
  5
811
100
AcDbEntity
  8
0
100
AcDbPolyline
 62
253
  6
CONTINUOUS
 90
13
 70
0
 10
18.0375
 20
22.0347932754
 10
18.0353989225
 20
22.0392946684
 10
18.0291663592
 20
22.0437018442
 10
18.0189583086
 20
22.0479427778
 10
18.0050783793
 20
22.0519288974
 10
17.9877545924
 20
22.0556219136
 10
17.9669501045
 20
22.0590180557
 10
17.9427232897
 20
22.0620675568
 10
17.9155217613
 20
22.0646783871
 10
17.8858738065
 20
22.0667796609
 10
17.8543115044
 20
22.0683210612
 10
17.8213268756
 20
22.0692665796
 10
17.7875
 20
22.0695865506
  0
ARC
  5
812
100
AcDbEntity
  8
0
100
AcDbCircle
 62
7
  6
CONTINUOUS
 10
-1.4625
 20
-19.5
 40
1.0
100
AcDbArc
 50
180.0
 51
270.0
  0
ARC
  5
813
100
AcDbEntity
  8
0
100
AcDbCircle
 62
7
  6
CONTINUOUS
 10
-4.8625
 20
-22.25
 40
0.25
100
AcDbArc
 50
270.0
 51
360.0
  0
ARC
  5
814
100
AcDbEntity
  8
0
100
AcDbCircle
 62
7
  6
CONTINUOUS
 10
-7.9625
 20
-22.25
 40
0.25
100
AcDbArc
 50
180.0
 51
270.0
  0
ARC
  5
815
100
AcDbEntity
  8
0
100
AcDbCircle
 62
7
  6
CONTINUOUS
 10
-10.9625
 20
-22.25
 40
0.25
100
AcDbArc
 50
270.0
 51
360.0
  0
ARC
  5
816
100
AcDbEntity
  8
0
100
AcDbCircle
 62
7
  6
CONTINUOUS
 10
-17.1125
 20
-22.25
 40
0.25
100
AcDbArc
 50
270.0
 51
360.0
  0
ARC
  5
817
100
AcDbEntity
  8
0
100
AcDbCircle
 62
7
  6
CONTINUOUS
 10
-17.7125
 20
-22.25
 40
0.25
100
AcDbArc
 50
180.0
 51
270.0
  0
ARC
  5
818
100
AcDbEntity
  8
0
100
AcDbCircle
 62
7
  6
CONTINUOUS
 10
-15.7125
 20
-9.4
 40
0.25
100
AcDbArc
 50
0.0
 51
90.0
  0
ARC
  5
819
100
AcDbEntity
  8
0
100
AcDbCircle
 62
7
  6
CONTINUOUS
 10
-17.7125
 20
-9.4
 40
0.25
100
AcDbArc
 50
90.0
 51
180.0
  0
ARC
  5
81A
100
AcDbEntity
  8
0
100
AcDbCircle
 62
7
  6
CONTINUOUS
 10
-6.4985806183
 20
16.0663191246
 40
0.5360806183
100
AcDbArc
 50
0.0000000013
 51
123.6900675288
  0
ARC
  5
81B
100
AcDbEntity
  8
0
100
AcDbCircle
 62
7
  6
CONTINUOUS
 10
-7.9264193817
 20
15.1144266156
 40
0.5360806183
100
AcDbArc
 50
123.6900675297
 51
236.3099324741
  0
ARC
  5
81C
100
AcDbEntity
  8
0
100
AcDbCircle
 62
7
  6
CONTINUOUS
 10
-6.4985806183
 20
14.1625341066
 40
0.5360806183
100
AcDbArc
 50
236.3099324698
 51
359.9999999987
  0
ARC
  5
81D
100
AcDbEntity
  8
0
100
AcDbCircle
 62
7
  6
CONTINUOUS
 10
-6.4985806183
 20
16.0663191246
 40
0.2926213159
100
AcDbArc
 50
0.0000000015
 51
123.6900675327
  0
ARC
  5
81E
100
AcDbEntity
  8
0
100
AcDbCircle
 62
7
  6
CONTINUOUS
 10
-7.9264193817
 20
15.1144266156
 40
0.2926213159
100
AcDbArc
 50
123.809312013
 51
236.309932476
  0
ARC
  5
81F
100
AcDbEntity
  8
0
100
AcDbCircle
 62
7
  6
CONTINUOUS
 10
-6.4985806183
 20
14.1625341066
 40
0.2926213159
100
AcDbArc
 50
236.3099324728
 51
359.9999999985
  0
ARC
  5
820
100
AcDbEntity
  8
0
100
AcDbCircle
 62
7
  6
CONTINUOUS
 10
-15.6125
 20
18.75
 40
0.25
100
AcDbArc
 50
270.0
 51
360.0
  0
ARC
  5
821
100
AcDbEntity
  8
0
100
AcDbCircle
 62
7
  6
CONTINUOUS
 10
-15.6125
 20
21.15
 40
0.25
100
AcDbArc
 50
0.0
 51
90.0
  0
ARC
  5
822
100
AcDbEntity
  8
0
100
AcDbCircle
 62
7
  6
CONTINUOUS
 10
-16.2875
 20
21.55
 40
0.25
100
AcDbArc
 50
216.8698976458
 51
323.1301023542
  0
ARC
  5
823
100
AcDbEntity
  8
0
100
AcDbCircle
 62
7
  6
CONTINUOUS
 10
-16.6125
 20
21.15
 40
0.25
100
AcDbArc
 50
90.0
 51
180.0
  0
ARC
  5
824
100
AcDbEntity
  8
0
100
AcDbCircle
 62
7
  6
CONTINUOUS
 10
-16.6125
 20
18.75
 40
0.25
100
AcDbArc
 50
180.0
 51
270.0
  0
ARC
  5
825
100
AcDbEntity
  8
0
100
AcDbCircle
 62
7
  6
CONTINUOUS
 10
-17.0125
 20
19.075
 40
0.25
100
AcDbArc
 50
306.8698976458
 51
53.1301023542
  0
ARC
  5
826
100
AcDbEntity
  8
0
100
AcDbCircle
 62
7
  6
CONTINUOUS
 10
-17.7125
 20
7.8
 40
0.25
100
AcDbArc
 50
180.0
 51
270.0
  0
ARC
  5
827
100
AcDbEntity
  8
0
100
AcDbCircle
 62
7
  6
CONTINUOUS
 10
-17.7125
 20
22.25
 40
0.25
100
AcDbArc
 50
90.0
 51
180.0
  0
ARC
  5
828
100
AcDbEntity
  8
0
100
AcDbCircle
 62
7
  6
CONTINUOUS
 10
-17.1125
 20
22.25
 40
0.25
100
AcDbArc
 50
0.0
 51
90.0000000007
  0
ARC
  5
829
100
AcDbEntity
  8
0
100
AcDbCircle
 62
7
  6
CONTINUOUS
 10
-12.7125
 20
22.25
 40
0.25
100
AcDbArc
 50
0.0
 51
90.0
  0
ARC
  5
82A
100
AcDbEntity
  8
0
100
AcDbCircle
 62
7
  6
CONTINUOUS
 10
1.5375
 20
-19.5
 40
1.0
100
AcDbArc
 50
270.0
 51
360.0
  0
ARC
  5
82B
100
AcDbEntity
  8
0
100
AcDbCircle
 62
7
  6
CONTINUOUS
 10
0.0375
 20
-15.165
 40
0.5
100
AcDbArc
 50
0.0
 51
8.8365521945
  0
ARC
  5
82C
100
AcDbEntity
  8
0
100
AcDbCircle
 62
7
  6
CONTINUOUS
 10
0.0375
 20
-15.165
 40
0.5
100
AcDbArc
 50
39.3917343113
 51
149.9869776856
  0
ARC
  5
82D
100
AcDbEntity
  8
0
100
AcDbCircle
 62
7
  6
CONTINUOUS
 10
0.0375
 20
-11.415
 40
0.5
100
AcDbArc
 50
210.0124805689
 51
252.5229334797
  0
ARC
  5
82E
100
AcDbEntity
  8
0
100
AcDbCircle
 62
7
  6
CONTINUOUS
 10
0.0375
 20
-11.415
 40
0.5
100
AcDbArc
 50
180.0
 51
180.665268661
  0
ARC
  5
82F
100
AcDbEntity
  8
0
100
AcDbCircle
 62
7
  6
CONTINUOUS
 10
0.0375
 20
-11.415
 40
0.5
100
AcDbArc
 50
296.6294888519
 51
339.4173171078
  0
ARC
  5
830
100
AcDbEntity
  8
0
100
AcDbCircle
 62
7
  6
CONTINUOUS
 10
17.7875
 20
-9.4
 40
0.25
100
AcDbArc
 50
0.0
 51
90.0
  0
ARC
  5
831
100
AcDbEntity
  8
0
100
AcDbCircle
 62
7
  6
CONTINUOUS
 10
17.7875
 20
-22.25
 40
0.25
100
AcDbArc
 50
270.0
 51
360.0
  0
ARC
  5
832
100
AcDbEntity
  8
0
100
AcDbCircle
 62
7
  6
CONTINUOUS
 10
14.1875
 20
-22.25
 40
0.25
100
AcDbArc
 50
270.0
 51
360.0
  0
ARC
  5
833
100
AcDbEntity
  8
0
100
AcDbCircle
 62
7
  6
CONTINUOUS
 10
4.9375
 20
-22.25
 40
0.25
100
AcDbArc
 50
180.0
 51
270.0
  0
ARC
  5
834
100
AcDbEntity
  8
0
100
AcDbCircle
 62
7
  6
CONTINUOUS
 10
17.1875
 20
-22.25
 40
0.25
100
AcDbArc
 50
180.0
 51
270.0
  0
ARC
  5
835
100
AcDbEntity
  8
0
100
AcDbCircle
 62
7
  6
CONTINUOUS
 10
15.7875
 20
-9.4
 40
0.25
100
AcDbArc
 50
90.0
 51
180.0
  0
ARC
  5
836
100
AcDbEntity
  8
0
100
AcDbCircle
 62
7
  6
CONTINUOUS
 10
7.745
 20
17.3375
 40
1.375
100
AcDbArc
 50
180.0
 51
360.0
  0
ARC
  5
837
100
AcDbEntity
  8
0
100
AcDbCircle
 62
7
  6
CONTINUOUS
 10
7.745
 20
15.0
 40
1.375
100
AcDbArc
 50
180.0
 51
360.0
  0
ARC
  5
838
100
AcDbEntity
  8
0
100
AcDbCircle
 62
7
  6
CONTINUOUS
 10
7.745
 20
15.0
 40
0.9625
100
AcDbArc
 50
180.0
 51
360.0
  0
ARC
  5
839
100
AcDbEntity
  8
0
100
AcDbCircle
 62
7
  6
CONTINUOUS
 10
7.745
 20
17.3375
 40
0.96
100
AcDbArc
 50
282.4827595038
 51
360.0
  0
ARC
  5
83A
100
AcDbEntity
  8
0
100
AcDbCircle
 62
7
  6
CONTINUOUS
 10
7.745
 20
17.3375
 40
0.96
100
AcDbArc
 50
180.0
 51
257.5172404962
  0
ARC
  5
83B
100
AcDbEntity
  8
0
100
AcDbCircle
 62
7
  6
CONTINUOUS
 10
16.6875
 20
21.15
 40
0.25
100
AcDbArc
 50
0.0
 51
90.0
  0
ARC
  5
83C
100
AcDbEntity
  8
0
100
AcDbCircle
 62
7
  6
CONTINUOUS
 10
16.3625
 20
21.55
 40
0.25
100
AcDbArc
 50
216.8698976458
 51
323.1301023542
  0
ARC
  5
83D
100
AcDbEntity
  8
0
100
AcDbCircle
 62
7
  6
CONTINUOUS
 10
15.6875
 20
21.15
 40
0.25
100
AcDbArc
 50
90.0
 51
180.0
  0
ARC
  5
83E
100
AcDbEntity
  8
0
100
AcDbCircle
 62
7
  6
CONTINUOUS
 10
15.6875
 20
18.75
 40
0.25
100
AcDbArc
 50
180.0
 51
270.0
  0
ARC
  5
83F
100
AcDbEntity
  8
0
100
AcDbCircle
 62
7
  6
CONTINUOUS
 10
16.6875
 20
18.75
 40
0.25
100
AcDbArc
 50
270.0
 51
360.0
  0
ARC
  5
840
100
AcDbEntity
  8
0
100
AcDbCircle
 62
7
  6
CONTINUOUS
 10
17.0875
 20
19.075
 40
0.25
100
AcDbArc
 50
126.8698976458
 51
233.1301023542
  0
ARC
  5
841
100
AcDbEntity
  8
0
100
AcDbCircle
 62
7
  6
CONTINUOUS
 10
17.1875
 20
22.25
 40
0.25
100
AcDbArc
 50
90.0
 51
180.0
  0
ARC
  5
842
100
AcDbEntity
  8
0
100
AcDbCircle
 62
7
  6
CONTINUOUS
 10
17.7875
 20
22.25
 40
0.25
100
AcDbArc
 50
0.0
 51
90.0000000006
  0
ARC
  5
843
100
AcDbEntity
  8
0
100
AcDbCircle
 62
7
  6
CONTINUOUS
 10
17.7875
 20
7.8
 40
0.25
100
AcDbArc
 50
270.0
 51
360.0
  0
ARC
  5
844
100
AcDbEntity
  8
0
100
AcDbCircle
 62
7
  6
CONTINUOUS
 10
12.7875
 20
22.25
 40
0.25
100
AcDbArc
 50
90.0
 51
180.0
  0
ELLIPSE
  5
845
100
AcDbEntity
  8
0
100
AcDbEllipse
 62
7
  6
CONTINUOUS
 10
-4.8625
 20
-19.8441887617
 30
0.0
 11
0.25
 21
0.0
 31
0.0
 40
0.5773502692
 41
-0.0
 42
1.5707963268
  0
ELLIPSE
  5
846
100
AcDbEntity
  8
0
100
AcDbEllipse
 62
7
  6
CONTINUOUS
 10
-17.1125
 20
8.2536758664
 30
0.0
 11
0.0
 21
1.7963241336
 31
0.0
 40
0.139173101
 41
-0.6803969812
 42
0.0
  0
ELLIPSE
  5
847
100
AcDbEntity
  8
0
100
AcDbEllipse
 62
7
  6
CONTINUOUS
 10
17.1875
 20
8.2536758664
 30
0.0
 11
0.0
 21
1.7963241336
 31
0.0
 40
0.139173101
 41
0.0
 42
0.6803969812
  0
ELLIPSE
  5
848
100
AcDbEntity
  8
0
100
AcDbEllipse
 62
7
  6
CONTINUOUS
 10
4.9375
 20
-19.8441887617
 30
0.0
 11
0.25
 21
0.0
 31
0.0
 40
0.5773502692
 41
1.5707963268
 42
3.1415926536
  0
ENDSEC
  0
SECTION
  2
OBJECTS
  0
DICTIONARY
  5
C
100
AcDbDictionary
280
0
281
1
  3
ACAD_GROUP
350
D
  3
ACAD_MLINESTYLE
350
17
  3
ACAD_LAYOUT
350
1A
  3
ACAD_PLOTSETTINGS
350
19
  3
ACAD_PLOTSTYLENAME
350
E
  0
DICTIONARY
  5
D
102
{ACAD_REACTORS
330
C
102
}
100
AcDbDictionary
280
0
281
1
  0
ACDBDICTIONARYWDFLT
  5
E
102
{ACAD_REACTORS
330
C
102
}
100
AcDbDictionary
281
1
  3
Normal
350
F
100
AcDbDictionaryWithDefault
340
F
  0
DICTIONARY
  5
17
102
{ACAD_REACTORS
330
C
102
}
100
AcDbDictionary
280
0
281
1
  3
Standard
350
18
  0
DICTIONARY
  5
19
102
{ACAD_REACTORS
330
C
102
}
100
AcDbDictionary
281
1
  0
DICTIONARY
  5
1A
102
{ACAD_REACTORS
330
C
102
}
100
AcDbDictionary
281
1
  3
Model
350
849
  3
Layout1
350
84A
  0
ACDBPLACEHOLDER
  5
F
102
{ACAD_REACTORS
330
E
102
}
  0
MLINESTYLE
  5
18
102
{ACAD_REACTORS
330
17
102
}
100
AcDbMlineStyle
  2
STANDARD
 70
0
  3

 62
256
 51
90.0
 52
90.0
 71
2
 49
0.5
 62
256
  6
BYLAYER
 49
-0.5
 62
256
  6
BYLAYER
  0
LAYOUT
  5
849
102
{ACAD_REACTORS
330
1A
102
}
100
AcDbPlotSettings
  1

  2
none_device
  4
ISO_A4_(297.00_x_210.00_MM)
  6

 40
0.0
 41
0.0
 42
0.0
 43
0.0
 44
297.0
 45
210.0
 46
0.0
 47
0.0
 48
0.0
 49
0.0
140
0.0
141
0.0
142
1.0
143
1.0
 70
1024
 72
1
 73
0
 74
0
  7

 75
0
147
1.0
148
0.0
149
0.0
100
AcDbLayout
  1
Model
 70
0
 71
0
 10
0.0
 20
0.0
 11
297.0
 21
210.0
 12
0.0
 22
0.0
 32
0.0
 14
0.0
 24
0.0
 34
0.0
 15
0.0
 25
0.0
 35
0.0
146
0.0
 13
0.0
 23
0.0
 33
0.0
 16
1.0
 26
0.0
 36
0.0
 17
0.0
 27
1.0
 37
0.0
 76
0
330
20C
345
0
346
0
  0
LAYOUT
  5
84A
102
{ACAD_REACTORS
330
1A
102
}
100
AcDbPlotSettings
  1

  2
none_device
  4
ISO_A4_(297.00_x_210.00_MM)
  6

 40
0.0
 41
0.0
 42
0.0
 43
0.0
 44
297.0
 45
210.0
 46
0.0
 47
0.0
 48
0.0
 49
0.0
140
0.0
141
0.0
142
1.0
143
1.0
 70
0
 72
1
 73
0
 74
0
  7

 75
0
147
1.0
148
0.0
149
0.0
100
AcDbLayout
  1
Layout1
 70
0
 71
1
 10
0.0
 20
0.0
 11
297.0
 21
210.0
 12
0.0
 22
0.0
 32
0.0
 14
0.0
 24
0.0
 34
0.0
 15
0.0
 25
0.0
 35
0.0
146
0.0
 13
0.0
 23
0.0
 33
0.0
 16
1.0
 26
0.0
 36
0.0
 17
0.0
 27
1.0
 37
0.0
 76
0
330
20D
345
0
346
0
  0
ENDSEC
  0
EOF
