  0
SECTION
  2
HEADER
  9
$ACADVER
  1
AC1021
  9
$DWGCODEPAGE
  3
ANSI_1252
  9
$EXTMAX
 10
297.0
 20
210.0
 30
0.0
  9
$EXTMIN
 10
0.0
 20
0.0
 30
0.0
  9
$LIMMIN
 10
0.0
 20
0.0
  9
$LIMMAX
 10
297.0
 20
210.0
  9
$VIEWCTR
 10
148.5
 20
105.0
  9
$VIEWSIZE
 40
210.0
  9
$CLAYER
  8
0
  9
$LTSCALE
 40
16.335
  9
$CELTYPE
  6
BYLAYER
  9
$DIMSCALE
 40
1.0
  9
$DIMASZ
 40
3.0
  9
$DIMEXO
 40
0.5
  9
$DIMDLI
 40
11.286
  9
$DIMEXE
 40
1.5
  9
$DIMCEN
 40
2.673
  9
$DIMLFAC
 40
1.0
  9
$DIMBLK
  1
_FILLED
  9
$DIMALT
 70
0
  9
$DIMALTF
 40
0.0393700787
  9
$DIMTXT
 40
3.0
  9
$DIMTOL
 70
1
  9
$DIMLIM
 70
0
  9
$DIMTFAC
 40
1.0
  9
$DIMTP
 40
0.01
  9
$DIMTM
 40
0.01
  9
$DIMGAP
 40
0.625
  9
$DIMDSEP
 70
44
  9
$AUNITS
 70
0
  9
$PDMODE
 70
3
  9
$PDSIZE
 40
3.0
  9
$HANDSEED
  5
6E1
  9
$TILEMODE
 70
1
  9
$MEASUREMENT
 70
1
  9
$INSUNITS
 70
4
  0
ENDSEC
  0
SECTION
  2
CLASSES
  0
CLASS
  1
ACDBDICTIONARYWDFLT
  2
AcDbDictionaryWithDefault
  3
AutoCAD 2000
 90
0
 91
1
280
0
281
0
  0
CLASS
  1
ACDBPLACEHOLDER
  2
AcDbPlaceHolder
  3
AutoCAD 2000
 90
0
 91
1
280
0
281
0
  0
CLASS
  1
LAYOUT
  2
AcDbLayout
  3
AutoCAD 2000
 90
0
 91
0
280
0
281
0
  0
ENDSEC
  0
SECTION
  2
TABLES
  0
TABLE
  2
VPORT
  5
8
100
AcDbSymbolTable
 70
2
  0
VPORT
  5
1F4
100
AcDbSymbolTableRecord
100
AcDbViewportTableRecord
  2
*ACTIVE
 70
0
 10
0.0
 20
0.0
 11
1.0
 21
1.0
 12
148.5
 22
105.0
 13
0.0
 23
0.0
 14
1.0
 24
1.0
 15
0.0
 25
0.0
 16
0.0
 26
0.0
 36
1.0
 17
0.0
 27
0.0
 37
0.0
 40
210.0
 41
1.4142857143
 42
50.0
 43
0.0
 44
0.0
 50
0.0
 51
0.0
 71
0
 72
100
 73
1
 74
1
 75
0
 76
0
 77
0
 78
0
  0
ENDTAB
  0
TABLE
  2
LTYPE
  5
5
100
AcDbSymbolTable
 70
6
  0
LTYPE
  5
14
100
AcDbSymbolTableRecord
100
AcDbLinetypeTableRecord
  2
BYBLOCK
 70
0
  3

 72
65
 73
0
 40
0.0
  0
LTYPE
  5
15
100
AcDbSymbolTableRecord
100
AcDbLinetypeTableRecord
  2
BYLAYER
 70
0
  3

 72
65
 73
0
 40
0.0
  0
LTYPE
  5
16
100
AcDbSymbolTableRecord
100
AcDbLinetypeTableRecord
  2
CONTINUOUS
 70
64
  3
Solid line
 72
65
 73
0
 40
0.0
  0
LTYPE
  5
1F5
100
AcDbSymbolTableRecord
100
AcDbLinetypeTableRecord
  2
CENTER
 70
64
  3
____ _ ____ _ ____ _ ____ _ ____ _ ____ _ ____
 72
65
 73
4
 40
0.6
 49
0.375
 74
0
 49
-0.075
 74
0
 49
0.075
 74
0
 49
-0.075
 74
0
  0
LTYPE
  5
1F6
100
AcDbSymbolTableRecord
100
AcDbLinetypeTableRecord
  2
HIDDEN
 70
64
  3
- - - - - - - - - - - - - - - - - - - -
 72
65
 73
2
 40
0.2
 49
0.1
 74
0
 49
-0.1
 74
0
  0
LTYPE
  5
1F7
100
AcDbSymbolTableRecord
100
AcDbLinetypeTableRecord
  2
PHANTOM
 70
64
  3
_____ _ _ _____ _ _ _____ _ _ _____
 72
65
 73
6
 40
0.8
 49
0.45
 74
0
 49
-0.05
 74
0
 49
0.1
 74
0
 49
-0.05
 74
0
 49
0.1
 74
0
 49
-0.05
 74
0
  0
LTYPE
  5
1F8
100
AcDbSymbolTableRecord
100
AcDbLinetypeTableRecord
  2
DOT
 70
64
  3
. . . . . . . . . . . . . . . . . . . .
 72
65
 73
2
 40
0.2
 49
0.1
 74
0
 49
-0.1
 74
0
  0
LTYPE
  5
1F9
100
AcDbSymbolTableRecord
100
AcDbLinetypeTableRecord
  2
DASHED
 70
64
  3
- - - - - - - - - - - - - - - - - - - -
 72
65
 73
2
 40
0.2
 49
0.1
 74
0
 49
-0.1
 74
0
  0
ENDTAB
  0
TABLE
  2
LAYER
  5
2
100
AcDbSymbolTable
 70
36
  0
LAYER
  5
10
100
AcDbSymbolTableRecord
100
AcDbLayerTableRecord
  2
0
 70
0
 62
7
  6
CONTINUOUS
370
-3
390
F
  0
LAYER
  5
1FA
100
AcDbSymbolTableRecord
100
AcDbLayerTableRecord
  2
DEFAULT_1
 70
0
 62
7
  6
CENTER
370
-3
390
F
  0
LAYER
  5
1FB
100
AcDbSymbolTableRecord
100
AcDbLayerTableRecord
  2
DEFAULT_2
 70
0
 62
7
  6
HIDDEN
370
-3
390
F
  0
LAYER
  5
1FC
100
AcDbSymbolTableRecord
100
AcDbLayerTableRecord
  2
DEFAULT_3
 70
0
 62
7
  6
PHANTOM
370
-3
390
F
  0
LAYER
  5
1FD
100
AcDbSymbolTableRecord
100
AcDbLayerTableRecord
  2
ASSI
 70
0
 62
7
  6
CONTINUOUS
370
-3
390
F
  0
LAYER
  5
1FE
100
AcDbSymbolTableRecord
100
AcDbLayerTableRecord
  2
COORDINATE
 70
0
 62
7
  6
CONTINUOUS
370
-3
390
F
  0
LAYER
  5
1FF
100
AcDbSymbolTableRecord
100
AcDbLayerTableRecord
  2
COSMETICI
 70
0
 62
7
  6
CONTINUOUS
370
-3
390
F
  0
LAYER
  5
200
100
AcDbSymbolTableRecord
100
AcDbLayerTableRecord
  2
CURVE
 70
0
 62
7
  6
CONTINUOUS
370
-3
390
F
  0
LAYER
  5
201
100
AcDbSymbolTableRecord
100
AcDbLayerTableRecord
  2
INTF_1
 70
0
 62
7
  6
CONTINUOUS
370
-3
390
F
  0
LAYER
  5
202
100
AcDbSymbolTableRecord
100
AcDbLayerTableRecord
  2
INTF_7
 70
0
 62
7
  6
CONTINUOUS
370
-3
390
F
  0
LAYER
  5
203
100
AcDbSymbolTableRecord
100
AcDbLayerTableRecord
  2
NOTE
 70
0
 62
7
  6
CONTINUOUS
370
-3
390
F
  0
LAYER
  5
204
100
AcDbSymbolTableRecord
100
AcDbLayerTableRecord
  2
PIANI
 70
0
 62
7
  6
CONTINUOUS
370
-3
390
F
  0
LAYER
  5
205
100
AcDbSymbolTableRecord
100
AcDbLayerTableRecord
  2
PUNTI
 70
0
 62
7
  6
CONTINUOUS
370
-3
390
F
  0
LAYER
  5
206
100
AcDbSymbolTableRecord
100
AcDbLayerTableRecord
  2
RGB__255__255__255__
 70
0
 62
7
  6
CONTINUOUS
370
-3
390
F
  0
LAYER
  5
207
100
AcDbSymbolTableRecord
100
AcDbLayerTableRecord
  2
RGB____0____0____0__
 70
0
 62
7
  6
CONTINUOUS
370
-3
390
F
  0
LAYER
  5
208
100
AcDbSymbolTableRecord
100
AcDbLayerTableRecord
  2
SCRITTE
 70
0
 62
7
  6
CONTINUOUS
370
-3
390
F
  0
LAYER
  5
209
100
AcDbSymbolTableRecord
100
AcDbLayerTableRecord
  2
SIMBOLI
 70
0
 62
7
  6
CONTINUOUS
370
-3
390
F
  0
LAYER
  5
20A
100
AcDbSymbolTableRecord
100
AcDbLayerTableRecord
  2
SNAPLINE
 70
0
 62
7
  6
CONTINUOUS
370
-3
390
F
  0
LAYER
  5
20B
100
AcDbSymbolTableRecord
100
AcDbLayerTableRecord
  2
SUPERFICI
 70
0
 62
7
  6
CONTINUOUS
370
-3
390
F
  0
ENDTAB
  0
TABLE
  2
STYLE
  5
3
100
AcDbSymbolTable
 70
1
  0
STYLE
  5
11
100
AcDbSymbolTableRecord
100
AcDbTextStyleTableRecord
  2
STANDARD
 70
0
 40
0.0
 41
0.8
 50
0.0
 71
0
 42
0.2
  3
txt
  4

  0
STYLE
  5
20C
100
AcDbSymbolTableRecord
100
AcDbTextStyleTableRecord
  2
TEXTSTYLE_1
 70
0
 40
0.0
 41
0.8
 50
0.0
 71
0
 42
0.2
  3
gdt
  4

  0
ENDTAB
  0
TABLE
  2
VIEW
  5
6
100
AcDbSymbolTable
 70
0
  0
ENDTAB
  0
TABLE
  2
UCS
  5
7
100
AcDbSymbolTable
 70
0
  0
ENDTAB
  0
TABLE
  2
APPID
  5
9
100
AcDbSymbolTable
 70
1
  0
APPID
  5
20D
100
AcDbSymbolTableRecord
100
AcDbRegAppTableRecord
  2
ACAD
 70
0
  0
ENDTAB
  0
TABLE
  2
BLOCK_RECORD
  5
1
100
AcDbSymbolTable
 70
0
  0
BLOCK_RECORD
  5
20E
100
AcDbSymbolTableRecord
100
AcDbBlockTableRecord
  2
*Model_Space
  0
BLOCK_RECORD
  5
20F
100
AcDbSymbolTableRecord
100
AcDbBlockTableRecord
  2
*Paper_Space
  0
ENDTAB
  0
TABLE
  2
DIMSTYLE
  5
A
100
AcDbSymbolTable
 70
1
100
AcDbDimStyleTable
 71
0
  0
DIMSTYLE
105
210
100
AcDbSymbolTableRecord
100
AcDbDimStyleTableRecord
  2
STANDARD
 70
0
  3

  4

 40
1.0
 41
3.0
 42
0.5
 43
0.38
 44
1.5
 45
0.0
 46
0.0
 47
0.01
 48
0.01
140
3.0
141
0.09
142
0.0
143
25.4
144
1.0
145
0.0
146
1.0
147
0.625
 71
1.0
 72
0.0
 73
0
 74
0
 75
0
 76
0
 77
1
 78
8
170
0
171
2
172
0
173
0
174
0
175
0
176
0
177
0
178
0
270
2
271
2
272
2
273
2
274
2
275
0
280
0
281
0
282
0
283
1
284
8
285
0
286
0
287
3
288
0
340
11
278
44
  0
ENDTAB
  0
ENDSEC
  0
SECTION
  2
BLOCKS
  0
BLOCK
  5
20
100
AcDbEntity
  8
0
100
AcDbBlockBegin
  2
*Model_Space
 70
0
 10
0.0
 20
0.0
 30
0.0
  3
*Model_Space
  1

  0
ENDBLK
  5
21
100
AcDbEntity
  8
0
100
AcDbBlockEnd
  0
BLOCK
  5
1C
100
AcDbEntity
  8
0
100
AcDbBlockBegin
  2
*Paper_Space
 70
0
 10
0.0
 20
0.0
 30
0.0
  3
*Paper_Space
  1

  0
ENDBLK
  5
1D
100
AcDbEntity
  8
0
100
AcDbBlockEnd
  0
ENDSEC
  0
SECTION
  2
ENTITIES
  0
LINE
  5
211
100
AcDbEntity
  8
0
100
AcDbLine
 62
7
  6
CONTINUOUS
 10
-8.6875
 20
-24.95
 11
-16.6375
 21
-24.95
  0
LINE
  5
212
100
AcDbEntity
  8
0
100
AcDbLine
 62
253
  6
CONTINUOUS
 10
-16.8875
 20
-24.7
 11
-8.4375
 21
-24.7
  0
LINE
  5
213
100
AcDbEntity
  8
0
100
AcDbLine
 62
253
  6
CONTINUOUS
 10
-8.9375
 20
-24.45
 11
-16.3875
 21
-24.45
  0
LINE
  5
214
100
AcDbEntity
  8
0
100
AcDbLine
 62
7
  6
CONTINUOUS
 10
-16.1375
 20
-24.2
 11
-9.1875
 21
-24.2
  0
LINE
  5
215
100
AcDbEntity
  8
0
100
AcDbLine
 62
7
  6
CONTINUOUS
 10
-9.1483869837
 20
-24.2391098052
 11
-9.1803740704
 21
-24.2071263353
  0
LWPOLYLINE
  5
216
100
AcDbEntity
  8
0
100
AcDbPolyline
 62
7
  6
CONTINUOUS
 90
3
 70
0
 10
-9.1803740704
 20
-24.2071263353
 10
-9.1867166748
 20
-24.2007683039
 10
-9.1875
 20
-24.2
  0
LINE
  5
217
100
AcDbEntity
  8
0
100
AcDbLine
 62
7
  6
CONTINUOUS
 10
-9.0324971994
 20
-24.3550889604
 11
-9.1483869837
 21
-24.2391098052
  0
LWPOLYLINE
  5
218
100
AcDbEntity
  8
0
100
AcDbPolyline
 62
7
  6
CONTINUOUS
 90
3
 70
0
 10
-8.9375
 20
-24.45
 10
-8.9625466537
 20
-24.4246471565
 10
-9.0324971994
 20
-24.3550889604
  0
LINE
  5
219
100
AcDbEntity
  8
0
100
AcDbLine
 62
7
  6
CONTINUOUS
 10
-16.1375
 20
-20.75
 11
-16.0875
 21
-20.75
  0
LINE
  5
21A
100
AcDbEntity
  8
0
100
AcDbLine
 62
7
  6
CONTINUOUS
 10
-9.1875
 20
-20.75
 11
-9.2375
 21
-20.75
  0
LINE
  5
21B
100
AcDbEntity
  8
0
100
AcDbLine
 62
7
  6
CONTINUOUS
 10
-17.2125
 20
-20.05
 11
17.2875
 21
-20.05
  0
LINE
  5
21C
100
AcDbEntity
  8
0
100
AcDbLine
 62
7
  6
CONTINUOUS
 10
16.7875
 20
-19.3
 11
-16.7125
 21
-19.3
  0
LINE
  5
21D
100
AcDbEntity
  8
0
100
AcDbLine
 62
7
  6
CONTINUOUS
 10
-15.9625
 20
-18.55
 11
16.0375
 21
-18.55
  0
LINE
  5
21E
100
AcDbEntity
  8
0
100
AcDbLine
 62
7
  6
CONTINUOUS
 10
-17.5375
 20
9.45
 11
-17.5375
 21
6.45
  0
LINE
  5
21F
100
AcDbEntity
  8
0
100
AcDbLine
 62
7
  6
CONTINUOUS
 10
-17.5125
 20
10.2
 11
-17.5125
 21
-6.3
  0
LINE
  5
220
100
AcDbEntity
  8
0
100
AcDbLine
 62
7
  6
CONTINUOUS
 10
-17.4625
 20
24.7
 11
-17.4625
 21
-19.8
  0
LINE
  5
221
100
AcDbEntity
  8
0
100
AcDbLine
 62
7
  6
CONTINUOUS
 10
-16.8875
 20
-24.7
 11
-16.8875
 21
-20.05
  0
LINE
  5
222
100
AcDbEntity
  8
0
100
AcDbLine
 62
7
  6
CONTINUOUS
 10
-16.7125
 20
17.6
 11
-16.7125
 21
14.3
  0
LINE
  5
223
100
AcDbEntity
  8
0
100
AcDbLine
 62
7
  6
CONTINUOUS
 10
-16.7125
 20
-7.3
 11
-16.7125
 21
-8.55
  0
LINE
  5
224
100
AcDbEntity
  8
0
100
AcDbLine
 62
7
  6
CONTINUOUS
 10
-16.7125
 20
-15.55
 11
-16.7125
 21
-19.3
  0
LINE
  5
225
100
AcDbEntity
  8
0
100
AcDbLine
 62
7
  6
CONTINUOUS
 10
-16.7125
 20
-13.7
 11
-16.7125
 21
-10.4
  0
LINE
  5
226
100
AcDbEntity
  8
0
100
AcDbLine
 62
7
  6
CONTINUOUS
 10
-16.7125
 20
19.45
 11
-16.7125
 21
24.2
  0
LINE
  5
227
100
AcDbEntity
  8
0
100
AcDbLine
 62
253
  6
CONTINUOUS
 10
-16.6375
 20
-20.05
 11
-16.6375
 21
-24.95
  0
LINE
  5
228
100
AcDbEntity
  8
0
100
AcDbLine
 62
253
  6
CONTINUOUS
 10
-16.3875
 20
-24.45
 11
-16.3875
 21
-20.05
  0
LINE
  5
229
100
AcDbEntity
  8
0
100
AcDbLine
 62
7
  6
CONTINUOUS
 10
-16.1375
 20
-20.05
 11
-16.1375
 21
-24.2
  0
LWPOLYLINE
  5
22A
100
AcDbEntity
  8
0
100
AcDbPolyline
 62
7
  6
CONTINUOUS
 90
21
 70
0
 10
-0.81787766
 20
18.311197412
 10
-0.8191513682
 20
18.3105815807
 10
-0.8189061987
 20
18.3106838683
 10
-0.8168701265
 20
18.3115034721
 10
-0.8132807593
 20
18.31284341
 10
-0.8080842246
 20
18.3146490265
 10
-0.8012267172
 20
18.3168718322
 10
-0.7930259551
 20
18.3193608627
 10
-0.7835360889
 20
18.322070174
 10
-0.7726740013
 20
18.3249977318
 10
-0.7605772678
 20
18.3280855432
 10
-0.7472575292
 20
18.3313156855
 10
-0.7326848055
 20
18.3346821845
 10
-0.7169353343
 20
18.3381570735
 10
-0.7000166998
 20
18.3417320264
 10
-0.681927931
 20
18.3454017662
 10
-0.6627359168
 20
18.3491487656
 10
-0.6424530527
 20
18.3529680706
 10
-0.6210828236
 20
18.3568570361
 10
-0.598677625
 20
18.3608049643
 10
-0.5752497302
 20
18.3648093049
  0
LWPOLYLINE
  5
22B
100
AcDbEntity
  8
0
100
AcDbPolyline
 62
7
  6
CONTINUOUS
 90
22
 70
0
 10
0.8938208466
 20
18.2892635066
 10
0.8941984721
 20
18.2894390706
 10
0.893726025
 20
18.2892382238
 10
0.8915538124
 20
18.2883714512
 10
0.8880417161
 20
18.2870680777
 10
0.8832149597
 20
18.2853930863
 10
0.8770088754
 20
18.2833733471
 10
0.8696863754
 20
18.2811306071
 10
0.8612887877
 20
18.278700199
 10
0.8517597405
 20
18.2760857152
 10
0.8412172504
 20
18.2733355845
 10
0.829674825
 20
18.2704648056
 10
0.8171127656
 20
18.2674786595
 10
0.8035962975
 20
18.2644009257
 10
0.7891320543
 20
18.2612393687
 10
0.773714337
 20
18.2579976752
 10
0.7573885182
 20
18.2546887161
 10
0.7401626702
 20
18.2513164513
 10
0.7220426208
 20
18.2478839131
 10
0.7030683683
 20
18.2443999065
 10
0.6832506624
 20
18.2408670227
 10
0.6625962147
 20
18.2372868138
  0
LWPOLYLINE
  5
22C
100
AcDbEntity
  8
0
100
AcDbPolyline
 62
7
  6
CONTINUOUS
 90
21
 70
0
 10
-0.8189239937
 20
17.5106743374
 10
-0.8191414478
 20
17.5105741702
 10
-0.8183373258
 20
17.5109147528
 10
-0.8158553447
 20
17.5118933796
 10
-0.8119504085
 20
17.5133237368
 10
-0.8065888449
 20
17.5151558056
 10
-0.7996926442
 20
17.51735908
 10
-0.7914934544
 20
17.5198168565
 10
-0.7820134879
 20
17.5224946091
 10
-0.7711991381
 20
17.5253831513
 10
-0.7591974858
 20
17.5284243358
 10
-0.7460232007
 20
17.5316013802
 10
-0.7316523889
 20
17.5349085908
 10
-0.7161791149
 20
17.5383154338
 10
-0.6996140483
 20
17.5418133032
 10
-0.6819474749
 20
17.5453987969
 10
-0.6632434999
 20
17.5490547529
 10
-0.6435120716
 20
17.5527763867
 10
-0.622754225
 20
17.5565614543
 10
-0.6010257375
 20
17.5603993698
 10
-0.5783437416
 20
17.5642875653
  0
LINE
  5
22D
100
AcDbEntity
  8
0
100
AcDbLine
 62
7
  6
CONTINUOUS
 10
4.1833330154
 20
-15.6882978857
 11
4.1
 21
-15.7095744789
  0
LINE
  5
22E
100
AcDbEntity
  8
0
100
AcDbLine
 62
7
  6
CONTINUOUS
 10
5.0166669846
 20
-15.4542553306
 11
4.9333330154
 21
-15.4755319238
  0
LINE
  5
22F
100
AcDbEntity
  8
0
100
AcDbLine
 62
7
  6
CONTINUOUS
 10
4.9333330154
 20
-15.3904255509
 11
5.0166669846
 21
-15.3691489577
  0
LINE
  5
230
100
AcDbEntity
  8
0
100
AcDbLine
 62
7
  6
CONTINUOUS
 10
4.1416669845
 20
-15.4542553306
 11
4.0583330155
 21
-15.4755319238
  0
LINE
  5
231
100
AcDbEntity
  8
0
100
AcDbLine
 62
7
  6
CONTINUOUS
 10
4.3291669846
 20
-16.0287234049
 11
4.225
 21
-16.05
  0
LINE
  5
232
100
AcDbEntity
  8
0
100
AcDbLine
 62
7
  6
CONTINUOUS
 10
4.0583330154
 20
-15.6244680762
 11
4.1833330154
 21
-15.603191483
  0
LINE
  5
233
100
AcDbEntity
  8
0
100
AcDbLine
 62
7
  6
CONTINUOUS
 10
2.0791669846
 20
-16.0287234049
 11
1.9333330154
 21
-16.05
  0
LINE
  5
234
100
AcDbEntity
  8
0
100
AcDbLine
 62
7
  6
CONTINUOUS
 10
1.9125
 20
-15.9648936197
 11
2.0583330154
 21
-15.9436170191
  0
LINE
  5
235
100
AcDbEntity
  8
0
100
AcDbLine
 62
7
  6
CONTINUOUS
 10
7.5375
 20
-17.05
 11
-7.4625
 21
-17.05
  0
LINE
  5
236
100
AcDbEntity
  8
0
100
AcDbLine
 62
7
  6
CONTINUOUS
 10
5.725
 20
-16.3904255211
 11
5.6
 21
-16.3904255211
  0
LINE
  5
237
100
AcDbEntity
  8
0
100
AcDbLine
 62
7
  6
CONTINUOUS
 10
5.3083330154
 20
-16.05
 11
5.2041669846
 21
-16.05
  0
LINE
  5
238
100
AcDbEntity
  8
0
100
AcDbLine
 62
7
  6
CONTINUOUS
 10
4.8291669846
 20
-16.05
 11
4.725
 21
-16.05
  0
LINE
  5
239
100
AcDbEntity
  8
0
100
AcDbLine
 62
7
  6
CONTINUOUS
 10
4.5583330154
 20
-16.05
 11
4.4541669846
 21
-16.05
  0
LINE
  5
23A
100
AcDbEntity
  8
0
100
AcDbLine
 62
7
  6
CONTINUOUS
 10
4.225
 20
-16.05
 11
4.1
 21
-16.05
  0
LINE
  5
23B
100
AcDbEntity
  8
0
100
AcDbLine
 62
7
  6
CONTINUOUS
 10
3.725
 20
-16.05
 11
3.6208330154
 21
-16.05
  0
LINE
  5
23C
100
AcDbEntity
  8
0
100
AcDbLine
 62
7
  6
CONTINUOUS
 10
3.3916669846
 20
-16.05
 11
3.2875
 21
-16.05
  0
LINE
  5
23D
100
AcDbEntity
  8
0
100
AcDbLine
 62
7
  6
CONTINUOUS
 10
3.0583330154
 20
-16.05
 11
2.9541669846
 21
-16.05
  0
LINE
  5
23E
100
AcDbEntity
  8
0
100
AcDbLine
 62
7
  6
CONTINUOUS
 10
2.5166669846
 20
-16.05
 11
2.4125
 21
-16.05
  0
LINE
  5
23F
100
AcDbEntity
  8
0
100
AcDbLine
 62
7
  6
CONTINUOUS
 10
1.1208334923
 20
-16.05
 11
0.9333334923
 21
-16.05
  0
LINE
  5
240
100
AcDbEntity
  8
0
100
AcDbLine
 62
7
  6
CONTINUOUS
 10
-0.5666665077
 20
-16.05
 11
-0.6708334923
 21
-16.05
  0
LINE
  5
241
100
AcDbEntity
  8
0
100
AcDbLine
 62
7
  6
CONTINUOUS
 10
-1.0458334923
 20
-16.05
 11
-1.15
 21
-16.05
  0
LINE
  5
242
100
AcDbEntity
  8
0
100
AcDbLine
 62
7
  6
CONTINUOUS
 10
-1.3166665077
 20
-16.05
 11
-1.4208334923
 21
-16.05
  0
LINE
  5
243
100
AcDbEntity
  8
0
100
AcDbLine
 62
7
  6
CONTINUOUS
 10
-3.4208332539
 20
-16.05
 11
-3.525
 21
-16.05
  0
LINE
  5
244
100
AcDbEntity
  8
0
100
AcDbLine
 62
7
  6
CONTINUOUS
 10
-3.7125
 20
-16.05
 11
-3.8375
 21
-16.05
  0
LINE
  5
245
100
AcDbEntity
  8
0
100
AcDbLine
 62
7
  6
CONTINUOUS
 10
-4.2541666269
 20
-16.05
 11
-4.3583333731
 21
-16.05
  0
LINE
  5
246
100
AcDbEntity
  8
0
100
AcDbLine
 62
7
  6
CONTINUOUS
 10
-4.5875
 20
-16.05
 11
-4.7125
 21
-16.05
  0
LINE
  5
247
100
AcDbEntity
  8
0
100
AcDbLine
 62
7
  6
CONTINUOUS
 10
-5.0875
 20
-16.05
 11
-5.2125
 21
-16.05
  0
LINE
  5
248
100
AcDbEntity
  8
0
100
AcDbLine
 62
7
  6
CONTINUOUS
 10
-5.5041666865
 20
-16.05
 11
-5.6708333433
 21
-16.05
  0
LINE
  5
249
100
AcDbEntity
  8
0
100
AcDbLine
 62
7
  6
CONTINUOUS
 10
-5.9625
 20
-16.05
 11
-6.0875
 21
-16.05
  0
LINE
  5
24A
100
AcDbEntity
  8
0
100
AcDbLine
 62
7
  6
CONTINUOUS
 10
-2.9
 20
-16.05
 11
-3.025
 21
-16.0287234049
  0
LINE
  5
24B
100
AcDbEntity
  8
0
100
AcDbLine
 62
7
  6
CONTINUOUS
 10
-4.7125
 20
-16.05
 11
-4.7958333731
 21
-16.0287234049
  0
LINE
  5
24C
100
AcDbEntity
  8
0
100
AcDbLine
 62
7
  6
CONTINUOUS
 10
-3.8375
 20
-16.05
 11
-3.9208332539
 21
-16.0287234049
  0
LINE
  5
24D
100
AcDbEntity
  8
0
100
AcDbLine
 62
7
  6
CONTINUOUS
 10
-3.8791667461
 20
-15.9223404258
 11
-3.7958332539
 21
-15.9436170191
  0
LINE
  5
24E
100
AcDbEntity
  8
0
100
AcDbLine
 62
7
  6
CONTINUOUS
 10
-3.0041667461
 20
-15.9436170191
 11
-2.9208332539
 21
-15.9648936197
  0
LINE
  5
24F
100
AcDbEntity
  8
0
100
AcDbLine
 62
7
  6
CONTINUOUS
 10
-4.4625
 20
-15.4755319238
 11
-4.5458333731
 21
-15.4542553306
  0
LINE
  5
250
100
AcDbEntity
  8
0
100
AcDbLine
 62
7
  6
CONTINUOUS
 10
-3.025
 20
-16.0287234049
 11
-3.0875
 21
-16.0074468099
  0
LINE
  5
251
100
AcDbEntity
  8
0
100
AcDbLine
 62
7
  6
CONTINUOUS
 10
-4.7958333731
 20
-16.0287234049
 11
-4.8375
 21
-16.0074468099
  0
LINE
  5
252
100
AcDbEntity
  8
0
100
AcDbLine
 62
7
  6
CONTINUOUS
 10
-4.7958333731
 20
-15.9223404258
 11
-4.7125
 21
-15.9648936197
  0
LINE
  5
253
100
AcDbEntity
  8
0
100
AcDbLine
 62
7
  6
CONTINUOUS
 10
-15.9625
 20
23.45
 11
-15.9625
 21
19.45
  0
LINE
  5
254
100
AcDbEntity
  8
0
100
AcDbLine
 62
7
  6
CONTINUOUS
 10
-15.9625
 20
-7.3
 11
-15.9625
 21
-8.55
  0
LINE
  5
255
100
AcDbEntity
  8
0
100
AcDbLine
 62
7
  6
CONTINUOUS
 10
-15.9625
 20
-15.55
 11
-15.9625
 21
-18.55
  0
LINE
  5
256
100
AcDbEntity
  8
0
100
AcDbLine
 62
7
  6
CONTINUOUS
 10
-15.9625
 20
-13.7
 11
-15.9625
 21
-10.4
  0
LINE
  5
257
100
AcDbEntity
  8
0
100
AcDbLine
 62
7
  6
CONTINUOUS
 10
-15.9625
 20
14.3
 11
-15.9625
 21
17.6
  0
LINE
  5
258
100
AcDbEntity
  8
0
100
AcDbLine
 62
7
  6
CONTINUOUS
 10
-15.4875
 20
-20.15
 11
-15.4875
 21
-20.05
  0
LWPOLYLINE
  5
259
100
AcDbEntity
  8
0
100
AcDbPolyline
 62
7
  6
CONTINUOUS
 90
22
 70
0
 10
0.8936503439
 20
15.8891878826
 10
0.8940576833
 20
15.8893789561
 10
0.8938653116
 20
15.8892975086
 10
0.8922062657
 20
15.8886227694
 10
0.8893042812
 20
15.8875222595
 10
0.8851316432
 20
15.8860405784
 10
0.8796454463
 20
15.8842117419
 10
0.8730780606
 20
15.8821499928
 10
0.8654505775
 20
15.8798863405
 10
0.8567159717
 20
15.8774284023
 10
0.8470231787
 20
15.8748346567
 10
0.8363972061
 20
15.8721228546
 10
0.824813352
 20
15.8692964358
 10
0.8123521412
 20
15.8663828146
 10
0.7990274949
 20
15.8633907782
 10
0.7848298564
 20
15.860323068
 10
0.7698022805
 20
15.8571929644
 10
0.7539529377
 20
15.8540050342
 10
0.7372848717
 20
15.8507616778
 10
0.7198308902
 20
15.8474703222
 10
0.7016019012
 20
15.8441335539
 10
0.6826062291
 20
15.8407531821
  0
LWPOLYLINE
  5
25A
100
AcDbEntity
  8
0
100
AcDbPolyline
 62
7
  6
CONTINUOUS
 90
22
 70
0
 10
-0.8187143327
 20
15.1107781914
 10
-0.8190603582
 20
15.1106164642
 10
-0.8188566568
 20
15.1107033922
 10
-0.8173138859
 20
15.1113332142
 10
-0.8146518918
 20
15.1123496456
 10
-0.8108582711
 20
15.113709343
 10
-0.805885656
 20
15.1153865362
 10
-0.7999221975
 20
15.1172850622
 10
-0.7929815297
 20
15.1193779377
 10
-0.7850243941
 20
15.1216568589
 10
-0.776169907
 20
15.1240718515
 10
-0.7664233707
 20
15.1266100372
 10
-0.7557709566
 20
15.1292648122
 10
-0.744310464
 20
15.1320040803
 10
-0.7320537018
 20
15.1348197413
 10
-0.7189943261
 20
15.1377085858
 10
-0.7052088234
 20
15.14065032
 10
-0.6907232582
 20
15.1436374535
 10
-0.6755265972
 20
15.1466706323
 10
-0.659641036
 20
15.1497442483
 10
-0.6430807779
 20
15.1528553104
 10
-0.6258533706
 20
15.1560024265
  0
LWPOLYLINE
  5
25B
100
AcDbEntity
  8
0
100
AcDbPolyline
 62
7
  6
CONTINUOUS
 90
22
 70
0
 10
-0.819000223
 20
16.7106495745
 10
-0.8192852535
 20
16.7105179765
 10
-0.818633551
 20
16.7107949825
 10
-0.8163214144
 20
16.711712519
 10
-0.8126680494
 20
16.713061422
 10
-0.8076787123
 20
16.7147839338
 10
-0.801275131
 20
16.7168566065
 10
-0.7936781613
 20
16.7191692846
 10
-0.7849015025
 20
16.721691405
 10
-0.7748886383
 20
16.7244156636
 10
-0.7637663255
 20
16.7272887624
 10
-0.7515443676
 20
16.7302945778
 10
-0.7381942894
 20
16.7334280384
 10
-0.7237960502
 20
16.7366614478
 10
-0.708358774
 20
16.7399868057
 10
-0.6918797672
 20
16.743399589
 10
-0.6744256056
 20
16.746882291
 10
-0.6560083149
 20
16.7504301163
 10
-0.6366297165
 20
16.7540407726
 10
-0.6163410058
 20
16.7577035204
 10
-0.5951554687
 20
16.7614154864
 10
-0.5730797236
 20
16.7651753051
  0
LWPOLYLINE
  5
25C
100
AcDbEntity
  8
0
100
AcDbPolyline
 62
7
  6
CONTINUOUS
 90
22
 70
0
 10
-0.8189150952
 20
15.9106805209
 10
-0.8191239364
 20
15.9105844594
 10
-0.8183817106
 20
15.9108993275
 10
-0.8160409938
 20
15.9118253242
 10
-0.8124201967
 20
15.9131588254
 10
-0.8075404682
 20
15.9148401896
 10
-0.8013275178
 20
15.9168487788
 10
-0.7939855188
 20
15.9190838726
 10
-0.7855331733
 20
15.9215163035
 10
-0.7759292537
 20
15.9241372656
 10
-0.7652911864
 20
15.9268983953
 10
-0.7536274425
 20
15.9297857239
 10
-0.7409199336
 20
15.9327932961
 10
-0.7272464395
 20
15.93589446
 10
-0.7126148387
 20
15.939081393
 10
-0.6970153722
 20
15.9423508773
 10
-0.6804989228
 20
15.9456880017
 10
-0.6630725109
 20
15.9490882208
 10
-0.6447335814
 20
15.9525494867
 10
-0.6255220116
 20
15.9560630969
 10
-0.6054490435
 20
15.9596266325
 10
-0.5845249515
 20
15.963238188
  0
LWPOLYLINE
  5
25D
100
AcDbEntity
  8
0
100
AcDbPolyline
 62
7
  6
CONTINUOUS
 90
22
 70
0
 10
0.8940207858
 20
17.4893711992
 10
0.8941996336
 20
17.4894533645
 10
0.8934097698
 20
17.4891185872
 10
0.8910447189
 20
17.4881835874
 10
0.8874309764
 20
17.4868521568
 10
0.882593791
 20
17.4851828067
 10
0.876457742
 20
17.4831939138
 10
0.8692224332
 20
17.4809846299
 10
0.8609080569
 20
17.4785847387
 10
0.8514635192
 20
17.4760001142
 10
0.8409863553
 20
17.4732734859
 10
0.8294789401
 20
17.4704173573
 10
0.8169310994
 20
17.467439692
 10
0.8034229534
 20
17.4643676156
 10
0.7889627875
 20
17.4612088823
 10
0.7735426367
 20
17.4579669102
 10
0.7572178678
 20
17.4546573415
 10
0.7399965997
 20
17.4512846655
 10
0.7218767343
 20
17.447850912
 10
0.7028979966
 20
17.4443654157
 10
0.683068537
 20
17.4408308452
 10
0.6623927658
 20
17.4372486279
  0
LWPOLYLINE
  5
25E
100
AcDbEntity
  8
0
100
AcDbPolyline
 62
7
  6
CONTINUOUS
 90
21
 70
0
 10
0.8939699648
 20
16.6893355109
 10
0.8941706302
 20
16.6894275233
 10
0.8933334832
 20
16.6890747684
 10
0.8908129217
 20
16.688086227
 10
0.8869134176
 20
16.6866638777
 10
0.8816361169
 20
16.684864681
 10
0.8749125264
 20
16.6827160985
 10
0.8669707406
 20
16.6803292236
 10
0.8578274497
 20
16.6777348329
 10
0.8474281591
 20
16.6749403104
 10
0.8359030827
 20
16.6719987439
 10
0.8232621763
 20
16.6689256107
 10
0.8094794446
 20
16.6657260952
 10
0.7946363261
 20
16.6624282994
 10
0.7787399375
 20
16.6590405868
 10
0.7617798811
 20
16.6555662896
 10
0.7438162201
 20
16.6520211668
 10
0.7248596638
 20
16.6484094735
 10
0.7049169215
 20
16.6447341503
 10
0.684043413
 20
16.6410062677
 10
0.6622542697
 20
16.6372286351
  0
LINE
  5
25F
100
AcDbEntity
  8
0
100
AcDbLine
 62
7
  6
CONTINUOUS
 10
1.1208334923
 20
-15.9223404258
 11
1.2041665077
 21
-15.9010638326
  0
LINE
  5
260
100
AcDbEntity
  8
0
100
AcDbLine
 62
7
  6
CONTINUOUS
 10
1.9125
 20
-15.4542553306
 11
1.8291665077
 21
-15.4755319238
  0
LINE
  5
261
100
AcDbEntity
  8
0
100
AcDbLine
 62
7
  6
CONTINUOUS
 10
0.9333334923
 20
-15.1776595592
 11
0.85
 21
-15.1989361525
  0
LINE
  5
262
100
AcDbEntity
  8
0
100
AcDbLine
 62
7
  6
CONTINUOUS
 10
-0.8583334923
 20
-15.4542553306
 11
-0.9416665077
 21
-15.4755319238
  0
LINE
  5
263
100
AcDbEntity
  8
0
100
AcDbLine
 62
7
  6
CONTINUOUS
 10
-0.9416665077
 20
-15.3904255509
 11
-0.8583334923
 21
-15.3691489577
  0
LINE
  5
264
100
AcDbEntity
  8
0
100
AcDbLine
 62
7
  6
CONTINUOUS
 10
-3.6291667461
 20
-16.0287234049
 11
-3.7125
 21
-16.05
  0
LINE
  5
265
100
AcDbEntity
  8
0
100
AcDbLine
 62
7
  6
CONTINUOUS
 10
-3.7125
 20
-15.9436170191
 11
-3.6291667461
 21
-15.9223404259
  0
LINE
  5
266
100
AcDbEntity
  8
0
100
AcDbLine
 62
7
  6
CONTINUOUS
 10
-2.9208332539
 20
-15.4542553306
 11
-3.0041667461
 21
-15.4755319238
  0
LINE
  5
267
100
AcDbEntity
  8
0
100
AcDbLine
 62
7
  6
CONTINUOUS
 10
-4.6291666269
 20
-15.6882978857
 11
-4.7125
 21
-15.7095744789
  0
LINE
  5
268
100
AcDbEntity
  8
0
100
AcDbLine
 62
7
  6
CONTINUOUS
 10
1.225
 20
-16.0287234049
 11
1.1208334923
 21
-16.05
  0
LINE
  5
269
100
AcDbEntity
  8
0
100
AcDbLine
 62
7
  6
CONTINUOUS
 10
2.6833330154
 20
-15.3904255509
 11
2.7875
 21
-15.3691489577
  0
LINE
  5
26A
100
AcDbEntity
  8
0
100
AcDbLine
 62
7
  6
CONTINUOUS
 10
0.8291665077
 20
-15.0712765932
 11
0.9333334923
 21
-15.05
  0
LINE
  5
26B
100
AcDbEntity
  8
0
100
AcDbLine
 62
7
  6
CONTINUOUS
 10
-4.4833333731
 20
-16.0287234049
 11
-4.5875
 21
-16.05
  0
LINE
  5
26C
100
AcDbEntity
  8
0
100
AcDbLine
 62
7
  6
CONTINUOUS
 10
2.7875
 20
-15.4755319238
 11
2.6625
 21
-15.496808517
  0
LINE
  5
26D
100
AcDbEntity
  8
0
100
AcDbLine
 62
7
  6
CONTINUOUS
 10
1.8083334923
 20
-15.3904255509
 11
1.9333330154
 21
-15.3691489577
  0
LINE
  5
26E
100
AcDbEntity
  8
0
100
AcDbLine
 62
7
  6
CONTINUOUS
 10
-3.025
 20
-15.3904255509
 11
-2.9
 21
-15.3691489577
  0
LINE
  5
26F
100
AcDbEntity
  8
0
100
AcDbLine
 62
7
  6
CONTINUOUS
 10
-4.7541666269
 20
-15.6244680762
 11
-4.6291666269
 21
-15.603191483
  0
LINE
  5
270
100
AcDbEntity
  8
0
100
AcDbLine
 62
7
  6
CONTINUOUS
 10
3.9958330154
 20
-15.3904255509
 11
4.1416669846
 21
-15.3691489577
  0
LINE
  5
271
100
AcDbEntity
  8
0
100
AcDbLine
 62
7
  6
CONTINUOUS
 10
-2.7541667461
 20
-16.0287234049
 11
-2.9
 21
-16.05
  0
LINE
  5
272
100
AcDbEntity
  8
0
100
AcDbLine
 62
7
  6
CONTINUOUS
 10
-2.9208332539
 20
-15.9648936197
 11
-2.775
 21
-15.9436170191
  0
LINE
  5
273
100
AcDbEntity
  8
0
100
AcDbLine
 62
7
  6
CONTINUOUS
 10
-4.8166666269
 20
-15.3904255509
 11
-4.6708333731
 21
-15.3691489577
  0
LINE
  5
274
100
AcDbEntity
  8
0
100
AcDbLine
 62
7
  6
CONTINUOUS
 10
-4.7125
 20
-15.9648936197
 11
-4.5875
 21
-15.9648936197
  0
LINE
  5
275
100
AcDbEntity
  8
0
100
AcDbLine
 62
7
  6
CONTINUOUS
 10
4.1
 20
-15.9648936197
 11
4.225
 21
-15.9648936197
  0
LINE
  5
276
100
AcDbEntity
  8
0
100
AcDbLine
 62
7
  6
CONTINUOUS
 10
-3.7958332539
 20
-15.9436170191
 11
-3.7125
 21
-15.9436170191
  0
LINE
  5
277
100
AcDbEntity
  8
0
100
AcDbLine
 62
7
  6
CONTINUOUS
 10
0.9333334923
 20
-15.9223404258
 11
1.1208334923
 21
-15.9223404258
  0
LINE
  5
278
100
AcDbEntity
  8
0
100
AcDbLine
 62
7
  6
CONTINUOUS
 10
-2.6916667461
 20
-15.8372340381
 11
-2.5875
 21
-15.8372340381
  0
LINE
  5
279
100
AcDbEntity
  8
0
100
AcDbLine
 62
7
  6
CONTINUOUS
 10
2.1416669846
 20
-15.8372340381
 11
2.2458330154
 21
-15.8372340381
  0
LINE
  5
27A
100
AcDbEntity
  8
0
100
AcDbLine
 62
7
  6
CONTINUOUS
 10
2.2458330154
 20
-15.7095744789
 11
1.6833334923
 21
-15.7095744789
  0
LINE
  5
27B
100
AcDbEntity
  8
0
100
AcDbLine
 62
7
  6
CONTINUOUS
 10
-2.5875
 20
-15.7095744789
 11
-3.15
 21
-15.7095744789
  0
LINE
  5
27C
100
AcDbEntity
  8
0
100
AcDbLine
 62
7
  6
CONTINUOUS
 10
4.4125
 20
-15.6882978857
 11
4.1833330154
 21
-15.6882978857
  0
LINE
  5
27D
100
AcDbEntity
  8
0
100
AcDbLine
 62
7
  6
CONTINUOUS
 10
-4.4
 20
-15.6882978857
 11
-4.6291666269
 21
-15.6882978857
  0
LINE
  5
27E
100
AcDbEntity
  8
0
100
AcDbLine
 62
7
  6
CONTINUOUS
 10
-3.1291667461
 20
-15.6244680762
 11
-2.6916667461
 21
-15.6244680762
  0
LINE
  5
27F
100
AcDbEntity
  8
0
100
AcDbLine
 62
7
  6
CONTINUOUS
 10
1.2875
 20
-15.6244680762
 11
1.1
 21
-15.6244680762
  0
LINE
  5
280
100
AcDbEntity
  8
0
100
AcDbLine
 62
7
  6
CONTINUOUS
 10
1.7041665077
 20
-15.6244680762
 11
2.1416669846
 21
-15.6244680762
  0
LINE
  5
281
100
AcDbEntity
  8
0
100
AcDbLine
 62
7
  6
CONTINUOUS
 10
-4.6291666269
 20
-15.603191483
 11
-4.4
 21
-15.603191483
  0
LINE
  5
282
100
AcDbEntity
  8
0
100
AcDbLine
 62
7
  6
CONTINUOUS
 10
4.1833330154
 20
-15.603191483
 11
4.4125
 21
-15.603191483
  0
LINE
  5
283
100
AcDbEntity
  8
0
100
AcDbLine
 62
7
  6
CONTINUOUS
 10
-16.7125
 20
-15.55
 11
-15.9625
 21
-15.55
  0
LINE
  5
284
100
AcDbEntity
  8
0
100
AcDbLine
 62
7
  6
CONTINUOUS
 10
16.7875
 20
-15.55
 11
16.0375
 21
-15.55
  0
LINE
  5
285
100
AcDbEntity
  8
0
100
AcDbLine
 62
7
  6
CONTINUOUS
 10
3.9958330154
 20
-15.5393617034
 11
3.8916669846
 21
-15.5393617034
  0
LINE
  5
286
100
AcDbEntity
  8
0
100
AcDbLine
 62
7
  6
CONTINUOUS
 10
-4.8166666269
 20
-15.5393617034
 11
-4.9208333731
 21
-15.5393617034
  0
LINE
  5
287
100
AcDbEntity
  8
0
100
AcDbLine
 62
7
  6
CONTINUOUS
 10
1.1
 20
-15.496808517
 11
1.4125
 21
-15.496808517
  0
LINE
  5
288
100
AcDbEntity
  8
0
100
AcDbLine
 62
7
  6
CONTINUOUS
 10
-3.7125
 20
-15.4755319238
 11
-3.8375
 21
-15.4755319238
  0
LINE
  5
289
100
AcDbEntity
  8
0
100
AcDbLine
 62
7
  6
CONTINUOUS
 10
4.2666669846
 20
-15.4542553306
 11
4.1416669845
 21
-15.4542553306
  0
LINE
  5
28A
100
AcDbEntity
  8
0
100
AcDbLine
 62
7
  6
CONTINUOUS
 10
3.5375
 20
-15.4542553306
 11
3.475
 21
-15.4542553306
  0
LINE
  5
28B
100
AcDbEntity
  8
0
100
AcDbLine
 62
7
  6
CONTINUOUS
 10
3.2041669846
 20
-15.4542553306
 11
3.1625
 21
-15.4542553306
  0
LINE
  5
28C
100
AcDbEntity
  8
0
100
AcDbLine
 62
7
  6
CONTINUOUS
 10
-4.5458333731
 20
-15.4542553306
 11
-4.6708333731
 21
-15.4542553306
  0
LINE
  5
28D
100
AcDbEntity
  8
0
100
AcDbLine
 62
7
  6
CONTINUOUS
 10
-4.6708333731
 20
-15.3691489577
 11
-4.5458333731
 21
-15.3691489577
  0
LINE
  5
28E
100
AcDbEntity
  8
0
100
AcDbLine
 62
7
  6
CONTINUOUS
 10
-3.8375
 20
-15.3691489577
 11
-3.7125
 21
-15.3691489577
  0
LINE
  5
28F
100
AcDbEntity
  8
0
100
AcDbLine
 62
7
  6
CONTINUOUS
 10
-1.4208334923
 20
-15.3691489577
 11
-1.3166665077
 21
-15.3691489577
  0
LINE
  5
290
100
AcDbEntity
  8
0
100
AcDbLine
 62
7
  6
CONTINUOUS
 10
-1.15
 20
-15.3691489577
 11
-1.0458334923
 21
-15.3691489577
  0
LINE
  5
291
100
AcDbEntity
  8
0
100
AcDbLine
 62
7
  6
CONTINUOUS
 10
-0.8583334923
 20
-15.3691489577
 11
-0.775
 21
-15.3691489577
  0
LINE
  5
292
100
AcDbEntity
  8
0
100
AcDbLine
 62
7
  6
CONTINUOUS
 10
2.4125
 20
-15.3691489577
 11
2.5166669846
 21
-15.3691489577
  0
LINE
  5
293
100
AcDbEntity
  8
0
100
AcDbLine
 62
7
  6
CONTINUOUS
 10
2.9541669846
 20
-15.3691489577
 11
3.0583330154
 21
-15.3691489577
  0
LINE
  5
294
100
AcDbEntity
  8
0
100
AcDbLine
 62
7
  6
CONTINUOUS
 10
3.1625
 20
-15.3691489577
 11
3.2458330154
 21
-15.3691489577
  0
LINE
  5
295
100
AcDbEntity
  8
0
100
AcDbLine
 62
7
  6
CONTINUOUS
 10
3.4958330154
 20
-15.3691489577
 11
3.5791669846
 21
-15.3691489577
  0
LINE
  5
296
100
AcDbEntity
  8
0
100
AcDbLine
 62
7
  6
CONTINUOUS
 10
4.1416669846
 20
-15.3691489577
 11
4.2666669846
 21
-15.3691489577
  0
LINE
  5
297
100
AcDbEntity
  8
0
100
AcDbLine
 62
7
  6
CONTINUOUS
 10
4.725
 20
-15.3691489577
 11
4.8291669846
 21
-15.3691489577
  0
LINE
  5
298
100
AcDbEntity
  8
0
100
AcDbLine
 62
7
  6
CONTINUOUS
 10
5.0166669846
 20
-15.3691489577
 11
5.1
 21
-15.3691489577
  0
LINE
  5
299
100
AcDbEntity
  8
0
100
AcDbLine
 62
7
  6
CONTINUOUS
 10
5.475
 20
-15.3691489577
 11
5.6
 21
-15.3691489577
  0
LINE
  5
29A
100
AcDbEntity
  8
0
100
AcDbLine
 62
7
  6
CONTINUOUS
 10
6.0166669846
 20
-15.3691489577
 11
6.1416669846
 21
-15.3691489577
  0
LINE
  5
29B
100
AcDbEntity
  8
0
100
AcDbLine
 62
7
  6
CONTINUOUS
 10
1.4125
 20
-15.3053191781
 11
1.2875
 21
-15.3053191781
  0
LINE
  5
29C
100
AcDbEntity
  8
0
100
AcDbLine
 62
7
  6
CONTINUOUS
 10
1.1208334923
 20
-15.1776595592
 11
0.9333334923
 21
-15.1776595592
  0
LINE
  5
29D
100
AcDbEntity
  8
0
100
AcDbLine
 62
7
  6
CONTINUOUS
 10
-1.3166665077
 20
-15.156382966
 11
-1.4208334923
 21
-15.156382966
  0
LINE
  5
29E
100
AcDbEntity
  8
0
100
AcDbLine
 62
7
  6
CONTINUOUS
 10
-6.0875
 20
-15.05
 11
-5.9
 21
-15.05
  0
LINE
  5
29F
100
AcDbEntity
  8
0
100
AcDbLine
 62
7
  6
CONTINUOUS
 10
-5.275
 20
-15.05
 11
-5.0875
 21
-15.05
  0
LINE
  5
2A0
100
AcDbEntity
  8
0
100
AcDbLine
 62
7
  6
CONTINUOUS
 10
-3.525
 20
-15.05
 11
-3.4208332539
 21
-15.05
  0
LINE
  5
2A1
100
AcDbEntity
  8
0
100
AcDbLine
 62
7
  6
CONTINUOUS
 10
-1.4208334923
 20
-15.05
 11
-1.3166665077
 21
-15.05
  0
LINE
  5
2A2
100
AcDbEntity
  8
0
100
AcDbLine
 62
7
  6
CONTINUOUS
 10
0.9333334923
 20
-15.05
 11
1.1208334923
 21
-15.05
  0
LINE
  5
2A3
100
AcDbEntity
  8
0
100
AcDbLine
 62
7
  6
CONTINUOUS
 10
-4.5458333731
 20
-15.3691489577
 11
-4.4208333731
 21
-15.3904255509
  0
LINE
  5
2A4
100
AcDbEntity
  8
0
100
AcDbLine
 62
7
  6
CONTINUOUS
 10
-2.7958332539
 20
-15.4755319238
 11
-2.9208332539
 21
-15.4542553306
  0
LINE
  5
2A5
100
AcDbEntity
  8
0
100
AcDbLine
 62
7
  6
CONTINUOUS
 10
-2.9
 20
-15.3691489577
 11
-2.775
 21
-15.3904255509
  0
LINE
  5
2A6
100
AcDbEntity
  8
0
100
AcDbLine
 62
7
  6
CONTINUOUS
 10
1.9333330154
 20
-16.05
 11
1.8083334923
 21
-16.0287234049
  0
LINE
  5
2A7
100
AcDbEntity
  8
0
100
AcDbLine
 62
7
  6
CONTINUOUS
 10
2.0375
 20
-15.4755319238
 11
1.9125
 21
-15.4542553306
  0
LINE
  5
2A8
100
AcDbEntity
  8
0
100
AcDbLine
 62
7
  6
CONTINUOUS
 10
1.9333330154
 20
-15.3691489577
 11
2.0583330154
 21
-15.3904255509
  0
LINE
  5
2A9
100
AcDbEntity
  8
0
100
AcDbLine
 62
7
  6
CONTINUOUS
 10
4.2666669846
 20
-15.3691489577
 11
4.3916669846
 21
-15.3904255509
  0
LINE
  5
2AA
100
AcDbEntity
  8
0
100
AcDbLine
 62
7
  6
CONTINUOUS
 10
0.9333334923
 20
-16.05
 11
0.8291665077
 21
-16.0287234049
  0
LINE
  5
2AB
100
AcDbEntity
  8
0
100
AcDbLine
 62
7
  6
CONTINUOUS
 10
1.1208334923
 20
-15.05
 11
1.225
 21
-15.0712765932
  0
LINE
  5
2AC
100
AcDbEntity
  8
0
100
AcDbLine
 62
7
  6
CONTINUOUS
 10
-3.6291667461
 20
-15.496808517
 11
-3.7125
 21
-15.4755319238
  0
LINE
  5
2AD
100
AcDbEntity
  8
0
100
AcDbLine
 62
7
  6
CONTINUOUS
 10
-3.7125
 20
-15.3691489577
 11
-3.6291667461
 21
-15.3904255509
  0
LINE
  5
2AE
100
AcDbEntity
  8
0
100
AcDbLine
 62
7
  6
CONTINUOUS
 10
0.85
 20
-15.9010638326
 11
0.9333334923
 21
-15.9223404258
  0
LINE
  5
2AF
100
AcDbEntity
  8
0
100
AcDbLine
 62
7
  6
CONTINUOUS
 10
-0.775
 20
-15.4755319238
 11
-0.8583334923
 21
-15.4542553306
  0
LINE
  5
2B0
100
AcDbEntity
  8
0
100
AcDbLine
 62
7
  6
CONTINUOUS
 10
1.8291665077
 20
-15.9436170191
 11
1.9125
 21
-15.9648936197
  0
LINE
  5
2B1
100
AcDbEntity
  8
0
100
AcDbLine
 62
7
  6
CONTINUOUS
 10
4.1
 20
-16.05
 11
4.0166669846
 21
-16.0287234049
  0
LINE
  5
2B2
100
AcDbEntity
  8
0
100
AcDbLine
 62
7
  6
CONTINUOUS
 10
1.2041665077
 20
-15.1989361525
 11
1.1208334923
 21
-15.1776595592
  0
LINE
  5
2B3
100
AcDbEntity
  8
0
100
AcDbLine
 62
7
  6
CONTINUOUS
 10
-0.775
 20
-15.3691489577
 11
-0.7125
 21
-15.3904255509
  0
LINE
  5
2B4
100
AcDbEntity
  8
0
100
AcDbLine
 62
7
  6
CONTINUOUS
 10
1.8083334923
 20
-16.0287234049
 11
1.7458334923
 21
-16.0074468099
  0
LINE
  5
2B5
100
AcDbEntity
  8
0
100
AcDbLine
 62
7
  6
CONTINUOUS
 10
-4.4208333731
 20
-15.496808517
 11
-4.4625
 21
-15.4755319238
  0
LINE
  5
2B6
100
AcDbEntity
  8
0
100
AcDbLine
 62
7
  6
CONTINUOUS
 10
-3.0458332539
 20
-15.9223404258
 11
-3.0041667461
 21
-15.9436170191
  0
LINE
  5
2B7
100
AcDbEntity
  8
0
100
AcDbLine
 62
7
  6
CONTINUOUS
 10
-3.6291667461
 20
-15.3904255509
 11
-3.5875
 21
-15.4117021441
  0
LINE
  5
2B8
100
AcDbEntity
  8
0
100
AcDbLine
 62
7
  6
CONTINUOUS
 10
-0.7333334923
 20
-15.496808517
 11
-0.775
 21
-15.4755319238
  0
LINE
  5
2B9
100
AcDbEntity
  8
0
100
AcDbLine
 62
7
  6
CONTINUOUS
 10
-2.775
 20
-15.3904255509
 11
-2.6708332539
 21
-15.4542553306
  0
LINE
  5
2BA
100
AcDbEntity
  8
0
100
AcDbLine
 62
7
  6
CONTINUOUS
 10
-3.9208332539
 20
-16.0287234049
 11
-3.9833332539
 21
-15.9861702129
  0
LINE
  5
2BB
100
AcDbEntity
  8
0
100
AcDbLine
 62
7
  6
CONTINUOUS
 10
-3.9416667461
 20
-15.8797872394
 11
-3.8791667461
 21
-15.9223404258
  0
LINE
  5
2BC
100
AcDbEntity
  8
0
100
AcDbLine
 62
7
  6
CONTINUOUS
 10
-4.4208333731
 20
-15.3904255509
 11
-4.3583333731
 21
-15.4329787374
  0
LINE
  5
2BD
100
AcDbEntity
  8
0
100
AcDbLine
 62
7
  6
CONTINUOUS
 10
-3.0875
 20
-16.0074468099
 11
-3.15
 21
-15.9648936197
  0
LINE
  5
2BE
100
AcDbEntity
  8
0
100
AcDbLine
 62
7
  6
CONTINUOUS
 10
-3.5666667461
 20
-15.5393617034
 11
-3.6291667461
 21
-15.496808517
  0
LINE
  5
2BF
100
AcDbEntity
  8
0
100
AcDbLine
 62
7
  6
CONTINUOUS
 10
-2.7333332539
 20
-15.5180851102
 11
-2.7958332539
 21
-15.4755319238
  0
LINE
  5
2C0
100
AcDbEntity
  8
0
100
AcDbLine
 62
7
  6
CONTINUOUS
 10
-4.8375
 20
-16.0074468099
 11
-4.9
 21
-15.9436170191
  0
LINE
  5
2C1
100
AcDbEntity
  8
0
100
AcDbLine
 62
7
  6
CONTINUOUS
 10
-3.9833332539
 20
-15.9861702129
 11
-4.0458332539
 21
-15.9223404259
  0
LINE
  5
2C2
100
AcDbEntity
  8
0
100
AcDbLine
 62
7
  6
CONTINUOUS
 10
-13.4625
 20
-6.3
 11
-13.4625
 21
-5.8
  0
LINE
  5
2C3
100
AcDbEntity
  8
0
100
AcDbLine
 62
7
  6
CONTINUOUS
 10
-13.4625
 20
10.15
 11
-13.4625
 21
12.45
  0
LWPOLYLINE
  5
2C4
100
AcDbEntity
  8
0
100
AcDbPolyline
 62
7
  6
CONTINUOUS
 90
23
 70
0
 10
-0.8184757544
 20
14.3108943215
 10
-0.8190182404
 20
14.3106346959
 10
-0.8192031767
 20
14.3105481232
 10
-0.8179974908
 20
14.3110504188
 10
-0.8156446834
 20
14.3119671228
 10
-0.8121306869
 20
14.3132517851
 10
-0.807405659
 20
14.3148760275
 10
-0.801683593
 20
14.3167305499
 10
-0.7949841944
 20
14.318784633
 10
-0.78725542
 20
14.3210324525
 10
-0.778616403
 20
14.3234218508
 10
-0.7690730906
 20
14.3259384256
 10
-0.7586077565
 20
14.3285756006
 10
-0.7473162529
 20
14.331301272
 10
-0.7352193212
 20
14.3341052968
 10
-0.7223095827
 20
14.3369849482
 10
-0.7086445199
 20
14.3399240183
 10
-0.6942401063
 20
14.3429168498
 10
-0.6790949518
 20
14.3459618652
 10
-0.6632367898
 20
14.349052048
 10
-0.646675676
 20
14.3521844755
 10
-0.6294149892
 20
14.355357757
 10
-0.6114681933
 20
14.3585688827
  0
LINE
  5
2C5
100
AcDbEntity
  8
0
100
AcDbLine
 62
7
  6
CONTINUOUS
 10
0.8935608235
 20
15.0891470076
 11
0.8940666228
 21
15.0893879282
  0
LINE
  5
2C6
100
AcDbEntity
  8
0
100
AcDbLine
 62
7
  6
CONTINUOUS
 10
-0.8185770269
 20
13.5108472075
 11
-0.8190248033
 21
13.510636157
  0
LWPOLYLINE
  5
2C7
100
AcDbEntity
  8
0
100
AcDbPolyline
 62
7
  6
CONTINUOUS
 90
22
 70
0
 10
0.8937745735
 20
14.2892503618
 10
0.8940836082
 20
14.2893941453
 10
0.8937957659
 20
14.2892707334
 10
0.8921663744
 20
14.2886085682
 10
0.8894171342
 20
14.2875636041
 10
0.8855367379
 20
14.2861790152
 10
0.8804773596
 20
14.2844799446
 10
0.874425681
 20
14.2825614139
 10
0.8673953159
 20
14.2804501268
 10
0.8593470898
 20
14.2781542392
 10
0.8503984626
 20
14.2757229697
 10
0.8405545109
 20
14.2731690506
 10
0.829801346
 20
14.2704990165
 10
0.8182350508
 20
14.2677444201
 10
0.8058674455
 20
14.2649133594
 10
0.7926915971
 20
14.2620089223
 10
0.7787809611
 20
14.2590507245
 10
0.764159835
 20
14.2560459575
 10
0.7488178169
 20
14.2529942015
 10
0.7327778998
 20
14.2499012066
 10
0.7160534807
 20
14.2467698209
 10
0.6986525182
 20
14.2436015515
  0
LWPOLYLINE
  5
2C8
100
AcDbEntity
  8
0
100
AcDbPolyline
 62
7
  6
CONTINUOUS
 90
21
 70
0
 10
0.8941687934
 20
15.0894368984
 10
0.8928785432
 20
15.0889016394
 10
0.8904411454
 20
15.0879561152
 10
0.8868437212
 20
15.0866465932
 10
0.8820353947
 20
15.0850006198
 10
0.8762277444
 20
15.0831260316
 10
0.8694401721
 20
15.0810532135
 10
0.8616206659
 20
15.0787878851
 10
0.8528861697
 20
15.0763813343
 10
0.8432422132
 20
15.0738478179
 10
0.8326711747
 20
15.0711938842
 10
0.8212670472
 20
15.0684510465
 10
0.8090494891
 20
15.0656292249
 10
0.7960112425
 20
15.0627312347
 10
0.7822093849
 20
15.059773196
 10
0.7676588009
 20
15.0567605766
 10
0.7523584438
 20
15.0536950785
 10
0.7363381442
 20
15.0505841396
 10
0.7196079266
 20
15.0474306677
 10
0.7021711693
 20
15.0442360478
 10
0.6840440262
 20
15.0410037497
  0
LWPOLYLINE
  5
2C9
100
AcDbEntity
  8
0
100
AcDbPolyline
 62
7
  6
CONTINUOUS
 90
20
 70
0
 10
-0.8190248033
 20
13.510636157
 10
-0.8173565958
 20
13.5113179245
 10
-0.8145494996
 20
13.5123874343
 10
-0.8104722198
 20
13.51384187
 10
-0.8050828934
 20
13.5156464257
 10
-0.7986161725
 20
13.5176854046
 10
-0.7910932499
 20
13.519927537
 10
-0.7824674123
 20
13.522365006
 10
-0.7728906925
 20
13.5249382194
 10
-0.7623896828
 20
13.5276290201
 10
-0.7509393424
 20
13.5304341338
 10
-0.7386205934
 20
13.533326012
 10
-0.7254482869
 20
13.5362956911
 10
-0.7114127908
 20
13.5393405089
 10
-0.6965555627
 20
13.5424475181
 10
-0.6808848662
 20
13.5456120849
 10
-0.6644030246
 20
13.5488318665
 10
-0.6471396377
 20
13.552099989
 10
-0.6291051511
 20
13.5554138723
 10
-0.610307606
 20
13.5587716821
  0
LINE
  5
2CA
100
AcDbEntity
  8
0
100
AcDbLine
 62
7
  6
CONTINUOUS
 10
-3.9208332539
 20
-15.3904255509
 11
-3.8375
 21
-15.3691489577
  0
LINE
  5
2CB
100
AcDbEntity
  8
0
100
AcDbLine
 62
7
  6
CONTINUOUS
 10
-4.6708333731
 20
-15.4542553306
 11
-4.7541666269
 21
-15.4755319238
  0
LINE
  5
2CC
100
AcDbEntity
  8
0
100
AcDbLine
 62
7
  6
CONTINUOUS
 10
-16.7125
 20
-13.7
 11
-15.9625
 21
-13.7
  0
LINE
  5
2CD
100
AcDbEntity
  8
0
100
AcDbLine
 62
7
  6
CONTINUOUS
 10
16.7875
 20
-13.7
 11
16.0375
 21
-13.7
  0
LINE
  5
2CE
100
AcDbEntity
  8
0
100
AcDbLine
 62
7
  6
CONTINUOUS
 10
0.2458334923
 20
-12.6776595741
 11
0.1625
 21
-12.6776595741
  0
LINE
  5
2CF
100
AcDbEntity
  8
0
100
AcDbLine
 62
7
  6
CONTINUOUS
 10
-1.4208334923
 20
-12.6776595741
 11
-1.5041665077
 21
-12.6776595741
  0
LINE
  5
2D0
100
AcDbEntity
  8
0
100
AcDbLine
 62
7
  6
CONTINUOUS
 10
-0.2125
 20
-12.55
 11
-0.3375
 21
-12.55
  0
LINE
  5
2D1
100
AcDbEntity
  8
0
100
AcDbLine
 62
7
  6
CONTINUOUS
 10
-1.0041665077
 20
-12.55
 11
-1.1291665077
 21
-12.55
  0
LINE
  5
2D2
100
AcDbEntity
  8
0
100
AcDbLine
 62
7
  6
CONTINUOUS
 10
-1.775
 20
-12.55
 11
-1.9208334923
 21
-12.55
  0
LINE
  5
2D3
100
AcDbEntity
  8
0
100
AcDbLine
 62
7
  6
CONTINUOUS
 10
-2.4416665077
 20
-12.55
 11
-2.5666667461
 21
-12.55
  0
LINE
  5
2D4
100
AcDbEntity
  8
0
100
AcDbLine
 62
7
  6
CONTINUOUS
 10
-3.3583332539
 20
-12.55
 11
-3.4833332539
 21
-12.55
  0
LINE
  5
2D5
100
AcDbEntity
  8
0
100
AcDbLine
 62
7
  6
CONTINUOUS
 10
-4.4
 20
-12.55
 11
-4.5875
 21
-12.55
  0
LINE
  5
2D6
100
AcDbEntity
  8
0
100
AcDbLine
 62
7
  6
CONTINUOUS
 10
-5.7333333135
 20
-12.55
 11
-5.8583333135
 21
-12.55
  0
LINE
  5
2D7
100
AcDbEntity
  8
0
100
AcDbLine
 62
7
  6
CONTINUOUS
 10
6.3725
 20
-12.4701123312
 11
5.4475
 21
-12.4701123312
  0
LINE
  5
2D8
100
AcDbEntity
  8
0
100
AcDbLine
 62
7
  6
CONTINUOUS
 10
-4.5875
 20
-12.4223404258
 11
-4.4
 21
-12.4223404258
  0
LINE
  5
2D9
100
AcDbEntity
  8
0
100
AcDbLine
 62
7
  6
CONTINUOUS
 10
-4.2333332539
 20
-12.2946808517
 11
-4.1083332539
 21
-12.2946808517
  0
LINE
  5
2DA
100
AcDbEntity
  8
0
100
AcDbLine
 62
7
  6
CONTINUOUS
 10
-0.0041665077
 20
-12.2521276653
 11
-0.2125
 21
-12.2521276653
  0
LINE
  5
2DB
100
AcDbEntity
  8
0
100
AcDbLine
 62
7
  6
CONTINUOUS
 10
-0.3375
 20
-12.2521276653
 11
-0.8375
 21
-12.2521276653
  0
LINE
  5
2DC
100
AcDbEntity
  8
0
100
AcDbLine
 62
7
  6
CONTINUOUS
 10
-3.65
 20
-12.1882978857
 11
-3.9416667461
 21
-12.1882978857
  0
LINE
  5
2DD
100
AcDbEntity
  8
0
100
AcDbLine
 62
7
  6
CONTINUOUS
 10
-0.6916665077
 20
-12.1244680762
 11
-0.3375
 21
-12.1244680762
  0
LINE
  5
2DE
100
AcDbEntity
  8
0
100
AcDbLine
 62
7
  6
CONTINUOUS
 10
-0.2125
 20
-12.1244680762
 11
-0.0041665077
 21
-12.1244680762
  0
LINE
  5
2DF
100
AcDbEntity
  8
0
100
AcDbLine
 62
7
  6
CONTINUOUS
 10
-2.0875
 20
-12.103191483
 11
-2.4416665077
 21
-12.103191483
  0
LINE
  5
2E0
100
AcDbEntity
  8
0
100
AcDbLine
 62
7
  6
CONTINUOUS
 10
-5.3583333731
 20
-12.103191483
 11
-5.7333333135
 21
-12.103191483
  0
LINE
  5
2E1
100
AcDbEntity
  8
0
100
AcDbLine
 62
7
  6
CONTINUOUS
 10
-3.9416667461
 20
-12.0819148898
 11
-3.65
 21
-12.0819148898
  0
LINE
  5
2E2
100
AcDbEntity
  8
0
100
AcDbLine
 62
7
  6
CONTINUOUS
 10
-2.8166667461
 20
-12.0819148898
 11
-3.3583332539
 21
-12.0819148898
  0
LINE
  5
2E3
100
AcDbEntity
  8
0
100
AcDbLine
 62
7
  6
CONTINUOUS
 10
5.4475
 20
-12.0248876688
 11
6.3725
 21
-12.0248876688
  0
LINE
  5
2E4
100
AcDbEntity
  8
0
100
AcDbLine
 62
7
  6
CONTINUOUS
 10
-5.7333333135
 20
-11.9755319238
 11
-5.3375
 21
-11.9755319238
  0
LINE
  5
2E5
100
AcDbEntity
  8
0
100
AcDbLine
 62
7
  6
CONTINUOUS
 10
-2.4416665077
 20
-11.9755319238
 11
-2.0458334923
 21
-11.9755319238
  0
LINE
  5
2E6
100
AcDbEntity
  8
0
100
AcDbLine
 62
7
  6
CONTINUOUS
 10
-3.3583332539
 20
-11.9542553306
 11
-2.8166667461
 21
-11.9542553306
  0
LINE
  5
2E7
100
AcDbEntity
  8
0
100
AcDbLine
 62
7
  6
CONTINUOUS
 10
-4.5875
 20
-12.55
 11
-4.6916666269
 21
-12.5287234049
  0
LINE
  5
2E8
100
AcDbEntity
  8
0
100
AcDbLine
 62
7
  6
CONTINUOUS
 10
-5.3583333731
 20
-11.55
 11
-5.2541666269
 21
-11.5712765932
  0
LINE
  5
2E9
100
AcDbEntity
  8
0
100
AcDbLine
 62
7
  6
CONTINUOUS
 10
-4.4
 20
-11.55
 11
-4.2958332539
 21
-11.5712765932
  0
LINE
  5
2EA
100
AcDbEntity
  8
0
100
AcDbLine
 62
7
  6
CONTINUOUS
 10
4.35
 20
-15.4755319238
 11
4.2666669846
 21
-15.4542553306
  0
LINE
  5
2EB
100
AcDbEntity
  8
0
100
AcDbLine
 62
7
  6
CONTINUOUS
 10
5.1
 20
-15.4755319238
 11
5.0166669846
 21
-15.4542553306
  0
LINE
  5
2EC
100
AcDbEntity
  8
0
100
AcDbLine
 62
7
  6
CONTINUOUS
 10
-4.6708333731
 20
-12.4010638326
 11
-4.5875
 21
-12.4223404258
  0
LINE
  5
2ED
100
AcDbEntity
  8
0
100
AcDbLine
 62
7
  6
CONTINUOUS
 10
-4.3166667461
 20
-11.6989361525
 11
-4.4
 21
-11.6776595592
  0
LINE
  5
2EE
100
AcDbEntity
  8
0
100
AcDbLine
 62
7
  6
CONTINUOUS
 10
3.2458330154
 20
-15.3691489577
 11
3.3083330154
 21
-15.3904255509
  0
LINE
  5
2EF
100
AcDbEntity
  8
0
100
AcDbLine
 62
7
  6
CONTINUOUS
 10
3.5791669846
 20
-15.3691489577
 11
3.6416669846
 21
-15.3904255509
  0
LINE
  5
2F0
100
AcDbEntity
  8
0
100
AcDbLine
 62
7
  6
CONTINUOUS
 10
5.1
 20
-15.3691489577
 11
5.1625
 21
-15.3904255509
  0
LINE
  5
2F1
100
AcDbEntity
  8
0
100
AcDbLine
 62
7
  6
CONTINUOUS
 10
-5.275
 20
-11.6776595592
 11
-5.3375
 21
-11.656382966
  0
LINE
  5
2F2
100
AcDbEntity
  8
0
100
AcDbLine
 62
7
  6
CONTINUOUS
 10
0.8291665077
 20
-16.0287234049
 11
0.7458334923
 21
-15.9861702129
  0
LINE
  5
2F3
100
AcDbEntity
  8
0
100
AcDbLine
 62
7
  6
CONTINUOUS
 10
-6.1708333433
 20
-12.0393617034
 11
-6.4625
 21
-11.8904255509
  0
LINE
  5
2F4
100
AcDbEntity
  8
0
100
AcDbLine
 62
7
  6
CONTINUOUS
 10
1.7875
 20
-15.9223404258
 11
1.8291665077
 21
-15.9436170191
  0
LINE
  5
2F5
100
AcDbEntity
  8
0
100
AcDbLine
 62
7
  6
CONTINUOUS
 10
-4.6916666269
 20
-12.5287234049
 11
-4.775
 21
-12.4861702129
  0
LINE
  5
2F6
100
AcDbEntity
  8
0
100
AcDbLine
 62
7
  6
CONTINUOUS
 10
1.225
 20
-15.0712765932
 11
1.3083334923
 21
-15.1138297796
  0
LINE
  5
2F7
100
AcDbEntity
  8
0
100
AcDbLine
 62
7
  6
CONTINUOUS
 10
4.0166669846
 20
-16.0287234049
 11
3.975
 21
-16.0074468099
  0
LINE
  5
2F8
100
AcDbEntity
  8
0
100
AcDbLine
 62
7
  6
CONTINUOUS
 10
4.0166669846
 20
-15.9223404258
 11
4.1
 21
-15.9648936197
  0
LINE
  5
2F9
100
AcDbEntity
  8
0
100
AcDbLine
 62
7
  6
CONTINUOUS
 10
3.2458330154
 20
-15.4755319238
 11
3.2041669846
 21
-15.4542553306
  0
LINE
  5
2FA
100
AcDbEntity
  8
0
100
AcDbLine
 62
7
  6
CONTINUOUS
 10
-4.2958332539
 20
-11.5712765932
 11
-4.2125
 21
-11.6138297796
  0
LINE
  5
2FB
100
AcDbEntity
  8
0
100
AcDbLine
 62
7
  6
CONTINUOUS
 10
3.5791669846
 20
-15.4755319238
 11
3.5375
 21
-15.4542553306
  0
LINE
  5
2FC
100
AcDbEntity
  8
0
100
AcDbLine
 62
7
  6
CONTINUOUS
 10
-6.4208333321
 20
-11.8265957713
 11
-6.025
 21
-12.0393617034
  0
LINE
  5
2FD
100
AcDbEntity
  8
0
100
AcDbLine
 62
7
  6
CONTINUOUS
 10
2.0583330154
 20
-15.3904255509
 11
2.1625
 21
-15.4542553306
  0
LINE
  5
2FE
100
AcDbEntity
  8
0
100
AcDbLine
 62
7
  6
CONTINUOUS
 10
-0.7125
 20
-15.3904255509
 11
-0.65
 21
-15.4329787374
  0
LINE
  5
2FF
100
AcDbEntity
  8
0
100
AcDbLine
 62
7
  6
CONTINUOUS
 10
-4.7333333731
 20
-12.3585106313
 11
-4.6708333731
 21
-12.4010638326
  0
LINE
  5
300
100
AcDbEntity
  8
0
100
AcDbLine
 62
7
  6
CONTINUOUS
 10
0.7875
 20
-15.8585106313
 11
0.85
 21
-15.9010638326
  0
LINE
  5
301
100
AcDbEntity
  8
0
100
AcDbLine
 62
7
  6
CONTINUOUS
 10
1.7458334923
 20
-16.0074468099
 11
1.6833334923
 21
-15.9648936197
  0
LINE
  5
302
100
AcDbEntity
  8
0
100
AcDbLine
 62
7
  6
CONTINUOUS
 10
-4.2541667461
 20
-11.7414893389
 11
-4.3166667461
 21
-11.6989361525
  0
LINE
  5
303
100
AcDbEntity
  8
0
100
AcDbLine
 62
7
  6
CONTINUOUS
 10
-5.2541666269
 20
-11.5712765932
 11
-5.1708333731
 21
-11.6351063728
  0
LINE
  5
304
100
AcDbEntity
  8
0
100
AcDbLine
 62
7
  6
CONTINUOUS
 10
-4.3583333731
 20
-15.4329787374
 11
-4.3166666269
 21
-15.4755319238
  0
LINE
  5
305
100
AcDbEntity
  8
0
100
AcDbLine
 62
7
  6
CONTINUOUS
 10
-3.15
 20
-15.9648936197
 11
-3.1916667461
 21
-15.9223404259
  0
LINE
  5
306
100
AcDbEntity
  8
0
100
AcDbLine
 62
7
  6
CONTINUOUS
 10
-3.5875
 20
-15.4117021441
 11
-3.5458332539
 21
-15.4542553306
  0
LINE
  5
307
100
AcDbEntity
  8
0
100
AcDbLine
 62
7
  6
CONTINUOUS
 10
-3.1083332539
 20
-15.8585106313
 11
-3.0458332539
 21
-15.9223404258
  0
LINE
  5
308
100
AcDbEntity
  8
0
100
AcDbLine
 62
7
  6
CONTINUOUS
 10
-4.775
 20
-12.4861702129
 11
-4.8583333731
 21
-12.4010638326
  0
LINE
  5
309
100
AcDbEntity
  8
0
100
AcDbLine
 62
7
  6
CONTINUOUS
 10
-5.2333333731
 20
-11.7202127457
 11
-5.275
 21
-11.6776595592
  0
LINE
  5
30A
100
AcDbEntity
  8
0
100
AcDbLine
 62
7
  6
CONTINUOUS
 10
-6.4208333321
 20
-12.2521276653
 11
-6.4625
 21
-12.1882978857
  0
LWPOLYLINE
  5
30B
100
AcDbEntity
  8
0
100
AcDbPolyline
 62
7
  6
CONTINUOUS
 90
22
 70
0
 10
0.8941961612
 20
12.6894417002
 10
0.8942224281
 20
12.6894544296
 10
0.8930888229
 20
12.6889819979
 10
0.890372387
 20
12.687927692
 10
0.8864374636
 20
12.6865028864
 10
0.8813260344
 20
12.6847669217
 10
0.8749589113
 20
12.6827325559
 10
0.8675344915
 20
12.6804938018
 10
0.8590747672
 20
12.6780779703
 10
0.8495347571
 20
12.675490615
 10
0.8390116718
 20
12.6727731002
 10
0.8275126654
 20
12.669938449
 10
0.8150178451
 20
12.6669917454
 10
0.8015861013
 20
12.663954475
 10
0.7872223271
 20
12.6608329954
 10
0.7719266068
 20
12.6576318645
 10
0.7557524218
 20
12.6543656684
 10
0.7387082515
 20
12.6510384508
 10
0.7207959404
 20
12.6476525134
 10
0.7020583734
 20
12.6442172637
 10
0.6825058209
 20
12.6407352666
 10
0.6621431671
 20
12.6372078365
  0
LWPOLYLINE
  5
30C
100
AcDbEntity
  8
0
100
AcDbPolyline
 62
7
  6
CONTINUOUS
 90
21
 70
0
 10
-0.8183901803
 20
11.1109434462
 10
-0.8190133074
 20
11.1106461344
 10
-0.8189673244
 20
11.1106601821
 10
-0.817132035
 20
11.111404023
 10
-0.8137033273
 20
11.1126929749
 10
-0.8086003035
 20
11.1144770141
 10
-0.8017791556
 20
11.1166990999
 10
-0.7935722047
 20
11.1191997609
 10
-0.7840332858
 20
11.1219311793
 10
-0.7730762968
 20
11.1248906359
 10
-0.7608567208
 20
11.1280142627
 10
-0.7473877806
 20
11.1312833923
 10
-0.7326397822
 20
11.134691745
 10
-0.7167072651
 20
11.1382068202
 10
-0.6995984861
 20
11.1418196595
 10
-0.681312997
 20
11.1455252398
 10
-0.6619356353
 20
11.1493030197
 10
-0.6414827738
 20
11.1531480238
 10
-0.6199638513
 20
11.1570572153
 10
-0.5974556542
 20
11.1610163582
 10
-0.5739790974
 20
11.1650223932
  0
LWPOLYLINE
  5
30D
100
AcDbEntity
  8
0
100
AcDbPolyline
 62
7
  6
CONTINUOUS
 90
22
 70
0
 10
0.8936276601
 20
11.8891852304
 10
0.8940701497
 20
11.8893933818
 10
0.8937965608
 20
11.8892769992
 10
0.8918914891
 20
11.8885061413
 10
0.8886750709
 20
11.8872955488
 10
0.88416241
 20
11.8857079987
 10
0.8782858407
 20
11.8837706741
 10
0.8712860669
 20
11.8816012649
 10
0.8631989787
 20
11.8792348787
 10
0.8539769204
 20
11.8766781713
 10
0.8437439861
 20
11.873981823
 10
0.832514536
 20
11.8711610905
 10
0.8202735789
 20
11.8682222799
 10
0.8070983445
 20
11.8651918368
 10
0.7929993203
 20
11.8620778917
 10
0.777969378
 20
11.858883893
 10
0.7620556955
 20
11.8556238543
 10
0.7452668974
 20
11.85230247
 10
0.7276002027
 20
11.8489217276
 10
0.7090833044
 20
11.8454888979
 10
0.6897231581
 20
11.8420061339
 10
0.6695308298
 20
11.83847562
  0
LWPOLYLINE
  5
30E
100
AcDbEntity
  8
0
100
AcDbPolyline
 62
7
  6
CONTINUOUS
 90
22
 70
0
 10
-0.8186756334
 20
12.7108033582
 10
-0.8191081467
 20
12.7106007941
 10
-0.8187920502
 20
12.7107349145
 10
-0.8168175153
 20
12.711528656
 10
-0.8134278798
 20
12.712795279
 10
-0.8085834291
 20
12.7144850336
 10
-0.8022276759
 20
12.7165592354
 10
-0.7946149251
 20
12.7188915701
 10
-0.7857657716
 20
12.7214469914
 10
-0.7756171273
 20
12.7242182851
 10
-0.7643195045
 20
12.7271444138
 10
-0.7518890888
 20
12.7302073392
 10
-0.7382952591
 20
12.7334023448
 10
-0.723626298
 20
12.7366988946
 10
-0.7078903125
 20
12.7400880268
 10
-0.6910758758
 20
12.7435661331
 10
-0.6732478323
 20
12.7471160383
 10
-0.6544178902
 20
12.7507332119
 10
-0.6345937105
 20
12.7544144834
 10
-0.6138365887
 20
12.7581476469
 10
-0.5921629759
 20
12.7619297297
 10
-0.5695832582
 20
12.7657591874
  0
LWPOLYLINE
  5
30F
100
AcDbEntity
  8
0
100
AcDbPolyline
 62
7
  6
CONTINUOUS
 90
22
 70
0
 10
0.8938760583
 20
13.4893011999
 10
0.8941234205
 20
13.4894153091
 10
0.8934602909
 20
13.48913321
 10
0.891192832
 20
13.4882328133
 10
0.8876454557
 20
13.4869216288
 10
0.88284138
 20
13.4852604834
 10
0.8767065517
 20
13.4832703278
 10
0.8694494139
 20
13.4810536533
 10
0.861090619
 20
13.4786401724
 10
0.8515886642
 20
13.4760384898
 10
0.8410613552
 20
13.4732971135
 10
0.8295182385
 20
13.4704302189
 10
0.8169412661
 20
13.4674436781
 10
0.8034063371
 20
13.4643637212
 10
0.7889205883
 20
13.4611980141
 10
0.7734751119
 20
13.4579499616
 10
0.7571208551
 20
13.4546345217
 10
0.7398648955
 20
13.4512562541
 10
0.7217043931
 20
13.4478172014
 10
0.7026787186
 20
13.4443260773
 10
0.6827990651
 20
13.4407853217
 10
0.6620755008
 20
13.4371968342
  0
LWPOLYLINE
  5
310
100
AcDbEntity
  8
0
100
AcDbPolyline
 62
7
  6
CONTINUOUS
 90
21
 70
0
 10
-0.8189804165
 20
11.9106477054
 10
-0.8192022098
 20
11.9105454863
 10
-0.818419999
 20
11.910877172
 10
-0.8159686704
 20
11.9118454493
 10
-0.8120877334
 20
11.9132700062
 10
-0.8067299582
 20
11.9151049012
 10
-0.7998248492
 20
11.9173161509
 10
-0.7916250732
 20
11.9197794006
 10
-0.7821644527
 20
11.9224559147
 10
-0.7713740715
 20
11.9253410126
 10
-0.7593836918
 20
11.9283813063
 10
-0.7462011264
 20
11.9315614903
 10
-0.731811346
 20
11.9348735626
 10
-0.716313994
 20
11.9382858036
 10
-0.6997208197
 20
11.9417895679
 10
-0.6820241863
 20
11.9453812364
 10
-0.6632955536
 20
11.9490424627
 10
-0.6435474607
 20
11.9527683357
 10
-0.6227802107
 20
11.9565567843
 10
-0.6010483982
 20
11.9603966124
 10
-0.5783677195
 20
11.9642851552
  0
LWPOLYLINE
  5
311
100
AcDbEntity
  8
0
100
AcDbPolyline
 62
253
  6
CONTINUOUS
 90
13
 70
0
 10
-1.1525
 20
11.3395031067
 10
-1.1483445273
 20
11.3409696122
 10
-1.1236015858
 20
11.3483047505
 10
-1.0950188811
 20
11.3556356878
 10
-1.0627163928
 20
11.3629620328
 10
-1.0268104472
 20
11.3702841767
 10
-0.9874856531
 20
11.377590148
 10
-0.9448982731
 20
11.3848761858
 10
-0.8991789408
 20
11.392146051
 10
-0.8505199136
 20
11.3993990544
 10
-0.7991794091
 20
11.4066259964
 10
-0.745285629
 20
11.4138360766
 10
-0.6888092624
 20
11.4210562048
  0
LWPOLYLINE
  5
312
100
AcDbEntity
  8
0
100
AcDbPolyline
 62
253
  6
CONTINUOUS
 90
3
 70
0
 10
-1.1525
 20
12.1394355139
 10
-1.1429186283
 20
12.1426695634
 10
-1.1173549827
 20
12.1499900563
  0
LINE
  5
313
100
AcDbEntity
  8
0
100
AcDbLine
 62
7
  6
CONTINUOUS
 10
-4.4
 20
-12.4223404258
 11
-4.3166667461
 21
-12.4010638326
  0
LINE
  5
314
100
AcDbEntity
  8
0
100
AcDbLine
 62
7
  6
CONTINUOUS
 10
-4.5875
 20
-11.6776595592
 11
-4.6708333731
 21
-11.6989361525
  0
LINE
  5
315
100
AcDbEntity
  8
0
100
AcDbLine
 62
7
  6
CONTINUOUS
 10
-4.2958332539
 20
-12.5287234049
 11
-4.4
 21
-12.55
  0
LINE
  5
316
100
AcDbEntity
  8
0
100
AcDbLine
 62
7
  6
CONTINUOUS
 10
-5.2541666269
 20
-12.0819148898
 11
-5.3583333731
 21
-12.103191483
  0
LINE
  5
317
100
AcDbEntity
  8
0
100
AcDbLine
 62
7
  6
CONTINUOUS
 10
-4.6916666269
 20
-11.5712765932
 11
-4.5875
 21
-11.55
  0
LINE
  5
318
100
AcDbEntity
  8
0
100
AcDbLine
 62
7
  6
CONTINUOUS
 10
-4.1083332539
 20
-11.8053191781
 11
-4.2333332539
 21
-11.8053191781
  0
LINE
  5
319
100
AcDbEntity
  8
0
100
AcDbLine
 62
7
  6
CONTINUOUS
 10
-2.7333332539
 20
-11.6776595592
 11
-3.3583332539
 21
-11.6776595592
  0
LINE
  5
31A
100
AcDbEntity
  8
0
100
AcDbLine
 62
7
  6
CONTINUOUS
 10
-4.4
 20
-11.6776595592
 11
-4.5875
 21
-11.6776595592
  0
LINE
  5
31B
100
AcDbEntity
  8
0
100
AcDbLine
 62
7
  6
CONTINUOUS
 10
-2.0458334923
 20
-11.656382966
 11
-2.4416665077
 21
-11.656382966
  0
LINE
  5
31C
100
AcDbEntity
  8
0
100
AcDbLine
 62
7
  6
CONTINUOUS
 10
-5.3375
 20
-11.656382966
 11
-5.7333333135
 21
-11.656382966
  0
LINE
  5
31D
100
AcDbEntity
  8
0
100
AcDbLine
 62
7
  6
CONTINUOUS
 10
-5.8583333135
 20
-11.55
 11
-5.3583333731
 21
-11.55
  0
LINE
  5
31E
100
AcDbEntity
  8
0
100
AcDbLine
 62
7
  6
CONTINUOUS
 10
-4.5875
 20
-11.55
 11
-4.4
 21
-11.55
  0
LINE
  5
31F
100
AcDbEntity
  8
0
100
AcDbLine
 62
7
  6
CONTINUOUS
 10
-3.4833332539
 20
-11.55
 11
-2.7333332539
 21
-11.55
  0
LINE
  5
320
100
AcDbEntity
  8
0
100
AcDbLine
 62
7
  6
CONTINUOUS
 10
-2.5666667461
 20
-11.55
 11
-2.0666665077
 21
-11.55
  0
LINE
  5
321
100
AcDbEntity
  8
0
100
AcDbLine
 62
7
  6
CONTINUOUS
 10
-1.5041665077
 20
-11.55
 11
-1.4208334923
 21
-11.55
  0
LINE
  5
322
100
AcDbEntity
  8
0
100
AcDbLine
 62
7
  6
CONTINUOUS
 10
-1.1291665077
 20
-11.55
 11
-1.0041665077
 21
-11.55
  0
LINE
  5
323
100
AcDbEntity
  8
0
100
AcDbLine
 62
7
  6
CONTINUOUS
 10
-0.3375
 20
-11.55
 11
-0.2125
 21
-11.55
  0
LINE
  5
324
100
AcDbEntity
  8
0
100
AcDbLine
 62
7
  6
CONTINUOUS
 10
0.1625
 20
-11.55
 11
0.2458334923
 21
-11.55
  0
LINE
  5
325
100
AcDbEntity
  8
0
100
AcDbLine
 62
7
  6
CONTINUOUS
 10
-16.7125
 20
-10.4
 11
-15.9625
 21
-10.4
  0
LINE
  5
326
100
AcDbEntity
  8
0
100
AcDbLine
 62
7
  6
CONTINUOUS
 10
16.7875
 20
-10.4
 11
16.0375
 21
-10.4
  0
LINE
  5
327
100
AcDbEntity
  8
0
100
AcDbLine
 62
7
  6
CONTINUOUS
 10
-2.0666665077
 20
-11.55
 11
-1.9625
 21
-11.5712765932
  0
LINE
  5
328
100
AcDbEntity
  8
0
100
AcDbLine
 62
7
  6
CONTINUOUS
 10
-1.9833334923
 20
-11.6776595592
 11
-2.0458334923
 21
-11.656382966
  0
LINE
  5
329
100
AcDbEntity
  8
0
100
AcDbLine
 62
7
  6
CONTINUOUS
 10
4.3916669846
 20
-15.496808517
 11
4.35
 21
-15.4755319238
  0
LINE
  5
32A
100
AcDbEntity
  8
0
100
AcDbLine
 62
7
  6
CONTINUOUS
 10
5.1416669846
 20
-15.496808517
 11
5.1
 21
-15.4755319238
  0
LINE
  5
32B
100
AcDbEntity
  8
0
100
AcDbLine
 62
7
  6
CONTINUOUS
 10
0.6625
 20
-12.0393617034
 11
0.9541665077
 21
-12.1882978857
  0
LINE
  5
32C
100
AcDbEntity
  8
0
100
AcDbLine
 62
7
  6
CONTINUOUS
 10
0.9125
 20
-12.2521276653
 11
0.5166665077
 21
-12.0393617034
  0
LINE
  5
32D
100
AcDbEntity
  8
0
100
AcDbLine
 62
7
  6
CONTINUOUS
 10
1.2666665077
 20
-15.2414893389
 11
1.2041665077
 21
-15.1989361525
  0
LINE
  5
32E
100
AcDbEntity
  8
0
100
AcDbLine
 62
7
  6
CONTINUOUS
 10
2.1
 20
-15.5180851102
 11
2.0375
 21
-15.4755319238
  0
LINE
  5
32F
100
AcDbEntity
  8
0
100
AcDbLine
 62
7
  6
CONTINUOUS
 10
4.3916669846
 20
-15.3904255509
 11
4.4541669846
 21
-15.4329787374
  0
LINE
  5
330
100
AcDbEntity
  8
0
100
AcDbLine
 62
7
  6
CONTINUOUS
 10
-1.9625
 20
-11.5712765932
 11
-1.8791665077
 21
-11.6351063728
  0
LINE
  5
331
100
AcDbEntity
  8
0
100
AcDbLine
 62
7
  6
CONTINUOUS
 10
-0.6916665077
 20
-15.5393617034
 11
-0.7333334923
 21
-15.496808517
  0
LINE
  5
332
100
AcDbEntity
  8
0
100
AcDbLine
 62
7
  6
CONTINUOUS
 10
-0.65
 20
-15.4329787374
 11
-0.6083334923
 21
-15.4755319238
  0
LINE
  5
333
100
AcDbEntity
  8
0
100
AcDbLine
 62
7
  6
CONTINUOUS
 10
-4.2125
 20
-11.6138297796
 11
-4.1291667461
 21
-11.6989361525
  0
LINE
  5
334
100
AcDbEntity
  8
0
100
AcDbLine
 62
7
  6
CONTINUOUS
 10
0.7458334923
 20
-15.9861702129
 11
0.6625
 21
-15.9010638326
  0
LINE
  5
335
100
AcDbEntity
  8
0
100
AcDbLine
 62
7
  6
CONTINUOUS
 10
1.6833334923
 20
-15.9648936197
 11
1.6416665077
 21
-15.9223404259
  0
LINE
  5
336
100
AcDbEntity
  8
0
100
AcDbLine
 62
7
  6
CONTINUOUS
 10
-2.6708332539
 20
-15.4542553306
 11
-2.6083332539
 21
-15.5393617034
  0
LINE
  5
337
100
AcDbEntity
  8
0
100
AcDbLine
 62
7
  6
CONTINUOUS
 10
-5.1708333731
 20
-11.6351063728
 11
-5.1083333731
 21
-11.7202127457
  0
LINE
  5
338
100
AcDbEntity
  8
0
100
AcDbLine
 62
7
  6
CONTINUOUS
 10
-3.525
 20
-15.603191483
 11
-3.5666667461
 21
-15.5393617034
  0
LINE
  5
339
100
AcDbEntity
  8
0
100
AcDbLine
 62
7
  6
CONTINUOUS
 10
-2.6916667461
 20
-15.5819148898
 11
-2.7333332539
 21
-15.5180851102
  0
LINE
  5
33A
100
AcDbEntity
  8
0
100
AcDbLine
 62
7
  6
CONTINUOUS
 10
-4.775
 20
-12.2946808517
 11
-4.7333333731
 21
-12.3585106313
  0
LINE
  5
33B
100
AcDbEntity
  8
0
100
AcDbLine
 62
7
  6
CONTINUOUS
 10
-4.8166666269
 20
-15.8797872394
 11
-4.7958333731
 21
-15.9223404258
  0
LINE
  5
33C
100
AcDbEntity
  8
0
100
AcDbLine
 62
7
  6
CONTINUOUS
 10
-4.3583333731
 20
-16.05
 11
-4.3791666269
 21
-16.0074468099
  0
LINE
  5
33D
100
AcDbEntity
  8
0
100
AcDbLine
 62
7
  6
CONTINUOUS
 10
-4.4
 20
-15.5393617034
 11
-4.4208333731
 21
-15.496808517
  0
LINE
  5
33E
100
AcDbEntity
  8
0
100
AcDbLine
 62
7
  6
CONTINUOUS
 10
-4.0458332539
 20
-15.9223404259
 11
-4.0666667461
 21
-15.8797872394
  0
LINE
  5
33F
100
AcDbEntity
  8
0
100
AcDbLine
 62
7
  6
CONTINUOUS
 10
-3.5458332539
 20
-15.4542553306
 11
-3.525
 21
-15.496808517
  0
LINE
  5
340
100
AcDbEntity
  8
0
100
AcDbLine
 62
7
  6
CONTINUOUS
 10
-5.6708333433
 20
-16.05
 11
-5.9625
 21
-15.2627659321
  0
LINE
  5
341
100
AcDbEntity
  8
0
100
AcDbLine
 62
7
  6
CONTINUOUS
 10
-5.9
 20
-15.05
 11
-5.5875
 21
-15.9436170191
  0
LINE
  5
342
100
AcDbEntity
  8
0
100
AcDbLine
 62
7
  6
CONTINUOUS
 10
-9.8375
 20
-20.05
 11
-9.8375
 21
-20.15
  0
LINE
  5
343
100
AcDbEntity
  8
0
100
AcDbLine
 62
7
  6
CONTINUOUS
 10
-9.1875
 20
-24.2
 11
-9.1875
 21
-20.05
  0
LINE
  5
344
100
AcDbEntity
  8
0
100
AcDbLine
 62
253
  6
CONTINUOUS
 10
-8.9375
 20
-20.05
 11
-8.9375
 21
-24.45
  0
LINE
  5
345
100
AcDbEntity
  8
0
100
AcDbLine
 62
253
  6
CONTINUOUS
 10
-8.6875
 20
-24.95
 11
-8.6875
 21
-20.05
  0
LINE
  5
346
100
AcDbEntity
  8
0
100
AcDbLine
 62
7
  6
CONTINUOUS
 10
-8.4375
 20
-20.05
 11
-8.4375
 21
-24.7
  0
LWPOLYLINE
  5
347
100
AcDbEntity
  8
0
100
AcDbPolyline
 62
7
  6
CONTINUOUS
 90
23
 70
0
 10
0.8916322063
 20
11.0881649776
 10
0.893413308
 20
11.0890671318
 10
0.8942606644
 20
11.0894683203
 10
0.8936211534
 20
11.0891969161
 10
0.8916887197
 20
11.0884262619
 10
0.8884079334
 20
11.0872024975
 10
0.8837487163
 20
11.0855751088
 10
0.8779930519
 20
11.0836865688
 10
0.8711847353
 20
11.0815793819
 10
0.8632556447
 20
11.079257205
 10
0.8543391875
 20
11.0767790383
 10
0.8444487337
 20
11.0741627933
 10
0.8335577927
 20
11.0714141241
 10
0.8217400211
 20
11.0685619543
 10
0.8090013558
 20
11.0656155673
 10
0.7953294958
 20
11.0625789277
 10
0.7807722865
 20
11.0594674789
 10
0.765335522
 20
11.0562859051
 10
0.7490218619
 20
11.0530376973
 10
0.7318738695
 20
11.0497334711
 10
0.7139006828
 20
11.0463763809
 10
0.695105459
 20
11.0429681127
 10
0.675520457
 20
11.0395151717
  0
LINE
  5
348
100
AcDbEntity
  8
0
100
AcDbLine
 62
7
  6
CONTINUOUS
 10
-7.4625
 20
-9.05
 11
7.5375
 21
-9.05
  0
LINE
  5
349
100
AcDbEntity
  8
0
100
AcDbLine
 62
7
  6
CONTINUOUS
 10
-16.7125
 20
-8.55
 11
-15.9625
 21
-8.55
  0
LINE
  5
34A
100
AcDbEntity
  8
0
100
AcDbLine
 62
7
  6
CONTINUOUS
 10
16.7875
 20
-8.55
 11
16.0375
 21
-8.55
  0
LINE
  5
34B
100
AcDbEntity
  8
0
100
AcDbLine
 62
7
  6
CONTINUOUS
 10
5.1625
 20
-15.3904255509
 11
5.225
 21
-15.4329787374
  0
LINE
  5
34C
100
AcDbEntity
  8
0
100
AcDbLine
 62
7
  6
CONTINUOUS
 10
3.2666669846
 20
-15.496808517
 11
3.2458330154
 21
-15.4755319238
  0
LINE
  5
34D
100
AcDbEntity
  8
0
100
AcDbLine
 62
7
  6
CONTINUOUS
 10
1.725
 20
-15.8585106313
 11
1.7875
 21
-15.9223404258
  0
LINE
  5
34E
100
AcDbEntity
  8
0
100
AcDbLine
 62
7
  6
CONTINUOUS
 10
1.3083334923
 20
-15.1138297796
 11
1.3916665077
 21
-15.1989361525
  0
LINE
  5
34F
100
AcDbEntity
  8
0
100
AcDbLine
 62
7
  6
CONTINUOUS
 10
-1.9416665077
 20
-11.7202127457
 11
-1.9833334923
 21
-11.6776595592
  0
LINE
  5
350
100
AcDbEntity
  8
0
100
AcDbLine
 62
7
  6
CONTINUOUS
 10
3.3083330154
 20
-15.3904255509
 11
3.3708330154
 21
-15.4542553306
  0
LINE
  5
351
100
AcDbEntity
  8
0
100
AcDbLine
 62
7
  6
CONTINUOUS
 10
3.975
 20
-16.0074468099
 11
3.9125
 21
-15.9436170191
  0
LINE
  5
352
100
AcDbEntity
  8
0
100
AcDbLine
 62
7
  6
CONTINUOUS
 10
3.6
 20
-15.496808517
 11
3.5791669846
 21
-15.4755319238
  0
LINE
  5
353
100
AcDbEntity
  8
0
100
AcDbLine
 62
7
  6
CONTINUOUS
 10
3.6416669846
 20
-15.3904255509
 11
3.6833330154
 21
-15.4329787374
  0
LINE
  5
354
100
AcDbEntity
  8
0
100
AcDbLine
 62
7
  6
CONTINUOUS
 10
-1.8791665077
 20
-11.6351063728
 11
-1.8166665077
 21
-11.7202127457
  0
LINE
  5
355
100
AcDbEntity
  8
0
100
AcDbLine
 62
7
  6
CONTINUOUS
 10
0.7458334923
 20
-15.7946808517
 11
0.7875
 21
-15.8585106313
  0
LINE
  5
356
100
AcDbEntity
  8
0
100
AcDbLine
 62
7
  6
CONTINUOUS
 10
-3.1916667461
 20
-15.9223404259
 11
-3.2333332539
 21
-15.8372340381
  0
LINE
  5
357
100
AcDbEntity
  8
0
100
AcDbLine
 62
7
  6
CONTINUOUS
 10
-4.8583333731
 20
-12.4010638326
 11
-4.9
 21
-12.3159574449
  0
LINE
  5
358
100
AcDbEntity
  8
0
100
AcDbLine
 62
7
  6
CONTINUOUS
 10
-3.1291667461
 20
-15.8159574449
 11
-3.1083332539
 21
-15.8585106313
  0
LINE
  5
359
100
AcDbEntity
  8
0
100
AcDbLine
 62
7
  6
CONTINUOUS
 10
-3.9833332539
 20
-15.7734042585
 11
-3.9416667461
 21
-15.8797872394
  0
LINE
  5
35A
100
AcDbEntity
  8
0
100
AcDbLine
 62
7
  6
CONTINUOUS
 10
-4.3791666269
 20
-16.0074468099
 11
-4.4
 21
-15.9436170191
  0
LINE
  5
35B
100
AcDbEntity
  8
0
100
AcDbLine
 62
7
  6
CONTINUOUS
 10
-4.275
 20
-15.9861702129
 11
-4.2541666269
 21
-16.05
  0
LINE
  5
35C
100
AcDbEntity
  8
0
100
AcDbLine
 62
7
  6
CONTINUOUS
 10
-4.3166666269
 20
-15.4755319238
 11
-4.2958333731
 21
-15.5393617034
  0
LINE
  5
35D
100
AcDbEntity
  8
0
100
AcDbLine
 62
7
  6
CONTINUOUS
 10
-5.2125
 20
-11.7840425253
 11
-5.2333333731
 21
-11.7202127457
  0
LINE
  5
35E
100
AcDbEntity
  8
0
100
AcDbLine
 62
7
  6
CONTINUOUS
 10
-5.1083333731
 20
-11.7202127457
 11
-5.0875
 21
-11.7840425253
  0
LINE
  5
35F
100
AcDbEntity
  8
0
100
AcDbLine
 62
7
  6
CONTINUOUS
 10
-3.15
 20
-15.7521276653
 11
-3.1291667461
 21
-15.8159574449
  0
LINE
  5
360
100
AcDbEntity
  8
0
100
AcDbLine
 62
7
  6
CONTINUOUS
 10
-4.9
 20
-15.9436170191
 11
-4.9208333731
 21
-15.8585106313
  0
LINE
  5
361
100
AcDbEntity
  8
0
100
AcDbLine
 62
7
  6
CONTINUOUS
 10
-7.4625
 20
-17.05
 11
-7.4625
 21
-9.05
  0
LINE
  5
362
100
AcDbEntity
  8
0
100
AcDbLine
 62
7
  6
CONTINUOUS
 10
-6.0875
 20
-16.05
 11
-6.0875
 21
-15.05
  0
LINE
  5
363
100
AcDbEntity
  8
0
100
AcDbLine
 62
7
  6
CONTINUOUS
 10
-5.9625
 20
-15.2627659321
 11
-5.9625
 21
-16.05
  0
LINE
  5
364
100
AcDbEntity
  8
0
100
AcDbLine
 62
7
  6
CONTINUOUS
 10
-5.8583333135
 20
-12.55
 11
-5.8583333135
 21
-11.55
  0
LINE
  5
365
100
AcDbEntity
  8
0
100
AcDbLine
 62
7
  6
CONTINUOUS
 10
1.9499096491
 20
18.55
 11
2.3461970375
 21
19.416256203
  0
LWPOLYLINE
  5
366
100
AcDbEntity
  8
0
100
AcDbPolyline
 62
7
  6
CONTINUOUS
 90
4
 70
0
 10
1.1973876783
 20
10.7
 10
1.2107152347
 20
10.7129590389
 10
1.224687724
 20
10.7285151513
 10
1.2275
 20
10.7321655401
  0
LINE
  5
367
100
AcDbEntity
  8
0
100
AcDbLine
 62
7
  6
CONTINUOUS
 10
-16.7125
 20
-7.3
 11
-15.9625
 21
-7.3
  0
LINE
  5
368
100
AcDbEntity
  8
0
100
AcDbLine
 62
7
  6
CONTINUOUS
 10
16.7875
 20
-7.3
 11
16.0375
 21
-7.3
  0
LINE
  5
369
100
AcDbEntity
  8
0
100
AcDbLine
 62
7
  6
CONTINUOUS
 10
-17.4625
 20
-6.3358621558
 11
17.5375
 21
-6.3358621558
  0
LINE
  5
36A
100
AcDbEntity
  8
0
100
AcDbLine
 62
7
  6
CONTINUOUS
 10
13.5375
 20
-6.3
 11
-13.4625
 21
-6.3
  0
LINE
  5
36B
100
AcDbEntity
  8
0
100
AcDbLine
 62
7
  6
CONTINUOUS
 10
-17.4625
 20
-6.3
 11
-17.5125
 21
-6.3
  0
LINE
  5
36C
100
AcDbEntity
  8
0
100
AcDbLine
 62
7
  6
CONTINUOUS
 10
4.4541669846
 20
-15.4329787374
 11
4.4958330154
 21
-15.4755319238
  0
LINE
  5
36D
100
AcDbEntity
  8
0
100
AcDbLine
 62
7
  6
CONTINUOUS
 10
5.1833330154
 20
-15.5393617034
 11
5.1416669846
 21
-15.496808517
  0
LINE
  5
36E
100
AcDbEntity
  8
0
100
AcDbLine
 62
7
  6
CONTINUOUS
 10
5.225
 20
-15.4329787374
 11
5.2666669846
 21
-15.4755319238
  0
LINE
  5
36F
100
AcDbEntity
  8
0
100
AcDbLine
 62
7
  6
CONTINUOUS
 10
2.1625
 20
-15.4542553306
 11
2.225
 21
-15.5393617034
  0
LINE
  5
370
100
AcDbEntity
  8
0
100
AcDbLine
 62
7
  6
CONTINUOUS
 10
2.1416669846
 20
-15.5819148898
 11
2.1
 21
-15.5180851102
  0
LINE
  5
371
100
AcDbEntity
  8
0
100
AcDbLine
 62
7
  6
CONTINUOUS
 10
0.6625
 20
-15.9010638326
 11
0.6208334923
 21
-15.8159574449
  0
LINE
  5
372
100
AcDbEntity
  8
0
100
AcDbLine
 62
7
  6
CONTINUOUS
 10
-1.5041665077
 20
-12.6776595741
 11
-1.5458334923
 21
-12.5712765951
  0
LINE
  5
373
100
AcDbEntity
  8
0
100
AcDbLine
 62
7
  6
CONTINUOUS
 10
-1.4625
 20
-12.5712765951
 11
-1.4208334923
 21
-12.6776595741
  0
LINE
  5
374
100
AcDbEntity
  8
0
100
AcDbLine
 62
7
  6
CONTINUOUS
 10
-1.9625
 20
-12.0606382966
 11
-1.775
 21
-12.55
  0
LINE
  5
375
100
AcDbEntity
  8
0
100
AcDbLine
 62
7
  6
CONTINUOUS
 10
-1.9208334923
 20
-12.55
 11
-2.0875
 21
-12.103191483
  0
LINE
  5
376
100
AcDbEntity
  8
0
100
AcDbLine
 62
7
  6
CONTINUOUS
 10
-4.2333332539
 20
-11.8053191781
 11
-4.2541667461
 21
-11.7414893389
  0
LINE
  5
377
100
AcDbEntity
  8
0
100
AcDbLine
 62
7
  6
CONTINUOUS
 10
-4.0666667461
 20
-15.8797872394
 11
-4.0875
 21
-15.7946808517
  0
LINE
  5
378
100
AcDbEntity
  8
0
100
AcDbLine
 62
7
  6
CONTINUOUS
 10
-4.7958333731
 20
-12.2095744789
 11
-4.775
 21
-12.2946808517
  0
LINE
  5
379
100
AcDbEntity
  8
0
100
AcDbLine
 62
7
  6
CONTINUOUS
 10
-2.6083332539
 20
-15.5393617034
 11
-2.5875
 21
-15.6244680762
  0
LINE
  5
37A
100
AcDbEntity
  8
0
100
AcDbLine
 62
7
  6
CONTINUOUS
 10
-4.2958333731
 20
-15.8797872394
 11
-4.275
 21
-15.9861702129
  0
LINE
  5
37B
100
AcDbEntity
  8
0
100
AcDbLine
 62
7
  6
CONTINUOUS
 10
-4.9
 20
-12.3159574449
 11
-4.9208333731
 21
-12.2095744789
  0
LINE
  5
37C
100
AcDbEntity
  8
0
100
AcDbLine
 62
7
  6
CONTINUOUS
 10
-4.1291667461
 20
-11.6989361525
 11
-4.1083332539
 21
-11.8053191781
  0
LINE
  5
37D
100
AcDbEntity
  8
0
100
AcDbLine
 62
7
  6
CONTINUOUS
 10
-5.7333333135
 20
-11.656382966
 11
-5.7333333135
 21
-11.9755319238
  0
LINE
  5
37E
100
AcDbEntity
  8
0
100
AcDbLine
 62
7
  6
CONTINUOUS
 10
-5.7333333135
 20
-12.103191483
 11
-5.7333333135
 21
-12.55
  0
LINE
  5
37F
100
AcDbEntity
  8
0
100
AcDbLine
 62
7
  6
CONTINUOUS
 10
-5.2125
 20
-16.05
 11
-5.2125
 21
-15.2627659321
  0
LINE
  5
380
100
AcDbEntity
  8
0
100
AcDbLine
 62
7
  6
CONTINUOUS
 10
-5.2125
 20
-11.8478723645
 11
-5.2125
 21
-11.7840425253
  0
LINE
  5
381
100
AcDbEntity
  8
0
100
AcDbLine
 62
7
  6
CONTINUOUS
 10
-5.0875
 20
-11.7840425253
 11
-5.0875
 21
-11.8691489577
  0
LINE
  5
382
100
AcDbEntity
  8
0
100
AcDbLine
 62
7
  6
CONTINUOUS
 10
-5.0875
 20
-15.05
 11
-5.0875
 21
-16.05
  0
LINE
  5
383
100
AcDbEntity
  8
0
100
AcDbLine
 62
7
  6
CONTINUOUS
 10
-4.9208333731
 20
-15.8585106313
 11
-4.9208333731
 21
-15.7946808517
  0
LINE
  5
384
100
AcDbEntity
  8
0
100
AcDbLine
 62
7
  6
CONTINUOUS
 10
-4.9208333731
 20
-15.5393617034
 11
-4.9208333731
 21
-15.496808517
  0
LINE
  5
385
100
AcDbEntity
  8
0
100
AcDbLine
 62
7
  6
CONTINUOUS
 10
-4.9208333731
 20
-12.2095744789
 11
-4.9208333731
 21
-11.8904255509
  0
LINE
  5
386
100
AcDbEntity
  8
0
100
AcDbLine
 62
7
  6
CONTINUOUS
 10
-4.8166666269
 20
-15.8372340381
 11
-4.8166666269
 21
-15.8797872394
  0
LINE
  5
387
100
AcDbEntity
  8
0
100
AcDbLine
 62
7
  6
CONTINUOUS
 10
-4.7958333731
 20
-11.8904255509
 11
-4.7958333731
 21
-12.2095744789
  0
LINE
  5
388
100
AcDbEntity
  8
0
100
AcDbLine
 62
7
  6
CONTINUOUS
 10
-4.4625
 20
12.45
 11
-4.4625
 21
10.15
  0
LINE
  5
389
100
AcDbEntity
  8
0
100
AcDbLine
 62
7
  6
CONTINUOUS
 10
-4.4
 20
-15.8159574449
 11
-4.4
 21
-15.6882978857
  0
LINE
  5
38A
100
AcDbEntity
  8
0
100
AcDbLine
 62
7
  6
CONTINUOUS
 10
-4.4
 20
-15.603191483
 11
-4.4
 21
-15.5393617034
  0
LINE
  5
38B
100
AcDbEntity
  8
0
100
AcDbLine
 62
7
  6
CONTINUOUS
 10
-4.2958333731
 20
-15.5393617034
 11
-4.2958333731
 21
-15.8797872394
  0
LINE
  5
38C
100
AcDbEntity
  8
0
100
AcDbLine
 62
7
  6
CONTINUOUS
 10
-4.0875
 20
-15.7946808517
 11
-4.0875
 21
-15.6244680762
  0
LINE
  5
38D
100
AcDbEntity
  8
0
100
AcDbLine
 62
7
  6
CONTINUOUS
 10
-3.9833332539
 20
-15.6457446694
 11
-3.9833332539
 21
-15.7734042585
  0
LINE
  5
38E
100
AcDbEntity
  8
0
100
AcDbLine
 62
7
  6
CONTINUOUS
 10
-3.9416667461
 20
-12.1882978857
 11
-3.9416667461
 21
-12.0819148898
  0
LWPOLYLINE
  5
38F
100
AcDbEntity
  8
0
100
AcDbPolyline
 62
7
  6
CONTINUOUS
 90
4
 70
0
 10
-1.2075127352
 20
18.55
 10
-1.2107423009
 20
18.5298726472
 10
-1.2123865749
 20
18.5071494233
 10
-1.2124878771
 20
18.4999277226
  0
LWPOLYLINE
  5
390
100
AcDbEntity
  8
0
100
AcDbPolyline
 62
253
  6
CONTINUOUS
 90
18
 70
0
 10
-1.2124878675
 20
15.3000764304
 10
-1.2116015566
 20
15.304824401
 10
-1.2068785101
 20
15.3120709997
 10
-1.1981254327
 20
15.3193079304
 10
-1.1853946449
 20
15.3265422942
 10
-1.1686942574
 20
15.3337923397
 10
-1.1480263177
 20
15.341065688
 10
-1.1234327987
 20
15.3483547179
 10
-1.094965747
 20
15.3556548139
 10
-1.06270203
 20
15.3629681154
 10
-1.0267595703
 20
15.370292483
 10
-0.9873117825
 20
15.3776168833
 10
-0.9444851117
 20
15.3849414971
 10
-0.8984080447
 20
15.3922661437
 10
-0.849294512
 20
15.3995792472
 10
-0.7973575493
 20
15.4068771428
 10
-0.7427724471
 20
15.4141634952
 10
-0.6857412459
 20
15.4214377233
  0
LWPOLYLINE
  5
391
100
AcDbEntity
  8
0
100
AcDbPolyline
 62
253
  6
CONTINUOUS
 90
18
 70
0
 10
-1.2124775709
 20
16.1000710126
 10
-1.2110000528
 20
16.1062285457
 10
-1.2054875147
 20
16.1134894894
 10
-1.1958844583
 20
16.1207680171
 10
-1.182180766
 20
16.1280811826
 10
-1.1644236325
 20
16.135411932
 10
-1.1427143143
 20
16.1427382917
 10
-1.1171493809
 20
16.1500521188
 10
-1.0877744845
 20
16.1573615562
 10
-1.0546827559
 20
16.1646690592
 10
-1.017976964
 20
16.1719805122
 10
-0.9778172137
 20
16.1792900308
 10
-0.9344320258
 20
16.1865824168
 10
-0.8880555149
 20
16.1938455287
 10
-0.8387717547
 20
16.201091508
 10
-0.7866065366
 20
16.2083415819
 10
-0.7317077758
 20
16.2155999696
 10
-0.6742870964
 20
16.2228624519
  0
LWPOLYLINE
  5
392
100
AcDbEntity
  8
0
100
AcDbPolyline
 62
253
  6
CONTINUOUS
 90
18
 70
0
 10
-1.2124774214
 20
16.8999919687
 10
-1.210473627
 20
16.9071772072
 10
-1.2043968104
 20
16.9144665915
 10
-1.1942777132
 20
16.9217503754
 10
-1.1801292821
 20
16.9290366228
 10
-1.1619661142
 20
16.9363266925
 10
-1.1398414296
 20
16.9436192258
 10
-1.1138321897
 20
16.9509182101
 10
-1.0840075542
 20
16.9582282105
 10
-1.0504722309
 20
16.965544662
 10
-1.0133679684
 20
16.9728578571
 10
-0.9728197599
 20
16.9801644381
 10
-0.9289473796
 20
16.9874677626
 10
-0.8819166031
 20
16.9947681959
 10
-0.8318701167
 20
17.0020694525
 10
-0.7789998025
 20
17.0093678179
 10
-0.723557943
 20
17.0166525132
 10
-0.6658397799
 20
17.0239093313
  0
LWPOLYLINE
  5
393
100
AcDbEntity
  8
0
100
AcDbPolyline
 62
253
  6
CONTINUOUS
 90
18
 70
0
 10
-1.21249995
 20
12.9000358504
 10
-1.2101372603
 20
12.9078042858
 10
-1.203694519
 20
12.9150904922
 10
-1.193190237
 20
12.9223830806
 10
-1.1786451889
 20
12.9296858432
 10
-1.1600649734
 20
12.9370051072
 10
-1.1374842656
 20
12.9443345453
 10
-1.1110047584
 20
12.9516589687
 10
-1.0807577494
 20
12.9589750192
 10
-1.0468561047
 20
12.9662860549
 10
-1.0094508775
 20
12.9735869614
 10
-0.9686639263
 20
12.9808791778
 10
-0.9246316933
 20
12.9881612649
 10
-0.8775633444
 20
12.9954237916
 10
-0.8277419323
 20
13.0026543138
 10
-0.7752856721
 20
13.0098652755
 10
-0.7201701298
 20
13.017084577
 10
-0.662476604
 20
13.024322318
  0
LINE
  5
394
100
AcDbEntity
  8
0
100
AcDbLine
 62
7
  6
CONTINUOUS
 10
17.5375
 20
-5.8
 11
13.5375
 21
-5.8
  0
LINE
  5
395
100
AcDbEntity
  8
0
100
AcDbLine
 62
7
  6
CONTINUOUS
 10
-13.4625
 20
-5.8
 11
-17.4625
 21
-5.8
  0
LINE
  5
396
100
AcDbEntity
  8
0
100
AcDbLine
 62
253
  6
CONTINUOUS
 10
-17.5125
 20
-5.5
 11
-17.4625
 21
-5.5
  0
LINE
  5
397
100
AcDbEntity
  8
0
100
AcDbLine
 62
7
  6
CONTINUOUS
 10
0.9125
 20
-11.8265957713
 11
0.9541665077
 21
-11.8904255509
  0
LINE
  5
398
100
AcDbEntity
  8
0
100
AcDbLine
 62
7
  6
CONTINUOUS
 10
1.6416665077
 20
-15.9223404259
 11
1.6
 21
-15.8372340381
  0
LINE
  5
399
100
AcDbEntity
  8
0
100
AcDbLine
 62
7
  6
CONTINUOUS
 10
1.7041665077
 20
-15.8159574449
 11
1.725
 21
-15.8585106313
  0
LINE
  5
39A
100
AcDbEntity
  8
0
100
AcDbLine
 62
7
  6
CONTINUOUS
 10
3.2875
 20
-15.5393617034
 11
3.2666669846
 21
-15.496808517
  0
LINE
  5
39B
100
AcDbEntity
  8
0
100
AcDbLine
 62
7
  6
CONTINUOUS
 10
0.2041665077
 20
-11.656382966
 11
0.1625
 21
-11.55
  0
LINE
  5
39C
100
AcDbEntity
  8
0
100
AcDbLine
 62
7
  6
CONTINUOUS
 10
0.2458334923
 20
-11.55
 11
0.2875
 21
-11.656382966
  0
LINE
  5
39D
100
AcDbEntity
  8
0
100
AcDbLine
 62
7
  6
CONTINUOUS
 10
-1.9208334923
 20
-11.7840425253
 11
-1.9416665077
 21
-11.7202127457
  0
LINE
  5
39E
100
AcDbEntity
  8
0
100
AcDbLine
 62
7
  6
CONTINUOUS
 10
-0.6083334923
 20
-15.4755319238
 11
-0.5875
 21
-15.5393617034
  0
LINE
  5
39F
100
AcDbEntity
  8
0
100
AcDbLine
 62
7
  6
CONTINUOUS
 10
-1.8166665077
 20
-11.7202127457
 11
-1.7958334923
 21
-11.7840425253
  0
LINE
  5
3A0
100
AcDbEntity
  8
0
100
AcDbLine
 62
7
  6
CONTINUOUS
 10
-1.5458334923
 20
-12.5712765951
 11
-1.5875
 21
-12.3797872394
  0
LINE
  5
3A1
100
AcDbEntity
  8
0
100
AcDbLine
 62
7
  6
CONTINUOUS
 10
-1.5041665077
 20
-12.3797872394
 11
-1.4625
 21
-12.5712765951
  0
LINE
  5
3A2
100
AcDbEntity
  8
0
100
AcDbLine
 62
7
  6
CONTINUOUS
 10
-3.2333332539
 20
-15.8372340381
 11
-3.2541667461
 21
-15.7095744789
  0
LINE
  5
3A3
100
AcDbEntity
  8
0
100
AcDbLine
 62
7
  6
CONTINUOUS
 10
-1.5875
 20
-12.3797872394
 11
-1.6083334923
 21
-12.1882978857
  0
LINE
  5
3A4
100
AcDbEntity
  8
0
100
AcDbLine
 62
7
  6
CONTINUOUS
 10
-1.525
 20
-12.1882978856
 11
-1.5041665077
 21
-12.3797872394
  0
LINE
  5
3A5
100
AcDbEntity
  8
0
100
AcDbLine
 62
7
  6
CONTINUOUS
 10
-3.65
 20
-12.0819148898
 11
-3.65
 21
-12.1882978857
  0
LINE
  5
3A6
100
AcDbEntity
  8
0
100
AcDbLine
 62
7
  6
CONTINUOUS
 10
-3.525
 20
-16.05
 11
-3.525
 21
-15.9223404258
  0
LINE
  5
3A7
100
AcDbEntity
  8
0
100
AcDbLine
 62
7
  6
CONTINUOUS
 10
-3.525
 20
-15.8159574449
 11
-3.525
 21
-15.603191483
  0
LINE
  5
3A8
100
AcDbEntity
  8
0
100
AcDbLine
 62
7
  6
CONTINUOUS
 10
-3.525
 20
-15.496808517
 11
-3.525
 21
-15.05
  0
LINE
  5
3A9
100
AcDbEntity
  8
0
100
AcDbLine
 62
7
  6
CONTINUOUS
 10
-3.4833332539
 20
-12.55
 11
-3.4833332539
 21
-11.55
  0
LINE
  5
3AA
100
AcDbEntity
  8
0
100
AcDbLine
 62
7
  6
CONTINUOUS
 10
-3.4208332539
 20
-15.05
 11
-3.4208332539
 21
-16.05
  0
LINE
  5
3AB
100
AcDbEntity
  8
0
100
AcDbLine
 62
7
  6
CONTINUOUS
 10
-3.3583332539
 20
-11.6776595592
 11
-3.3583332539
 21
-11.9542553306
  0
LINE
  5
3AC
100
AcDbEntity
  8
0
100
AcDbLine
 62
7
  6
CONTINUOUS
 10
-3.3583332539
 20
-12.0819148898
 11
-3.3583332539
 21
-12.55
  0
LINE
  5
3AD
100
AcDbEntity
  8
0
100
AcDbLine
 62
7
  6
CONTINUOUS
 10
-3.15
 20
-15.7095744789
 11
-3.15
 21
-15.7521276653
  0
LINE
  5
3AE
100
AcDbEntity
  8
0
100
AcDbLine
 62
7
  6
CONTINUOUS
 10
-3.1291667461
 20
-15.603191483
 11
-3.1291667461
 21
-15.6244680762
  0
LINE
  5
3AF
100
AcDbEntity
  8
0
100
AcDbLine
 62
7
  6
CONTINUOUS
 10
-2.8166667461
 20
-11.9542553306
 11
-2.8166667461
 21
-12.0819148898
  0
LINE
  5
3B0
100
AcDbEntity
  8
0
100
AcDbLine
 62
7
  6
CONTINUOUS
 10
-2.7333332539
 20
-11.55
 11
-2.7333332539
 21
-11.6776595592
  0
LINE
  5
3B1
100
AcDbEntity
  8
0
100
AcDbLine
 62
7
  6
CONTINUOUS
 10
-2.6916667461
 20
-15.6244680762
 11
-2.6916667461
 21
-15.5819148898
  0
LINE
  5
3B2
100
AcDbEntity
  8
0
100
AcDbLine
 62
7
  6
CONTINUOUS
 10
-2.5875
 20
-15.6244680762
 11
-2.5875
 21
-15.7095744789
  0
LINE
  5
3B3
100
AcDbEntity
  8
0
100
AcDbLine
 62
7
  6
CONTINUOUS
 10
-2.5666667461
 20
-12.55
 11
-2.5666667461
 21
-11.55
  0
LINE
  5
3B4
100
AcDbEntity
  8
0
100
AcDbLine
 62
7
  6
CONTINUOUS
 10
-2.4625
 20
24.2
 11
-2.4625
 21
23.45
  0
LINE
  5
3B5
100
AcDbEntity
  8
0
100
AcDbLine
 62
7
  6
CONTINUOUS
 10
-2.4416665077
 20
-11.656382966
 11
-2.4416665077
 21
-11.9755319238
  0
LINE
  5
3B6
100
AcDbEntity
  8
0
100
AcDbLine
 62
7
  6
CONTINUOUS
 10
-2.4416665077
 20
-12.103191483
 11
-2.4416665077
 21
-12.55
  0
LINE
  5
3B7
100
AcDbEntity
  8
0
100
AcDbLine
 62
7
  6
CONTINUOUS
 10
-2.345143092
 20
18.2
 11
-2.345143092
 21
12.2
  0
LINE
  5
3B8
100
AcDbEntity
  8
0
100
AcDbLine
 62
7
  6
CONTINUOUS
 10
-1.9208334923
 20
-11.8478723645
 11
-1.9208334923
 21
-11.7840425253
  0
LINE
  5
3B9
100
AcDbEntity
  8
0
100
AcDbLine
 62
7
  6
CONTINUOUS
 10
-1.7958334923
 20
-11.7840425253
 11
-1.7958334923
 21
-11.8691489577
  0
LWPOLYLINE
  5
3BA
100
AcDbEntity
  8
0
100
AcDbPolyline
 62
253
  6
CONTINUOUS
 90
19
 70
0
 10
-1.2124963734
 20
13.7000612523
 10
-1.2124060765
 20
13.7015514702
 10
-1.2095059238
 20
13.7088018796
 10
-1.2025512842
 20
13.7160503326
 10
-1.1916032542
 20
13.7232896569
 10
-1.1767052132
 20
13.7305270248
 10
-1.1578514397
 20
13.737781242
 10
-1.1350253963
 20
13.7450625
 10
-1.1082755877
 20
13.7523606072
 10
-1.0777264938
 20
13.7596637947
 10
-1.0435041009
 20
13.7669694878
 10
-1.0057121002
 20
13.7742802611
 10
-0.9644885255
 20
13.7815920698
 10
-0.9199340523
 20
13.7889080066
 10
-0.8721921517
 20
13.7962249788
 10
-0.8215244039
 20
13.803529663
 10
-0.7681891452
 20
13.8108138903
 10
-0.712325921
 20
13.8180858296
 10
-0.6540360093
 20
13.8253566647
  0
LINE
  5
3BB
100
AcDbEntity
  8
0
100
AcDbLine
 62
7
  6
CONTINUOUS
 10
-2.345143092
 20
18.2
 11
-2.2711970375
 21
19.416256203
  0
LWPOLYLINE
  5
3BC
100
AcDbEntity
  8
0
100
AcDbPolyline
 62
253
  6
CONTINUOUS
 90
19
 70
0
 10
-1.2124674104
 20
17.700069922
 10
-1.212319795
 20
17.7019944048
 10
-1.2091947212
 20
17.7092537021
 10
-1.2019800489
 20
17.7165279802
 10
-1.1906480427
 20
17.7238298851
 10
-1.1752446102
 20
17.7311467708
 10
-1.1558539128
 20
17.7384635188
 10
-1.1325569658
 20
17.7457754661
 10
-1.1054074661
 20
17.7530872758
 10
-1.0744768787
 20
17.7603978177
 10
-1.0398533799
 20
17.7677101443
 10
-1.0016868713
 20
17.7750212033
 10
-0.9601772446
 20
17.7823207071
 10
-0.9155196282
 20
17.7896019304
 10
-0.8678280334
 20
17.7968715985
 10
-0.8171827199
 20
17.8041395999
 10
-0.7637658222
 20
17.8114040197
 10
-0.7077560011
 20
17.8186667729
 10
-0.649217129
 20
17.8259434929
  0
LWPOLYLINE
  5
3BD
100
AcDbEntity
  8
0
100
AcDbPolyline
 62
253
  6
CONTINUOUS
 90
19
 70
0
 10
-1.212459698
 20
14.5000135355
 10
-1.2121336836
 20
14.5028912245
 10
-1.2084939942
 20
14.5101450695
 10
-1.200824743
 20
14.5174002643
 10
-1.1890981898
 20
14.5246751384
 10
-1.1732645857
 20
14.5319824647
 10
-1.1533702121
 20
14.5393094704
 10
-1.1295417467
 20
14.5466361662
 10
-1.1018951669
 20
14.5539559112
 10
-1.0704995573
 20
14.5612753465
 10
-1.0354441444
 20
14.5685944055
 10
-0.996788923
 20
14.5759194394
 10
-0.9547017201
 20
14.5832440971
 10
-0.9094631827
 20
14.5905492585
 10
-0.8613603463
 20
14.5978195075
 10
-0.8104794031
 20
14.6050702603
 10
-0.7567904948
 20
14.6123286453
 10
-0.7003739697
 20
14.6196034863
 10
-0.6414777629
 20
14.6268859594
  0
LWPOLYLINE
  5
3BE
100
AcDbEntity
  8
0
100
AcDbPolyline
 62
253
  6
CONTINUOUS
 90
9
 70
0
 10
-1.2124878774
 20
18.4999956938
 10
-1.2121364437
 20
18.5029793145
 10
-1.2084009882
 20
18.5102630752
 10
-1.2006108251
 20
18.5175425615
 10
-1.1887956207
 20
18.5248204302
 10
-1.1729946328
 20
18.5320929978
 10
-1.153233711
 20
18.5393639478
 10
-1.1295254145
 20
18.546646987
 10
-1.1168505791
 20
18.55
  0
LINE
  5
3BF
100
AcDbEntity
  8
0
100
AcDbLine
 62
7
  6
CONTINUOUS
 10
-4.9208333731
 20
-11.8904255509
 11
-4.9
 21
-11.7840425253
  0
LINE
  5
3C0
100
AcDbEntity
  8
0
100
AcDbLine
 62
7
  6
CONTINUOUS
 10
-4.775
 20
-11.8053191781
 11
-4.7958333731
 21
-11.8904255509
  0
LWPOLYLINE
  5
3C1
100
AcDbEntity
  8
0
100
AcDbPolyline
 62
253
  6
CONTINUOUS
 90
20
 70
0
 10
0.6976456369
 20
13.4434296375
 10
0.6982415998
 20
13.4458005333
 10
0.704412824
 20
13.4646364687
 10
0.7118579924
 20
13.4828407893
 10
0.7205415711
 20
13.5002871989
 10
0.7304279281
 20
13.5168494188
 10
0.7414651858
 20
13.5324148427
 10
0.7535652057
 20
13.5469012976
 10
0.7666349214
 20
13.560230699
 10
0.780581243
 20
13.5723249503
 10
0.7953110892
 20
13.583105978
 10
0.8107314176
 20
13.5924957397
 10
0.8267491957
 20
13.6004161891
 10
0.8432711441
 20
13.6067900985
 10
0.8601948539
 20
13.6115726083
 10
0.8774060898
 20
13.6147609122
 10
0.8947898256
 20
13.616355015
 10
0.9122310466
 20
13.6163549229
 10
0.9296147454
 20
13.614760639
 10
0.9483545025
 20
13.6112089463
  0
LINE
  5
3C2
100
AcDbEntity
  8
0
100
AcDbLine
 62
7
  6
CONTINUOUS
 10
5.6
 20
-15.3691489577
 11
5.8291669846
 21
-15.8159574449
  0
LINE
  5
3C3
100
AcDbEntity
  8
0
100
AcDbLine
 62
7
  6
CONTINUOUS
 10
3.6208330154
 20
-15.5393617034
 11
3.6
 21
-15.496808517
  0
LINE
  5
3C4
100
AcDbEntity
  8
0
100
AcDbLine
 62
7
  6
CONTINUOUS
 10
3.9958330154
 20
-15.8797872394
 11
4.0166669846
 21
-15.9223404258
  0
LINE
  5
3C5
100
AcDbEntity
  8
0
100
AcDbLine
 62
7
  6
CONTINUOUS
 10
4.4541669846
 20
-16.05
 11
4.4333330154
 21
-16.0074468099
  0
LINE
  5
3C6
100
AcDbEntity
  8
0
100
AcDbLine
 62
7
  6
CONTINUOUS
 10
4.4125
 20
-15.5393617034
 11
4.3916669846
 21
-15.496808517
  0
LINE
  5
3C7
100
AcDbEntity
  8
0
100
AcDbLine
 62
7
  6
CONTINUOUS
 10
5.7666669846
 20
-15.9648936197
 11
5.475
 21
-15.3691489577
  0
LINE
  5
3C8
100
AcDbEntity
  8
0
100
AcDbLine
 62
7
  6
CONTINUOUS
 10
3.6833330154
 20
-15.4329787374
 11
3.725
 21
-15.5393617034
  0
LINE
  5
3C9
100
AcDbEntity
  8
0
100
AcDbLine
 62
7
  6
CONTINUOUS
 10
1.2875
 20
-15.3053191781
 11
1.2666665077
 21
-15.2414893389
  0
LINE
  5
3CA
100
AcDbEntity
  8
0
100
AcDbLine
 62
7
  6
CONTINUOUS
 10
1.6833334923
 20
-15.7521276653
 11
1.7041665077
 21
-15.8159574449
  0
LINE
  5
3CB
100
AcDbEntity
  8
0
100
AcDbLine
 62
7
  6
CONTINUOUS
 10
0.725
 20
-15.7095744789
 11
0.7458334923
 21
-15.7946808517
  0
LINE
  5
3CC
100
AcDbEntity
  8
0
100
AcDbLine
 62
7
  6
CONTINUOUS
 10
0.2458334923
 20
-11.8478723645
 11
0.2041665077
 21
-11.656382966
  0
LINE
  5
3CD
100
AcDbEntity
  8
0
100
AcDbLine
 62
7
  6
CONTINUOUS
 10
0.2875
 20
-11.656382966
 11
0.3291665077
 21
-11.8478723645
  0
LINE
  5
3CE
100
AcDbEntity
  8
0
100
AcDbLine
 62
7
  6
CONTINUOUS
 10
-0.6708334923
 20
-15.6457446694
 11
-0.6916665077
 21
-15.5393617034
  0
LINE
  5
3CF
100
AcDbEntity
  8
0
100
AcDbLine
 62
7
  6
CONTINUOUS
 10
-0.5875
 20
-15.5393617034
 11
-0.5666665077
 21
-15.6457446694
  0
LINE
  5
3D0
100
AcDbEntity
  8
0
100
AcDbLine
 62
7
  6
CONTINUOUS
 10
0.6208334923
 20
-15.8159574449
 11
0.6
 21
-15.7095744789
  0
LINE
  5
3D1
100
AcDbEntity
  8
0
100
AcDbLine
 62
7
  6
CONTINUOUS
 10
0.2666665077
 20
-12.0393617034
 11
0.2458334923
 21
-11.8478723645
  0
LINE
  5
3D2
100
AcDbEntity
  8
0
100
AcDbLine
 62
7
  6
CONTINUOUS
 10
0.3291665077
 20
-11.8478723645
 11
0.35
 21
-12.0393617034
  0
LWPOLYLINE
  5
3D3
100
AcDbEntity
  8
0
100
AcDbPolyline
 62
7
  6
CONTINUOUS
 90
37
 70
0
 10
-1.2124774214
 20
16.8999919687
 10
-1.212287539
 20
16.8901139047
 10
-1.2102898847
 20
16.866467932
 10
-1.2062685617
 20
16.8435508418
 10
-1.2004393303
 20
16.8216137645
 10
-1.1929596431
 20
16.8006666052
 10
-1.1838370014
 20
16.7804991153
 10
-1.1730456039
 20
16.7610545782
 10
-1.1607249049
 20
16.7426071917
 10
-1.1470843396
 20
16.7253919617
 10
-1.132125471
 20
16.7092692864
 10
-1.1160682589
 20
16.6943544408
 10
-1.0995893138
 20
16.6810506231
 10
-1.0829875007
 20
16.6692969214
 10
-1.0661845724
 20
16.6587879136
 10
-1.0493417709
 20
16.6494220022
 10
-1.0326243642
 20
16.6410964504
 10
-1.015862578
 20
16.6335651923
 10
-0.9987008285
 20
16.6265655904
 10
-0.9810618195
 20
16.61999948
 10
-0.9628824519
 20
16.61378845
 10
-0.9438502248
 20
16.6077889297
 10
-0.9238385945
 20
16.6019413651
 10
-0.9028361674
 20
16.5962251255
 10
-0.8807642989
 20
16.5906026062
 10
-0.8575714942
 20
16.5850482397
 10
-0.8332367495
 20
16.5795465438
 10
-0.8077966922
 20
16.5740956331
 10
-0.7812617916
 20
16.5686876052
 10
-0.7536154789
 20
16.5633100037
 10
-0.724910846
 20
16.5579645646
 10
-0.6951661035
 20
16.5526461141
 10
-0.6644015011
 20
16.5473489465
 10
-0.6327125562
 20
16.5420790662
 10
-0.6001386931
 20
16.5368326456
 10
-0.5667254508
 20
16.531607193
 10
-0.4978254249
 20
16.5212489589
  0
LWPOLYLINE
  5
3D4
100
AcDbEntity
  8
0
100
AcDbPolyline
 62
7
  6
CONTINUOUS
 90
38
 70
0
 10
-1.212459698
 20
14.5000135355
 10
-1.2122925405
 20
14.4907393384
 10
-1.2103734081
 20
14.4672672583
 10
-1.2063683806
 20
14.4440968119
 10
-1.2003220766
 20
14.4213032708
 10
-1.192320064
 20
14.3991460939
 10
-1.1825625396
 20
14.3780308057
 10
-1.1711637226
 20
14.358040179
 10
-1.1582486369
 20
14.3392799799
 10
-1.1441669681
 20
14.3220537979
 10
-1.1290790842
 20
14.3062660146
 10
-1.1131813365
 20
14.2918813901
 10
-1.0969919622
 20
14.2790993049
 10
-1.0807620962
 20
14.2678186484
 10
-1.0644634859
 20
14.2577705743
 10
-1.0482057988
 20
14.2488203235
 10
-1.0321190962
 20
14.2408543903
 10
-1.0160887253
 20
14.2336615618
 10
-0.9998625437
 20
14.2270216955
 10
-0.9834582042
 20
14.2208627399
 10
-0.9668018778
 20
14.2150902166
 10
-0.9495320164
 20
14.2095364184
 10
-0.9315752684
 20
14.2041539915
 10
-0.9129275801
 20
14.198922027
 10
-0.8933428655
 20
14.193759516
 10
-0.8727533892
 20
14.1886427613
 10
-0.8511426279
 20
14.1835618071
 10
-0.8283455133
 20
14.1784748181
 10
-0.8042817796
 20
14.1733642041
 10
-0.7789501117
 20
14.168230118
 10
-0.7523189375
 20
14.1630660465
 10
-0.7243134728
 20
14.1578578757
 10
-0.6949560783
 20
14.1526099855
 10
-0.6643998098
 20
14.1473475918
 10
-0.6326450801
 20
14.1420662901
 10
-0.5997151234
 20
14.1367639442
 10
-0.5658480893
 20
14.1314711468
 10
-0.4954714597
 20
14.1209046468
  0
LWPOLYLINE
  5
3D5
100
AcDbEntity
  8
0
100
AcDbPolyline
 62
7
  6
CONTINUOUS
 90
38
 70
0
 10
-1.2124878675
 20
15.3000764304
 10
-1.2123393865
 20
15.2913345388
 10
-1.2105071341
 20
15.268173154
 10
-1.2065954614
 20
15.2450831424
 10
-1.2005703555
 20
15.2220823472
 10
-1.1924696245
 20
15.1995154659
 10
-1.18253411
 20
15.1779956574
 10
-1.1708909943
 20
15.1576369218
 10
-1.1576541012
 20
15.1385291775
 10
-1.1432596186
 20
15.1210736291
 10
-1.1279352832
 20
15.1051993801
 10
-1.1118595546
 20
15.0908068991
 10
-1.0955257016
 20
15.0780477027
 10
-1.0791941733
 20
15.0668159438
 10
-1.0628345903
 20
15.0568339688
 10
-1.0465007247
 20
15.0479323583
 10
-1.0303041197
 20
15.0399934884
 10
-1.0141409201
 20
15.0328175692
 10
-0.9977345474
 20
15.0261793669
 10
-0.9810977797
 20
15.0200077548
 10
-0.964149201
 20
15.0142072036
 10
-0.9464867978
 20
15.0086000602
 10
-0.9280110143
 20
15.0031349081
 10
-0.9087204604
 20
14.9977952293
 10
-0.8883691632
 20
14.9925035678
 10
-0.8668582852
 20
14.9872324184
 10
-0.8441725975
 20
14.9819771633
 10
-0.8202051894
 20
14.9767130585
 10
-0.7948604714
 20
14.9714212282
 10
-0.7681395538
 20
14.9661028045
 10
-0.7401210918
 20
14.9607706317
 10
-0.7107877588
 20
14.9554173114
 10
-0.6801414471
 20
14.9500391402
 10
-0.64834185
 20
14.9446585315
 10
-0.6154036278
 20
14.9392710953
 10
-0.5813552773
 20
14.9338747996
 10
-0.5464265453
 20
14.9284980942
 10
-0.4741125227
 20
14.9177940217
  0
LWPOLYLINE
  5
3D6
100
AcDbEntity
  8
0
100
AcDbPolyline
 62
7
  6
CONTINUOUS
 90
36
 70
0
 10
-1.2124878774
 20
18.4999956938
 10
-1.2123499648
 20
18.4915737789
 10
-1.2106008146
 20
18.4688611563
 10
-1.2068785529
 20
18.4463415311
 10
-1.2012006001
 20
18.4240747087
 10
-1.1936269547
 20
18.4023185711
 10
-1.1843370969
 20
18.3814920161
 10
-1.1734302395
 20
18.3616860204
 10
-1.1610121058
 20
18.3430058384
 10
-1.1474019127
 20
18.3257693391
 10
-1.1327566348
 20
18.3099100514
 10
-1.1172529125
 20
18.2953915979
 10
-1.1013488586
 20
18.2823947406
 10
-1.085254118
 20
18.2708213659
 10
-1.0689645965
 20
18.2604445195
 10
-1.0526188368
 20
18.251163861
 10
-1.0363528028
 20
18.2428776952
 10
-1.0200268235
 20
18.2353656605
 10
-1.0033468796
 20
18.2283936279
 10
-0.9862503658
 20
18.2218681364
 10
-0.9686682306
 20
18.2157073022
 10
-0.9503167646
 20
18.2097742563
 10
-0.9311065625
 20
18.2040168186
 10
-0.9110034323
 20
18.198403745
 10
-0.8898520052
 20
18.1928762388
 10
-0.8675884685
 20
18.1874080152
 10
-0.8441857601
 20
18.1819845687
 10
-0.8195884399
 20
18.1765866177
 10
-0.793750037
 20
18.1711991397
 10
-0.7666653929
 20
18.1658168506
 10
-0.7383876851
 20
18.1604453946
 10
-0.7089088409
 20
18.1550777153
 10
-0.6782427181
 20
18.1497093854
 10
-0.6465211605
 20
18.1443548439
 10
-0.6138011508
 20
18.1390142424
 10
-0.5455001182
 20
18.1283602772
  0
LWPOLYLINE
  5
3D7
100
AcDbEntity
  8
0
100
AcDbPolyline
 62
7
  6
CONTINUOUS
 90
37
 70
0
 10
-1.21249995
 20
12.9000358504
 10
-1.2123644892
 20
12.8916886385
 10
-1.2106197224
 20
12.8689609308
 10
-1.2068788463
 20
12.8463312757
 10
-1.2011374061
 20
12.823872587
 10
-1.1934316575
 20
12.8018451938
 10
-1.1839100022
 20
12.7806602997
 10
-1.1726320856
 20
12.7604032003
 10
-1.1596900317
 20
12.7412260088
 10
-1.1454250797
 20
12.7235064818
 10
-1.1299592693
 20
12.7071536097
 10
-1.1134859188
 20
12.692169481
 10
-1.0966030094
 20
12.6788400596
 10
-1.0795738698
 20
12.6670668586
 10
-1.0623441914
 20
12.6565598256
 10
-1.0450612802
 20
12.6472019335
 10
-1.0278487183
 20
12.6388663119
 10
-1.0105571927
 20
12.6313207613
 10
-0.9929415167
 20
12.6243479131
 10
-0.9750046926
 20
12.6178664541
 10
-0.956651676
 20
12.6117718728
 10
-0.9375467278
 20
12.6059044233
 10
-0.9176180808
 20
12.6002130181
 10
-0.8968598732
 20
12.5946719361
 10
-0.875077412
 20
12.5892124156
 10
-0.8522060392
 20
12.5838085197
 10
-0.8282446815
 20
12.5784518225
 10
-0.8031281782
 20
12.5731209718
 10
-0.776821671
 20
12.5678035574
 10
-0.7493229503
 20
12.5624945281
 10
-0.7206577148
 20
12.5571923566
 10
-0.6908357617
 20
12.5518914501
 10
-0.6598713522
 20
12.5465872568
 10
-0.6278325858
 20
12.5412841783
 10
-0.5947328551
 20
12.5359770901
 10
-0.5606138264
 20
12.530665531
 10
-0.4897739753
 20
12.5200685085
  0
LWPOLYLINE
  5
3D8
100
AcDbEntity
  8
0
100
AcDbPolyline
 62
7
  6
CONTINUOUS
 90
37
 70
0
 10
-1.2124674104
 20
17.700069922
 10
-1.2123446376
 20
17.6921203942
 10
-1.210672693
 20
17.6697015823
 10
-1.2070432213
 20
17.6472960739
 10
-1.2014272068
 20
17.6249598305
 10
-1.1938425471
 20
17.6029694014
 10
-1.1844379213
 20
17.581782159
 10
-1.1732693633
 20
17.5614916186
 10
-1.16041989
 20
17.5422480143
 10
-1.1462391352
 20
17.5244579999
 10
-1.1308623849
 20
17.5080467474
 10
-1.1144738321
 20
17.4930040452
 10
-1.0976497123
 20
17.4796033611
 10
-1.0806393052
 20
17.4677439417
 10
-1.0634020819
 20
17.4571508607
 10
-1.0460990816
 20
17.4477180512
 10
-1.0288579305
 20
17.4393207041
 10
-1.0115204368
 20
17.4317195864
 10
-0.9938256624
 20
17.4246879531
 10
-0.9757635577
 20
17.4181388514
 10
-0.9572367414
 20
17.4119678733
 10
-0.9379040552
 20
17.4060162843
 10
-0.9176648166
 20
17.400227703
 10
-0.8965217982
 20
17.3945822254
 10
-0.8743480085
 20
17.3890298687
 10
-0.8510789829
 20
17.3835438502
 10
-0.8267125478
 20
17.3781147224
 10
-0.801278399
 20
17.3727384906
 10
-0.7747793372
 20
17.3674041741
 10
-0.7472243027
 20
17.3621030575
 10
-0.7187126867
 20
17.3568436494
 10
-0.6892991323
 20
17.3516250288
 10
-0.6589882915
 20
17.3464378315
 10
-0.6278407878
 20
17.3412829473
 10
-0.5958936339
 20
17.3361573806
 10
-0.5631848616
 20
17.3310585361
 10
-0.4957974183
 20
17.3209511637
  0
LWPOLYLINE
  5
3D9
100
AcDbEntity
  8
0
100
AcDbPolyline
 62
7
  6
CONTINUOUS
 90
38
 70
0
 10
-1.2124963734
 20
13.7000612523
 10
-1.2123879069
 20
13.6925884165
 10
-1.2107887542
 20
13.6704446248
 10
-1.2072370903
 20
13.6481032051
 10
-1.2016315435
 20
13.625557477
 10
-1.1939469832
 20
13.6031714114
 10
-1.1843792821
 20
13.5816201989
 10
-1.1729970216
 20
13.561015725
 10
-1.1598823778
 20
13.5414996371
 10
-1.1455081345
 20
13.5236112006
 10
-1.1301065463
 20
13.5073044545
 10
-1.1138467255
 20
13.4924786635
 10
-1.0972874746
 20
13.479347049
 10
-1.0807229739
 20
13.4678136946
 10
-1.0641094767
 20
13.4575757104
 10
-1.0475034334
 20
13.4484561274
 10
-1.0310092348
 20
13.4403266474
 10
-1.0145251345
 20
13.4329827161
 10
-0.9977927925
 20
13.4262015612
 10
-0.9808029641
 20
13.4199006973
 10
-0.963488498
 20
13.4139871895
 10
-0.9455407009
 20
13.4083085336
 10
-0.9269074251
 20
13.4028184987
 10
-0.9075750467
 20
13.3974882753
 10
-0.8873249321
 20
13.3922411518
 10
-0.8660894154
 20
13.3870509161
 10
-0.8438680112
 20
13.3819102279
 10
-0.8205640933
 20
13.3767912862
 10
-0.7961395937
 20
13.3716824183
 10
-0.7705812967
 20
13.3665779192
 10
-0.7438579068
 20
13.3614674798
 10
-0.7159825871
 20
13.3563488052
 10
-0.6869376785
 20
13.3512139718
 10
-0.6566640094
 20
13.3460486668
 10
-0.6251642146
 20
13.3408499646
 10
-0.5924442496
 20
13.3356153163
 10
-0.5584561389
 20
13.3303337234
 10
-0.4867154551
 20
13.3196225465
  0
LWPOLYLINE
  5
3DA
100
AcDbEntity
  8
0
100
AcDbPolyline
 62
7
  6
CONTINUOUS
 90
28
 70
0
 10
-1.2124775709
 20
16.1000710126
 10
-1.2123756594
 20
16.0928306144
 10
-1.2108522103
 20
16.0711776555
 10
-1.2075126013
 20
16.0495813839
 10
-1.2023385822
 20
16.0280663063
 10
-1.1953609715
 20
16.0068994716
 10
-1.1867512768
 20
15.9865525772
 10
-1.1765981364
 20
15.9671174852
 10
-1.1649923921
 20
15.9486925587
 10
-1.1522578131
 20
15.9316465267
 10
-1.1385754824
 20
15.9159630132
 10
-1.1240959023
 20
15.9015713712
 10
-1.1091990186
 20
15.888607642
 10
-1.0940499906
 20
15.8769696369
 10
-1.0787040185
 20
15.866494
 10
-1.0633848432
 20
15.8571458258
 10
-1.048247251
 20
15.8488339041
 10
-1.0331984484
 20
15.8413505456
 10
-1.0180855023
 20
15.834505933
 10
-1.0029455922
 20
15.8282256162
 10
-0.9877031169
 20
15.8223996356
 10
-0.9720434842
 20
15.8168562441
 10
-0.9559136185
 20
15.811544366
 10
-0.939298471
 20
15.8064305979
 10
-0.9219540899
 20
15.8014215653
 10
-0.9037770303
 20
15.7964793889
 10
-0.8847946039
 20
15.7916049498
 10
-0.8733576684
 20
15.7887918198
  0
LINE
  5
3DB
100
AcDbEntity
  8
0
100
AcDbLine
 62
7
  6
CONTINUOUS
 10
-1.2124774119
 20
16.8999230164
 11
-1.2124774214
 21
16.8999919687
  0
LINE
  5
3DC
100
AcDbEntity
  8
0
100
AcDbLine
 62
7
  6
CONTINUOUS
 10
-1.2124775601
 20
16.1000057063
 11
-1.2124775709
 21
16.1000710126
  0
LINE
  5
3DD
100
AcDbEntity
  8
0
100
AcDbLine
 62
7
  6
CONTINUOUS
 10
-1.7125995271
 20
12.2
 11
-1.7125995271
 21
10.7
  0
LINE
  5
3DE
100
AcDbEntity
  8
0
100
AcDbLine
 62
7
  6
CONTINUOUS
 10
-1.6083334923
 20
-12.1882978857
 11
-1.6083334923
 21
-12.0393617034
  0
LINE
  5
3DF
100
AcDbEntity
  8
0
100
AcDbLine
 62
7
  6
CONTINUOUS
 10
-1.5390286184
 20
12.45
 11
-1.5390286184
 21
12.2
  0
LINE
  5
3E0
100
AcDbEntity
  8
0
100
AcDbLine
 62
7
  6
CONTINUOUS
 10
-1.525
 20
-12.0393617034
 11
-1.525
 21
-12.1882978856
  0
LINE
  5
3E1
100
AcDbEntity
  8
0
100
AcDbLine
 62
7
  6
CONTINUOUS
 10
-1.4625
 20
20.45
 11
-1.4625
 21
24.2
  0
LINE
  5
3E2
100
AcDbEntity
  8
0
100
AcDbLine
 62
7
  6
CONTINUOUS
 10
-1.4208334923
 20
-16.05
 11
-1.4208334923
 21
-15.3691489577
  0
LINE
  5
3E3
100
AcDbEntity
  8
0
100
AcDbLine
 62
7
  6
CONTINUOUS
 10
-1.4208334923
 20
-15.156382966
 11
-1.4208334923
 21
-15.05
  0
LINE
  5
3E4
100
AcDbEntity
  8
0
100
AcDbLine
 62
7
  6
CONTINUOUS
 10
-1.3375
 20
12.2
 11
-1.3375
 21
18.55
  0
LINE
  5
3E5
100
AcDbEntity
  8
0
100
AcDbLine
 62
7
  6
CONTINUOUS
 10
-1.3166665077
 20
-15.05
 11
-1.3166665077
 21
-15.156382966
  0
LINE
  5
3E6
100
AcDbEntity
  8
0
100
AcDbLine
 62
7
  6
CONTINUOUS
 10
-1.3166665077
 20
-15.3691489577
 11
-1.3166665077
 21
-16.05
  0
LINE
  5
3E7
100
AcDbEntity
  8
0
100
AcDbLine
 62
7
  6
CONTINUOUS
 10
-1.2541665077
 20
-11.8691489577
 11
-1.2541665077
 21
-11.6989361525
  0
LINE
  5
3E8
100
AcDbEntity
  8
0
100
AcDbLine
 62
7
  6
CONTINUOUS
 10
-1.2124878707
 20
15.3000011157
 11
-1.2124878675
 21
15.3000764304
  0
LINE
  5
3E9
100
AcDbEntity
  8
0
100
AcDbLine
 62
7
  6
CONTINUOUS
 10
-1.2124878771
 20
18.4999277226
 11
-1.2124878774
 21
18.4999956938
  0
LINE
  5
3EA
100
AcDbEntity
  8
0
100
AcDbLine
 62
7
  6
CONTINUOUS
 10
-1.2124999491
 20
12.8999638399
 11
-1.21249995
 21
12.9000358504
  0
LINE
  5
3EB
100
AcDbEntity
  8
0
100
AcDbLine
 62
7
  6
CONTINUOUS
 10
-1.2124674096
 20
17.6999998008
 11
-1.2124674104
 21
17.700069922
  0
LINE
  5
3EC
100
AcDbEntity
  8
0
100
AcDbLine
 62
7
  6
CONTINUOUS
 10
-1.2124596969
 20
14.4999392795
 11
-1.212459698
 21
14.5000135355
  0
LINE
  5
3ED
100
AcDbEntity
  8
0
100
AcDbLine
 62
7
  6
CONTINUOUS
 10
-1.2124963688
 20
13.6999878487
 11
-1.2124963734
 21
13.7000612523
  0
LINE
  5
3EE
100
AcDbEntity
  8
0
100
AcDbLine
 62
7
  6
CONTINUOUS
 10
-1.1525
 20
10.7
 11
-1.1525
 21
12.2
  0
LINE
  5
3EF
100
AcDbEntity
  8
0
100
AcDbLine
 62
7
  6
CONTINUOUS
 10
-1.15
 20
-16.05
 11
-1.15
 21
-15.3691489577
  0
LINE
  5
3F0
100
AcDbEntity
  8
0
100
AcDbLine
 62
7
  6
CONTINUOUS
 10
-1.1291665077
 20
-12.55
 11
-1.1291665077
 21
-11.7202127457
  0
LINE
  5
3F1
100
AcDbEntity
  8
0
100
AcDbLine
 62
7
  6
CONTINUOUS
 10
-1.0458334923
 20
-15.3691489577
 11
-1.0458334923
 21
-15.4755319238
  0
LINE
  5
3F2
100
AcDbEntity
  8
0
100
AcDbLine
 62
7
  6
CONTINUOUS
 10
-1.0458334923
 20
-15.5606382966
 11
-1.0458334923
 21
-16.05
  0
LINE
  5
3F3
100
AcDbEntity
  8
0
100
AcDbLine
 62
7
  6
CONTINUOUS
 10
-1.0041665077
 20
-11.55
 11
-1.0041665077
 21
-12.55
  0
LINE
  5
3F4
100
AcDbEntity
  8
0
100
AcDbLine
 62
7
  6
CONTINUOUS
 10
-0.9847535459
 20
18.2213436461
 11
-0.9847535459
 21
17.9786136227
  0
LINE
  5
3F5
100
AcDbEntity
  8
0
100
AcDbLine
 62
7
  6
CONTINUOUS
 10
-0.9847535459
 20
17.4213985129
 11
-0.9847535459
 21
17.1786278728
  0
LINE
  5
3F6
100
AcDbEntity
  8
0
100
AcDbLine
 62
7
  6
CONTINUOUS
 10
-0.9847535459
 20
16.6213737229
 11
-0.9847535459
 21
16.3786475837
  0
LINE
  5
3F7
100
AcDbEntity
  8
0
100
AcDbLine
 62
7
  6
CONTINUOUS
 10
-0.9847535459
 20
15.8213555098
 11
-0.9847535459
 21
15.5786641457
  0
LINE
  5
3F8
100
AcDbEntity
  8
0
100
AcDbLine
 62
7
  6
CONTINUOUS
 10
-0.9847535459
 20
15.0213639059
 11
-0.9847535459
 21
14.7786405117
  0
LINE
  5
3F9
100
AcDbEntity
  8
0
100
AcDbLine
 62
7
  6
CONTINUOUS
 10
-0.9847535459
 20
14.2213490717
 11
-0.9847535459
 21
13.9786456733
  0
LINE
  5
3FA
100
AcDbEntity
  8
0
100
AcDbLine
 62
7
  6
CONTINUOUS
 10
-0.9847535459
 20
13.4213658138
 11
-0.9847535459
 21
13.1786253566
  0
LINE
  5
3FB
100
AcDbEntity
  8
0
100
AcDbLine
 62
7
  6
CONTINUOUS
 10
-0.9847535459
 20
12.6213891955
 11
-0.9847535459
 21
12.3786376903
  0
LINE
  5
3FC
100
AcDbEntity
  8
0
100
AcDbLine
 62
7
  6
CONTINUOUS
 10
-0.9847535459
 20
11.8213827372
 11
-0.9847535459
 21
11.5786374378
  0
LINE
  5
3FD
100
AcDbEntity
  8
0
100
AcDbLine
 62
7
  6
CONTINUOUS
 10
-0.9847535459
 20
11.0213487242
 11
-0.9847535459
 21
10.8
  0
LINE
  5
3FE
100
AcDbEntity
  8
0
100
AcDbLine
 62
7
  6
CONTINUOUS
 10
-0.8375
 20
-12.2521276653
 11
-0.8375
 21
-12.1244680762
  0
LINE
  5
3FF
100
AcDbEntity
  8
0
100
AcDbLine
 62
7
  6
CONTINUOUS
 10
-0.6708334923
 20
-16.05
 11
-0.6708334923
 21
-15.6457446694
  0
LINE
  5
400
100
AcDbEntity
  8
0
100
AcDbLine
 62
7
  6
CONTINUOUS
 10
-0.6003675411
 20
11.1605041637
 11
-0.6003675411
 21
10.8
  0
LINE
  5
401
100
AcDbEntity
  8
0
100
AcDbLine
 62
7
  6
CONTINUOUS
 10
-0.5666665077
 20
-15.6457446694
 11
-0.5666665077
 21
-16.05
  0
LINE
  5
402
100
AcDbEntity
  8
0
100
AcDbLine
 62
7
  6
CONTINUOUS
 10
-0.3375
 20
-12.55
 11
-0.3375
 21
-12.2521276653
  0
LINE
  5
403
100
AcDbEntity
  8
0
100
AcDbLine
 62
7
  6
CONTINUOUS
 10
-0.3375
 20
-12.1244680762
 11
-0.3375
 21
-11.7202127457
  0
LINE
  5
404
100
AcDbEntity
  8
0
100
AcDbLine
 62
7
  6
CONTINUOUS
 10
-0.2125
 20
-11.55
 11
-0.2125
 21
-12.1244680762
  0
LINE
  5
405
100
AcDbEntity
  8
0
100
AcDbLine
 62
7
  6
CONTINUOUS
 10
-0.2125
 20
-12.2521276653
 11
-0.2125
 21
-12.55
  0
LINE
  5
406
100
AcDbEntity
  8
0
100
AcDbLine
 62
7
  6
CONTINUOUS
 10
-0.0041665077
 20
-12.1244680762
 11
-0.0041665077
 21
-12.2521276653
  0
LINE
  5
407
100
AcDbEntity
  8
0
100
AcDbLine
 62
7
  6
CONTINUOUS
 10
0.0375
 20
10.9499163644
 11
0.0375
 21
10.7
  0
LINE
  5
408
100
AcDbEntity
  8
0
100
AcDbLine
 62
7
  6
CONTINUOUS
 10
0.0375
 20
18.4500836355
 11
0.0375
 21
18.55
  0
LINE
  5
409
100
AcDbEntity
  8
0
100
AcDbLine
 62
7
  6
CONTINUOUS
 10
0.2666665077
 20
-12.1882978857
 11
0.2666665077
 21
-12.0393617034
  0
LWPOLYLINE
  5
40A
100
AcDbEntity
  8
0
100
AcDbPolyline
 62
7
  6
CONTINUOUS
 90
13
 70
0
 10
-0.6003675411
 20
10.8
 10
-0.6013429496
 20
10.7866970115
 10
-0.6038929195
 20
10.7740242786
 10
-0.6080174508
 20
10.7619818012
 10
-0.6138299057
 20
10.7503913
 10
-0.621216922
 20
10.7394310544
 10
-0.6298384135
 20
10.7296359022
 10
-0.6397588402
 20
10.7210508496
 10
-0.6509137421
 20
10.7136308904
 10
-0.6627696529
 20
10.707775844
 10
-0.6751487506
 20
10.7036189833
 10
-0.6882288573
 20
10.7010270353
 10
-0.7020099729
 20
10.7
  0
LINE
  5
40B
100
AcDbEntity
  8
0
100
AcDbLine
 62
7
  6
CONTINUOUS
 10
-1.6083334923
 20
-12.0393617034
 11
-1.5875
 21
-11.8478723645
  0
LINE
  5
40C
100
AcDbEntity
  8
0
100
AcDbLine
 62
7
  6
CONTINUOUS
 10
-1.5041665077
 20
-11.8478723645
 11
-1.525
 21
-12.0393617034
  0
LWPOLYLINE
  5
40D
100
AcDbEntity
  8
0
100
AcDbPolyline
 62
7
  6
CONTINUOUS
 90
31
 70
0
 10
0.6875
 20
18.3746165399
 10
0.6855201714
 20
18.357404001
 10
0.6758368084
 20
18.3401240217
 10
0.658449911
 20
18.3227766019
 10
0.6324226337
 20
18.3048024715
 10
0.598691822
 20
18.2867609007
 10
0.5600680128
 20
18.2703297002
 10
0.5172469607
 20
18.2561104364
 10
0.4695329109
 20
18.243501543
 10
0.417649136
 20
18.2323761318
 10
0.3610416045
 20
18.2225911555
 10
0.3002643477
 20
18.2142896614
 10
0.2377027323
 20
18.207773904
 10
0.1733291603
 20
18.2031539582
 10
0.1071712296
 20
18.2003197491
 10
0.0416971008
 20
18.1992433062
 10
-0.0225597778
 20
18.1999438754
 10
-0.0861328545
 20
18.2024022108
 10
-0.1481543142
 20
18.2065326048
 10
-0.2087324368
 20
18.2122854865
 10
-0.2677589424
 20
18.2197104267
 10
-0.3240411762
 20
18.2288704306
 10
-0.3782114643
 20
18.239982834
 10
-0.4296374807
 20
18.252830301
 10
-0.4752295922
 20
18.2668238291
 10
-0.5142395623
 20
18.2817321852
 10
-0.5474156275
 20
18.2977866024
 10
-0.573912865
 20
18.315091777
 10
-0.5934496337
 20
18.333682608
 10
-0.6063075746
 20
18.3535241965
 10
-0.6079612869
 20
18.3591691283
  0
LINE
  5
40E
100
AcDbEntity
  8
0
100
AcDbLine
 62
7
  6
CONTINUOUS
 10
-3.2541667461
 20
-15.7095744789
 11
-3.2333332539
 21
-15.5819148898
  0
LINE
  5
40F
100
AcDbEntity
  8
0
100
AcDbLine
 62
7
  6
CONTINUOUS
 10
-4.1083332539
 20
-12.2946808517
 11
-4.1291667461
 21
-12.4010638326
  0
LINE
  5
410
100
AcDbEntity
  8
0
100
AcDbLine
 62
7
  6
CONTINUOUS
 10
-4.0875
 20
-15.6244680762
 11
-4.0666667461
 21
-15.5393617034
  0
LINE
  5
411
100
AcDbEntity
  8
0
100
AcDbLine
 62
7
  6
CONTINUOUS
 10
-5.2333333731
 20
-11.9117021441
 11
-5.2125
 21
-11.8478723645
  0
LINE
  5
412
100
AcDbEntity
  8
0
100
AcDbLine
 62
7
  6
CONTINUOUS
 10
-5.0875
 20
-11.8691489577
 11
-5.1083333731
 21
-11.9329787374
  0
LINE
  5
413
100
AcDbEntity
  8
0
100
AcDbLine
 62
7
  6
CONTINUOUS
 10
-4.2541667461
 20
-12.3585106313
 11
-4.2333332539
 21
-12.2946808517
  0
LINE
  5
414
100
AcDbEntity
  8
0
100
AcDbLine
 62
7
  6
CONTINUOUS
 10
-5.5875
 20
-15.9436170191
 11
-5.275
 21
-15.05
  0
LINE
  5
415
100
AcDbEntity
  8
0
100
AcDbLine
 62
7
  6
CONTINUOUS
 10
4.4333330154
 20
-16.0074468099
 11
4.4125
 21
-15.9436170191
  0
LINE
  5
416
100
AcDbEntity
  8
0
100
AcDbLine
 62
7
  6
CONTINUOUS
 10
4.5375
 20
-15.9861702129
 11
4.5583330154
 21
-16.05
  0
LINE
  5
417
100
AcDbEntity
  8
0
100
AcDbLine
 62
7
  6
CONTINUOUS
 10
4.4958330154
 20
-15.4755319238
 11
4.5166669846
 21
-15.5393617034
  0
LINE
  5
418
100
AcDbEntity
  8
0
100
AcDbLine
 62
7
  6
CONTINUOUS
 10
5.2666669846
 20
-15.4755319238
 11
5.2875
 21
-15.5393617034
  0
LINE
  5
419
100
AcDbEntity
  8
0
100
AcDbLine
 62
7
  6
CONTINUOUS
 10
2.225
 20
-15.5393617034
 11
2.2458330154
 21
-15.6244680762
  0
LINE
  5
41A
100
AcDbEntity
  8
0
100
AcDbLine
 62
7
  6
CONTINUOUS
 10
3.9125
 20
-15.9436170191
 11
3.8916669846
 21
-15.8585106313
  0
LINE
  5
41B
100
AcDbEntity
  8
0
100
AcDbLine
 62
7
  6
CONTINUOUS
 10
1.3916665077
 20
-15.1989361525
 11
1.4125
 21
-15.3053191781
  0
LINE
  5
41C
100
AcDbEntity
  8
0
100
AcDbLine
 62
7
  6
CONTINUOUS
 10
1.6
 20
-15.8372340381
 11
1.5791665077
 21
-15.7095744789
  0
LWPOLYLINE
  5
41D
100
AcDbEntity
  8
0
100
AcDbPolyline
 62
7
  6
CONTINUOUS
 90
39
 70
0
 10
1.287499948
 20
16.4999634442
 10
1.2873590716
 20
16.5084761632
 10
1.2854743584
 20
16.5322184141
 10
1.2815079621
 20
16.5554057374
 10
1.2756011561
 20
16.5778810102
 10
1.267889788
 20
16.5995025931
 10
1.2584995385
 20
16.6201540098
 10
1.2474939828
 20
16.6398213927
 10
1.2350163989
 20
16.6583314843
 10
1.2213565475
 20
16.675422876
 10
1.2066341933
 20
16.6911933846
 10
1.1910449148
 20
16.7056428039
 10
1.1751015164
 20
16.718544691
 10
1.1590214613
 20
16.730002162
 10
1.1428007598
 20
16.7402501307
 10
1.1266503125
 20
16.7493568904
 10
1.1107460217
 20
16.7574203241
 10
1.0949544157
 20
16.7646728681
 10
1.0790363746
 20
16.7713376877
 10
1.0630137432
 20
16.7774902104
 10
1.0468216459
 20
16.7832266822
 10
1.0301157805
 20
16.7887165975
 10
1.012847723
 20
16.7940064537
 10
0.9950111956
 20
16.79912412
 10
0.9763383923
 20
16.804162585
 10
0.956761118
 20
16.8091473665
 10
0.9362722192
 20
16.8140861035
 10
0.9146952334
 20
16.8190240809
 10
0.8919525791
 20
16.8239781403
 10
0.8680390678
 20
16.8289483046
 10
0.8428943668
 20
16.833946086
 10
0.816446806
 20
16.8389843736
 10
0.7887130989
 20
16.8440604641
 10
0.759793132
 20
16.8491587131
 10
0.7296834258
 20
16.8542835322
 10
0.6983937395
 20
16.8594371298
 10
0.6660836377
 20
16.8645983352
 10
0.6327742679
 20
16.8697699066
 10
0.5634594833
 20
16.8801233193
  0
LWPOLYLINE
  5
41E
100
AcDbEntity
  8
0
100
AcDbPolyline
 62
7
  6
CONTINUOUS
 90
38
 70
0
 10
1.2874596943
 20
14.8999851886
 10
1.2873333096
 20
14.908053951
 10
1.2855140915
 20
14.9316090705
 10
1.2815950448
 20
14.954857034
 10
1.275626562
 20
14.9777164469
 10
1.2676967792
 20
14.9999326968
 10
1.2580011204
 20
15.0211142218
 10
1.246651659
 20
15.0411799005
 10
1.2337748164
 20
15.0600183468
 10
1.2197150995
 20
15.0773256408
 10
1.2046300188
 20
15.093197459
 10
1.1887185486
 20
15.1076644798
 10
1.1725035771
 20
15.1205217148
 10
1.1562357934
 20
15.131871244
 10
1.1398897779
 20
15.1419811318
 10
1.1235864449
 20
15.15098105
 10
1.1074607225
 20
15.1589846669
 10
1.0913951744
 20
15.166207172
 10
1.0751383321
 20
15.1728702633
 10
1.0587098331
 20
15.1790465418
 10
1.0420348972
 20
15.1848320115
 10
1.0247486455
 20
15.1903963413
 10
1.0067785096
 20
15.1957870865
 10
0.9881202877
 20
15.2010255733
 10
0.9685227546
 20
15.2061944528
 10
0.9479174611
 20
15.2113175896
 10
0.9262879339
 20
15.2164049173
 10
0.903463962
 20
15.2214994017
 10
0.8793629562
 20
15.2266189584
 10
0.8539840713
 20
15.2317631516
 10
0.8272941667
 20
15.2369386561
 10
0.7992145795
 20
15.2421601491
 10
0.7697696341
 20
15.2474227135
 10
0.739120537
 20
15.2526996485
 10
0.7072676502
 20
15.2579954408
 10
0.6742348644
 20
15.2633121948
 10
0.6402715662
 20
15.2686176732
 10
0.5697266905
 20
15.2792044605
  0
LWPOLYLINE
  5
41F
100
AcDbEntity
  8
0
100
AcDbPolyline
 62
7
  6
CONTINUOUS
 90
38
 70
0
 10
1.2874878635
 20
14.0999222588
 10
1.287379484
 20
14.1073962789
 10
1.2856566471
 20
14.1305987535
 10
1.2818445535
 20
14.1537461386
 10
1.2759078413
 20
14.1768197371
 10
1.267881733
 20
14.1994729264
 10
1.2580040175
 20
14.2210890747
 10
1.2464000088
 20
14.2415530932
 10
1.2331836206
 20
14.2607701665
 10
1.2187922969
 20
14.2783291919
 10
1.2034555429
 20
14.2942993397
 10
1.1873538978
 20
14.308779738
 10
1.1709865623
 20
14.3216146157
 10
1.1546162361
 20
14.3329106956
 10
1.1382145879
 20
14.3429469798
 10
1.121841958
 20
14.3518913928
 10
1.1056138181
 20
14.3598621281
 10
1.089424794
 20
14.3670621591
 10
1.072996818
 20
14.3737190831
 10
1.0563440931
 20
14.3799045305
 10
1.0393846685
 20
14.3857152004
 10
1.0217116592
 20
14.3913310484
 10
1.0032253997
 20
14.3968037637
 10
0.9839244007
 20
14.402150065
 10
0.9635568601
 20
14.4074490598
 10
0.9420220263
 20
14.4127285765
 10
0.9193048158
 20
14.4179930184
 10
0.8952945842
 20
14.4232678018
 10
0.8698915878
 20
14.4285724308
 10
0.8430984232
 20
14.4339051969
 10
0.814999029
 20
14.4392521056
 10
0.7855751771
 20
14.4446207133
 10
0.7548291686
 20
14.4500146406
 10
0.7229298384
 20
14.4554099706
 10
0.6898926105
 20
14.4608111334
 10
0.6557468221
 20
14.4662201789
 10
0.620733367
 20
14.47160712
 10
0.5482943961
 20
14.4823242235
  0
LWPOLYLINE
  5
420
100
AcDbEntity
  8
0
100
AcDbPolyline
 62
7
  6
CONTINUOUS
 90
35
 70
0
 10
1.2874963695
 20
18.0999880803
 10
1.287390862
 20
18.1073599702
 10
1.2857042323
 20
18.1303296277
 10
1.2819956345
 20
18.1531204436
 10
1.2762735582
 20
18.1756905431
 10
1.2685993625
 20
18.1977499983
 10
1.2591856631
 20
18.2188053415
 10
1.2481550751
 20
18.2387571224
 10
1.2356235949
 20
18.2575167934
 10
1.2219512946
 20
18.274745105
 10
1.2073430584
 20
18.2904950681
 10
1.1919687364
 20
18.3048479343
 10
1.1762402144
 20
18.3176820334
 10
1.1603493345
 20
18.3291100975
 10
1.1443151169
 20
18.3393427715
 10
1.128286166
 20
18.3484771286
 10
1.1124141785
 20
18.3566092326
 10
1.0965691667
 20
18.3639585282
 10
1.080464102
 20
18.3707601796
 10
1.0640960557
 20
18.3770880162
 10
1.0473756221
 20
18.3830373326
 10
1.0298775257
 20
18.3887937484
 10
1.0114483467
 20
18.394422251
 10
0.9920947894
 20
18.3999333166
 10
0.9716452493
 20
18.4053848361
 10
0.9499912854
 20
18.4108088233
 10
0.9271131276
 20
18.4162121432
 10
0.9030199981
 20
18.4215957259
 10
0.8776627031
 20
18.426973834
 10
0.8510215956
 20
18.4323533577
 10
0.8232138417
 20
18.4377150709
 10
0.7942304259
 20
18.4430670731
 10
0.7640900574
 20
18.4484137689
 10
0.7330143977
 20
18.4537256879
 10
0.7014302293
 20
18.4589431926
  0
LWPOLYLINE
  5
421
100
AcDbEntity
  8
0
100
AcDbPolyline
 62
7
  6
CONTINUOUS
 90
38
 70
0
 10
1.2874555313
 20
17.2999546608
 10
1.2873581017
 20
17.3070417297
 10
1.2857166727
 20
17.3298502846
 10
1.2820593039
 20
17.3525975698
 10
1.2763590132
 20
17.3752594744
 10
1.2686510489
 20
17.3975165469
 10
1.2591497648
 20
17.4188045375
 10
1.2479686313
 20
17.4390141539
 10
1.2352142052
 20
17.4580477001
 10
1.2212808474
 20
17.4755103941
 10
1.2063822076
 20
17.4914553098
 10
1.1906911642
 20
17.505967995
 10
1.1746676901
 20
17.5188977876
 10
1.1585166745
 20
17.5303657165
 10
1.14225627
 20
17.5405967782
 10
1.126075725
 20
17.5496787937
 10
1.1101602523
 20
17.5577091971
 10
1.0943677231
 20
17.5649280486
 10
1.0783974405
 20
17.5715848641
 10
1.0622592416
 20
17.5777554736
 10
1.045885084
 20
17.5835331856
 10
1.0288647881
 20
17.5891035803
 10
1.0111030477
 20
17.5945182518
 10
0.9925966385
 20
17.5997948855
 10
0.9730748419
 20
17.6050196063
 10
0.9524111605
 20
17.6102261859
 10
0.9306049767
 20
17.615414018
 10
0.9075935583
 20
17.620599602
 10
0.8833044889
 20
17.6258004135
 10
0.8577306418
 20
17.6310189049
 10
0.8309530292
 20
17.6362412956
 10
0.8029530066
 20
17.6414751278
 10
0.7737300121
 20
17.6467242416
 10
0.743446619
 20
17.6519647446
 10
0.7121137383
 20
17.6572013193
 10
0.6797569962
 20
17.6624361292
 10
0.6466187862
 20
17.6676390841
 10
0.5782074896
 20
17.6779592876
  0
LWPOLYLINE
  5
422
100
AcDbEntity
  8
0
100
AcDbPolyline
 62
7
  6
CONTINUOUS
 90
37
 70
0
 10
1.2874774163
 20
12.500006075
 10
1.2873843069
 20
12.5069317011
 10
1.2857842335
 20
12.5295001104
 10
1.2822250255
 20
12.5519352833
 10
1.2767057581
 20
12.5741999425
 10
1.2692765012
 20
12.5960115466
 10
1.2601342178
 20
12.6168840807
 10
1.2493855144
 20
12.6367250317
 10
1.2371401763
 20
12.6554332057
 10
1.2237581742
 20
12.6726407969
 10
1.209443976
 20
12.6883879544
 10
1.1943631616
 20
12.7027573042
 10
1.1789283825
 20
12.7156184452
 10
1.1633305525
 20
12.7270814666
 10
1.1476017143
 20
12.7373474721
 10
1.1319181109
 20
12.7464968027
 10
1.1164413679
 20
12.7546229877
 10
1.1010554418
 20
12.7619447742
 10
1.0855117509
 20
12.76868862
 10
1.0698259218
 20
12.7749275147
 10
1.0539206885
 20
12.7807594367
 10
1.0374073569
 20
12.786367185
 10
1.0201848958
 20
12.7918052094
 10
1.002242766
 20
12.7970936364
 10
0.9833317305
 20
12.8023164201
 10
0.9633308933
 20
12.807509976
 10
0.9422416539
 20
12.8126759254
 10
0.9200239801
 20
12.8178267206
 10
0.8966190745
 20
12.8229778327
 10
0.8720070094
 20
12.8281350528
 10
0.8462541037
 20
12.8332872292
 10
0.8193369829
 20
12.8384426705
 10
0.7912532941
 20
12.8436051859
 10
0.7621538235
 20
12.8487521721
 10
0.7320568436
 20
12.8538883205
 10
0.7009923846
 20
12.8590166657
 10
0.6366773188
 20
12.8691698219
  0
LWPOLYLINE
  5
423
100
AcDbEntity
  8
0
100
AcDbPolyline
 62
7
  6
CONTINUOUS
 90
38
 70
0
 10
1.2874963705
 20
15.6999377166
 10
1.2874204706
 20
15.7061944576
 10
1.2859180072
 20
15.7284119223
 10
1.2824526138
 20
15.7508239872
 10
1.2769267649
 20
15.7734346814
 10
1.2693168092
 20
15.7958820838
 10
1.2598163004
 20
15.8174965138
 10
1.2484950438
 20
15.8381653719
 10
1.2354365453
 20
15.8577458401
 10
1.2211076766
 20
15.8757001692
 10
1.2057393992
 20
15.8920730609
 10
1.1895033033
 20
15.9069627388
 10
1.1729575623
 20
15.9201548276
 10
1.1563948662
 20
15.9317458764
 10
1.1397759467
 20
15.9420363327
 10
1.1231659347
 20
15.9511990675
 10
1.1066729642
 20
15.9593621922
 10
1.0901941806
 20
15.9667327961
 10
1.0734722226
 20
15.9735348894
 10
1.056498079
 20
15.9798518038
 10
1.0392042896
 20
15.985777358
 10
1.0212822206
 20
15.9914649221
 10
1.0026794854
 20
15.9969613219
 10
0.9833827005
 20
16.0022956968
 10
0.9631747334
 20
16.0075448396
 10
0.9419880702
 20
16.012735255
 10
0.9198229536
 20
16.0178743574
 10
0.8965862531
 20
16.0229894637
 10
0.8722409129
 20
16.0280923339
 10
0.846774488
 20
16.0331887558
 10
0.8201595404
 20
16.0382884608
 10
0.7924140701
 20
16.0433931205
 10
0.7635180606
 20
16.0485113781
 10
0.7334053908
 20
16.0536589318
 10
0.7020806816
 20
16.0588384261
 10
0.6695483132
 20
16.064052714
 10
0.635746074
 20
16.0693150111
 10
0.5643674049
 20
16.0799907525
  0
LWPOLYLINE
  5
424
100
AcDbEntity
  8
0
100
AcDbPolyline
 62
7
  6
CONTINUOUS
 90
28
 70
0
 10
1.2874775688
 20
13.2999280999
 10
1.2874083413
 20
13.3059005444
 10
1.2859870906
 20
13.3275967164
 10
1.2827394981
 20
13.3492540738
 10
1.2776452205
 20
13.3708472956
 10
1.2707321788
 20
13.3921072068
 10
1.2621689221
 20
13.4125584183
 10
1.2520417855
 20
13.4321080548
 10
1.2404411128
 20
13.4506528507
 10
1.2276927219
 20
13.4678147655
 10
1.2139769567
 20
13.4836083997
 10
1.1994463429
 20
13.4981028345
 10
1.1844891419
 20
13.5111552584
 10
1.1692735048
 20
13.5228685896
 10
1.1538556848
 20
13.5334082135
 10
1.138466542
 20
13.5428069501
 10
1.1232655162
 20
13.551156565
 10
1.1081573408
 20
13.5586689365
 10
1.0929857731
 20
13.5655372241
 10
1.0777888636
 20
13.5718366892
 10
1.0624902909
 20
13.577678545
 10
1.0467695794
 20
13.5832371427
 10
1.0305710417
 20
13.5885645369
 10
1.0138813013
 20
13.5936936135
 10
0.9964572363
 20
13.5987174833
 10
0.9781958093
 20
13.6036739798
 10
0.9591238313
 20
13.6085624746
 10
0.9483545025
 20
13.6112089463
  0
LINE
  5
425
100
AcDbEntity
  8
0
100
AcDbLine
 62
7
  6
CONTINUOUS
 10
0.35
 20
-12.0393617034
 11
0.35
 21
-12.1882978856
  0
LINE
  5
426
100
AcDbEntity
  8
0
100
AcDbLine
 62
7
  6
CONTINUOUS
 10
0.6
 20
-15.7095744789
 11
0.6
 21
-15.3904255509
  0
LINE
  5
427
100
AcDbEntity
  8
0
100
AcDbLine
 62
7
  6
CONTINUOUS
 10
0.6753675411
 20
11.0394889236
 11
0.6753675411
 21
11.3368879532
  0
LINE
  5
428
100
AcDbEntity
  8
0
100
AcDbLine
 62
7
  6
CONTINUOUS
 10
0.6875
 20
18.3746165399
 11
0.6875
 21
18.55
  0
LINE
  5
429
100
AcDbEntity
  8
0
100
AcDbLine
 62
7
  6
CONTINUOUS
 10
0.725
 20
-15.3904255509
 11
0.725
 21
-15.7095744789
  0
LINE
  5
42A
100
AcDbEntity
  8
0
100
AcDbLine
 62
7
  6
CONTINUOUS
 10
1.0659649801
 20
18.55
 11
1.0659649801
 21
18.3763654958
  0
LINE
  5
42B
100
AcDbEntity
  8
0
100
AcDbLine
 62
7
  6
CONTINUOUS
 10
1.0659649801
 20
17.8236473538
 11
1.0659649801
 21
17.5763385457
  0
LINE
  5
42C
100
AcDbEntity
  8
0
100
AcDbLine
 62
7
  6
CONTINUOUS
 10
1.0659649801
 20
17.0236823228
 11
1.0659649801
 21
16.7763569663
  0
LINE
  5
42D
100
AcDbEntity
  8
0
100
AcDbLine
 62
7
  6
CONTINUOUS
 10
1.0659649801
 20
16.2236178744
 11
1.0659649801
 21
15.9763287039
  0
LINE
  5
42E
100
AcDbEntity
  8
0
100
AcDbLine
 62
7
  6
CONTINUOUS
 10
1.0659649801
 20
15.4236580936
 11
1.0659649801
 21
15.1763189762
  0
LINE
  5
42F
100
AcDbEntity
  8
0
100
AcDbLine
 62
7
  6
CONTINUOUS
 10
1.0659649801
 20
14.6236649027
 11
1.0659649801
 21
14.3763309718
  0
LINE
  5
430
100
AcDbEntity
  8
0
100
AcDbLine
 62
7
  6
CONTINUOUS
 10
1.0659649801
 20
13.8236761011
 11
1.0659649801
 21
13.5763517132
  0
LINE
  5
431
100
AcDbEntity
  8
0
100
AcDbLine
 62
7
  6
CONTINUOUS
 10
1.0659649801
 20
13.023675505
 11
1.0659649801
 21
12.7763431941
  0
LINE
  5
432
100
AcDbEntity
  8
0
100
AcDbLine
 62
7
  6
CONTINUOUS
 10
1.0659649801
 20
12.2236237144
 11
1.0659649801
 21
11.9763507974
  0
LINE
  5
433
100
AcDbEntity
  8
0
100
AcDbLine
 62
7
  6
CONTINUOUS
 10
1.0659649801
 20
11.4236733473
 11
1.0659649801
 21
11.176351577
  0
LINE
  5
434
100
AcDbEntity
  8
0
100
AcDbLine
 62
7
  6
CONTINUOUS
 10
1.1
 20
-15.6244680762
 11
1.1
 21
-15.496808517
  0
LINE
  5
435
100
AcDbEntity
  8
0
100
AcDbLine
 62
7
  6
CONTINUOUS
 10
1.2275
 20
10.7
 11
1.2275
 21
12.2
  0
LINE
  5
436
100
AcDbEntity
  8
0
100
AcDbLine
 62
7
  6
CONTINUOUS
 10
1.2874963705
 20
15.6999377166
 11
1.2874963714
 21
15.7000112744
  0
LINE
  5
437
100
AcDbEntity
  8
0
100
AcDbLine
 62
7
  6
CONTINUOUS
 10
1.2875
 20
-15.7946808517
 11
1.2875
 21
-15.6244680762
  0
LINE
  5
438
100
AcDbEntity
  8
0
100
AcDbLine
 62
7
  6
CONTINUOUS
 10
1.2874774163
 20
12.500006075
 11
1.2874774122
 21
12.500076881
  0
LINE
  5
439
100
AcDbEntity
  8
0
100
AcDbLine
 62
7
  6
CONTINUOUS
 10
1.2874775688
 20
13.2999280999
 11
1.2874775637
 21
13.2999929199
  0
LINE
  5
43A
100
AcDbEntity
  8
0
100
AcDbLine
 62
7
  6
CONTINUOUS
 10
1.4125
 20
-15.496808517
 11
1.4125
 21
-15.8159574449
  0
LINE
  5
43B
100
AcDbEntity
  8
0
100
AcDbLine
 62
7
  6
CONTINUOUS
 10
1.4125
 20
12.2
 11
1.4125
 21
18.55
  0
LINE
  5
43C
100
AcDbEntity
  8
0
100
AcDbLine
 62
7
  6
CONTINUOUS
 10
1.5375
 20
24.2
 11
1.5375
 21
20.45
  0
LINE
  5
43D
100
AcDbEntity
  8
0
100
AcDbLine
 62
7
  6
CONTINUOUS
 10
1.6140286184
 20
12.45
 11
1.6140286184
 21
12.2
  0
LINE
  5
43E
100
AcDbEntity
  8
0
100
AcDbLine
 62
7
  6
CONTINUOUS
 10
1.6833334923
 20
-15.7095744789
 11
1.6833334923
 21
-15.7521276653
  0
LINE
  5
43F
100
AcDbEntity
  8
0
100
AcDbLine
 62
7
  6
CONTINUOUS
 10
1.7041665077
 20
-15.603191483
 11
1.7041665077
 21
-15.6244680762
  0
LINE
  5
440
100
AcDbEntity
  8
0
100
AcDbLine
 62
7
  6
CONTINUOUS
 10
1.7875995271
 20
12.2
 11
1.7875995271
 21
10.7
  0
LINE
  5
441
100
AcDbEntity
  8
0
100
AcDbLine
 62
7
  6
CONTINUOUS
 10
2.1416669846
 20
-15.6244680762
 11
2.1416669846
 21
-15.5819148898
  0
LINE
  5
442
100
AcDbEntity
  8
0
100
AcDbLine
 62
7
  6
CONTINUOUS
 10
2.2458330154
 20
-15.6244680762
 11
2.2458330154
 21
-15.7095744789
  0
LINE
  5
443
100
AcDbEntity
  8
0
100
AcDbLine
 62
7
  6
CONTINUOUS
 10
1.2874555313
 20
17.2999546608
 11
1.2874555391
 21
17.3000260946
  0
LINE
  5
444
100
AcDbEntity
  8
0
100
AcDbLine
 62
7
  6
CONTINUOUS
 10
1.2874878635
 20
14.0999222588
 11
1.2874878735
 21
14.099997876
  0
LINE
  5
445
100
AcDbEntity
  8
0
100
AcDbLine
 62
7
  6
CONTINUOUS
 10
1.2874596943
 20
14.8999851886
 11
1.2874596995
 21
14.9000598043
  0
LINE
  5
446
100
AcDbEntity
  8
0
100
AcDbLine
 62
7
  6
CONTINUOUS
 10
1.287499948
 20
16.4999634442
 11
1.2874999525
 21
16.5000349328
  0
LINE
  5
447
100
AcDbEntity
  8
0
100
AcDbLine
 62
7
  6
CONTINUOUS
 10
1.2874963695
 20
18.0999880803
 11
1.2874963734
 21
18.1000612441
  0
LINE
  5
448
100
AcDbEntity
  8
0
100
AcDbLine
 62
7
  6
CONTINUOUS
 10
0.2458334923
 20
-12.3797872394
 11
0.2666665077
 21
-12.1882978857
  0
LINE
  5
449
100
AcDbEntity
  8
0
100
AcDbLine
 62
7
  6
CONTINUOUS
 10
0.35
 20
-12.1882978856
 11
0.3291665077
 21
-12.3797872394
  0
LINE
  5
44A
100
AcDbEntity
  8
0
100
AcDbLine
 62
7
  6
CONTINUOUS
 10
-1.5875
 20
-11.8478723645
 11
-1.5458334923
 21
-11.6563829661
  0
LINE
  5
44B
100
AcDbEntity
  8
0
100
AcDbLine
 62
7
  6
CONTINUOUS
 10
-1.4625
 20
-11.656382966
 11
-1.5041665077
 21
-11.8478723645
  0
LINE
  5
44C
100
AcDbEntity
  8
0
100
AcDbLine
 62
7
  6
CONTINUOUS
 10
-2.5875
 20
-15.8372340381
 11
-2.6083332539
 21
-15.9223404258
  0
LINE
  5
44D
100
AcDbEntity
  8
0
100
AcDbLine
 62
7
  6
CONTINUOUS
 10
-4.7958333731
 20
-15.7734042585
 11
-4.8166666269
 21
-15.8372340381
  0
LINE
  5
44E
100
AcDbEntity
  8
0
100
AcDbLine
 62
7
  6
CONTINUOUS
 10
-3.9625
 20
-15.5819148898
 11
-3.9833332539
 21
-15.6457446694
  0
LINE
  5
44F
100
AcDbEntity
  8
0
100
AcDbLine
 62
7
  6
CONTINUOUS
 10
-1.9416665077
 20
-11.9117021441
 11
-1.9208334923
 21
-11.8478723645
  0
LINE
  5
450
100
AcDbEntity
  8
0
100
AcDbLine
 62
7
  6
CONTINUOUS
 10
-1.7958334923
 20
-11.8691489577
 11
-1.8166665077
 21
-11.9329787374
  0
LINE
  5
451
100
AcDbEntity
  8
0
100
AcDbLine
 62
7
  6
CONTINUOUS
 10
-5.2125
 20
-15.2627659321
 11
-5.5041666865
 21
-16.05
  0
LINE
  5
452
100
AcDbEntity
  8
0
100
AcDbLine
 62
7
  6
CONTINUOUS
 10
-4.9
 20
-11.7840425253
 11
-4.8583333731
 21
-11.6989361525
  0
LINE
  5
453
100
AcDbEntity
  8
0
100
AcDbLine
 62
7
  6
CONTINUOUS
 10
-6.4625
 20
-11.8904255509
 11
-6.4208333321
 21
-11.8265957713
  0
LINE
  5
454
100
AcDbEntity
  8
0
100
AcDbLine
 62
7
  6
CONTINUOUS
 10
4.5166669846
 20
-15.8797872394
 11
4.5375
 21
-15.9861702129
  0
LINE
  5
455
100
AcDbEntity
  8
0
100
AcDbLine
 62
7
  6
CONTINUOUS
 10
5.2041669846
 20
-15.6457446695
 11
5.1833330154
 21
-15.5393617034
  0
LINE
  5
456
100
AcDbEntity
  8
0
100
AcDbLine
 62
7
  6
CONTINUOUS
 10
5.2875
 20
-15.5393617034
 11
5.3083330154
 21
-15.6457446694
  0
LINE
  5
457
100
AcDbEntity
  8
0
100
AcDbLine
 62
7
  6
CONTINUOUS
 10
2.420143092
 20
18.2
 11
2.3461970374
 21
19.416256203
  0
LINE
  5
458
100
AcDbEntity
  8
0
100
AcDbLine
 62
7
  6
CONTINUOUS
 10
2.4125
 20
-16.05
 11
2.4125
 21
-15.3691489577
  0
LINE
  5
459
100
AcDbEntity
  8
0
100
AcDbLine
 62
7
  6
CONTINUOUS
 10
2.420143092
 20
12.2
 11
2.420143092
 21
18.2
  0
LINE
  5
45A
100
AcDbEntity
  8
0
100
AcDbLine
 62
7
  6
CONTINUOUS
 10
2.5166669846
 20
-15.3691489577
 11
2.5166669846
 21
-15.496808517
  0
LINE
  5
45B
100
AcDbEntity
  8
0
100
AcDbLine
 62
7
  6
CONTINUOUS
 10
2.5166669846
 20
-15.6244680762
 11
2.5166669846
 21
-16.05
  0
LINE
  5
45C
100
AcDbEntity
  8
0
100
AcDbLine
 62
7
  6
CONTINUOUS
 10
2.5375
 20
23.45
 11
2.5375
 21
24.2
  0
LINE
  5
45D
100
AcDbEntity
  8
0
100
AcDbLine
 62
7
  6
CONTINUOUS
 10
2.7875
 20
-15.3691489577
 11
2.7875
 21
-15.4755319238
  0
LINE
  5
45E
100
AcDbEntity
  8
0
100
AcDbLine
 62
7
  6
CONTINUOUS
 10
2.9541669846
 20
-16.05
 11
2.9541669846
 21
-15.3691489577
  0
LINE
  5
45F
100
AcDbEntity
  8
0
100
AcDbLine
 62
7
  6
CONTINUOUS
 10
3.0583330154
 20
-15.3691489577
 11
3.0583330154
 21
-15.4329787374
  0
LINE
  5
460
100
AcDbEntity
  8
0
100
AcDbLine
 62
7
  6
CONTINUOUS
 10
3.0583330154
 20
-15.5180851102
 11
3.0583330154
 21
-16.05
  0
LINE
  5
461
100
AcDbEntity
  8
0
100
AcDbLine
 62
7
  6
CONTINUOUS
 10
3.2875
 20
-16.05
 11
3.2875
 21
-15.5393617034
  0
LINE
  5
462
100
AcDbEntity
  8
0
100
AcDbLine
 62
7
  6
CONTINUOUS
 10
3.3916669846
 20
-15.5393617034
 11
3.3916669846
 21
-16.05
  0
LINE
  5
463
100
AcDbEntity
  8
0
100
AcDbLine
 62
7
  6
CONTINUOUS
 10
3.6208330154
 20
-16.05
 11
3.6208330154
 21
-15.5393617034
  0
LINE
  5
464
100
AcDbEntity
  8
0
100
AcDbLine
 62
7
  6
CONTINUOUS
 10
3.725
 20
-15.5393617034
 11
3.725
 21
-16.05
  0
LINE
  5
465
100
AcDbEntity
  8
0
100
AcDbLine
 62
7
  6
CONTINUOUS
 10
3.8125
 20
-10.65
 11
3.8125
 21
-11.135
  0
LINE
  5
466
100
AcDbEntity
  8
0
100
AcDbLine
 62
7
  6
CONTINUOUS
 10
3.8125
 20
-13.36
 11
3.8125
 21
-13.845
  0
LINE
  5
467
100
AcDbEntity
  8
0
100
AcDbLine
 62
7
  6
CONTINUOUS
 10
3.8916669846
 20
-15.8585106313
 11
3.8916669846
 21
-15.7946808517
  0
LINE
  5
468
100
AcDbEntity
  8
0
100
AcDbLine
 62
7
  6
CONTINUOUS
 10
3.8916669846
 20
-15.5393617034
 11
3.8916669846
 21
-15.496808517
  0
LINE
  5
469
100
AcDbEntity
  8
0
100
AcDbLine
 62
7
  6
CONTINUOUS
 10
3.9958330154
 20
-15.8372340381
 11
3.9958330154
 21
-15.8797872394
  0
LINE
  5
46A
100
AcDbEntity
  8
0
100
AcDbLine
 62
7
  6
CONTINUOUS
 10
1.5791665077
 20
-15.7095744789
 11
1.6
 21
-15.5819148898
  0
LINE
  5
46B
100
AcDbEntity
  8
0
100
AcDbLine
 62
7
  6
CONTINUOUS
 10
0.6
 20
-15.3904255509
 11
0.6208334923
 21
-15.2840425253
  0
LINE
  5
46C
100
AcDbEntity
  8
0
100
AcDbLine
 62
7
  6
CONTINUOUS
 10
0.2041665077
 20
-12.5712765951
 11
0.2458334923
 21
-12.3797872394
  0
LINE
  5
46D
100
AcDbEntity
  8
0
100
AcDbLine
 62
7
  6
CONTINUOUS
 10
0.3291665077
 20
-12.3797872394
 11
0.2875
 21
-12.5712765951
  0
LINE
  5
46E
100
AcDbEntity
  8
0
100
AcDbLine
 62
7
  6
CONTINUOUS
 10
-2.7125
 20
-15.9010638326
 11
-2.6916667461
 21
-15.8372340381
  0
LINE
  5
46F
100
AcDbEntity
  8
0
100
AcDbLine
 62
7
  6
CONTINUOUS
 10
-1.5458334923
 20
-11.6563829661
 11
-1.5041665077
 21
-11.55
  0
LINE
  5
470
100
AcDbEntity
  8
0
100
AcDbLine
 62
7
  6
CONTINUOUS
 10
-1.4208334923
 20
-11.55
 11
-1.4625
 21
-11.656382966
  0
LINE
  5
471
100
AcDbEntity
  8
0
100
AcDbLine
 62
7
  6
CONTINUOUS
 10
-4.9208333731
 20
-15.496808517
 11
-4.9
 21
-15.4542553306
  0
LINE
  5
472
100
AcDbEntity
  8
0
100
AcDbLine
 62
7
  6
CONTINUOUS
 10
-4.7958333731
 20
-15.496808517
 11
-4.8166666269
 21
-15.5393617034
  0
LINE
  5
473
100
AcDbEntity
  8
0
100
AcDbLine
 62
7
  6
CONTINUOUS
 10
-4.9208333731
 20
-15.7946808517
 11
-4.8791666269
 21
-15.7095744789
  0
LINE
  5
474
100
AcDbEntity
  8
0
100
AcDbLine
 62
7
  6
CONTINUOUS
 10
-4.4208333731
 20
-15.8585106313
 11
-4.4
 21
-15.8159574449
  0
LINE
  5
475
100
AcDbEntity
  8
0
100
AcDbLine
 62
7
  6
CONTINUOUS
 10
-4.4
 20
-15.9436170191
 11
-4.4208333731
 21
-15.9861702129
  0
LINE
  5
476
100
AcDbEntity
  8
0
100
AcDbLine
 62
7
  6
CONTINUOUS
 10
-4.0666667461
 20
-15.5393617034
 11
-4.0458332539
 21
-15.496808517
  0
LINE
  5
477
100
AcDbEntity
  8
0
100
AcDbLine
 62
7
  6
CONTINUOUS
 10
-3.525
 20
-15.9223404258
 11
-3.5458332539
 21
-15.9648936197
  0
LINE
  5
478
100
AcDbEntity
  8
0
100
AcDbLine
 62
7
  6
CONTINUOUS
 10
-3.2333332539
 20
-15.5819148898
 11
-3.1916667461
 21
-15.496808517
  0
LINE
  5
479
100
AcDbEntity
  8
0
100
AcDbLine
 62
7
  6
CONTINUOUS
 10
-3.1083332539
 20
-15.5606382966
 11
-3.1291667461
 21
-15.603191483
  0
LINE
  5
47A
100
AcDbEntity
  8
0
100
AcDbLine
 62
7
  6
CONTINUOUS
 10
-4.7333333731
 20
-11.7414893389
 11
-4.775
 21
-11.8053191781
  0
LINE
  5
47B
100
AcDbEntity
  8
0
100
AcDbLine
 62
7
  6
CONTINUOUS
 10
-5.1083333731
 20
-11.9329787374
 11
-5.1708333731
 21
-12.0180851102
  0
LINE
  5
47C
100
AcDbEntity
  8
0
100
AcDbLine
 62
7
  6
CONTINUOUS
 10
4.4125
 20
-15.8159574449
 11
4.4125
 21
-15.6882978857
  0
LINE
  5
47D
100
AcDbEntity
  8
0
100
AcDbLine
 62
7
  6
CONTINUOUS
 10
4.4125
 20
-15.603191483
 11
4.4125
 21
-15.5393617034
  0
LINE
  5
47E
100
AcDbEntity
  8
0
100
AcDbLine
 62
7
  6
CONTINUOUS
 10
4.5166669846
 20
-15.5393617034
 11
4.5166669846
 21
-15.8797872394
  0
LINE
  5
47F
100
AcDbEntity
  8
0
100
AcDbLine
 62
7
  6
CONTINUOUS
 10
4.5375
 20
10.15
 11
4.5375
 21
12.45
  0
LINE
  5
480
100
AcDbEntity
  8
0
100
AcDbLine
 62
7
  6
CONTINUOUS
 10
4.725
 20
-16.05
 11
4.725
 21
-15.3691489577
  0
LINE
  5
481
100
AcDbEntity
  8
0
100
AcDbLine
 62
7
  6
CONTINUOUS
 10
4.8291669846
 20
-15.3691489577
 11
4.8291669846
 21
-15.4755319238
  0
LINE
  5
482
100
AcDbEntity
  8
0
100
AcDbLine
 62
7
  6
CONTINUOUS
 10
4.8291669846
 20
-15.5606382966
 11
4.8291669846
 21
-16.05
  0
LINE
  5
483
100
AcDbEntity
  8
0
100
AcDbLine
 62
7
  6
CONTINUOUS
 10
5.2041669846
 20
-16.05
 11
5.2041669846
 21
-15.6457446695
  0
LINE
  5
484
100
AcDbEntity
  8
0
100
AcDbLine
 62
7
  6
CONTINUOUS
 10
5.3083330154
 20
-15.6457446694
 11
5.3083330154
 21
-16.05
  0
LINE
  5
485
100
AcDbEntity
  8
0
100
AcDbLine
 62
7
  6
CONTINUOUS
 10
0.7458334923
 20
-15.3053191781
 11
0.725
 21
-15.3904255509
  0
LINE
  5
486
100
AcDbEntity
  8
0
100
AcDbLine
 62
7
  6
CONTINUOUS
 10
1.4125
 20
-15.8159574449
 11
1.3916665077
 21
-15.9010638326
  0
LINE
  5
487
100
AcDbEntity
  8
0
100
AcDbLine
 62
7
  6
CONTINUOUS
 10
2.2458330154
 20
-15.8372340381
 11
2.225
 21
-15.9223404258
  0
LINE
  5
488
100
AcDbEntity
  8
0
100
AcDbLine
 62
7
  6
CONTINUOUS
 10
1.2666665077
 20
-15.8585106313
 11
1.2875
 21
-15.7946808517
  0
LINE
  5
489
100
AcDbEntity
  8
0
100
AcDbLine
 62
7
  6
CONTINUOUS
 10
0.1625
 20
-12.6776595741
 11
0.2041665077
 21
-12.5712765951
  0
LINE
  5
48A
100
AcDbEntity
  8
0
100
AcDbLine
 62
7
  6
CONTINUOUS
 10
0.2875
 20
-12.5712765951
 11
0.2458334923
 21
-12.6776595741
  0
LINE
  5
48B
100
AcDbEntity
  8
0
100
AcDbLine
 62
7
  6
CONTINUOUS
 10
-3.9208332539
 20
-15.5180851102
 11
-3.9625
 21
-15.5819148898
  0
LINE
  5
48C
100
AcDbEntity
  8
0
100
AcDbLine
 62
7
  6
CONTINUOUS
 10
-3.5666667461
 20
-15.8797872394
 11
-3.525
 21
-15.8159574449
  0
LINE
  5
48D
100
AcDbEntity
  8
0
100
AcDbLine
 62
7
  6
CONTINUOUS
 10
-1.8166665077
 20
-11.9329787374
 11
-1.8791665077
 21
-12.0180851102
  0
LINE
  5
48E
100
AcDbEntity
  8
0
100
AcDbLine
 62
7
  6
CONTINUOUS
 10
-5.275
 20
-11.9542553306
 11
-5.2333333731
 21
-11.9117021441
  0
LINE
  5
48F
100
AcDbEntity
  8
0
100
AcDbLine
 62
7
  6
CONTINUOUS
 10
-4.8583333731
 20
-11.6989361525
 11
-4.775
 21
-11.6138297796
  0
LINE
  5
490
100
AcDbEntity
  8
0
100
AcDbLine
 62
7
  6
CONTINUOUS
 10
-4.1291667461
 20
-12.4010638326
 11
-4.2125
 21
-12.4861702129
  0
LINE
  5
491
100
AcDbEntity
  8
0
100
AcDbLine
 62
7
  6
CONTINUOUS
 10
-16.3624350805
 20
-24.4246279311
 11
-16.3875
 21
-24.45
  0
LINE
  5
492
100
AcDbEntity
  8
0
100
AcDbLine
 62
7
  6
CONTINUOUS
 10
-16.1382776125
 20
-24.2007567716
 11
-16.2924277254
 21
-24.3550142635
  0
LINE
  5
493
100
AcDbEntity
  8
0
100
AcDbLine
 62
7
  6
CONTINUOUS
 10
-16.2924277254
 20
-24.3550142635
 11
-16.3624350805
 21
-24.4246279311
  0
LINE
  5
494
100
AcDbEntity
  8
0
100
AcDbLine
 62
7
  6
CONTINUOUS
 10
-16.1375
 20
-24.2
 11
-16.1382776125
 21
-24.2007567716
  0
LWPOLYLINE
  5
495
100
AcDbEntity
  8
0
100
AcDbPolyline
 62
7
  6
CONTINUOUS
 90
28
 70
0
 10
-1.1525
 20
11.1322366917
 10
-1.1473230541
 20
11.1256879976
 10
-1.132732196
 20
11.109895331
 10
-1.1173034298
 20
11.0954440155
 10
-1.1014775818
 20
11.0824996385
 10
-1.085455196
 20
11.0709615402
 10
-1.069238539
 20
11.0606111333
 10
-1.0529704455
 20
11.0513527536
 10
-1.0368010441
 20
11.0430928954
 10
-1.0205816454
 20
11.0356061401
 10
-1.0039804702
 20
11.028643411
 10
-0.9869169504
 20
11.0221089902
 10
-0.9693264557
 20
11.0159273186
 10
-0.9509069298
 20
11.0099586358
 10
-0.9315374258
 20
11.0041434044
 10
-0.9111933127
 20
10.9984571555
 10
-0.8897725833
 20
10.9928577192
 10
-0.86720754
 20
10.9873178881
 10
-0.8434698098
 20
10.9818229884
 10
-0.8185843578
 20
10.9763710285
 10
-0.7925134763
 20
10.9709463544
 10
-0.7652607233
 20
10.9655432056
 10
-0.736983364
 20
10.9601845161
 10
-0.7076983249
 20
10.9548626741
 10
-0.6774417237
 20
10.9495728435
 10
-0.6464692662
 20
10.9443470261
 10
-0.6148890554
 20
10.939189437
 10
-0.6003675411
 20
10.9368875735
  0
LINE
  5
496
100
AcDbEntity
  8
0
100
AcDbLine
 62
7
  6
CONTINUOUS
 10
-1.874909649
 20
18.55
 11
-2.2711970374
 21
19.416256203
  0
LINE
  5
497
100
AcDbEntity
  8
0
100
AcDbLine
 62
7
  6
CONTINUOUS
 10
6.3725
 20
-12.0248876688
 11
6.3725
 21
-12.4701123312
  0
LINE
  5
498
100
AcDbEntity
  8
0
100
AcDbLine
 62
7
  6
CONTINUOUS
 10
6.5375
 20
-10.65
 11
6.5375
 21
-11.135
  0
LINE
  5
499
100
AcDbEntity
  8
0
100
AcDbLine
 62
7
  6
CONTINUOUS
 10
6.5375
 20
-13.36
 11
6.5375
 21
-13.845
  0
LINE
  5
49A
100
AcDbEntity
  8
0
100
AcDbLine
 62
7
  6
CONTINUOUS
 10
7.5375
 20
-9.05
 11
7.5375
 21
-17.05
  0
LINE
  5
49B
100
AcDbEntity
  8
0
100
AcDbLine
 62
7
  6
CONTINUOUS
 10
2.1208330154
 20
-15.9010638326
 11
2.1416669846
 21
-15.8372340381
  0
LINE
  5
49C
100
AcDbEntity
  8
0
100
AcDbLine
 62
7
  6
CONTINUOUS
 10
0.6208334923
 20
-15.2840425253
 11
0.6625
 21
-15.1989361525
  0
LINE
  5
49D
100
AcDbEntity
  8
0
100
AcDbLine
 62
7
  6
CONTINUOUS
 10
1.6
 20
-15.5819148898
 11
1.6416665077
 21
-15.496808517
  0
LINE
  5
49E
100
AcDbEntity
  8
0
100
AcDbLine
 62
7
  6
CONTINUOUS
 10
1.725
 20
-15.5606382966
 11
1.7041665077
 21
-15.603191483
  0
LINE
  5
49F
100
AcDbEntity
  8
0
100
AcDbLine
 62
7
  6
CONTINUOUS
 10
0.9541665077
 20
-12.1882978857
 11
0.9125
 21
-12.2521276653
  0
LINE
  5
4A0
100
AcDbEntity
  8
0
100
AcDbLine
 62
7
  6
CONTINUOUS
 10
-1.2541665077
 20
-11.6989361525
 11
-1.1291665077
 21
-11.55
  0
LINE
  5
4A1
100
AcDbEntity
  8
0
100
AcDbLine
 62
7
  6
CONTINUOUS
 10
-1.1291665077
 20
-11.7202127457
 11
-1.2541665077
 21
-11.8691489577
  0
LINE
  5
4A2
100
AcDbEntity
  8
0
100
AcDbLine
 62
7
  6
CONTINUOUS
 10
-0.8375
 20
-12.1244680762
 11
-0.3375
 21
-11.55
  0
LINE
  5
4A3
100
AcDbEntity
  8
0
100
AcDbLine
 62
7
  6
CONTINUOUS
 10
-0.3375
 20
-11.7202127457
 11
-0.6916665077
 21
-12.1244680762
  0
LINE
  5
4A4
100
AcDbEntity
  8
0
100
AcDbLine
 62
7
  6
CONTINUOUS
 10
-1.9833334923
 20
-11.9542553306
 11
-1.9416665077
 21
-11.9117021441
  0
LINE
  5
4A5
100
AcDbEntity
  8
0
100
AcDbLine
 62
7
  6
CONTINUOUS
 10
-4.9
 20
-15.4542553306
 11
-4.8583333731
 21
-15.4117021442
  0
LINE
  5
4A6
100
AcDbEntity
  8
0
100
AcDbLine
 62
7
  6
CONTINUOUS
 10
-4.8791666269
 20
-15.7095744789
 11
-4.8375
 21
-15.6670212626
  0
LINE
  5
4A7
100
AcDbEntity
  8
0
100
AcDbLine
 62
7
  6
CONTINUOUS
 10
-4.7541666269
 20
-15.7308510721
 11
-4.7958333731
 21
-15.7734042585
  0
LINE
  5
4A8
100
AcDbEntity
  8
0
100
AcDbLine
 62
7
  6
CONTINUOUS
 10
-4.4833333731
 20
-15.9223404258
 11
-4.4208333731
 21
-15.8585106313
  0
LINE
  5
4A9
100
AcDbEntity
  8
0
100
AcDbLine
 62
7
  6
CONTINUOUS
 10
-4.0458332539
 20
-15.496808517
 11
-3.9833332539
 21
-15.4329787374
  0
LINE
  5
4AA
100
AcDbEntity
  8
0
100
AcDbLine
 62
7
  6
CONTINUOUS
 10
-5.1708333731
 20
-12.0180851102
 11
-5.2541666269
 21
-12.0819148898
  0
LINE
  5
4AB
100
AcDbEntity
  8
0
100
AcDbLine
 62
7
  6
CONTINUOUS
 10
-4.6708333731
 20
-11.6989361525
 11
-4.7333333731
 21
-11.7414893389
  0
LINE
  5
4AC
100
AcDbEntity
  8
0
100
AcDbLine
 62
7
  6
CONTINUOUS
 10
-4.3166667461
 20
-12.4010638326
 11
-4.2541667461
 21
-12.3585106313
  0
LINE
  5
4AD
100
AcDbEntity
  8
0
100
AcDbLine
 62
7
  6
CONTINUOUS
 10
-6.025
 20
-12.0393617034
 11
-6.4208333321
 21
-12.2521276653
  0
LINE
  5
4AE
100
AcDbEntity
  8
0
100
AcDbLine
 62
7
  6
CONTINUOUS
 10
-6.4625
 20
-12.1882978857
 11
-6.1708333433
 21
-12.0393617034
  0
LINE
  5
4AF
100
AcDbEntity
  8
0
100
AcDbLine
 62
7
  6
CONTINUOUS
 10
-4.775
 20
-11.6138297796
 11
-4.6916666269
 21
-11.5712765932
  0
LINE
  5
4B0
100
AcDbEntity
  8
0
100
AcDbLine
 62
7
  6
CONTINUOUS
 10
-17.5375
 20
6.45
 11
-17.5125
 21
6.45
  0
LWPOLYLINE
  5
4B1
100
AcDbEntity
  8
0
100
AcDbPolyline
 62
7
  6
CONTINUOUS
 90
30
 70
0
 10
1.2275
 20
11.8677180568
 10
1.2218863537
 20
11.8747920777
 10
1.2072708407
 20
11.8905521193
 10
1.191874921
 20
11.9049260034
 10
1.1761050845
 20
11.9177913771
 10
1.1601438438
 20
11.9292624717
 10
1.1440137605
 20
11.9395421572
 10
1.1278768921
 20
11.9487169783
 10
1.1118804368
 20
11.9568852995
 10
1.0958915376
 20
11.9642678764
 10
1.0796407576
 20
11.9710942059
 10
1.0631433447
 20
11.9774353562
 10
1.0462916117
 20
11.9833974874
 10
1.0286241301
 20
11.9891793511
 10
1.0099633055
 20
11.9948509217
 10
0.9903281949
 20
12.0004150554
 10
0.9695693602
 20
12.0059208618
 10
0.9475767555
 20
12.0113992574
 10
0.924324259
 20
12.0168572842
 10
0.8998417749
 20
12.0222902335
 10
0.8740915093
 20
12.0277114495
 10
0.8470570534
 20
12.033130067
 10
0.818872891
 20
12.0385264062
 10
0.7895400839
 20
12.0439087682
 10
0.7590788017
 20
12.0492813911
 10
0.7277189991
 20
12.0546132653
 10
0.6954963336
 20
12.0599091141
 10
0.6624571797
 20
12.0651713916
 10
0.6289072731
 20
12.0703629342
 10
0.5606719414
 20
12.080527724
  0
LWPOLYLINE
  5
4B2
100
AcDbEntity
  8
0
100
AcDbPolyline
 62
7
  6
CONTINUOUS
 90
28
 70
0
 10
1.2275
 20
11.0677715451
 10
1.2220541012
 20
11.0746362561
 10
1.207578817
 20
11.0902685535
 10
1.1923324575
 20
11.1045389308
 10
1.1766955527
 20
11.1173396125
 10
1.1608402265
 20
11.1287816687
 10
1.1447875338
 20
11.1390599024
 10
1.1286793975
 20
11.1482647276
 10
1.1126592521
 20
11.1564881285
 10
1.0965843368
 20
11.1639489022
 10
1.0801421448
 20
11.1708865626
 10
1.0632783216
 20
11.1773872303
 10
1.0459099918
 20
11.1835349287
 10
1.0276778033
 20
11.1894878213
 10
1.0084180154
 20
11.1953122373
 10
0.9881220541
 20
11.2010223632
 10
0.9667026848
 20
11.2066539108
 10
0.9440880822
 20
11.2122337143
 10
0.9202374826
 20
11.2177780813
 10
0.8951797693
 20
11.2232868698
 10
0.8688722111
 20
11.2287759985
 10
0.8413124877
 20
11.2342516672
 10
0.812665391
 20
11.2396888126
 10
0.7829348665
 20
11.245095989
 10
0.7521556977
 20
11.2504772727
 10
0.7206122681
 20
11.2557958862
 10
0.6883934696
 20
11.2610512394
 10
0.6753675411
 20
11.2631124823
  0
LWPOLYLINE
  5
4B3
100
AcDbEntity
  8
0
100
AcDbPolyline
 62
7
  6
CONTINUOUS
 90
29
 70
0
 10
-1.1525
 20
11.9322712861
 10
-1.1471333411
 20
11.9254790049
 10
-1.1321117234
 20
11.9092716553
 10
-1.1161173521
 20
11.8944000922
 10
-1.0996750511
 20
11.8811077737
 10
-1.0830016119
 20
11.8692912269
 10
-1.0660813069
 20
11.8587090824
 10
-1.0491070368
 20
11.8492823852
 10
-1.0322127934
 20
11.8408905083
 10
-1.0152476813
 20
11.8332969544
 10
-0.9979892923
 20
11.8262895465
 10
-0.9804509248
 20
11.8197876522
 10
-0.962528594
 20
11.8136810473
 10
-0.9438731521
 20
11.8078047065
 10
-0.9244148675
 20
11.8021096408
 10
-0.9041330428
 20
11.7965676268
 10
-0.8827853588
 20
11.7910988073
 10
-0.8602931942
 20
11.7856772754
 10
-0.8366402169
 20
11.7802928847
 10
-0.8116949705
 20
11.7749103643
 10
-0.7854117823
 20
11.769516993
 10
-0.7577723785
 20
11.7641064407
 10
-0.7287045577
 20
11.7586626077
 10
-0.6981738005
 20
11.7531777666
 10
-0.6661764059
 20
11.7476498054
 10
-0.6327074222
 20
11.7420759997
 10
-0.5977258833
 20
11.7364473014
 10
-0.5612793948
 20
11.7307669461
 10
-0.4844930195
 20
11.7193015915
  0
LINE
  5
4B4
100
AcDbEntity
  8
0
100
AcDbLine
 62
7
  6
CONTINUOUS
 10
4.0166669846
 20
-15.7734042585
 11
3.9958330154
 21
-15.8372340381
  0
LINE
  5
4B5
100
AcDbEntity
  8
0
100
AcDbLine
 62
7
  6
CONTINUOUS
 10
3.4125
 20
-15.496808517
 11
3.3916669846
 21
-15.5393617034
  0
LINE
  5
4B6
100
AcDbEntity
  8
0
100
AcDbLine
 62
7
  6
CONTINUOUS
 10
3.8916669846
 20
-15.496808517
 11
3.9125
 21
-15.4542553306
  0
LINE
  5
4B7
100
AcDbEntity
  8
0
100
AcDbLine
 62
7
  6
CONTINUOUS
 10
4.0166669846
 20
-15.496808517
 11
3.9958330154
 21
-15.5393617034
  0
LINE
  5
4B8
100
AcDbEntity
  8
0
100
AcDbLine
 62
7
  6
CONTINUOUS
 10
0.7875
 20
-15.2414893389
 11
0.7458334923
 21
-15.3053191781
  0
LINE
  5
4B9
100
AcDbEntity
  8
0
100
AcDbLine
 62
7
  6
CONTINUOUS
 10
-3.1916667461
 20
-15.496808517
 11
-3.15
 21
-15.4542553306
  0
LINE
  5
4BA
100
AcDbEntity
  8
0
100
AcDbLine
 62
7
  6
CONTINUOUS
 10
-3.5458332539
 20
-15.9648936197
 11
-3.5875
 21
-16.0074468099
  0
LINE
  5
4BB
100
AcDbEntity
  8
0
100
AcDbLine
 62
7
  6
CONTINUOUS
 10
-3.0458332539
 20
-15.496808517
 11
-3.1083332539
 21
-15.5606382966
  0
LINE
  5
4BC
100
AcDbEntity
  8
0
100
AcDbLine
 62
7
  6
CONTINUOUS
 10
-2.6083332539
 20
-15.9223404258
 11
-2.6708332539
 21
-15.9861702129
  0
LINE
  5
4BD
100
AcDbEntity
  8
0
100
AcDbLine
 62
7
  6
CONTINUOUS
 10
-1.0458334923
 20
-15.4755319238
 11
-1.0041665077
 21
-15.4329787374
  0
LINE
  5
4BE
100
AcDbEntity
  8
0
100
AcDbLine
 62
7
  6
CONTINUOUS
 10
-1.0041665077
 20
-15.5180851102
 11
-1.0458334923
 21
-15.5606382966
  0
LINE
  5
4BF
100
AcDbEntity
  8
0
100
AcDbLine
 62
7
  6
CONTINUOUS
 10
-4.2125
 20
-12.4861702129
 11
-4.2958332539
 21
-12.5287234049
  0
LINE
  5
4C0
100
AcDbEntity
  8
0
100
AcDbLine
 62
7
  6
CONTINUOUS
 10
-1.8791665077
 20
-12.0180851102
 11
-1.9625
 21
-12.0606382966
  0
LINE
  5
4C1
100
AcDbEntity
  8
0
100
AcDbLine
 62
7
  6
CONTINUOUS
 10
-5.3375
 20
-11.9755319238
 11
-5.275
 21
-11.9542553306
  0
LINE
  5
4C2
100
AcDbEntity
  8
0
100
AcDbLine
 62
253
  6
CONTINUOUS
 10
-17.4625
 20
9.4
 11
-17.5125
 21
9.4
  0
LINE
  5
4C3
100
AcDbEntity
  8
0
100
AcDbLine
 62
7
  6
CONTINUOUS
 10
-17.5375
 20
9.45
 11
-17.5125
 21
9.45
  0
LINE
  5
4C4
100
AcDbEntity
  8
0
100
AcDbLine
 62
7
  6
CONTINUOUS
 10
-17.4625
 20
10.15
 11
-13.4625
 21
10.15
  0
LINE
  5
4C5
100
AcDbEntity
  8
0
100
AcDbLine
 62
7
  6
CONTINUOUS
 10
-4.4625
 20
10.15
 11
4.5375
 21
10.15
  0
LINE
  5
4C6
100
AcDbEntity
  8
0
100
AcDbLine
 62
7
  6
CONTINUOUS
 10
13.5375
 20
10.15
 11
17.5375
 21
10.15
  0
LINE
  5
4C7
100
AcDbEntity
  8
0
100
AcDbLine
 62
7
  6
CONTINUOUS
 10
-17.5125
 20
10.2
 11
-17.4625
 21
10.2
  0
LINE
  5
4C8
100
AcDbEntity
  8
0
100
AcDbLine
 62
7
  6
CONTINUOUS
 10
5.6
 20
-16.3904255211
 11
5.7666669846
 21
-15.9648936197
  0
LINE
  5
4C9
100
AcDbEntity
  8
0
100
AcDbLine
 62
7
  6
CONTINUOUS
 10
6.1416669846
 20
-15.3691489577
 11
5.725
 21
-16.3904255211
  0
LINE
  5
4CA
100
AcDbEntity
  8
0
100
AcDbLine
 62
7
  6
CONTINUOUS
 10
5.8291669846
 20
-15.8159574449
 11
6.0166669846
 21
-15.3691489577
  0
LINE
  5
4CB
100
AcDbEntity
  8
0
100
AcDbLine
 62
7
  6
CONTINUOUS
 10
3.8916669846
 20
-15.7946808517
 11
3.9333330154
 21
-15.7095744789
  0
LINE
  5
4CC
100
AcDbEntity
  8
0
100
AcDbLine
 62
7
  6
CONTINUOUS
 10
4.3916669846
 20
-15.8585106313
 11
4.4125
 21
-15.8159574449
  0
LINE
  5
4CD
100
AcDbEntity
  8
0
100
AcDbLine
 62
7
  6
CONTINUOUS
 10
4.4125
 20
-15.9436170191
 11
4.3916669846
 21
-15.9861702129
  0
LINE
  5
4CE
100
AcDbEntity
  8
0
100
AcDbLine
 62
7
  6
CONTINUOUS
 10
2.5791669846
 20
-15.5393617034
 11
2.5166669846
 21
-15.6244680762
  0
LINE
  5
4CF
100
AcDbEntity
  8
0
100
AcDbLine
 62
7
  6
CONTINUOUS
 10
0.6625
 20
-15.1989361525
 11
0.7458334923
 21
-15.1138297796
  0
LINE
  5
4D0
100
AcDbEntity
  8
0
100
AcDbLine
 62
7
  6
CONTINUOUS
 10
1.6416665077
 20
-15.496808517
 11
1.6833334923
 21
-15.4542553306
  0
LINE
  5
4D1
100
AcDbEntity
  8
0
100
AcDbLine
 62
7
  6
CONTINUOUS
 10
1.3916665077
 20
-15.9010638326
 11
1.3083334923
 21
-15.9861702129
  0
LINE
  5
4D2
100
AcDbEntity
  8
0
100
AcDbLine
 62
7
  6
CONTINUOUS
 10
1.7875
 20
-15.496808517
 11
1.725
 21
-15.5606382966
  0
LINE
  5
4D3
100
AcDbEntity
  8
0
100
AcDbLine
 62
7
  6
CONTINUOUS
 10
-3.9833332539
 20
-15.4329787374
 11
-3.9208332539
 21
-15.3904255509
  0
LINE
  5
4D4
100
AcDbEntity
  8
0
100
AcDbLine
 62
7
  6
CONTINUOUS
 10
-4.4208333731
 20
-15.9861702129
 11
-4.4833333731
 21
-16.0287234049
  0
LINE
  5
4D5
100
AcDbEntity
  8
0
100
AcDbLine
 62
7
  6
CONTINUOUS
 10
-3.15
 20
-15.4542553306
 11
-3.0875
 21
-15.4117021442
  0
LINE
  5
4D6
100
AcDbEntity
  8
0
100
AcDbLine
 62
7
  6
CONTINUOUS
 10
-3.6291667461
 20
-15.9223404259
 11
-3.5666667461
 21
-15.8797872394
  0
LINE
  5
4D7
100
AcDbEntity
  8
0
100
AcDbLine
 62
7
  6
CONTINUOUS
 10
-2.775
 20
-15.9436170191
 11
-2.7125
 21
-15.9010638326
  0
LINE
  5
4D8
100
AcDbEntity
  8
0
100
AcDbLine
 62
7
  6
CONTINUOUS
 10
-1.0041665077
 20
-15.4329787374
 11
-0.9416665077
 21
-15.3904255509
  0
LINE
  5
4D9
100
AcDbEntity
  8
0
100
AcDbLine
 62
7
  6
CONTINUOUS
 10
-0.9416665077
 20
-15.4755319238
 11
-1.0041665077
 21
-15.5180851102
  0
LINE
  5
4DA
100
AcDbEntity
  8
0
100
AcDbLine
 62
7
  6
CONTINUOUS
 10
0.5166665077
 20
-12.0393617034
 11
0.9125
 21
-11.8265957713
  0
LINE
  5
4DB
100
AcDbEntity
  8
0
100
AcDbLine
 62
7
  6
CONTINUOUS
 10
0.9541665077
 20
-11.8904255509
 11
0.6625
 21
-12.0393617034
  0
LINE
  5
4DC
100
AcDbEntity
  8
0
100
AcDbLine
 62
7
  6
CONTINUOUS
 10
-4.8583333731
 20
-15.4117021442
 11
-4.8166666269
 21
-15.3904255509
  0
LINE
  5
4DD
100
AcDbEntity
  8
0
100
AcDbLine
 62
7
  6
CONTINUOUS
 10
-4.7541666269
 20
-15.4755319238
 11
-4.7958333731
 21
-15.496808517
  0
LINE
  5
4DE
100
AcDbEntity
  8
0
100
AcDbLine
 62
7
  6
CONTINUOUS
 10
-4.8375
 20
-15.6670212626
 11
-4.7541666269
 21
-15.6244680762
  0
LINE
  5
4DF
100
AcDbEntity
  8
0
100
AcDbLine
 62
7
  6
CONTINUOUS
 10
-4.7125
 20
-15.7095744789
 11
-4.7541666269
 21
-15.7308510721
  0
LINE
  5
4E0
100
AcDbEntity
  8
0
100
AcDbLine
 62
7
  6
CONTINUOUS
 10
-3.8375
 20
-15.4755319238
 11
-3.9208332539
 21
-15.5180851102
  0
LINE
  5
4E1
100
AcDbEntity
  8
0
100
AcDbLine
 62
7
  6
CONTINUOUS
 10
-3.0041667461
 20
-15.4755319238
 11
-3.0458332539
 21
-15.496808517
  0
LINE
  5
4E2
100
AcDbEntity
  8
0
100
AcDbLine
 62
7
  6
CONTINUOUS
 10
-2.0458334923
 20
-11.9755319238
 11
-1.9833334923
 21
-11.9542553306
  0
LWPOLYLINE
  5
4E3
100
AcDbEntity
  8
0
100
AcDbPolyline
 62
253
  6
CONTINUOUS
 90
11
 70
0
 10
-1.1173549827
 20
12.1499900563
 10
-1.0879187947
 20
12.1573260407
 10
-1.054758754
 20
12.1646575452
 10
-1.0180151105
 20
12.1719775291
 10
-0.9778055863
 20
12.1792930332
 10
-0.9342768369
 20
12.186605208
 10
-0.8875398186
 20
12.1939202332
 10
-0.837781645
 20
12.2012319291
 10
-0.7852823048
 20
12.2085229077
 10
-0.7303431896
 20
12.2157784008
 10
-0.6730759444
 20
12.2230131766
  0
LINE
  5
4E4
100
AcDbEntity
  8
0
100
AcDbLine
 62
7
  6
CONTINUOUS
 10
0.675520457
 20
11.0395151717
 11
0.6340128898
 21
11.0324815868
  0
LINE
  5
4E5
100
AcDbEntity
  8
0
100
AcDbLine
 62
7
  6
CONTINUOUS
 10
0.6695308298
 20
11.83847562
 11
0.6267670418
 21
11.8312904613
  0
LINE
  5
4E6
100
AcDbEntity
  8
0
100
AcDbLine
 62
7
  6
CONTINUOUS
 10
0.6621431671
 20
12.6372078365
 11
0.6191034653
 21
12.6300366023
  0
LWPOLYLINE
  5
4E7
100
AcDbEntity
  8
0
100
AcDbPolyline
 62
7
  6
CONTINUOUS
 90
27
 70
0
 10
0.6916243253
 20
11.3394668897
 10
0.7239921636
 20
11.3447635091
 10
0.7553651275
 20
11.3500731959
 10
0.7856882079
 20
11.3553960442
 10
0.8148470641
 20
11.3607191848
 10
0.8428327094
 20
11.366046386
 10
0.8696531979
 20
11.3713849398
 10
0.895267155
 20
11.3767322301
 10
0.9196777779
 20
11.3820941313
 10
0.9429249738
 20
11.387485291
 10
0.9650668598
 20
11.3929268446
 10
0.9861279997
 20
11.398434205
 10
1.0061645567
 20
11.4040331939
 10
1.0253304016
 20
11.4097818767
 10
1.0436549568
 20
11.4157083936
 10
1.0612295511
 20
11.4218663423
 10
1.0783525767
 20
11.4284003635
 10
1.0951028025
 20
11.4354008247
 10
1.1115229012
 20
11.4429584288
 10
1.1278847729
 20
11.4513014071
 10
1.1443235578
 20
11.4606512358
 10
1.1607081095
 20
11.4711164929
 10
1.1768958483
 20
11.4828000845
 10
1.1929038235
 20
11.4959472555
 10
1.2084989076
 20
11.5106470661
 10
1.223172413
 20
11.526667088
 10
1.2275
 20
11.5322003762
  0
LWPOLYLINE
  5
4E8
100
AcDbEntity
  8
0
100
AcDbPolyline
 62
7
  6
CONTINUOUS
 90
27
 70
0
 10
-0.6166273927
 20
11.6605311284
 10
-0.6489458439
 20
11.6552407825
 10
-0.6804844794
 20
11.649902164
 10
-0.7111878765
 20
11.6445120431
 10
-0.7408002814
 20
11.6391039823
 10
-0.7692952749
 20
11.6336730414
 10
-0.7966605236
 20
11.6282110956
 10
-0.8227376506
 20
11.622741939
 10
-0.8475401094
 20
11.617258839
 10
-0.8711165225
 20
11.6117465853
 10
-0.8934412963
 20
11.606206917
 10
-0.9145486863
 20
11.6006280153
 10
-0.93452907
 20
11.5949812619
 10
-0.9535047973
 20
11.5892231552
 10
-0.9714764903
 20
11.5833426094
 10
-0.9886084083
 20
11.5772713376
 10
-1.0052976009
 20
11.5708336545
 10
-1.021639937
 20
11.5639349933
 10
-1.0376605746
 20
11.556496665
 10
-1.0536456066
 20
11.5482886869
 10
-1.0697281291
 20
11.5390963805
 10
-1.0857688098
 20
11.5288245663
 10
-1.1016237221
 20
11.5173823823
 10
-1.1172705641
 20
11.5045736914
 10
-1.1325342932
 20
11.4902871236
 10
-1.1470315371
 20
11.4746301886
 10
-1.1525
 20
11.4677355491
  0
LWPOLYLINE
  5
4E9
100
AcDbEntity
  8
0
100
AcDbPolyline
 62
7
  6
CONTINUOUS
 90
34
 70
0
 10
0.6855233094
 20
12.1384864662
 10
0.718022046
 20
12.1437756246
 10
0.7496462614
 20
12.14909546
 10
0.7803189277
 20
12.1544429323
 10
0.810033932
 20
12.1598274869
 10
0.8387324382
 20
12.1652497668
 10
0.8662977115
 20
12.1706984283
 10
0.8927166057
 20
12.1761811923
 10
0.9179907758
 20
12.1817094468
 10
0.9420916233
 20
12.1872862066
 10
0.9650227181
 20
12.1929204896
 10
0.9868505039
 20
12.198638487
 10
1.0077025332
 20
12.2044886708
 10
1.0275807458
 20
12.2104910901
 10
1.0465867178
 20
12.2167004136
 10
1.0650590293
 20
12.2232705006
 10
1.0830929005
 20
12.2303015808
 10
1.100710849
 20
12.2378817589
 10
1.1181975196
 20
12.2462420802
 10
1.1357157161
 20
12.2556177102
 10
1.1531495149
 20
12.266137581
 10
1.1703758115
 20
12.2779335314
 10
1.1874510606
 20
12.2912986491
 10
1.2041135404
 20
12.3063373114
 10
1.2197775794
 20
12.3227863493
 10
1.234259877
 20
12.3406740552
 10
1.2474057574
 20
12.3600761158
 10
1.2588313654
 20
12.3805586438
 10
1.2684510475
 20
12.4019661525
 10
1.2762079426
 20
12.4242028389
 10
1.281943057
 20
12.4467730313
 10
1.2856437933
 20
12.4693814464
 10
1.2873499723
 20
12.491977398
 10
1.2874774122
 20
12.500076881
  0
LINE
  5
4EA
100
AcDbEntity
  8
0
100
AcDbLine
 62
7
  6
CONTINUOUS
 10
-0.5783677195
 20
11.9642851552
 11
-0.5302681897
 21
11.9721946657
  0
LINE
  5
4EB
100
AcDbEntity
  8
0
100
AcDbLine
 62
7
  6
CONTINUOUS
 10
-0.5739790974
 20
11.1650223932
 11
-0.5242340807
 21
11.1731602892
  0
LINE
  5
4EC
100
AcDbEntity
  8
0
100
AcDbLine
 62
7
  6
CONTINUOUS
 10
0.6340128898
 20
11.0324815868
 11
0.5895127245
 21
11.0252972752
  0
LWPOLYLINE
  5
4ED
100
AcDbEntity
  8
0
100
AcDbPolyline
 62
7
  6
CONTINUOUS
 90
31
 70
0
 10
-0.5898841148
 20
12.4647890455
 10
-0.622934485
 20
12.4595152919
 10
-0.6551065272
 20
12.454216534
 10
-0.686352145
 20
12.4488902442
 10
-0.716643515
 20
12.4435316915
 10
-0.7457660282
 20
12.4381709561
 10
-0.7737053047
 20
12.432804523
 10
-0.8004707018
 20
12.4274240126
 10
-0.8259469758
 20
12.4220471842
 10
-0.8501585259
 20
12.4166649402
 10
-0.8731425471
 20
12.4112645098
 10
-0.8948676029
 20
12.4058495261
 10
-0.9153439628
 20
12.400416816
 10
-0.9347010894
 20
12.3949325182
 10
-0.9531290785
 20
12.3893370919
 10
-0.9706145018
 20
12.3836255145
 10
-0.9873173939
 20
12.3777332428
 10
-1.0036937354
 20
12.3714642819
 10
-1.0198295408
 20
12.3647228466
 10
-1.035720912
 20
12.3574356107
 10
-1.0516834164
 20
12.3493512479
 10
-1.0678651618
 20
12.3402321864
 10
-1.0840885453
 20
12.3299839055
 10
-1.1001719038
 20
12.3185204219
 10
-1.1160962272
 20
12.3056255095
 10
-1.131668117
 20
12.2911807087
 10
-1.1464476556
 20
12.2753290715
 10
-1.1602597066
 20
12.2579986202
 10
-1.1729058865
 20
12.2391309783
 10
-1.1840226818
 20
12.2190738108
 10
-1.1925654912
 20
12.2
  0
LINE
  5
4EE
100
AcDbEntity
  8
0
100
AcDbLine
 62
7
  6
CONTINUOUS
 10
0.6267670418
 20
11.8312904613
 11
0.5809359151
 21
11.8239520058
  0
LINE
  5
4EF
100
AcDbEntity
  8
0
100
AcDbLine
 62
7
  6
CONTINUOUS
 10
0.6191034653
 20
12.6300366023
 11
0.5730654175
 21
12.6227210981
  0
LINE
  5
4F0
100
AcDbEntity
  8
0
100
AcDbLine
 62
7
  6
CONTINUOUS
 10
-0.5302681897
 20
11.9721946657
 11
-0.4787652905
 21
11.9802523993
  0
LINE
  5
4F1
100
AcDbEntity
  8
0
100
AcDbLine
 62
7
  6
CONTINUOUS
 10
-0.5500897211
 20
11.670944322
 11
-0.6166273927
 21
11.6605311284
  0
LINE
  5
4F2
100
AcDbEntity
  8
0
100
AcDbLine
 62
7
  6
CONTINUOUS
 10
0.624039452
 20
11.3288983123
 11
0.6916243253
 21
11.3394668897
  0
LINE
  5
4F3
100
AcDbEntity
  8
0
100
AcDbLine
 62
7
  6
CONTINUOUS
 10
-0.5242340807
 20
11.1731602892
 11
-0.4710657973
 21
11.1814291649
  0
LINE
  5
4F4
100
AcDbEntity
  8
0
100
AcDbLine
 62
7
  6
CONTINUOUS
 10
0.6180764672
 20
12.1279900858
 11
0.6855233094
 21
12.1384864662
  0
LINE
  5
4F5
100
AcDbEntity
  8
0
100
AcDbLine
 62
7
  6
CONTINUOUS
 10
0.5895127245
 20
11.0252972752
 11
0.542157479
 21
11.0179782176
  0
LINE
  5
4F6
100
AcDbEntity
  8
0
100
AcDbLine
 62
7
  6
CONTINUOUS
 10
0.5809359151
 20
11.8239520058
 11
0.5322137098
 21
11.8164788804
  0
LINE
  5
4F7
100
AcDbEntity
  8
0
100
AcDbLine
 62
7
  6
CONTINUOUS
 10
0.5730654175
 20
12.6227210981
 11
0.5242022303
 21
12.6152776266
  0
LINE
  5
4F8
100
AcDbEntity
  8
0
100
AcDbLine
 62
7
  6
CONTINUOUS
 10
-0.5221453106
 20
12.4751525863
 11
-0.5898841148
 21
12.4647890455
  0
LINE
  5
4F9
100
AcDbEntity
  8
0
100
AcDbLine
 62
7
  6
CONTINUOUS
 10
-0.4787652905
 20
11.9802523993
 11
-0.4241598857
 21
11.9884307138
  0
LINE
  5
4FA
100
AcDbEntity
  8
0
100
AcDbLine
 62
7
  6
CONTINUOUS
 10
0.542157479
 20
11.0179782176
 11
0.4921620038
 21
11.010543899
  0
LINE
  5
4FB
100
AcDbEntity
  8
0
100
AcDbLine
 62
7
  6
CONTINUOUS
 10
-0.4710657973
 20
11.1814291649
 11
-0.4147068544
 21
11.1898150413
  0
LINE
  5
4FC
100
AcDbEntity
  8
0
100
AcDbLine
 62
7
  6
CONTINUOUS
 10
-0.4822538073
 20
11.6810265936
 11
-0.5500897211
 21
11.670944322
  0
LINE
  5
4FD
100
AcDbEntity
  8
0
100
AcDbLine
 62
7
  6
CONTINUOUS
 10
0.5530730704
 20
11.3183685664
 11
0.624039452
 21
11.3288983123
  0
LINE
  5
4FE
100
AcDbEntity
  8
0
100
AcDbLine
 62
7
  6
CONTINUOUS
 10
0.5322137098
 20
11.8164788804
 11
0.4807612446
 21
11.8088829459
  0
LINE
  5
4FF
100
AcDbEntity
  8
0
100
AcDbLine
 62
7
  6
CONTINUOUS
 10
0.5478033875
 20
12.1176054659
 11
0.6180764672
 21
12.1279900858
  0
LINE
  5
500
100
AcDbEntity
  8
0
100
AcDbLine
 62
7
  6
CONTINUOUS
 10
0.5242022303
 20
12.6152776266
 11
0.4727087214
 21
12.6077198655
  0
LINE
  5
501
100
AcDbEntity
  8
0
100
AcDbLine
 62
7
  6
CONTINUOUS
 10
-0.4528606131
 20
12.4852581643
 11
-0.5221453106
 21
12.4751525863
  0
LINE
  5
502
100
AcDbEntity
  8
0
100
AcDbLine
 62
7
  6
CONTINUOUS
 10
-0.4241598857
 20
11.9884307138
 11
-0.3666885288
 21
11.9967171858
  0
LINE
  5
503
100
AcDbEntity
  8
0
100
AcDbLine
 62
7
  6
CONTINUOUS
 10
-0.4147068544
 20
11.1898150413
 11
-0.3553763851
 21
11.1983137455
  0
LINE
  5
504
100
AcDbEntity
  8
0
100
AcDbLine
 62
7
  6
CONTINUOUS
 10
-0.4136562949
 20
11.6907996402
 11
-0.4822538073
 21
11.6810265936
  0
LINE
  5
505
100
AcDbEntity
  8
0
100
AcDbLine
 62
7
  6
CONTINUOUS
 10
0.4921620038
 20
11.010543899
 11
0.4126704049
 21
10.9992041447
  0
LINE
  5
506
100
AcDbEntity
  8
0
100
AcDbLine
 62
7
  6
CONTINUOUS
 10
0.4793337462
 20
11.3078976949
 11
0.5530730704
 21
11.3183685664
  0
LINE
  5
507
100
AcDbEntity
  8
0
100
AcDbLine
 62
7
  6
CONTINUOUS
 10
0.4752629384
 20
12.1073335107
 11
0.5478033875
 21
12.1176054659
  0
LINE
  5
508
100
AcDbEntity
  8
0
100
AcDbLine
 62
7
  6
CONTINUOUS
 10
0.4807612446
 20
11.8088829459
 11
0.3988243795
 21
11.7972768857
  0
LINE
  5
509
100
AcDbEntity
  8
0
100
AcDbLine
 62
7
  6
CONTINUOUS
 10
-0.3833225001
 20
12.4950137026
 11
-0.4528606131
 21
12.4852581643
  0
LINE
  5
50A
100
AcDbEntity
  8
0
100
AcDbLine
 62
7
  6
CONTINUOUS
 10
0.4727087214
 20
12.6077198655
 11
0.3909567822
 21
12.5961894667
  0
LINE
  5
50B
100
AcDbEntity
  8
0
100
AcDbLine
 62
7
  6
CONTINUOUS
 10
-0.3666885288
 20
11.9967171858
 11
-0.2755381883
 21
12.0093436617
  0
LINE
  5
50C
100
AcDbEntity
  8
0
100
AcDbLine
 62
7
  6
CONTINUOUS
 10
-0.3553763851
 20
11.1983137455
 11
-0.2610618726
 21
11.2113016934
  0
LINE
  5
50D
100
AcDbEntity
  8
0
100
AcDbLine
 62
7
  6
CONTINUOUS
 10
0.4126704049
 20
10.9992041447
 11
0.3284336494
 21
10.987669805
  0
LINE
  5
50E
100
AcDbEntity
  8
0
100
AcDbLine
 62
7
  6
CONTINUOUS
 10
-0.3103702969
 20
11.7049252781
 11
-0.4136562949
 21
11.6907996402
  0
LINE
  5
50F
100
AcDbEntity
  8
0
100
AcDbLine
 62
7
  6
CONTINUOUS
 10
0.3988243795
 20
11.7972768857
 11
0.3117883961
 21
11.7854374852
  0
LINE
  5
510
100
AcDbEntity
  8
0
100
AcDbLine
 62
7
  6
CONTINUOUS
 10
0.3909567822
 20
12.5961894667
 11
0.304419973
 21
12.5844517091
  0
LINE
  5
511
100
AcDbEntity
  8
0
100
AcDbLine
 62
7
  6
CONTINUOUS
 10
0.3648983735
 20
11.2923395501
 11
0.4793337462
 21
11.3078976949
  0
LINE
  5
512
100
AcDbEntity
  8
0
100
AcDbLine
 62
7
  6
CONTINUOUS
 10
0.3636293176
 20
12.0921704073
 11
0.4752629384
 21
12.1073335107
  0
LINE
  5
513
100
AcDbEntity
  8
0
100
AcDbLine
 62
7
  6
CONTINUOUS
 10
-0.279239379
 20
12.5090776226
 11
-0.3833225001
 21
12.4950137026
  0
LINE
  5
514
100
AcDbEntity
  8
0
100
AcDbLine
 62
7
  6
CONTINUOUS
 10
-0.2755381883
 20
12.0093436617
 11
-0.145512558
 21
12.0266043961
  0
LINE
  5
515
100
AcDbEntity
  8
0
100
AcDbLine
 62
7
  6
CONTINUOUS
 10
0.3284336494
 20
10.987669805
 11
0.2100963015
 21
10.9720385754
  0
LINE
  5
516
100
AcDbEntity
  8
0
100
AcDbLine
 62
7
  6
CONTINUOUS
 10
-0.2610618726
 20
11.2113016934
 11
-0.1260562276
 21
11.229136015
  0
LINE
  5
517
100
AcDbEntity
  8
0
100
AcDbLine
 62
7
  6
CONTINUOUS
 10
0.3117883961
 20
11.7854374852
 11
0.1891297026
 21
11.7693186392
  0
LINE
  5
518
100
AcDbEntity
  8
0
100
AcDbLine
 62
7
  6
CONTINUOUS
 10
0.304419973
 20
12.5844517091
 11
0.1829309829
 21
12.5685163553
  0
LINE
  5
519
100
AcDbEntity
  8
0
100
AcDbLine
 62
7
  6
CONTINUOUS
 10
-0.1392730675
 20
11.7273277849
 11
-0.3103702969
 21
11.7049252781
  0
LINE
  5
51A
100
AcDbEntity
  8
0
100
AcDbLine
 62
7
  6
CONTINUOUS
 10
0.1755336323
 20
12.067703834
 11
0.3636293176
 21
12.0921704073
  0
LINE
  5
51B
100
AcDbEntity
  8
0
100
AcDbLine
 62
7
  6
CONTINUOUS
 10
0.1704165871
 20
11.2670490344
 11
0.3648983735
 21
11.2923395501
  0
LINE
  5
51C
100
AcDbEntity
  8
0
100
AcDbLine
 62
7
  6
CONTINUOUS
 10
-0.0751991425
 20
12.5355340666
 11
-0.279239379
 21
12.5090776226
  0
LINE
  5
51D
100
AcDbEntity
  8
0
100
AcDbLine
 62
7
  6
CONTINUOUS
 10
0.2100963015
 20
10.9720385754
 11
0.0375
 21
10.9498887841
  0
LINE
  5
51E
100
AcDbEntity
  8
0
100
AcDbLine
 62
7
  6
CONTINUOUS
 10
-0.1260562276
 20
11.229136015
 11
0.1704165871
 21
11.2670490344
  0
LINE
  5
51F
100
AcDbEntity
  8
0
100
AcDbLine
 62
7
  6
CONTINUOUS
 10
0.1891297026
 20
11.7693186392
 11
-0.1392730675
 21
11.7273277849
  0
LINE
  5
520
100
AcDbEntity
  8
0
100
AcDbLine
 62
7
  6
CONTINUOUS
 10
-0.145512558
 20
12.0266043961
 11
0.1755336323
 21
12.067703834
  0
LINE
  5
521
100
AcDbEntity
  8
0
100
AcDbLine
 62
7
  6
CONTINUOUS
 10
0.1829309829
 20
12.5685163553
 11
-0.0751991425
 21
12.5355340666
  0
LWPOLYLINE
  5
522
100
AcDbEntity
  8
0
100
AcDbPolyline
 62
253
  6
CONTINUOUS
 90
18
 70
0
 10
0.739456886
 20
12.3759203688
 10
0.7973673282
 20
12.3831946469
 10
0.8529914219
 20
12.3904965518
 10
0.9060437592
 20
12.3978134375
 10
0.9562403332
 20
12.4051301854
 10
1.0033859212
 20
12.4124421328
 10
1.0473476203
 20
12.4197539424
 10
1.0879550914
 20
12.4270644843
 10
1.1250926681
 20
12.434376811
 10
1.1586436111
 20
12.44168787
 10
1.1884708498
 20
12.4489873738
 10
1.2144707
 20
12.456268597
 10
1.2365920814
 20
12.4635382651
 10
1.2547800166
 20
12.4708062666
 10
1.2689783919
 20
12.4780706864
 10
1.2791729088
 20
12.4853334395
 10
1.2853539349
 20
12.4926101596
 10
1.2874774163
 20
12.500006075
  0
LWPOLYLINE
  5
523
100
AcDbEntity
  8
0
100
AcDbPolyline
 62
253
  6
CONTINUOUS
 90
13
 70
0
 10
0.7224720634
 20
11.5738438739
 10
0.7811788271
 20
11.5811332581
 10
0.8374163807
 20
11.588417042
 10
0.8910563512
 20
11.5957032895
 10
0.9419136169
 20
11.6029933592
 10
0.9898069256
 20
11.6102858924
 10
1.0346186571
 20
11.6175848768
 10
1.0762287134
 20
11.6248948772
 10
1.1144620469
 20
11.6322113287
 10
1.1491282978
 20
11.6395245237
 10
1.180082904
 20
11.6468311047
 10
1.2072457133
 20
11.6541344293
 10
1.2275
 20
11.6604775416
  0
LWPOLYLINE
  5
524
100
AcDbEntity
  8
0
100
AcDbPolyline
 62
253
  6
CONTINUOUS
 90
13
 70
0
 10
0.7146872527
 20
10.7728952123
 10
0.7734669643
 20
10.7801561561
 10
0.8299762178
 20
10.7874346837
 10
0.8841509264
 20
10.7947478492
 10
0.9356658492
 20
10.8020785987
 10
0.9841876361
 20
10.8094049584
 10
1.029501697
 20
10.8167187855
 10
1.0715006879
 20
10.8240282229
 10
1.1100678369
 20
10.8313357259
 10
1.1451266701
 20
10.8386471789
 10
1.1765423921
 20
10.8459566975
 10
1.204159225
 20
10.8532490835
 10
1.2275
 20
10.8604009674
  0
LINE
  5
525
100
AcDbEntity
  8
0
100
AcDbLine
 62
253
  6
CONTINUOUS
 10
-0.6888092624
 20
11.4210562048
 11
-0.5685725439
 21
11.4355479018
  0
LINE
  5
526
100
AcDbEntity
  8
0
100
AcDbLine
 62
253
  6
CONTINUOUS
 10
-0.6730759444
 20
12.2230131766
 11
-0.5516545762
 21
12.2375084444
  0
LINE
  5
527
100
AcDbEntity
  8
0
100
AcDbLine
 62
253
  6
CONTINUOUS
 10
0.6171289288
 20
12.3613939354
 11
0.739456886
 21
12.3759203688
  0
LINE
  5
528
100
AcDbEntity
  8
0
100
AcDbLine
 62
253
  6
CONTINUOUS
 10
0.5982988997
 20
11.5592367567
 11
0.7224720634
 21
11.5738438739
  0
LINE
  5
529
100
AcDbEntity
  8
0
100
AcDbLine
 62
253
  6
CONTINUOUS
 10
0.5902677181
 20
10.7583246604
 11
0.7146872527
 21
10.7728952123
  0
LINE
  5
52A
100
AcDbEntity
  8
0
100
AcDbLine
 62
253
  6
CONTINUOUS
 10
-0.5685725439
 20
11.4355479018
 11
-0.4402536633
 21
11.4500642297
  0
LINE
  5
52B
100
AcDbEntity
  8
0
100
AcDbLine
 62
253
  6
CONTINUOUS
 10
-0.5516545762
 20
12.2375084444
 11
-0.4222806176
 21
12.2520411807
  0
LINE
  5
52C
100
AcDbEntity
  8
0
100
AcDbLine
 62
253
  6
CONTINUOUS
 10
0.4867961552
 20
12.3468138738
 11
0.6171289288
 21
12.3613939354
  0
LINE
  5
52D
100
AcDbEntity
  8
0
100
AcDbLine
 62
253
  6
CONTINUOUS
 10
0.4668045464
 20
11.5446379814
 11
0.5982988997
 21
11.5592367567
  0
LINE
  5
52E
100
AcDbEntity
  8
0
100
AcDbLine
 62
253
  6
CONTINUOUS
 10
0.4581953495
 20
10.7437062066
 11
0.5902677181
 21
10.7583246604
  0
LINE
  5
52F
100
AcDbEntity
  8
0
100
AcDbLine
 62
253
  6
CONTINUOUS
 10
-0.4402536633
 20
11.4500642297
 11
-0.3056059145
 21
11.4645964851
  0
LINE
  5
530
100
AcDbEntity
  8
0
100
AcDbLine
 62
253
  6
CONTINUOUS
 10
-0.4222806176
 20
12.2520411807
 11
-0.2863373138
 21
12.2666328149
  0
LINE
  5
531
100
AcDbEntity
  8
0
100
AcDbLine
 62
253
  6
CONTINUOUS
 10
0.2809574695
 20
12.3249579869
 11
0.4867961552
 21
12.3468138738
  0
LINE
  5
532
100
AcDbEntity
  8
0
100
AcDbLine
 62
253
  6
CONTINUOUS
 10
0.259877211
 20
11.5227732319
 11
0.4668045464
 21
11.5446379814
  0
LINE
  5
533
100
AcDbEntity
  8
0
100
AcDbLine
 62
253
  6
CONTINUOUS
 10
0.2504432878
 20
10.7217966113
 11
0.4581953495
 21
10.7437062066
  0
LINE
  5
534
100
AcDbEntity
  8
0
100
AcDbLine
 62
253
  6
CONTINUOUS
 10
-0.3056059145
 20
11.4645964851
 11
-0.0957503131
 21
11.4864012816
  0
LINE
  5
535
100
AcDbEntity
  8
0
100
AcDbLine
 62
253
  6
CONTINUOUS
 10
-0.2863373138
 20
12.2666328149
 11
-0.0749631934
 21
12.2885286923
  0
LINE
  5
536
100
AcDbEntity
  8
0
100
AcDbLine
 62
253
  6
CONTINUOUS
 10
0.0374941276
 20
10.7000000002
 11
0.2504432878
 21
10.7217966113
  0
LINE
  5
537
100
AcDbEntity
  8
0
100
AcDbLine
 62
253
  6
CONTINUOUS
 10
-0.0957503131
 20
11.4864012816
 11
0.259877211
 21
11.5227732319
  0
LINE
  5
538
100
AcDbEntity
  8
0
100
AcDbLine
 62
253
  6
CONTINUOUS
 10
-0.0749631934
 20
12.2885286923
 11
0.2809574695
 21
12.3249579869
  0
LINE
  5
539
100
AcDbEntity
  8
0
100
AcDbLine
 62
7
  6
CONTINUOUS
 10
-1.7125995271
 20
10.7
 11
1.7875995271
 21
10.7
  0
LINE
  5
53A
100
AcDbEntity
  8
0
100
AcDbLine
 62
253
  6
CONTINUOUS
 10
-1.1525
 20
10.8
 11
-0.9847535459
 21
10.8
  0
LINE
  5
53B
100
AcDbEntity
  8
0
100
AcDbLine
 62
7
  6
CONTINUOUS
 10
-1.1525
 20
12.2
 11
-2.345143092
 21
12.2
  0
LINE
  5
53C
100
AcDbEntity
  8
0
100
AcDbLine
 62
7
  6
CONTINUOUS
 10
1.2275
 20
12.2
 11
2.420143092
 21
12.2
  0
LINE
  5
53D
100
AcDbEntity
  8
0
100
AcDbLine
 62
7
  6
CONTINUOUS
 10
-1.5390286184
 20
12.45
 11
-1.3375
 21
12.45
  0
LINE
  5
53E
100
AcDbEntity
  8
0
100
AcDbLine
 62
7
  6
CONTINUOUS
 10
1.4125
 20
12.45
 11
1.6140286184
 21
12.45
  0
LINE
  5
53F
100
AcDbEntity
  8
0
100
AcDbLine
 62
7
  6
CONTINUOUS
 10
4.5375
 20
12.45
 11
13.5375
 21
12.45
  0
LINE
  5
540
100
AcDbEntity
  8
0
100
AcDbLine
 62
7
  6
CONTINUOUS
 10
-4.4625
 20
12.45
 11
-13.4625
 21
12.45
  0
LINE
  5
541
100
AcDbEntity
  8
0
100
AcDbLine
 62
7
  6
CONTINUOUS
 10
-0.4029908568
 20
11.7077123352
 11
-0.3468375698
 21
11.7000036185
  0
LINE
  5
542
100
AcDbEntity
  8
0
100
AcDbLine
 62
7
  6
CONTINUOUS
 10
-0.415898628
 20
12.5095136536
 11
-0.3468582465
 21
12.5000031997
  0
LINE
  5
543
100
AcDbEntity
  8
0
100
AcDbLine
 62
7
  6
CONTINUOUS
 10
0.4916855877
 20
12.0903745561
 11
0.4218449756
 21
12.1000044157
  0
LINE
  5
544
100
AcDbEntity
  8
0
100
AcDbLine
 62
7
  6
CONTINUOUS
 10
-0.4844930195
 20
11.7193015915
 11
-0.4029908568
 21
11.7077123352
  0
LINE
  5
545
100
AcDbEntity
  8
0
100
AcDbLine
 62
7
  6
CONTINUOUS
 10
0.5606719414
 20
12.080527724
 11
0.4916855877
 21
12.0903745561
  0
LINE
  5
546
100
AcDbEntity
  8
0
100
AcDbLine
 62
7
  6
CONTINUOUS
 10
-0.4897739753
 20
12.5200685085
 11
-0.415898628
 21
12.5095136536
  0
LINE
  5
547
100
AcDbEntity
  8
0
100
AcDbLine
 62
253
  6
CONTINUOUS
 10
0.2061766064
 20
11.8711173674
 11
-0.086347222
 21
11.9211226632
  0
LWPOLYLINE
  5
548
100
AcDbEntity
  8
0
100
AcDbPolyline
 62
253
  6
CONTINUOUS
 90
8
 70
0
 10
-0.086347222
 20
11.9211226632
 10
-0.1818841739
 20
11.9377966111
 10
-0.2283189881
 20
11.9461293581
 10
-0.2735863907
 20
11.9544580133
 10
-0.3175015965
 20
11.9627825412
 10
-0.359865551
 20
11.9710989073
 10
-0.4004939785
 20
11.9794053336
 10
-0.4350674572
 20
11.9868134981
  0
LWPOLYLINE
  5
549
100
AcDbEntity
  8
0
100
AcDbPolyline
 62
253
  6
CONTINUOUS
 90
7
 70
0
 10
0.5101314137
 20
11.8131891699
 10
0.4718310353
 20
11.8213602107
 10
0.431076011
 20
11.8296592896
 10
0.3886776147
 20
11.837953366
 10
0.3448046305
 20
11.846245869
 10
0.2996642986
 20
11.8545327763
 10
0.2061766064
 20
11.8711173674
  0
LWPOLYLINE
  5
54A
100
AcDbEntity
  8
0
100
AcDbPolyline
 62
253
  6
CONTINUOUS
 90
7
 70
0
 10
0.5100014438
 20
12.6131749938
 10
0.4821612738
 20
12.6191926493
 10
0.4417548948
 20
12.6275174949
 10
0.399645152
 20
12.6358385777
 10
0.3560100655
 20
12.6441546644
 10
0.311039988
 20
12.6524651443
 10
0.2178888862
 20
12.6690717145
  0
LINE
  5
54B
100
AcDbEntity
  8
0
100
AcDbLine
 62
7
  6
CONTINUOUS
 10
13.5375
 20
12.45
 11
13.5375
 21
10.15
  0
LINE
  5
54C
100
AcDbEntity
  8
0
100
AcDbLine
 62
7
  6
CONTINUOUS
 10
13.5375
 20
-5.8
 11
13.5375
 21
-6.3
  0
LINE
  5
54D
100
AcDbEntity
  8
0
100
AcDbLine
 62
7
  6
CONTINUOUS
 10
2.5166669846
 20
-15.496808517
 11
2.5583330154
 21
-15.4542553306
  0
LINE
  5
54E
100
AcDbEntity
  8
0
100
AcDbLine
 62
7
  6
CONTINUOUS
 10
2.225
 20
-15.9223404258
 11
2.1625
 21
-15.9861702129
  0
LINE
  5
54F
100
AcDbEntity
  8
0
100
AcDbLine
 62
7
  6
CONTINUOUS
 10
3.0583330154
 20
-15.4329787374
 11
3.1
 21
-15.3904255509
  0
LINE
  5
550
100
AcDbEntity
  8
0
100
AcDbLine
 62
7
  6
CONTINUOUS
 10
3.1
 20
-15.4755319238
 11
3.0583330154
 21
-15.5180851102
  0
LINE
  5
551
100
AcDbEntity
  8
0
100
AcDbLine
 62
7
  6
CONTINUOUS
 10
3.3708330154
 20
-15.4542553306
 11
3.4333330154
 21
-15.3904255509
  0
LINE
  5
552
100
AcDbEntity
  8
0
100
AcDbLine
 62
7
  6
CONTINUOUS
 10
3.4333330154
 20
-15.4755319238
 11
3.4125
 21
-15.496808517
  0
LINE
  5
553
100
AcDbEntity
  8
0
100
AcDbLine
 62
7
  6
CONTINUOUS
 10
3.9125
 20
-15.4542553306
 11
3.9541669846
 21
-15.4117021441
  0
LINE
  5
554
100
AcDbEntity
  8
0
100
AcDbLine
 62
7
  6
CONTINUOUS
 10
3.9333330154
 20
-15.7095744789
 11
3.975
 21
-15.6670212626
  0
LINE
  5
555
100
AcDbEntity
  8
0
100
AcDbLine
 62
7
  6
CONTINUOUS
 10
4.0583330154
 20
-15.7308510721
 11
4.0166669846
 21
-15.7734042585
  0
LINE
  5
556
100
AcDbEntity
  8
0
100
AcDbLine
 62
7
  6
CONTINUOUS
 10
4.3291669846
 20
-15.9223404258
 11
4.3916669846
 21
-15.8585106313
  0
LINE
  5
557
100
AcDbEntity
  8
0
100
AcDbLine
 62
7
  6
CONTINUOUS
 10
4.8291669846
 20
-15.4755319238
 11
4.8708330154
 21
-15.4329787374
  0
LINE
  5
558
100
AcDbEntity
  8
0
100
AcDbLine
 62
7
  6
CONTINUOUS
 10
4.8708330154
 20
-15.5180851102
 11
4.8291669846
 21
-15.5606382966
  0
LINE
  5
559
100
AcDbEntity
  8
0
100
AcDbLine
 62
7
  6
CONTINUOUS
 10
0.85
 20
-15.1989361525
 11
0.7875
 21
-15.2414893389
  0
LINE
  5
55A
100
AcDbEntity
  8
0
100
AcDbLine
 62
7
  6
CONTINUOUS
 10
1.6833334923
 20
-15.4542553306
 11
1.7458334923
 21
-15.4117021442
  0
LINE
  5
55B
100
AcDbEntity
  8
0
100
AcDbLine
 62
7
  6
CONTINUOUS
 10
1.2041665077
 20
-15.9010638326
 11
1.2666665077
 21
-15.8585106313
  0
LINE
  5
55C
100
AcDbEntity
  8
0
100
AcDbLine
 62
7
  6
CONTINUOUS
 10
2.5583330154
 20
-15.4542553306
 11
2.6208330154
 21
-15.4117021442
  0
LINE
  5
55D
100
AcDbEntity
  8
0
100
AcDbLine
 62
7
  6
CONTINUOUS
 10
2.0583330154
 20
-15.9436170191
 11
2.1208330154
 21
-15.9010638326
  0
LINE
  5
55E
100
AcDbEntity
  8
0
100
AcDbLine
 62
7
  6
CONTINUOUS
 10
-3.5875
 20
-16.0074468099
 11
-3.6291667461
 21
-16.0287234049
  0
LINE
  5
55F
100
AcDbEntity
  8
0
100
AcDbLine
 62
7
  6
CONTINUOUS
 10
-2.6708332539
 20
-15.9861702129
 11
-2.7541667461
 21
-16.0287234049
  0
LINE
  5
560
100
AcDbEntity
  8
0
100
AcDbLine
 62
7
  6
CONTINUOUS
 10
0.7458334923
 20
-15.1138297796
 11
0.8291665077
 21
-15.0712765932
  0
LINE
  5
561
100
AcDbEntity
  8
0
100
AcDbLine
 62
7
  6
CONTINUOUS
 10
-4.5875
 20
-15.9648936197
 11
-4.4833333731
 21
-15.9223404258
  0
LINE
  5
562
100
AcDbEntity
  8
0
100
AcDbLine
 62
7
  6
CONTINUOUS
 10
-3.0875
 20
-15.4117021442
 11
-3.025
 21
-15.3904255509
  0
LINE
  5
563
100
AcDbEntity
  8
0
100
AcDbLine
 62
7
  6
CONTINUOUS
 10
0.6986525182
 20
14.2436015515
 11
0.6618719557
 21
14.2371627815
  0
LINE
  5
564
100
AcDbEntity
  8
0
100
AcDbLine
 62
7
  6
CONTINUOUS
 10
-0.6114681933
 20
14.3585688827
 11
-0.5735464015
 21
14.3650982306
  0
LINE
  5
565
100
AcDbEntity
  8
0
100
AcDbLine
 62
7
  6
CONTINUOUS
 10
-0.610307606
 20
13.5587716821
 11
-0.5705041089
 21
13.5656048239
  0
LINE
  5
566
100
AcDbEntity
  8
0
100
AcDbLine
 62
7
  6
CONTINUOUS
 10
0.6618719557
 20
14.2371627815
 11
0.622513814
 21
14.230595413
  0
LINE
  5
567
100
AcDbEntity
  8
0
100
AcDbLine
 62
7
  6
CONTINUOUS
 10
0.6620755008
 20
13.4371968342
 11
0.618228708
 21
13.4298977222
  0
LWPOLYLINE
  5
568
100
AcDbEntity
  8
0
100
AcDbPolyline
 62
7
  6
CONTINUOUS
 90
36
 70
0
 10
-0.6161773833
 20
13.2606032428
 10
-0.648042999
 20
13.2553911062
 10
-0.6788738672
 20
13.2501801411
 10
-0.7086447914
 20
13.2449675306
 10
-0.7373399825
 20
13.239748679
 10
-0.7648076931
 20
13.2345450245
 10
-0.7910498704
 20
13.2293517715
 10
-0.8160893789
 20
13.2241615961
 10
-0.8398570812
 20
13.2189879484
 10
-0.8623640965
 20
13.2138293919
 10
-0.8836921086
 20
13.2086679272
 10
-0.9039188013
 20
13.2034838652
 10
-0.9230392316
 20
13.1982776906
 10
-0.9411778872
 20
13.1930137295
 10
-0.9586204728
 20
13.1875973806
 10
-0.9753856405
 20
13.1820016525
 10
-0.9915471458
 20
13.1761768687
 10
-1.007478245
 20
13.1699463812
 10
-1.0232513099
 20
13.163214919
 10
-1.0388572662
 20
13.1559067728
 10
-1.0545529787
 20
13.1477928292
 10
-1.0704578451
 20
13.1386520852
 10
-1.0864110959
 20
13.1283869825
 10
-1.1022441137
 20
13.1169068982
 10
-1.1179342345
 20
13.1039965207
 10
-1.1332789775
 20
13.0895442674
 10
-1.147844298
 20
13.073690068
 10
-1.1614629668
 20
13.05634717
 10
-1.1739239396
 20
13.0374718156
 10
-1.1848481225
 20
13.0174525261
 10
-1.1941295936
 20
12.9963873854
 10
-1.2016591281
 20
12.9743790412
 10
-1.2072309334
 20
12.9519648711
 10
-1.2108070278
 20
12.9294499995
 10
-1.2124076169
 20
12.9068602705
 10
-1.2124999491
 20
12.8999638399
  0
LWPOLYLINE
  5
569
100
AcDbEntity
  8
0
100
AcDbPolyline
 62
7
  6
CONTINUOUS
 90
36
 70
0
 10
0.6838221996
 20
12.938215662
 10
0.7155616039
 20
12.9433681913
 10
0.7461518116
 20
12.9484950376
 10
0.7755611291
 20
12.9535955148
 10
0.8038034364
 20
12.958676502
 10
0.83083861
 20
12.9637336566
 10
0.856657536
 20
12.9687663878
 10
0.8813068746
 20
12.9737849068
 10
0.904855171
 20
12.9788053757
 10
0.9273099852
 20
12.9838323408
 10
0.9487150615
 20
12.9888789776
 10
0.969207383
 20
12.9939840052
 10
0.9887945558
 20
12.999158742
 10
1.0075280603
 20
13.0044279027
 10
1.0256239021
 20
13.0098709995
 10
1.0430801285
 20
13.0155124024
 10
1.0599643907
 20
13.0214029761
 10
1.0766255451
 20
13.0277128487
 10
1.0931464215
 20
13.0345482533
 10
1.1094957863
 20
13.0419854627
 10
1.1258898498
 20
13.0502393436
 10
1.1424649787
 20
13.0595451773
 10
1.159063758
 20
13.0700148916
 10
1.1754801384
 20
13.0817251427
 10
1.1917372704
 20
13.0949342788
 10
1.2075926978
 20
13.1097372279
 10
1.2224771071
 20
13.1258503233
 10
1.2361971627
 20
13.1432569742
 10
1.2486479603
 20
13.1620467667
 10
1.2595295669
 20
13.1818872853
 10
1.2687377659
 20
13.2026138235
 10
1.2762222702
 20
13.2241725126
 10
1.2818588534
 20
13.2462902924
 10
1.2855795766
 20
13.268766447
 10
1.2873371753
 20
13.2914957714
 10
1.2874775637
 20
13.2999929199
  0
LINE
  5
56A
100
AcDbEntity
  8
0
100
AcDbLine
 62
7
  6
CONTINUOUS
 10
-0.5735464015
 20
14.3650982306
 11
-0.532952925
 21
14.37176534
  0
LWPOLYLINE
  5
56B
100
AcDbEntity
  8
0
100
AcDbPolyline
 62
7
  6
CONTINUOUS
 90
36
 70
0
 10
0.6807323135
 20
14.5377192075
 10
0.7135768819
 20
14.5430401329
 10
0.7452380584
 20
14.548341196
 10
0.7757012335
 20
14.5536244623
 10
0.8049663477
 20
14.5588944806
 10
0.8328788549
 20
14.5641264011
 10
0.8594287021
 20
14.5693191194
 10
0.8846732373
 20
14.57448449
 10
0.9086047269
 20
14.579621335
 10
0.9312233889
 20
14.584728807
 10
0.9526204821
 20
14.5898262195
 10
0.9729517421
 20
14.5949504877
 10
0.9922356924
 20
14.6001076517
 10
1.0105615422
 20
14.6053239849
 10
1.0281930833
 20
14.6106853175
 10
1.0451324245
 20
14.6162110342
 10
1.0614618969
 20
14.62195061
 10
1.0775718222
 20
14.6280835475
 10
1.0935391472
 20
14.6347077568
 10
1.1093395756
 20
14.6418946223
 10
1.1252272275
 20
14.6498694849
 10
1.1413072958
 20
14.6588428324
 10
1.1574465783
 20
14.6689270375
 10
1.173536555
 20
14.6802580285
 10
1.1895850851
 20
14.6930912952
 10
1.2053475937
 20
14.707531736
 10
1.2203383608
 20
14.7234163301
 10
1.2343814308
 20
14.7408327976
 10
1.2472610228
 20
14.7598421595
 10
1.2585661579
 20
14.780040508
 10
1.2681917445
 20
14.8013364611
 10
1.2760203301
 20
14.8236163645
 10
1.2818271429
 20
14.8462818053
 10
1.2855825888
 20
14.8689992866
 10
1.2873257259
 20
14.8917549185
 10
1.2874596995
 20
14.9000598043
  0
LINE
  5
56C
100
AcDbEntity
  8
0
100
AcDbLine
 62
7
  6
CONTINUOUS
 10
-0.5705041089
 20
13.5656048239
 11
-0.5278264923
 21
13.5725851627
  0
LWPOLYLINE
  5
56D
100
AcDbEntity
  8
0
100
AcDbPolyline
 62
7
  6
CONTINUOUS
 90
36
 70
0
 10
-0.5995608579
 20
14.063258495
 10
-0.6324738137
 20
14.057958548
 10
-0.664334112
 20
14.0526605165
 10
-0.6951130881
 20
14.0473615863
 10
-0.7247903674
 20
14.0420574004
 10
-0.7532030355
 20
14.0367704536
 10
-0.780348277
 20
14.0314968295
 10
-0.8062516116
 20
14.0262288729
 10
-0.8308442272
 20
14.0209793107
 10
-0.8541290996
 20
14.0157481261
 10
-0.8761921215
 20
14.0105164147
 10
-0.8971286127
 20
14.0052598974
 10
-0.9169532085
 20
13.9999722961
 10
-0.9357626994
 20
13.9946240635
 10
-0.9537946453
 20
13.9891360196
 10
-0.9710574639
 20
13.9834866788
 10
-0.987647068
 20
13.9776229314
 10
-1.0039434904
 20
13.9713713934
 10
-1.0200209552
 20
13.9646399131
 10
-1.0358800297
 20
13.9573524077
 10
-1.0517967712
 20
13.9492765281
 10
-1.0678813478
 20
13.940201674
 10
-1.0839984779
 20
13.9300192674
 10
-1.1000451157
 20
13.9185915188
 10
-1.1160321343
 20
13.9056604594
 10
-1.1317102885
 20
13.8911267874
 10
-1.1465893624
 20
13.8751650636
 10
-1.1604901844
 20
13.8576993321
 10
-1.1732090455
 20
13.838668487
 10
-1.1843528567
 20
13.8184697945
 10
-1.1938177059
 20
13.7971982472
 10
-1.2014897049
 20
13.7749667338
 10
-1.207154028
 20
13.7523523262
 10
-1.210780224
 20
13.7296791274
 10
-1.2124018624
 20
13.7069665813
 10
-1.2124963688
 20
13.6999878487
  0
LINE
  5
56E
100
AcDbEntity
  8
0
100
AcDbLine
 62
7
  6
CONTINUOUS
 10
-0.5695832582
 20
12.7657591874
 11
-0.5218834953
 21
12.7735336533
  0
LWPOLYLINE
  5
56F
100
AcDbEntity
  8
0
100
AcDbPolyline
 62
7
  6
CONTINUOUS
 90
36
 70
0
 10
0.6704567491
 20
13.73609177
 10
0.7043275222
 20
13.7415270291
 10
0.7368661234
 20
13.7469216846
 10
0.7680516995
 20
13.7522764411
 10
0.797895442
 20
13.7575971612
 10
0.8262373035
 20
13.7628572055
 10
0.8530418752
 20
13.7680471879
 10
0.8784271056
 20
13.7731857962
 10
0.9025002399
 20
13.7782921113
 10
0.925270298
 20
13.7833656794
 10
0.9468225695
 20
13.7884231433
 10
0.9673779036
 20
13.793518138
 10
0.9869502458
 20
13.798659732
 10
1.0056048562
 20
13.8038719285
 10
1.023630219
 20
13.80925144
 10
1.0410479271
 20
13.8148311685
 10
1.0578923026
 20
13.8206513383
 10
1.0744836455
 20
13.8268679718
 10
1.0908975522
 20
13.8335781146
 10
1.1071148316
 20
13.8408556075
 10
1.1233519778
 20
13.8489050724
 10
1.1397261817
 20
13.8579369693
 10
1.1561133157
 20
13.8680656183
 10
1.1723811421
 20
13.8794060458
 10
1.1885588207
 20
13.8922170666
 10
1.2044084442
 20
13.9065973524
 10
1.2194129913
 20
13.9223335353
 10
1.2333738129
 20
13.9394360572
 10
1.2461607604
 20
13.9580103935
 10
1.2574646178
 20
13.9777990085
 10
1.2671484294
 20
13.9986676655
 10
1.2751187747
 20
14.0205674078
 10
1.2812116438
 20
14.0432537092
 10
1.2853079982
 20
14.0665318066
 10
1.287304188
 20
14.0902795559
 10
1.2874878735
 20
14.099997876
  0
LINE
  5
570
100
AcDbEntity
  8
0
100
AcDbLine
 62
7
  6
CONTINUOUS
 10
0.622513814
 20
14.230595413
 11
0.5806397671
 21
14.2239048641
  0
LINE
  5
571
100
AcDbEntity
  8
0
100
AcDbLine
 62
7
  6
CONTINUOUS
 10
0.618228708
 20
13.4298977222
 11
0.57129057
 21
13.4224476314
  0
LINE
  5
572
100
AcDbEntity
  8
0
100
AcDbLine
 62
7
  6
CONTINUOUS
 10
-0.532952925
 20
14.37176534
 11
-0.489759326
 21
14.3785641933
  0
LINE
  5
573
100
AcDbEntity
  8
0
100
AcDbLine
 62
7
  6
CONTINUOUS
 10
-0.5278264923
 20
13.5725851627
 11
-0.4823734746
 21
13.5797018935
  0
LINE
  5
574
100
AcDbEntity
  8
0
100
AcDbLine
 62
7
  6
CONTINUOUS
 10
-0.5500230347
 20
13.2709536533
 11
-0.6161773833
 21
13.2606032428
  0
LINE
  5
575
100
AcDbEntity
  8
0
100
AcDbLine
 62
7
  6
CONTINUOUS
 10
-0.5218834953
 20
12.7735336533
 11
-0.4709380362
 21
12.7814486363
  0
LINE
  5
576
100
AcDbEntity
  8
0
100
AcDbLine
 62
7
  6
CONTINUOUS
 10
0.6173587504
 20
12.9278845849
 11
0.6838221996
 21
12.938215662
  0
LINE
  5
577
100
AcDbEntity
  8
0
100
AcDbLine
 62
7
  6
CONTINUOUS
 10
0.6122274064
 20
14.5271075127
 11
0.6807323135
 21
14.5377192075
  0
LINE
  5
578
100
AcDbEntity
  8
0
100
AcDbLine
 62
7
  6
CONTINUOUS
 10
0.5806397671
 20
14.2239048641
 11
0.5362902889
 21
14.2170915044
  0
LINE
  5
579
100
AcDbEntity
  8
0
100
AcDbLine
 62
7
  6
CONTINUOUS
 10
-0.5312926832
 20
14.0737848826
 11
-0.5995608579
 21
14.063258495
  0
LINE
  5
57A
100
AcDbEntity
  8
0
100
AcDbLine
 62
7
  6
CONTINUOUS
 10
0.5995470525
 20
13.7252053479
 11
0.6704567491
 21
13.73609177
  0
LINE
  5
57B
100
AcDbEntity
  8
0
100
AcDbLine
 62
7
  6
CONTINUOUS
 10
0.57129057
 20
13.4224476314
 11
0.5214398249
 21
13.4148645613
  0
LINE
  5
57C
100
AcDbEntity
  8
0
100
AcDbLine
 62
7
  6
CONTINUOUS
 10
-0.489759326
 20
14.3785641933
 11
-0.4440362981
 21
14.3854919274
  0
LINE
  5
57D
100
AcDbEntity
  8
0
100
AcDbLine
 62
7
  6
CONTINUOUS
 10
-0.4823734746
 20
13.5797018935
 11
-0.4342273796
 21
13.5869497165
  0
LINE
  5
57E
100
AcDbEntity
  8
0
100
AcDbLine
 62
7
  6
CONTINUOUS
 10
-0.4709380362
 20
12.7814486363
 11
-0.4169957451
 21
12.7894814791
  0
LINE
  5
57F
100
AcDbEntity
  8
0
100
AcDbLine
 62
7
  6
CONTINUOUS
 10
0.5362902889
 20
14.2170915044
 11
0.4895141096
 21
14.2101556396
  0
LINE
  5
580
100
AcDbEntity
  8
0
100
AcDbLine
 62
7
  6
CONTINUOUS
 10
-0.4811493729
 20
13.2811872174
 11
-0.5500230347
 21
13.2709536533
  0
LINE
  5
581
100
AcDbEntity
  8
0
100
AcDbLine
 62
7
  6
CONTINUOUS
 10
0.5472780856
 20
12.9175292773
 11
0.6173587504
 21
12.9278845849
  0
LINE
  5
582
100
AcDbEntity
  8
0
100
AcDbLine
 62
7
  6
CONTINUOUS
 10
0.5405225771
 20
14.5165569176
 11
0.6122274064
 21
14.5271075127
  0
LINE
  5
583
100
AcDbEntity
  8
0
100
AcDbLine
 62
7
  6
CONTINUOUS
 10
0.5214398249
 20
13.4148645613
 11
0.4688495034
 21
13.4071612668
  0
LINE
  5
584
100
AcDbEntity
  8
0
100
AcDbLine
 62
7
  6
CONTINUOUS
 10
-0.4440362981
 20
14.3854919274
 11
-0.3958463599
 21
14.392548792
  0
LINE
  5
585
100
AcDbEntity
  8
0
100
AcDbLine
 62
7
  6
CONTINUOUS
 10
-0.4603134001
 20
14.0841939366
 11
-0.5312926832
 21
14.0737848826
  0
LINE
  5
586
100
AcDbEntity
  8
0
100
AcDbLine
 62
7
  6
CONTINUOUS
 10
0.5249623666
 20
13.7143259202
 11
0.5995470525
 21
13.7252053479
  0
LINE
  5
587
100
AcDbEntity
  8
0
100
AcDbLine
 62
7
  6
CONTINUOUS
 10
-0.4342273796
 20
13.5869497165
 11
-0.3834904969
 21
13.5943246898
  0
LINE
  5
588
100
AcDbEntity
  8
0
100
AcDbLine
 62
7
  6
CONTINUOUS
 10
-0.4169957451
 20
12.7894814791
 11
-0.3603459015
 21
12.7976133228
  0
LINE
  5
589
100
AcDbEntity
  8
0
100
AcDbLine
 62
7
  6
CONTINUOUS
 10
-0.410710335
 20
13.2912119827
 11
-0.4811493729
 21
13.2811872174
  0
LINE
  5
58A
100
AcDbEntity
  8
0
100
AcDbLine
 62
7
  6
CONTINUOUS
 10
0.4895141096
 20
14.2101556396
 11
0.4148905571
 21
14.1995131304
  0
LINE
  5
58B
100
AcDbEntity
  8
0
100
AcDbLine
 62
7
  6
CONTINUOUS
 10
0.4743629656
 20
12.9072061081
 11
0.5472780856
 21
12.9175292773
  0
LINE
  5
58C
100
AcDbEntity
  8
0
100
AcDbLine
 62
7
  6
CONTINUOUS
 10
0.4668046352
 20
14.506159718
 11
0.5405225771
 21
14.5165569176
  0
LINE
  5
58D
100
AcDbEntity
  8
0
100
AcDbLine
 62
7
  6
CONTINUOUS
 10
-0.3878010089
 20
14.0943951492
 11
-0.4603134001
 21
14.0841939366
  0
LINE
  5
58E
100
AcDbEntity
  8
0
100
AcDbLine
 62
7
  6
CONTINUOUS
 10
-0.3958463599
 20
14.392548792
 11
-0.319095747
 21
14.4033776633
  0
LINE
  5
58F
100
AcDbEntity
  8
0
100
AcDbLine
 62
7
  6
CONTINUOUS
 10
0.4688495034
 20
13.4071612668
 11
0.3852401608
 21
13.3954006408
  0
LINE
  5
590
100
AcDbEntity
  8
0
100
AcDbLine
 62
7
  6
CONTINUOUS
 10
0.4479927686
 20
13.7035647911
 11
0.5249623666
 21
13.7143259202
  0
LINE
  5
591
100
AcDbEntity
  8
0
100
AcDbLine
 62
7
  6
CONTINUOUS
 10
-0.3834904969
 20
13.5943246898
 11
-0.3027936039
 21
13.605622493
  0
LINE
  5
592
100
AcDbEntity
  8
0
100
AcDbLine
 62
7
  6
CONTINUOUS
 10
-0.3603459015
 20
12.7976133228
 11
-0.270766338
 21
12.8099892531
  0
LINE
  5
593
100
AcDbEntity
  8
0
100
AcDbLine
 62
7
  6
CONTINUOUS
 10
0.4148905571
 20
14.1995131304
 11
0.3351131187
 21
14.1885707788
  0
LINE
  5
594
100
AcDbEntity
  8
0
100
AcDbLine
 62
7
  6
CONTINUOUS
 10
-0.3042525718
 20
13.3057442864
 11
-0.410710335
 21
13.2912119827
  0
LINE
  5
595
100
AcDbEntity
  8
0
100
AcDbLine
 62
7
  6
CONTINUOUS
 10
0.3616577804
 20
12.8919088053
 11
0.4743629656
 21
12.9072061081
  0
LINE
  5
596
100
AcDbEntity
  8
0
100
AcDbLine
 62
7
  6
CONTINUOUS
 10
-0.2786347309
 20
14.1091563986
 11
-0.3878010089
 21
14.0943951492
  0
LINE
  5
597
100
AcDbEntity
  8
0
100
AcDbLine
 62
7
  6
CONTINUOUS
 10
0.355281214
 20
14.4910602928
 11
0.4668046352
 21
14.506159718
  0
LINE
  5
598
100
AcDbEntity
  8
0
100
AcDbLine
 62
7
  6
CONTINUOUS
 10
-0.319095747
 20
14.4033776633
 11
-0.2088065992
 21
14.4182892393
  0
LINE
  5
599
100
AcDbEntity
  8
0
100
AcDbLine
 62
7
  6
CONTINUOUS
 10
0.3312763785
 20
13.6878873385
 11
0.4479927686
 21
13.7035647911
  0
LINE
  5
59A
100
AcDbEntity
  8
0
100
AcDbLine
 62
7
  6
CONTINUOUS
 10
0.3852401608
 20
13.3954006408
 11
0.2661520612
 21
13.3793777391
  0
LINE
  5
59B
100
AcDbEntity
  8
0
100
AcDbLine
 62
7
  6
CONTINUOUS
 10
-0.3027936039
 20
13.605622493
 11
-0.1869762808
 21
13.6211731913
  0
LINE
  5
59C
100
AcDbEntity
  8
0
100
AcDbLine
 62
7
  6
CONTINUOUS
 10
-0.270766338
 20
12.8099892531
 11
-0.1433433198
 21
12.8268882961
  0
LINE
  5
59D
100
AcDbEntity
  8
0
100
AcDbLine
 62
7
  6
CONTINUOUS
 10
0.3351131187
 20
14.1885707788
 11
0.2211399072
 21
14.1734766464
  0
LINE
  5
59E
100
AcDbEntity
  8
0
100
AcDbLine
 62
7
  6
CONTINUOUS
 10
-0.1285587455
 20
13.3287046103
 11
-0.3042525718
 21
13.3057442864
  0
LINE
  5
59F
100
AcDbEntity
  8
0
100
AcDbLine
 62
7
  6
CONTINUOUS
 10
-0.2088065992
 20
14.4182892393
 11
-0.0585109332
 21
14.4378483883
  0
LINE
  5
5A0
100
AcDbEntity
  8
0
100
AcDbLine
 62
7
  6
CONTINUOUS
 10
0.1731094156
 20
12.8673932383
 11
0.3616577804
 21
12.8919088053
  0
LINE
  5
5A1
100
AcDbEntity
  8
0
100
AcDbLine
 62
7
  6
CONTINUOUS
 10
0.2661520612
 20
13.3793777391
 11
0.1076076279
 21
13.3588317992
  0
LINE
  5
5A2
100
AcDbEntity
  8
0
100
AcDbLine
 62
7
  6
CONTINUOUS
 10
-0.1869762808
 20
13.6211731913
 11
-0.0288563951
 21
13.6416478191
  0
LINE
  5
5A3
100
AcDbEntity
  8
0
100
AcDbLine
 62
7
  6
CONTINUOUS
 10
-0.0663929147
 20
14.136658815
 11
-0.2786347309
 21
14.1091563986
  0
LINE
  5
5A4
100
AcDbEntity
  8
0
100
AcDbLine
 62
7
  6
CONTINUOUS
 10
0.1398009561
 20
14.4631391059
 11
0.355281214
 21
14.4910602928
  0
LWPOLYLINE
  5
5A5
100
AcDbEntity
  8
0
100
AcDbPolyline
 62
253
  6
CONTINUOUS
 90
18
 70
0
 10
0.7594280242
 20
13.9783983209
 10
0.8166404621
 20
13.9856889898
 10
0.8714231687
 20
13.9929950652
 10
0.9235282786
 20
14.0003100855
 10
0.972772856
 20
14.0076362789
 10
1.018956122
 20
14.0149714172
 10
1.0618577519
 20
14.0223023545
 10
1.1013535018
 20
14.0296286994
 10
1.1373239804
 20
14.0369508433
 10
1.1695980031
 20
14.0442568146
 10
1.1980597627
 20
14.0515428525
 10
1.2226477741
 20
14.0588127177
 10
1.24332826
 20
14.0660657211
 10
1.2600581722
 20
14.0732926631
 10
1.2728427585
 20
14.0805027433
 10
1.2816847669
 20
14.0877228715
 10
1.28652127
 20
14.0949636959
 10
1.2874878635
 20
14.0999222588
  0
LINE
  5
5A6
100
AcDbEntity
  8
0
100
AcDbLine
 62
7
  6
CONTINUOUS
 10
-0.1433433198
 20
12.8268882961
 11
0.1731094156
 21
12.8673932383
  0
LINE
  5
5A7
100
AcDbEntity
  8
0
100
AcDbLine
 62
7
  6
CONTINUOUS
 10
0.1076076279
 20
13.3588317992
 11
-0.1285587455
 21
13.3287046103
  0
LINE
  5
5A8
100
AcDbEntity
  8
0
100
AcDbLine
 62
7
  6
CONTINUOUS
 10
-0.0288563951
 20
13.6416478191
 11
0.3312763785
 21
13.6878873385
  0
LINE
  5
5A9
100
AcDbEntity
  8
0
100
AcDbLine
 62
7
  6
CONTINUOUS
 10
0.2211399072
 20
14.1734766464
 11
-0.0663929147
 21
14.136658815
  0
LINE
  5
5AA
100
AcDbEntity
  8
0
100
AcDbLine
 62
7
  6
CONTINUOUS
 10
-0.0585109332
 20
14.4378483883
 11
0.1398009561
 21
14.4631391059
  0
LWPOLYLINE
  5
5AB
100
AcDbEntity
  8
0
100
AcDbPolyline
 62
253
  6
CONTINUOUS
 90
18
 70
0
 10
0.7476092704
 20
13.1769297418
 10
0.8052302559
 20
13.1842092282
 10
0.8603408445
 20
13.1914870968
 10
0.9127289881
 20
13.1987596645
 10
0.9622380239
 20
13.2060306144
 10
1.0087903828
 20
13.2133136537
 10
1.0522917679
 20
13.2206182349
 10
1.0925318041
 20
13.2279349053
 10
1.1292911376
 20
13.2352490138
 10
1.1624136537
 20
13.242554128
 10
1.1918062912
 20
13.2498566803
 10
1.2173895933
 20
13.2571613159
 10
1.2391218195
 20
13.2644762141
 10
1.2569102052
 20
13.2717931957
 10
1.2706607134
 20
13.2790923674
 10
1.2803261523
 20
13.286356257
 10
1.2859181234
 20
13.2936023368
 10
1.2874775688
 20
13.2999280999
  0
LINE
  5
5AC
100
AcDbEntity
  8
0
100
AcDbLine
 62
253
  6
CONTINUOUS
 10
0.6386846248
 20
13.9638829724
 11
0.7594280242
 21
13.9783983209
  0
LINE
  5
5AD
100
AcDbEntity
  8
0
100
AcDbLine
 62
253
  6
CONTINUOUS
 10
0.6254797091
 20
13.1623540767
 11
0.7476092704
 21
13.1769297418
  0
LINE
  5
5AE
100
AcDbEntity
  8
0
100
AcDbLine
 62
253
  6
CONTINUOUS
 10
-0.662476604
 20
13.024322318
 11
-0.5402772942
 21
13.0388204198
  0
LINE
  5
5AF
100
AcDbEntity
  8
0
100
AcDbLine
 62
253
  6
CONTINUOUS
 10
-0.6540360093
 20
13.8253566647
 11
-0.5309357426
 21
13.8398914379
  0
LINE
  5
5B0
100
AcDbEntity
  8
0
100
AcDbLine
 62
253
  6
CONTINUOUS
 10
0.5099330374
 20
13.9493488679
 11
0.6386846248
 21
13.9638829724
  0
LINE
  5
5B1
100
AcDbEntity
  8
0
100
AcDbLine
 62
253
  6
CONTINUOUS
 10
0.4955160148
 20
13.1477663959
 11
0.6254797091
 21
13.1623540767
  0
LINE
  5
5B2
100
AcDbEntity
  8
0
100
AcDbLine
 62
253
  6
CONTINUOUS
 10
-0.5402772942
 20
13.0388204198
 11
-0.4103316107
 21
13.053345488
  0
LINE
  5
5B3
100
AcDbEntity
  8
0
100
AcDbLine
 62
253
  6
CONTINUOUS
 10
-0.5309357426
 20
13.8398914379
 11
-0.3998923798
 21
13.854482661
  0
LINE
  5
5B4
100
AcDbEntity
  8
0
100
AcDbLine
 62
253
  6
CONTINUOUS
 10
0.374726986
 20
13.9347820291
 11
0.5099330374
 21
13.9493488679
  0
LINE
  5
5B5
100
AcDbEntity
  8
0
100
AcDbLine
 62
253
  6
CONTINUOUS
 10
-0.4103316107
 20
13.053345488
 11
-0.2745874704
 21
13.0678705596
  0
LINE
  5
5B6
100
AcDbEntity
  8
0
100
AcDbLine
 62
253
  6
CONTINUOUS
 10
-0.3998923798
 20
13.854482661
 11
-0.2625983421
 21
13.8691298908
  0
LINE
  5
5B7
100
AcDbEntity
  8
0
100
AcDbLine
 62
253
  6
CONTINUOUS
 10
0.2902919134
 20
13.1259289009
 11
0.4955160148
 21
13.1477663959
  0
LINE
  5
5B8
100
AcDbEntity
  8
0
100
AcDbLine
 62
253
  6
CONTINUOUS
 10
-0.2745874704
 20
13.0678705596
 11
-0.0640846435
 21
13.089641245
  0
LINE
  5
5B9
100
AcDbEntity
  8
0
100
AcDbLine
 62
253
  6
CONTINUOUS
 10
-0.2625983421
 20
13.8691298908
 11
-0.0500788937
 21
13.8910721257
  0
LINE
  5
5BA
100
AcDbEntity
  8
0
100
AcDbLine
 62
253
  6
CONTINUOUS
 10
-0.0500788937
 20
13.8910721257
 11
0.374726986
 21
13.9347820291
  0
LINE
  5
5BB
100
AcDbEntity
  8
0
100
AcDbLine
 62
253
  6
CONTINUOUS
 10
-0.0640846435
 20
13.089641245
 11
0.2902919134
 21
13.1259289009
  0
LINE
  5
5BC
100
AcDbEntity
  8
0
100
AcDbLine
 62
7
  6
CONTINUOUS
 10
-16.7125
 20
14.3
 11
-15.9625
 21
14.3
  0
LINE
  5
5BD
100
AcDbEntity
  8
0
100
AcDbLine
 62
7
  6
CONTINUOUS
 10
16.7875
 20
14.3
 11
16.0375
 21
14.3
  0
LINE
  5
5BE
100
AcDbEntity
  8
0
100
AcDbLine
 62
7
  6
CONTINUOUS
 10
0.4664634843
 20
13.6938894468
 11
0.4218387604
 21
13.7000027712
  0
LINE
  5
5BF
100
AcDbEntity
  8
0
100
AcDbLine
 62
7
  6
CONTINUOUS
 10
0.4737994453
 20
14.4928700617
 11
0.4218274692
 21
14.4999980187
  0
LINE
  5
5C0
100
AcDbEntity
  8
0
100
AcDbLine
 62
7
  6
CONTINUOUS
 10
-0.4099740577
 20
13.3086857303
 11
-0.3468164459
 21
13.3000029892
  0
LINE
  5
5C1
100
AcDbEntity
  8
0
100
AcDbLine
 62
7
  6
CONTINUOUS
 10
-0.42262686
 20
14.110457751
 11
-0.346868857
 21
14.0999980764
  0
LINE
  5
5C2
100
AcDbEntity
  8
0
100
AcDbLine
 62
7
  6
CONTINUOUS
 10
0.5020993674
 20
12.8889139651
 11
0.4218293754
 21
12.9000010245
  0
LINE
  5
5C3
100
AcDbEntity
  8
0
100
AcDbLine
 62
7
  6
CONTINUOUS
 10
0.5453574318
 20
13.6827473383
 11
0.4664634843
 21
13.6938894468
  0
LINE
  5
5C4
100
AcDbEntity
  8
0
100
AcDbLine
 62
7
  6
CONTINUOUS
 10
0.5482943961
 20
14.4823242235
 11
0.4737994453
 21
14.4928700617
  0
LINE
  5
5C5
100
AcDbEntity
  8
0
100
AcDbLine
 62
7
  6
CONTINUOUS
 10
-0.4867154551
 20
13.3196225465
 11
-0.4099740577
 21
13.3086857303
  0
LINE
  5
5C6
100
AcDbEntity
  8
0
100
AcDbLine
 62
7
  6
CONTINUOUS
 10
0.5699865028
 20
12.8791673359
 11
0.5020993674
 21
12.8889139651
  0
LINE
  5
5C7
100
AcDbEntity
  8
0
100
AcDbLine
 62
7
  6
CONTINUOUS
 10
-0.4954714597
 20
14.1209046468
 11
-0.42262686
 21
14.110457751
  0
LINE
  5
5C8
100
AcDbEntity
  8
0
100
AcDbLine
 62
7
  6
CONTINUOUS
 10
0.6366773188
 20
12.8691698219
 11
0.5699865028
 21
12.8791673359
  0
LINE
  5
5C9
100
AcDbEntity
  8
0
100
AcDbLine
 62
253
  6
CONTINUOUS
 10
0.1859984344
 20
13.474621367
 11
-0.1067027239
 21
13.5246338268
  0
LINE
  5
5CA
100
AcDbEntity
  8
0
100
AcDbLine
 62
253
  6
CONTINUOUS
 10
0.2031965586
 20
14.2716366343
 11
-0.0887650277
 21
14.3215389388
  0
LINE
  5
5CB
100
AcDbEntity
  8
0
100
AcDbLine
 62
253
  6
CONTINUOUS
 10
0.2178888862
 20
12.6690717145
 11
-0.072896147
 21
12.718809568
  0
LINE
  5
5CC
100
AcDbEntity
  8
0
100
AcDbLine
 62
253
  6
CONTINUOUS
 10
-0.072896147
 20
12.718809568
 11
-0.1681255615
 21
12.7353618987
  0
LWPOLYLINE
  5
5CD
100
AcDbEntity
  8
0
100
AcDbPolyline
 62
253
  6
CONTINUOUS
 90
8
 70
0
 10
-0.0887650277
 20
14.3215389388
 10
-0.1841775127
 20
14.3382046162
 10
-0.2304386358
 20
14.3465145137
 10
-0.2755129315
 20
14.3548166604
 10
-0.3193249316
 20
14.3631334081
 10
-0.3617583322
 20
14.3714785013
 10
-0.4025546451
 20
14.3798381956
 10
-0.435045239
 20
14.3868192832
  0
LWPOLYLINE
  5
5CE
100
AcDbEntity
  8
0
100
AcDbPolyline
 62
253
  6
CONTINUOUS
 90
8
 70
0
 10
-0.1067027239
 20
13.5246338268
 10
-0.2011454647
 20
13.5412319111
 10
-0.2468800144
 20
13.5495186189
 10
-0.291378674
 20
13.5577982544
 10
-0.3344974704
 20
13.5660792466
 10
-0.3760519786
 20
13.5743629768
 10
-0.4158524134
 20
13.5826480637
 10
-0.4349964214
 20
13.5868350097
  0
LWPOLYLINE
  5
5CF
100
AcDbEntity
  8
0
100
AcDbPolyline
 62
253
  6
CONTINUOUS
 90
7
 70
0
 10
-0.1681255615
 20
12.7353618987
 10
-0.2597938187
 20
12.7518967613
 10
-0.3038153921
 20
12.7601574363
 10
-0.3465276556
 20
12.7684434922
 10
-0.3878145003
 20
12.7767730047
 10
-0.4273963235
 20
12.7851278981
 10
-0.4350230792
 20
12.7868231188
  0
LWPOLYLINE
  5
5D0
100
AcDbEntity
  8
0
100
AcDbPolyline
 62
253
  6
CONTINUOUS
 90
8
 70
0
 10
0.5099807096
 20
13.4131709657
 10
0.4949839514
 20
13.4164683917
 10
0.4552003859
 20
13.4247879248
 10
0.4136378911
 20
13.433108302
 10
0.3705197663
 20
13.4414196556
 10
0.3260903507
 20
13.4497098638
 10
0.2804831684
 20
13.4579910486
 10
0.1859984344
 20
13.474621367
  0
LWPOLYLINE
  5
5D1
100
AcDbEntity
  8
0
100
AcDbPolyline
 62
253
  6
CONTINUOUS
 90
8
 70
0
 10
0.5101076136
 20
14.2131838438
 10
0.5079622542
 20
14.2136645298
 10
0.4690341108
 20
14.2219417018
 10
0.4282816347
 20
14.2302169905
 10
0.3858626942
 20
14.2384943767
 10
0.341963228
 20
14.2467740246
 10
0.296771213
 20
14.2550557699
 10
0.2031965586
 20
14.2716366343
  0
LWPOLYLINE
  5
5D2
100
AcDbEntity
  8
0
100
AcDbPolyline
 62
7
  6
CONTINUOUS
 90
12
 70
0
 10
0.9484201954
 20
13.6111942343
 10
0.9283075331
 20
13.6159395787
 10
0.8986500875
 20
13.6225411664
 10
0.8677926499
 20
13.6289935514
 10
0.8358120727
 20
13.6353119312
 10
0.8027365033
 20
13.6415179558
 10
0.768573472
 20
13.6476329874
 10
0.7333759793
 20
13.6536676598
 10
0.6972414488
 20
13.6596260137
 10
0.6602790001
 20
13.6655100072
 10
0.6225748454
 20
13.6713243395
 10
0.5453574318
 20
13.6827473383
  0
LINE
  5
5D3
100
AcDbEntity
  8
0
100
AcDbLine
 62
7
  6
CONTINUOUS
 10
16.0375
 20
-7.3
 11
16.0375
 21
-8.55
  0
LINE
  5
5D4
100
AcDbEntity
  8
0
100
AcDbLine
 62
7
  6
CONTINUOUS
 10
16.0375
 20
-10.4
 11
16.0375
 21
-13.7
  0
LINE
  5
5D5
100
AcDbEntity
  8
0
100
AcDbLine
 62
7
  6
CONTINUOUS
 10
16.0375
 20
-15.55
 11
16.0375
 21
-18.55
  0
LINE
  5
5D6
100
AcDbEntity
  8
0
100
AcDbLine
 62
7
  6
CONTINUOUS
 10
16.0375
 20
14.3
 11
16.0375
 21
17.6
  0
LINE
  5
5D7
100
AcDbEntity
  8
0
100
AcDbLine
 62
7
  6
CONTINUOUS
 10
16.0375
 20
19.45
 11
16.0375
 21
23.45
  0
LINE
  5
5D8
100
AcDbEntity
  8
0
100
AcDbLine
 62
7
  6
CONTINUOUS
 10
4.8708330154
 20
-15.4329787374
 11
4.9333330154
 21
-15.3904255509
  0
LINE
  5
5D9
100
AcDbEntity
  8
0
100
AcDbLine
 62
7
  6
CONTINUOUS
 10
4.9333330154
 20
-15.4755319238
 11
4.8708330154
 21
-15.5180851102
  0
LINE
  5
5DA
100
AcDbEntity
  8
0
100
AcDbLine
 62
7
  6
CONTINUOUS
 10
4.3916669846
 20
-15.9861702129
 11
4.3291669846
 21
-16.0287234049
  0
LINE
  5
5DB
100
AcDbEntity
  8
0
100
AcDbLine
 62
7
  6
CONTINUOUS
 10
1.8291665077
 20
-15.4755319238
 11
1.7875
 21
-15.496808517
  0
LINE
  5
5DC
100
AcDbEntity
  8
0
100
AcDbLine
 62
7
  6
CONTINUOUS
 10
1.3083334923
 20
-15.9861702129
 11
1.225
 21
-16.0287234049
  0
LINE
  5
5DD
100
AcDbEntity
  8
0
100
AcDbLine
 62
7
  6
CONTINUOUS
 10
2.6625
 20
-15.496808517
 11
2.5791669846
 21
-15.5393617034
  0
LINE
  5
5DE
100
AcDbEntity
  8
0
100
AcDbLine
 62
7
  6
CONTINUOUS
 10
2.1625
 20
-15.9861702129
 11
2.0791669846
 21
-16.0287234049
  0
LINE
  5
5DF
100
AcDbEntity
  8
0
100
AcDbLine
 62
7
  6
CONTINUOUS
 10
3.475
 20
-15.4542553306
 11
3.4333330154
 21
-15.4755319238
  0
LINE
  5
5E0
100
AcDbEntity
  8
0
100
AcDbLine
 62
7
  6
CONTINUOUS
 10
3.9541669846
 20
-15.4117021441
 11
3.9958330154
 21
-15.3904255509
  0
LINE
  5
5E1
100
AcDbEntity
  8
0
100
AcDbLine
 62
7
  6
CONTINUOUS
 10
4.0583330155
 20
-15.4755319238
 11
4.0166669846
 21
-15.496808517
  0
LINE
  5
5E2
100
AcDbEntity
  8
0
100
AcDbLine
 62
7
  6
CONTINUOUS
 10
3.975
 20
-15.6670212626
 11
4.0583330154
 21
-15.6244680762
  0
LINE
  5
5E3
100
AcDbEntity
  8
0
100
AcDbLine
 62
7
  6
CONTINUOUS
 10
4.1
 20
-15.7095744789
 11
4.0583330154
 21
-15.7308510721
  0
LINE
  5
5E4
100
AcDbEntity
  8
0
100
AcDbLine
 62
7
  6
CONTINUOUS
 10
4.225
 20
-15.9648936197
 11
4.3291669846
 21
-15.9223404258
  0
LINE
  5
5E5
100
AcDbEntity
  8
0
100
AcDbLine
 62
7
  6
CONTINUOUS
 10
1.7458334923
 20
-15.4117021442
 11
1.8083334923
 21
-15.3904255509
  0
LINE
  5
5E6
100
AcDbEntity
  8
0
100
AcDbLine
 62
7
  6
CONTINUOUS
 10
2.6208330154
 20
-15.4117021442
 11
2.6833330154
 21
-15.3904255509
  0
LINE
  5
5E7
100
AcDbEntity
  8
0
100
AcDbLine
 62
7
  6
CONTINUOUS
 10
3.1
 20
-15.3904255509
 11
3.1625
 21
-15.3691489577
  0
LINE
  5
5E8
100
AcDbEntity
  8
0
100
AcDbLine
 62
7
  6
CONTINUOUS
 10
3.1625
 20
-15.4542553306
 11
3.1
 21
-15.4755319238
  0
LINE
  5
5E9
100
AcDbEntity
  8
0
100
AcDbLine
 62
7
  6
CONTINUOUS
 10
3.4333330154
 20
-15.3904255509
 11
3.4958330154
 21
-15.3691489577
  0
LINE
  5
5EA
100
AcDbEntity
  8
0
100
AcDbLine
 62
7
  6
CONTINUOUS
 10
-0.6258533706
 20
15.1560024265
 11
-0.5894389854
 21
15.1623980486
  0
LINE
  5
5EB
100
AcDbEntity
  8
0
100
AcDbLine
 62
7
  6
CONTINUOUS
 10
0.6840440262
 20
15.0410037497
 11
0.6457496822
 21
15.0344325357
  0
LINE
  5
5EC
100
AcDbEntity
  8
0
100
AcDbLine
 62
7
  6
CONTINUOUS
 10
0.6826062291
 20
15.8407531821
 11
0.6424066046
 21
15.833877411
  0
LINE
  5
5ED
100
AcDbEntity
  8
0
100
AcDbLine
 62
7
  6
CONTINUOUS
 10
-0.5894389854
 20
15.1623980486
 11
-0.5504684726
 21
15.1689216606
  0
LINE
  5
5EE
100
AcDbEntity
  8
0
100
AcDbLine
 62
7
  6
CONTINUOUS
 10
0.6622542697
 20
16.6372286351
 11
0.6160039533
 21
16.6295357203
  0
LWPOLYLINE
  5
5EF
100
AcDbEntity
  8
0
100
AcDbPolyline
 62
7
  6
CONTINUOUS
 90
36
 70
0
 10
-0.6200367956
 20
16.4599817562
 10
-0.6516939114
 20
16.454785533
 10
-0.6820824628
 20
16.4496302119
 10
-0.7111789888
 20
16.4445167141
 10
-0.7390108643
 20
16.4394377893
 10
-0.7655176487
 20
16.4344044722
 10
-0.7906796329
 20
16.4294226311
 10
-0.8145849385
 20
16.4244771586
 10
-0.8373545449
 20
16.4195435964
 10
-0.8590011849
 20
16.4146187063
 10
-0.8795822831
 20
16.4096886985
 10
-0.8992863188
 20
16.404703907
 10
-0.9181219789
 20
16.3996538874
 10
-0.9361428626
 20
16.3945145045
 10
-0.9536035188
 20
16.3891950804
 10
-0.9705014295
 20
16.3836708426
 10
-0.9868931557
 20
16.3778934632
 10
-1.00313909
 20
16.3716864116
 10
-1.0193172581
 20
16.364942751
 10
-1.0353821866
 20
16.3575898658
 10
-1.0515433289
 20
16.3494131412
 10
-1.0679550725
 20
16.34016318
 10
-1.0844244643
 20
16.3297432042
 10
-1.1006707918
 20
16.3181298864
 10
-1.1167128593
 20
16.3050869359
 10
-1.1323349173
 20
16.2905211911
 10
-1.1469600326
 20
16.2747526656
 10
-1.1603669675
 20
16.2578826095
 10
-1.1725416377
 20
16.2397682936
 10
-1.1833125833
 20
16.2205391277
 10
-1.1925184188
 20
16.2004187687
 10
-1.2001337256
 20
16.1793614412
 10
-1.2061164323
 20
16.1571339149
 10
-1.2102632422
 20
16.1337365333
 10
-1.2123049325
 20
16.1094272323
 10
-1.2124775601
 20
16.1000057063
  0
LINE
  5
5F0
100
AcDbEntity
  8
0
100
AcDbLine
 62
7
  6
CONTINUOUS
 10
-0.5845249515
 20
15.963238188
 11
-0.5402569905
 21
15.9705842308
  0
LWPOLYLINE
  5
5F1
100
AcDbEntity
  8
0
100
AcDbPolyline
 62
7
  6
CONTINUOUS
 90
36
 70
0
 10
-0.6078312105
 20
14.8619457393
 10
-0.6406139212
 20
14.8566241312
 10
-0.6722080709
 20
14.8513228381
 10
-0.7025994069
 20
14.8460398001
 10
-0.7317886654
 20
14.8407703946
 10
-0.7596189441
 20
14.8355400776
 10
-0.7860790471
 20
14.8303503709
 10
-0.81122982
 20
14.8251889129
 10
-0.8350681336
 20
14.8200560801
 10
-0.8575944695
 20
14.8149527657
 10
-0.8789014006
 20
14.8098594818
 10
-0.8991495502
 20
14.8047380936
 10
-0.9183569927
 20
14.7995825334
 10
-0.936613088
 20
14.7943662567
 10
-0.9541861508
 20
14.7890014981
 10
-0.9710786705
 20
14.7834681169
 10
-0.9873713936
 20
14.7777163398
 10
-1.0034560044
 20
14.7715646891
 10
-1.0194104747
 20
14.7649132578
 10
-1.0352078498
 20
14.757690053
 10
-1.0510978792
 20
14.74966924
 10
-1.0671858767
 20
14.7406376441
 10
-1.0833350524
 20
14.7304826394
 10
-1.0994266711
 20
14.7190730211
 10
-1.1154645161
 20
14.7061547858
 10
-1.1312035898
 20
14.6916230581
 10
-1.1461547571
 20
14.6756460229
 10
-1.1601405146
 20
14.6581383046
 10
-1.1729460532
 20
14.6390419961
 10
-1.1841636825
 20
14.6187687954
 10
-1.1936890937
 20
14.5974146532
 10
-1.2014077083
 20
14.5750938521
 10
-1.2071000019
 20
14.5524036473
 10
-1.2107391315
 20
14.5296768501
 10
-1.2123649567
 20
14.5069282886
 10
-1.2124596969
 20
14.4999392795
  0
LINE
  5
5F2
100
AcDbEntity
  8
0
100
AcDbLine
 62
7
  6
CONTINUOUS
 10
0.6457496822
 20
15.0344325357
 11
0.6047805068
 21
15.0277257104
  0
LINE
  5
5F3
100
AcDbEntity
  8
0
100
AcDbLine
 62
7
  6
CONTINUOUS
 10
0.6424066046
 20
15.833877411
 11
0.5993405319
 21
15.8268582793
  0
LWPOLYLINE
  5
5F4
100
AcDbEntity
  8
0
100
AcDbPolyline
 62
7
  6
CONTINUOUS
 90
37
 70
0
 10
0.6744473321
 20
16.136723225
 10
0.7063727535
 20
16.1418616956
 10
0.7373421723
 20
16.1470037092
 10
0.7671750874
 20
16.1521252552
 10
0.7958617053
 20
16.1572293347
 10
0.8233989971
 20
16.1623201274
 10
0.8496612333
 20
16.1673777234
 10
0.874643467
 20
16.1724018561
 10
0.898406533
 20
16.1774037504
 10
0.9209614813
 20
16.182384512
 10
0.9423062681
 20
16.1873413567
 10
0.9625383937
 20
16.1922947354
 10
0.981833069
 20
16.1972891798
 10
1.0002013842
 20
16.2023320803
 10
1.0177200353
 20
16.2074502482
 10
1.0346619808
 20
16.2127384108
 10
1.0510406947
 20
16.2182257197
 10
1.0669081714
 20
16.2239586501
 10
1.0826050535
 20
16.2301053813
 10
1.0981911933
 20
16.2367582422
 10
1.1136543941
 20
16.24399363
 10
1.1292403919
 20
16.2520372787
 10
1.1450622849
 20
16.2611081101
 10
1.1609581873
 20
16.2713046692
 10
1.1767608329
 20
16.2827212357
 10
1.1924500683
 20
16.295579031
 10
1.2078164787
 20
16.3099893824
 10
1.2224161462
 20
16.3258083445
 10
1.2360845892
 20
16.3431301261
 10
1.2486033903
 20
16.3619967916
 10
1.2595763074
 20
16.3819968785
 10
1.2689020448
 20
16.4030323828
 10
1.276474788
 20
16.424998262
 10
1.282085317
 20
16.4473236304
 10
1.2857069808
 20
16.4696908437
 10
1.2873771147
 20
16.4920858158
 10
1.2874999525
 20
16.5000349328
  0
LWPOLYLINE
  5
5F5
100
AcDbEntity
  8
0
100
AcDbPolyline
 62
7
  6
CONTINUOUS
 90
36
 70
0
 10
0.6721741183
 20
15.3363633777
 10
0.7051710775
 20
15.3416652037
 10
0.7371183541
 20
15.3469651828
 10
0.7679867467
 20
15.3522660688
 10
0.7977555494
 20
15.3575721866
 10
0.8262636461
 20
15.3628614937
 10
0.8535074999
 20
15.3681379874
 10
0.8795108109
 20
15.3734091477
 10
0.9042042205
 20
15.3786622923
 10
0.9275915231
 20
15.3838977688
 10
0.9497559493
 20
15.3891339803
 10
0.9707874962
 20
15.3943938929
 10
0.9907007539
 20
15.3996836774
 10
1.0095922503
 20
15.4050326035
 10
1.0276950171
 20
15.4105179717
 10
1.0450175447
 20
15.4161607237
 10
1.0616562915
 20
15.4220135248
 10
1.0779886537
 20
15.4282473692
 10
1.0940879315
 20
15.4349524138
 10
1.1099578553
 20
15.4422042819
 10
1.1258785077
 20
15.4502345353
 10
1.1419597383
 20
15.4592507833
 10
1.158070626
 20
15.4693615334
 10
1.1741191839
 20
15.4807097398
 10
1.1901206127
 20
15.4935550215
 10
1.2058259991
 20
15.5079967375
 10
1.2207487263
 20
15.5238659047
 10
1.2347111552
 20
15.5412411084
 10
1.247508267
 20
15.5601866069
 10
1.2587434866
 20
15.5803127906
 10
1.2683120001
 20
15.6015291741
 10
1.2760969679
 20
15.6237235278
 10
1.2818782479
 20
15.6463175367
 10
1.2856225424
 20
15.6689863383
 10
1.287362494
 20
15.6917113674
 10
1.2874963714
 20
15.7000112744
  0
LWPOLYLINE
  5
5F6
100
AcDbEntity
  8
0
100
AcDbPolyline
 62
7
  6
CONTINUOUS
 90
36
 70
0
 10
-0.5978864087
 20
15.6635239183
 10
-0.6316812437
 20
15.6580887371
 10
-0.6641338119
 20
15.6526953547
 10
-0.6952225371
 20
15.6473433653
 10
-0.7249617329
 20
15.6420265503
 10
-0.75319304
 20
15.6367715742
 10
-0.779880321
 20
15.6315883635
 10
-0.8051454533
 20
15.6264576597
 10
-0.8291041895
 20
15.6213586974
 10
-0.8517667157
 20
15.6162916552
 10
-0.8732173963
 20
15.6112400026
 10
-0.8936811134
 20
15.6061488441
 10
-0.9131714491
 20
15.601008937
 10
-0.9317532824
 20
15.5957960228
 10
-0.9497184033
 20
15.5904116372
 10
-0.9670890788
 20
15.5848219301
 10
-0.9838977514
 20
15.5789864249
 10
-1.0004644157
 20
15.572747671
 10
-1.0168656461
 20
15.5660066062
 10
-1.0330799965
 20
15.5586885232
 10
-1.0493191714
 20
15.5505884633
 10
-1.0657021482
 20
15.5414921853
 10
-1.0820994597
 20
15.5312857381
 10
-1.0983637374
 20
15.5198625125
 10
-1.1145192488
 20
15.5069671995
 10
-1.1303301068
 20
15.4925012024
 10
-1.1452766727
 20
15.4766850555
 10
-1.1591581034
 20
15.4595154556
 10
-1.1718497334
 20
15.4408875767
 10
-1.1830524797
 20
15.4210565555
 10
-1.1926291682
 20
15.400161865
 10
-1.2004891986
 20
15.3782505904
 10
-1.2064748605
 20
15.3555485935
 10
-1.2104645999
 20
15.3322433818
 10
-1.2123487265
 20
15.3084635533
 10
-1.2124878707
 20
15.3000011157
  0
LINE
  5
5F7
100
AcDbEntity
  8
0
100
AcDbLine
 62
7
  6
CONTINUOUS
 10
-0.5504684726
 20
15.1689216606
 11
-0.5089915167
 21
15.1755694821
  0
LINE
  5
5F8
100
AcDbEntity
  8
0
100
AcDbLine
 62
7
  6
CONTINUOUS
 10
-0.5402569905
 20
15.9705842308
 11
-0.4928724655
 21
15.97808233
  0
LINE
  5
5F9
100
AcDbEntity
  8
0
100
AcDbLine
 62
7
  6
CONTINUOUS
 10
0.6160039533
 20
16.6295357203
 11
0.5663817398
 21
16.6216849158
  0
LINE
  5
5FA
100
AcDbEntity
  8
0
100
AcDbLine
 62
7
  6
CONTINUOUS
 10
0.6047805068
 20
15.0277257104
 11
0.5612197156
 21
15.0208903206
  0
LINE
  5
5FB
100
AcDbEntity
  8
0
100
AcDbLine
 62
7
  6
CONTINUOUS
 10
-0.5534874288
 20
16.4704238896
 11
-0.6200367956
 21
16.4599817562
  0
LINE
  5
5FC
100
AcDbEntity
  8
0
100
AcDbLine
 62
7
  6
CONTINUOUS
 10
0.5993405319
 20
15.8268582793
 11
0.5535225076
 21
15.8197081708
  0
LINE
  5
5FD
100
AcDbEntity
  8
0
100
AcDbLine
 62
7
  6
CONTINUOUS
 10
-0.5394445563
 20
14.8725579879
 11
-0.6078312105
 21
14.8619457393
  0
LINE
  5
5FE
100
AcDbEntity
  8
0
100
AcDbLine
 62
7
  6
CONTINUOUS
 10
-0.5089915167
 20
15.1755694821
 11
-0.4650345828
 21
15.1823428288
  0
LINE
  5
5FF
100
AcDbEntity
  8
0
100
AcDbLine
 62
7
  6
CONTINUOUS
 10
0.6078386172
 20
16.1264465904
 11
0.6744473321
 21
16.136723225
  0
LINE
  5
600
100
AcDbEntity
  8
0
100
AcDbLine
 62
7
  6
CONTINUOUS
 10
0.6037404716
 20
15.3258322168
 11
0.6721741183
 21
15.3363633777
  0
LINE
  5
601
100
AcDbEntity
  8
0
100
AcDbLine
 62
7
  6
CONTINUOUS
 10
-0.5271132358
 20
15.6744108088
 11
-0.5978864087
 21
15.6635239183
  0
LINE
  5
602
100
AcDbEntity
  8
0
100
AcDbLine
 62
7
  6
CONTINUOUS
 10
-0.4928724655
 20
15.97808233
 11
-0.4425528615
 21
15.9857144405
  0
LINE
  5
603
100
AcDbEntity
  8
0
100
AcDbLine
 62
7
  6
CONTINUOUS
 10
0.5663817398
 20
16.6216849158
 11
0.5135916283
 21
16.6136966633
  0
LINE
  5
604
100
AcDbEntity
  8
0
100
AcDbLine
 62
7
  6
CONTINUOUS
 10
0.5612197156
 20
15.0208903206
 11
0.5151532605
 21
15.0139308018
  0
LINE
  5
605
100
AcDbEntity
  8
0
100
AcDbLine
 62
7
  6
CONTINUOUS
 10
0.5535225076
 20
15.8197081708
 11
0.5050520437
 21
15.8124339499
  0
LINE
  5
606
100
AcDbEntity
  8
0
100
AcDbLine
 62
7
  6
CONTINUOUS
 10
-0.4650345828
 20
15.1823428288
 11
-0.4186344219
 21
15.1892425328
  0
LINE
  5
607
100
AcDbEntity
  8
0
100
AcDbLine
 62
7
  6
CONTINUOUS
 10
-0.4830081268
 20
16.4809155995
 11
-0.5534874288
 21
16.4704238896
  0
LINE
  5
608
100
AcDbEntity
  8
0
100
AcDbLine
 62
7
  6
CONTINUOUS
 10
-0.467854366
 20
14.8831074229
 11
-0.5394445563
 21
14.8725579879
  0
LINE
  5
609
100
AcDbEntity
  8
0
100
AcDbLine
 62
7
  6
CONTINUOUS
 10
0.5383945973
 20
16.116248488
 11
0.6078386172
 21
16.1264465904
  0
LINE
  5
60A
100
AcDbEntity
  8
0
100
AcDbLine
 62
7
  6
CONTINUOUS
 10
0.5151532605
 20
15.0139308018
 11
0.466659509
 21
15.0068483968
  0
LINE
  5
60B
100
AcDbEntity
  8
0
100
AcDbLine
 62
7
  6
CONTINUOUS
 10
-0.4425528615
 20
15.9857144405
 11
-0.3894742028
 21
15.9934677921
  0
LINE
  5
60C
100
AcDbEntity
  8
0
100
AcDbLine
 62
7
  6
CONTINUOUS
 10
0.5325966223
 20
15.3154167131
 11
0.6037404716
 21
15.3258322168
  0
LINE
  5
60D
100
AcDbEntity
  8
0
100
AcDbLine
 62
7
  6
CONTINUOUS
 10
-0.4526489174
 20
15.6852906861
 11
-0.5271132358
 21
15.6744108088
  0
LINE
  5
60E
100
AcDbEntity
  8
0
100
AcDbLine
 62
7
  6
CONTINUOUS
 10
0.5135916283
 20
16.6136966633
 11
0.4578575225
 21
16.6055853
  0
LINE
  5
60F
100
AcDbEntity
  8
0
100
AcDbLine
 62
7
  6
CONTINUOUS
 10
0.5050520437
 20
15.8124339499
 11
0.4540481946
 21
15.8050406372
  0
LINE
  5
610
100
AcDbEntity
  8
0
100
AcDbLine
 62
7
  6
CONTINUOUS
 10
-0.4186344219
 20
15.1892425328
 11
-0.3445030085
 21
15.1998418026
  0
LINE
  5
611
100
AcDbEntity
  8
0
100
AcDbLine
 62
7
  6
CONTINUOUS
 10
-0.4095123499
 20
16.4913803134
 11
-0.4830081268
 21
16.4809155995
  0
LINE
  5
612
100
AcDbEntity
  8
0
100
AcDbLine
 62
7
  6
CONTINUOUS
 10
-0.3942635098
 20
14.8934995948
 11
-0.467854366
 21
14.8831074229
  0
LINE
  5
613
100
AcDbEntity
  8
0
100
AcDbLine
 62
7
  6
CONTINUOUS
 10
0.4669369273
 20
16.1061774346
 11
0.5383945973
 21
16.116248488
  0
LINE
  5
614
100
AcDbEntity
  8
0
100
AcDbLine
 62
7
  6
CONTINUOUS
 10
0.459916009
 20
15.3052064436
 11
0.5325966223
 21
15.3154167131
  0
LINE
  5
615
100
AcDbEntity
  8
0
100
AcDbLine
 62
7
  6
CONTINUOUS
 10
0.466659509
 20
15.0068483968
 11
0.38955939
 21
14.9959955456
  0
LINE
  5
616
100
AcDbEntity
  8
0
100
AcDbLine
 62
7
  6
CONTINUOUS
 10
-0.3758016153
 20
15.6960493581
 11
-0.4526489174
 21
15.6852906861
  0
LINE
  5
617
100
AcDbEntity
  8
0
100
AcDbLine
 62
7
  6
CONTINUOUS
 10
-0.3894742028
 20
15.9934677921
 11
-0.305108733
 21
16.0053052306
  0
LINE
  5
618
100
AcDbEntity
  8
0
100
AcDbLine
 62
7
  6
CONTINUOUS
 10
0.4540481946
 20
15.8050406372
 11
0.3731006311
 21
15.7937339684
  0
LINE
  5
619
100
AcDbEntity
  8
0
100
AcDbLine
 62
7
  6
CONTINUOUS
 10
0.4578575225
 20
16.6055853
 11
0.3693448109
 21
16.5932199434
  0
LINE
  5
61A
100
AcDbEntity
  8
0
100
AcDbLine
 62
7
  6
CONTINUOUS
 10
-0.3445030085
 20
15.1998418026
 11
-0.2650793528
 21
15.2107586667
  0
LINE
  5
61B
100
AcDbEntity
  8
0
100
AcDbLine
 62
7
  6
CONTINUOUS
 10
-0.2959336125
 20
16.5068559492
 11
-0.4095123499
 21
16.4913803134
  0
LINE
  5
61C
100
AcDbEntity
  8
0
100
AcDbLine
 62
7
  6
CONTINUOUS
 10
-0.2829960109
 20
14.9085792449
 11
-0.3942635098
 21
14.8934995948
  0
LINE
  5
61D
100
AcDbEntity
  8
0
100
AcDbLine
 62
7
  6
CONTINUOUS
 10
0.3585312156
 20
16.0914935766
 11
0.4669369273
 21
16.1061774346
  0
LINE
  5
61E
100
AcDbEntity
  8
0
100
AcDbLine
 62
7
  6
CONTINUOUS
 10
0.3504333791
 20
15.290419122
 11
0.459916009
 21
15.3052064436
  0
LINE
  5
61F
100
AcDbEntity
  8
0
100
AcDbLine
 62
7
  6
CONTINUOUS
 10
0.38955939
 20
14.9959955456
 11
0.2790774906
 21
14.9810843943
  0
LINE
  5
620
100
AcDbEntity
  8
0
100
AcDbLine
 62
7
  6
CONTINUOUS
 10
-0.2593165121
 20
15.7117118063
 11
-0.3758016153
 21
15.6960493581
  0
LINE
  5
621
100
AcDbEntity
  8
0
100
AcDbLine
 62
7
  6
CONTINUOUS
 10
-0.305108733
 20
16.0053052306
 11
-0.1850006173
 21
16.0214327778
  0
LINE
  5
622
100
AcDbEntity
  8
0
100
AcDbLine
 62
7
  6
CONTINUOUS
 10
0.3731006311
 20
15.7937339684
 11
0.2572159294
 21
15.7782001607
  0
LINE
  5
623
100
AcDbEntity
  8
0
100
AcDbLine
 62
7
  6
CONTINUOUS
 10
0.3693448109
 20
16.5932199434
 11
0.2433084033
 21
16.5763736695
  0
LINE
  5
624
100
AcDbEntity
  8
0
100
AcDbLine
 62
7
  6
CONTINUOUS
 10
-0.2650793528
 20
15.2107586667
 11
-0.1512668831
 21
15.2258545653
  0
LINE
  5
625
100
AcDbEntity
  8
0
100
AcDbLine
 62
7
  6
CONTINUOUS
 10
0.2790774906
 20
14.9810843943
 11
0.1289992508
 21
14.96157281
  0
LINE
  5
626
100
AcDbEntity
  8
0
100
AcDbLine
 62
7
  6
CONTINUOUS
 10
-0.1068652527
 20
16.5314859373
 11
-0.2959336125
 21
16.5068559492
  0
LINE
  5
627
100
AcDbEntity
  8
0
100
AcDbLine
 62
7
  6
CONTINUOUS
 10
-0.1850006173
 20
16.0214327778
 11
-0.0246915775
 21
16.0421805276
  0
LINE
  5
628
100
AcDbEntity
  8
0
100
AcDbLine
 62
7
  6
CONTINUOUS
 10
0.2572159294
 20
15.7782001607
 11
0.0993837317
 21
15.7577803434
  0
LINE
  5
629
100
AcDbEntity
  8
0
100
AcDbLine
 62
7
  6
CONTINUOUS
 10
-0.0684551323
 20
14.9363946617
 11
-0.2829960109
 21
14.9085792449
  0
LINE
  5
62A
100
AcDbEntity
  8
0
100
AcDbLine
 62
7
  6
CONTINUOUS
 10
0.1452656906
 20
16.0638354897
 11
0.3585312156
 21
16.0914935766
  0
LWPOLYLINE
  5
62B
100
AcDbEntity
  8
0
100
AcDbPolyline
 62
7
  6
CONTINUOUS
 90
3
 70
0
 10
0.2433084033
 20
16.5763736695
 10
0.0386234977
 20
16.5500315399
 10
-0.1068652527
 20
16.5314859373
  0
LINE
  5
62C
100
AcDbEntity
  8
0
100
AcDbLine
 62
7
  6
CONTINUOUS
 10
0.1289992508
 20
14.96157281
 11
-0.0684551323
 21
14.9363946617
  0
LWPOLYLINE
  5
62D
100
AcDbEntity
  8
0
100
AcDbPolyline
 62
7
  6
CONTINUOUS
 90
3
 70
0
 10
-0.1512668831
 20
15.2258545653
 10
0.1030747412
 20
15.258458034
 10
0.3504333791
 20
15.290419122
  0
LWPOLYLINE
  5
62E
100
AcDbEntity
  8
0
100
AcDbPolyline
 62
7
  6
CONTINUOUS
 90
3
 70
0
 10
0.0993837317
 20
15.7577803434
 10
-0.0021993681
 20
15.7448356624
 10
-0.2593165121
 20
15.7117118063
  0
LINE
  5
62F
100
AcDbEntity
  8
0
100
AcDbLine
 62
7
  6
CONTINUOUS
 10
-0.0246915775
 20
16.0421805276
 11
0.1452656906
 21
16.0638354897
  0
LWPOLYLINE
  5
630
100
AcDbEntity
  8
0
100
AcDbPolyline
 62
253
  6
CONTINUOUS
 90
18
 70
0
 10
0.7357750061
 20
16.3754685462
 10
0.7936201966
 20
16.3827169993
 10
0.8489543004
 20
16.3899563235
 10
0.9016641759
 20
16.3971936915
 10
0.9517045329
 20
16.4044479087
 10
0.9989445826
 20
16.4117291667
 10
1.0431189473
 20
16.4190272739
 10
1.0840079558
 20
16.4263304614
 10
1.1214760498
 20
16.4336361545
 10
1.1554150097
 20
16.4409469278
 10
1.1856854128
 20
16.4482587365
 10
1.2121798268
 20
16.4555746733
 10
1.2347744109
 20
16.4628916455
 10
1.2533777047
 20
16.4701963297
 10
1.2679554298
 20
16.477480557
 10
1.2785109565
 20
16.4847524963
 10
1.2850319185
 20
16.4920233314
 10
1.287499948
 20
16.4999634442
  0
LWPOLYLINE
  5
631
100
AcDbEntity
  8
0
100
AcDbPolyline
 62
253
  6
CONTINUOUS
 90
19
 70
0
 10
0.7276259476
 20
15.5744709525
 10
0.7860922444
 20
15.5817571588
 10
0.8421651077
 20
15.5890497473
 10
0.8956835063
 20
15.5963525099
 10
0.9464964897
 20
15.6036717738
 10
0.9943609195
 20
15.611001212
 10
1.0390055163
 20
15.6183256354
 10
1.0802899186
 20
15.6256416858
 10
1.1181204282
 20
15.6329527215
 10
1.1523599153
 20
15.6402536281
 10
1.1829079309
 20
15.6475458444
 10
1.2096522887
 20
15.6548279316
 10
1.232482933
 20
15.6620904582
 10
1.251350284
 20
15.6693209805
 10
1.266283346
 20
15.6765319422
 10
1.2773043129
 20
15.6837512436
 10
1.2843618574
 20
15.6909889847
 10
1.2873790252
 20
15.6982350655
 10
1.2874963705
 20
15.6999377166
  0
LWPOLYLINE
  5
632
100
AcDbEntity
  8
0
100
AcDbPolyline
 62
253
  6
CONTINUOUS
 90
19
 70
0
 10
0.714766897
 20
14.7729066281
 10
0.7738040181
 20
14.7801985455
 10
0.8303974144
 20
14.7874876714
 10
0.8843068764
 20
14.7947672215
 10
0.9354287273
 20
14.80204398
 10
0.9837289439
 20
14.80933623
 10
1.0291089983
 20
14.8166567229
 10
1.0713041531
 20
14.8239927073
 10
1.1100341045
 20
14.8313242118
 10
1.1451339374
 20
14.8386441958
 10
1.1765543926
 20
14.8459596998
 10
1.2042180442
 20
14.8532718747
 10
1.2280604039
 20
14.8605868999
 10
1.2479735296
 20
14.8678985958
 10
1.2638418933
 20
14.8751895743
 10
1.2756174507
 20
14.8824450675
 10
1.2833563231
 20
14.8896798433
 10
1.28709028
 20
14.8969208175
 10
1.2874596943
 20
14.8999851886
  0
LINE
  5
633
100
AcDbEntity
  8
0
100
AcDbLine
 62
253
  6
CONTINUOUS
 10
-0.6857412459
 20
15.4214377233
 11
-0.5653030783
 21
15.4359289032
  0
LINE
  5
634
100
AcDbEntity
  8
0
100
AcDbLine
 62
253
  6
CONTINUOUS
 10
-0.6742870964
 20
16.2228624519
 11
-0.5523222587
 21
16.2374331168
  0
LINE
  5
635
100
AcDbEntity
  8
0
100
AcDbLine
 62
253
  6
CONTINUOUS
 10
0.6134384833
 20
16.3609684827
 11
0.7357750061
 21
16.3754685462
  0
LINE
  5
636
100
AcDbEntity
  8
0
100
AcDbLine
 62
253
  6
CONTINUOUS
 10
0.6043114306
 20
15.5599228801
 11
0.7276259476
 21
15.5744709525
  0
LINE
  5
637
100
AcDbEntity
  8
0
100
AcDbLine
 62
253
  6
CONTINUOUS
 10
-0.6414777629
 20
14.6268859594
 11
-0.5169981564
 21
14.6414783965
  0
LINE
  5
638
100
AcDbEntity
  8
0
100
AcDbLine
 62
253
  6
CONTINUOUS
 10
0.5902328378
 20
14.7583210247
 11
0.714766897
 21
14.7729066281
  0
LINE
  5
639
100
AcDbEntity
  8
0
100
AcDbLine
 62
253
  6
CONTINUOUS
 10
-0.5653030783
 20
15.4359289032
 11
-0.4364871531
 21
15.4504801206
  0
LINE
  5
63A
100
AcDbEntity
  8
0
100
AcDbLine
 62
253
  6
CONTINUOUS
 10
-0.5523222587
 20
16.2374331168
 11
-0.4222149273
 21
16.2520475861
  0
LINE
  5
63B
100
AcDbEntity
  8
0
100
AcDbLine
 62
253
  6
CONTINUOUS
 10
0.4836659886
 20
16.3464728396
 11
0.6134384833
 21
16.3609684827
  0
LINE
  5
63C
100
AcDbEntity
  8
0
100
AcDbLine
 62
253
  6
CONTINUOUS
 10
0.4734399596
 20
15.5453594544
 11
0.6043114306
 21
15.5599228801
  0
LINE
  5
63D
100
AcDbEntity
  8
0
100
AcDbLine
 62
253
  6
CONTINUOUS
 10
0.4584624089
 20
14.7437338153
 11
0.5902328378
 21
14.7583210247
  0
LINE
  5
63E
100
AcDbEntity
  8
0
100
AcDbLine
 62
253
  6
CONTINUOUS
 10
-0.5169981564
 20
14.6414783965
 11
-0.3850036567
 21
14.6560994015
  0
LINE
  5
63F
100
AcDbEntity
  8
0
100
AcDbLine
 62
253
  6
CONTINUOUS
 10
-0.4364871531
 20
15.4504801206
 11
-0.3008015057
 21
15.4651042857
  0
LINE
  5
640
100
AcDbEntity
  8
0
100
AcDbLine
 62
253
  6
CONTINUOUS
 10
-0.4222149273
 20
16.2520475861
 11
-0.2861716216
 21
16.2666496731
  0
LINE
  5
641
100
AcDbEntity
  8
0
100
AcDbLine
 62
253
  6
CONTINUOUS
 10
-0.3850036567
 20
14.6560994015
 11
-0.2474113258
 21
14.6707214236
  0
LINE
  5
642
100
AcDbEntity
  8
0
100
AcDbLine
 62
253
  6
CONTINUOUS
 10
0.2788730514
 20
16.3247413522
 11
0.4836659886
 21
16.3464728396
  0
LINE
  5
643
100
AcDbEntity
  8
0
100
AcDbLine
 62
253
  6
CONTINUOUS
 10
0.2668124481
 20
15.5234906232
 11
0.4734399596
 21
15.5453594544
  0
LINE
  5
644
100
AcDbEntity
  8
0
100
AcDbLine
 62
253
  6
CONTINUOUS
 10
0.2510023316
 20
14.7218551022
 11
0.4584624089
 21
14.7437338153
  0
LINE
  5
645
100
AcDbEntity
  8
0
100
AcDbLine
 62
253
  6
CONTINUOUS
 10
-0.3008015057
 20
15.4651042857
 11
-0.0896293821
 21
15.4870285649
  0
LINE
  5
646
100
AcDbEntity
  8
0
100
AcDbLine
 62
253
  6
CONTINUOUS
 10
-0.2861716216
 20
16.2666496731
 11
-0.0753679741
 21
16.2884879541
  0
LINE
  5
647
100
AcDbEntity
  8
0
100
AcDbLine
 62
253
  6
CONTINUOUS
 10
-0.2474113258
 20
14.6707214236
 11
0.2510023316
 21
14.7218551022
  0
LINE
  5
648
100
AcDbEntity
  8
0
100
AcDbLine
 62
253
  6
CONTINUOUS
 10
-0.0896293821
 20
15.4870285649
 11
0.2668124481
 21
15.5234906232
  0
LINE
  5
649
100
AcDbEntity
  8
0
100
AcDbLine
 62
253
  6
CONTINUOUS
 10
-0.0753679741
 20
16.2884879541
 11
0.2788730514
 21
16.3247413522
  0
LINE
  5
64A
100
AcDbEntity
  8
0
100
AcDbLine
 62
7
  6
CONTINUOUS
 10
-0.3929529503
 20
15.7063168247
 11
-0.3468394655
 21
15.6999983644
  0
LINE
  5
64B
100
AcDbEntity
  8
0
100
AcDbLine
 62
7
  6
CONTINUOUS
 10
-0.3996390368
 20
14.9072465797
 11
-0.3468218991
 21
14.9000014538
  0
LINE
  5
64C
100
AcDbEntity
  8
0
100
AcDbLine
 62
7
  6
CONTINUOUS
 10
0.4879182991
 20
16.0909028568
 11
0.4218153604
 21
16.0999977415
  0
LINE
  5
64D
100
AcDbEntity
  8
0
100
AcDbLine
 62
7
  6
CONTINUOUS
 10
0.4967895664
 20
15.2896599147
 11
0.421880244
 21
15.3000011283
  0
LINE
  5
64E
100
AcDbEntity
  8
0
100
AcDbLine
 62
7
  6
CONTINUOUS
 10
-0.4266180264
 20
16.511018238
 11
-0.3468363645
 21
16.4999983555
  0
LINE
  5
64F
100
AcDbEntity
  8
0
100
AcDbLine
 62
7
  6
CONTINUOUS
 10
-0.4720673221
 20
15.7174995184
 11
-0.3929529503
 21
15.7063168247
  0
LINE
  5
650
100
AcDbEntity
  8
0
100
AcDbLine
 62
7
  6
CONTINUOUS
 10
-0.4741125227
 20
14.9177940217
 11
-0.3996390368
 21
14.9072465797
  0
LINE
  5
651
100
AcDbEntity
  8
0
100
AcDbLine
 62
7
  6
CONTINUOUS
 10
0.5643674049
 20
16.0799907525
 11
0.4879182991
 21
16.0909028568
  0
LINE
  5
652
100
AcDbEntity
  8
0
100
AcDbLine
 62
7
  6
CONTINUOUS
 10
0.5697266905
 20
15.2792044605
 11
0.4967895664
 21
15.2896599147
  0
LINE
  5
653
100
AcDbEntity
  8
0
100
AcDbLine
 62
7
  6
CONTINUOUS
 10
-0.4978254249
 20
16.5212489589
 11
-0.4266180264
 21
16.511018238
  0
LINE
  5
654
100
AcDbEntity
  8
0
100
AcDbLine
 62
253
  6
CONTINUOUS
 10
0.1977459904
 20
16.6725843795
 11
-0.093940375
 21
16.7224303901
  0
LINE
  5
655
100
AcDbEntity
  8
0
100
AcDbLine
 62
253
  6
CONTINUOUS
 10
0.2137678989
 20
15.0697920746
 11
-0.0789909958
 21
15.119856609
  0
LINE
  5
656
100
AcDbEntity
  8
0
100
AcDbLine
 62
253
  6
CONTINUOUS
 10
-0.0606974559
 20
15.9167188103
 11
-0.1568334536
 21
15.9333731752
  0
LINE
  5
657
100
AcDbEntity
  8
0
100
AcDbLine
 62
253
  6
CONTINUOUS
 10
0.2304388771
 20
15.866872892
 11
-0.0606974559
 21
15.9167188103
  0
LINE
  5
658
100
AcDbEntity
  8
0
100
AcDbLine
 62
253
  6
CONTINUOUS
 10
-0.0789909958
 20
15.119856609
 11
-0.1744105035
 21
15.1364720935
  0
LWPOLYLINE
  5
659
100
AcDbEntity
  8
0
100
AcDbPolyline
 62
253
  6
CONTINUOUS
 90
8
 70
0
 10
-0.093940375
 20
16.7224303901
 10
-0.1888997344
 20
16.7390452501
 10
-0.2350251521
 20
16.7473498988
 10
-0.2800093982
 20
16.7556577696
 10
-0.3236560394
 20
16.7639697126
 10
-0.3657740673
 20
16.7722848777
 10
-0.4062018024
 20
16.7806051966
 10
-0.4350059404
 20
16.7868234394
  0
LWPOLYLINE
  5
65A
100
AcDbEntity
  8
0
100
AcDbPolyline
 62
253
  6
CONTINUOUS
 90
7
 70
0
 10
-0.1568334536
 20
15.9333731752
 10
-0.2493382719
 20
15.9499680761
 10
-0.293917073
 20
15.9582768251
 10
-0.3372208303
 20
15.9666137484
 10
-0.3789968859
 20
15.9749662215
 10
-0.4189974258
 20
15.9833204233
 10
-0.4349807451
 20
15.9868304204
  0
LWPOLYLINE
  5
65B
100
AcDbEntity
  8
0
100
AcDbPolyline
 62
253
  6
CONTINUOUS
 90
7
 70
0
 10
-0.1744105035
 20
15.1364720935
 10
-0.265961886
 20
15.1530400242
 10
-0.3098716423
 20
15.1613157372
 10
-0.3523058324
 20
15.169589042
 10
-0.3930755895
 20
15.1778594237
 10
-0.4320334536
 20
15.1861330743
 10
-0.4350873681
 20
15.1868163965
  0
LWPOLYLINE
  5
65C
100
AcDbEntity
  8
0
100
AcDbPolyline
 62
253
  6
CONTINUOUS
 90
20
 70
0
 10
-0.873357921
 20
15.7887906841
 10
-0.8546128904
 20
15.7852379128
 10
-0.8372291012
 20
15.7836438004
 10
-0.8197878263
 20
15.7836438926
 10
-0.8024040741
 20
15.7852381862
 10
-0.7851928605
 20
15.7884266806
 10
-0.7682692099
 20
15.7932093738
 10
-0.7517473518
 20
15.7995834531
 10
-0.7357296936
 20
15.8075040456
 10
-0.7203095088
 20
15.8168939192
 10
-0.7055798176
 20
15.8276750308
 10
-0.6916336597
 20
15.8397693368
 10
-0.6785641133
 20
15.8530987632
 10
-0.666464257
 20
15.8675852233
 10
-0.6554271557
 20
15.8831506343
 10
-0.6455409456
 20
15.8997128242
 10
-0.6368574953
 20
15.9171591989
 10
-0.6294124243
 20
15.9353635243
 10
-0.6232412896
 20
15.9541994693
 10
-0.6226444358
 20
15.9565739503
  0
LWPOLYLINE
  5
65D
100
AcDbEntity
  8
0
100
AcDbPolyline
 62
253
  6
CONTINUOUS
 90
7
 70
0
 10
0.5100432608
 20
15.0131784714
 10
0.4785669422
 20
15.019949482
 10
0.4380276425
 20
15.0282667691
 10
0.3958216991
 20
15.0365774657
 10
0.3521899223
 20
15.0448698395
 10
0.3072526887
 20
15.0531556228
 10
0.2137678989
 20
15.0697920746
  0
LWPOLYLINE
  5
65E
100
AcDbEntity
  8
0
100
AcDbPolyline
 62
253
  6
CONTINUOUS
 90
7
 70
0
 10
0.509984872
 20
15.8131674939
 10
0.4918049052
 20
15.8171487751
 10
0.4520297572
 20
15.8254379196
 10
0.4104952451
 20
15.8337256195
 10
0.3673856607
 20
15.8420114835
 10
0.3228906729
 20
15.8502959028
 10
0.2304388771
 20
15.866872892
  0
LWPOLYLINE
  5
65F
100
AcDbEntity
  8
0
100
AcDbPolyline
 62
253
  6
CONTINUOUS
 90
8
 70
0
 10
0.5100437554
 20
16.6131755852
 10
0.5032483945
 20
16.6146876235
 10
0.4639361373
 20
16.6229956078
 10
0.4228966537
 20
16.6312857637
 10
0.3803885545
 20
16.6395424977
 10
0.3365334731
 20
16.6477814033
 10
0.2913698053
 20
16.6560313441
 10
0.1977459904
 20
16.6725843795
  0
LWPOLYLINE
  5
660
100
AcDbEntity
  8
0
100
AcDbPolyline
 62
7
  6
CONTINUOUS
 90
12
 70
0
 10
-0.8734244221
 20
15.7888067901
 10
-0.8542327757
 20
15.7842736069
 10
-0.8247464024
 20
15.7776953918
 10
-0.7940493845
 20
15.7712619514
 10
-0.7622140001
 20
15.7649580847
 10
-0.7292653334
 20
15.7587623359
 10
-0.695209297
 20
15.75265369
 10
-0.6600952723
 20
15.7466215101
 10
-0.6240172563
 20
15.740661773
 10
-0.587083831
 20
15.7347728385
 10
-0.5493791246
 20
15.7289499913
 10
-0.4720673221
 20
15.7174995184
  0
LINE
  5
661
100
AcDbEntity
  8
0
100
AcDbLine
 62
7
  6
CONTINUOUS
 10
16.7875
 20
24.2
 11
16.7875
 21
19.45
  0
LINE
  5
662
100
AcDbEntity
  8
0
100
AcDbLine
 62
7
  6
CONTINUOUS
 10
16.7875
 20
17.6
 11
16.7875
 21
14.3
  0
LINE
  5
663
100
AcDbEntity
  8
0
100
AcDbLine
 62
7
  6
CONTINUOUS
 10
16.7875
 20
-7.3
 11
16.7875
 21
-8.55
  0
LINE
  5
664
100
AcDbEntity
  8
0
100
AcDbLine
 62
7
  6
CONTINUOUS
 10
16.7875
 20
-10.4
 11
16.7875
 21
-13.7
  0
LINE
  5
665
100
AcDbEntity
  8
0
100
AcDbLine
 62
7
  6
CONTINUOUS
 10
16.7875
 20
-19.3
 11
16.7875
 21
-15.55
  0
LINE
  5
666
100
AcDbEntity
  8
0
100
AcDbLine
 62
7
  6
CONTINUOUS
 10
17.5375
 20
-19.8
 11
17.5375
 21
24.7
  0
LINE
  5
667
100
AcDbEntity
  8
0
100
AcDbLine
 62
7
  6
CONTINUOUS
 10
0.6623927658
 20
17.4372486279
 11
0.618628652
 21
17.4299610028
  0
LINE
  5
668
100
AcDbEntity
  8
0
100
AcDbLine
 62
7
  6
CONTINUOUS
 10
0.6625962147
 20
18.2372868138
 11
0.6188875653
 21
18.2300030271
  0
LWPOLYLINE
  5
669
100
AcDbEntity
  8
0
100
AcDbPolyline
 62
7
  6
CONTINUOUS
 90
36
 70
0
 10
-0.6167823839
 20
18.0605076521
 10
-0.6485306572
 20
18.0553132427
 10
-0.6792786328
 20
18.0501138735
 10
-0.708994374
 20
18.0449067276
 10
-0.7376631695
 20
18.039687122
 10
-0.7651357658
 20
18.0344772166
 10
-0.7914131216
 20
18.0292733325
 10
-0.8165179013
 20
18.0240672404
 10
-0.8403852976
 20
18.0188695017
 10
-0.8630375001
 20
18.0136736605
 10
-0.884529882
 20
18.0084649758
 10
-0.9048960872
 20
18.0032326636
 10
-0.9241350998
 20
17.9979752112
 10
-0.9423709292
 20
17.9926567535
 10
-0.9598516274
 20
17.987196264
 10
-0.9765828926
 20
17.9815764229
 10
-0.9926735916
 20
17.9757416966
 10
-1.008527061
 20
17.9695063222
 10
-1.0242204595
 20
17.9627733236
 10
-1.039741
 20
17.9554690638
 10
-1.0553567571
 20
17.9473586316
 10
-1.0711916034
 20
17.9382171624
 10
-1.0870781265
 20
17.9279499157
 10
-1.102840185
 20
17.9164714856
 10
-1.1184549469
 20
17.9035676637
 10
-1.1337201613
 20
17.8891286253
 10
-1.1481958765
 20
17.8733052474
 10
-1.1617100968
 20
17.8560268675
 10
-1.1740679227
 20
17.8372443442
 10
-1.1849110699
 20
17.8173219086
 10
-1.1941321087
 20
17.7963574043
 10
-1.2016219812
 20
17.7744497976
 10
-1.207181397
 20
17.7520982566
 10
-1.2107632286
 20
17.7295918432
 10
-1.2123732215
 20
17.7069662196
 10
-1.2124674096
 20
17.6999998008
  0
LINE
  5
66A
100
AcDbEntity
  8
0
100
AcDbLine
 62
7
  6
CONTINUOUS
 10
-0.5783437416
 20
17.5642875653
 11
-0.5302223005
 21
17.5722009508
  0
LINE
  5
66B
100
AcDbEntity
  8
0
100
AcDbLine
 62
7
  6
CONTINUOUS
 10
-0.5730797236
 20
16.7651753051
 11
-0.5263962616
 21
16.7728162765
  0
LINE
  5
66C
100
AcDbEntity
  8
0
100
AcDbLine
 62
7
  6
CONTINUOUS
 10
-0.5752497302
 20
18.3648093049
 11
-0.5254084723
 21
18.372973685
  0
LWPOLYLINE
  5
66D
100
AcDbEntity
  8
0
100
AcDbPolyline
 62
7
  6
CONTINUOUS
 90
36
 70
0
 10
0.6673539661
 20
16.9355996459
 10
0.6998567567
 20
16.9407964925
 10
0.7312638192
 20
16.9459774231
 10
0.7615440688
 20
16.951143074
 10
0.7907026134
 20
16.9562986923
 10
0.818660537
 20
16.9614339233
 10
0.8453958348
 20
16.9665472381
 10
0.8709525218
 20
16.971649615
 10
0.8953774433
 20
16.9767539111
 10
0.9186768784
 20
16.9818655254
 10
0.9408872083
 20
16.9869970102
 10
0.9621190729
 20
16.9921810322
 10
0.9823757358
 20
16.997427498
 10
1.001718913
 20
17.0027610155
 10
1.0203620204
 20
17.0082557566
 10
1.0382935938
 20
17.0139308397
 10
1.0555938473
 20
17.0198387131
 10
1.0726385768
 20
17.0261556014
 10
1.0895070977
 20
17.0329855327
 10
1.1061733454
 20
17.0404069064
 10
1.1228971452
 20
17.0486548977
 10
1.1398490514
 20
17.0579902464
 10
1.1568393561
 20
17.0685217982
 10
1.1736137408
 20
17.0803052761
 10
1.1901979449
 20
17.0936005283
 10
1.2063589516
 20
17.1085119444
 10
1.2214994155
 20
17.1247308411
 10
1.2354190187
 20
17.1422189422
 10
1.2480333644
 20
17.1610778701
 10
1.2590563658
 20
17.1809935552
 10
1.2683825744
 20
17.2017922953
 10
1.2759678516
 20
17.2234251044
 10
1.2816987849
 20
17.2456621119
 10
1.2854991062
 20
17.2683175117
 10
1.287306478
 20
17.2912692413
 10
1.2874555391
 20
17.3000260946
  0
LWPOLYLINE
  5
66E
100
AcDbEntity
  8
0
100
AcDbPolyline
 62
7
  6
CONTINUOUS
 90
37
 70
0
 10
-0.5882721845
 20
17.2650428829
 10
-0.6208478059
 20
17.2598512942
 10
-0.6525039804
 20
17.2546483328
 10
-0.6830378417
 20
17.2494610646
 10
-0.7124342084
 20
17.2442871684
 10
-0.7406906215
 20
17.2391220885
 10
-0.7676712585
 20
17.2339870094
 10
-0.7933774634
 20
17.2288797802
 10
-0.817847193
 20
17.2237909972
 10
-0.8410453552
 20
17.2187270317
 10
-0.8629674359
 20
17.2136915166
 10
-0.8837219944
 20
17.2086628704
 10
-0.9034705025
 20
17.2036018032
 10
-0.9222238802
 20
17.1985031043
 10
-0.9400714526
 20
17.1933389855
 10
-0.957291828
 20
17.1880161825
 10
-0.973888012
 20
17.1825120061
 10
-0.9899320444
 20
17.1767767002
 10
-1.0058105784
 20
17.1706261548
 10
-1.0215987891
 20
17.1639575787
 10
-1.0372637544
 20
17.156697865
 10
-1.0530445509
 20
17.1486228278
 10
-1.0690552001
 20
17.1395116896
 10
-1.0851370799
 20
17.1292607275
 10
-1.101121037
 20
17.1177728897
 10
-1.1169907009
 20
17.1048195397
 10
-1.132529984
 20
17.0902880808
 10
-1.1472788598
 20
17.0743325282
 10
-1.161067986
 20
17.0568628081
 10
-1.1736804384
 20
17.0378336433
 10
-1.1847174367
 20
17.0176614369
 10
-1.1940771765
 20
16.9964475899
 10
-1.2016532245
 20
16.9743007181
 10
-1.2072365008
 20
16.951798927
 10
-1.2108019082
 20
16.9292647311
 10
-1.2123879349
 20
16.906714296
 10
-1.2124774119
 20
16.8999230164
  0
LWPOLYLINE
  5
66F
100
AcDbEntity
  8
0
100
AcDbPolyline
 62
7
  6
CONTINUOUS
 90
35
 70
0
 10
0.6605441551
 20
17.7345308948
 10
0.6939104709
 20
17.739837129
 10
0.7264158532
 20
17.7451707259
 10
0.7580060097
 20
17.7505329429
 10
0.7885805886
 20
17.7559168656
 10
0.8181339244
 20
17.761331936
 10
0.8466131643
 20
17.7667796708
 10
0.8738913111
 20
17.7722460793
 10
0.8999582258
 20
17.7777371068
 10
0.9248437592
 20
17.7832660489
 10
0.9485412199
 20
17.7888390122
 10
0.9710592332
 20
17.7944657735
 10
0.9924678077
 20
17.8001732084
 10
1.0129090321
 20
17.8060140872
 10
1.0324050543
 20
17.8120150142
 10
1.0510458459
 20
17.8182287317
 10
1.0691341308
 20
17.8247983878
 10
1.0867569329
 20
17.8318170673
 10
1.1039621696
 20
17.8393748805
 10
1.1210346474
 20
17.8476969787
 10
1.1381161441
 20
17.8570008016
 10
1.1551041763
 20
17.8674099963
 10
1.1719073947
 20
17.8790656697
 10
1.1885732333
 20
17.8922468983
 10
1.2048466434
 20
17.9070498813
 10
1.2201869857
 20
17.9232441638
 10
1.2344101444
 20
17.9408609528
 10
1.2473604859
 20
17.9599784624
 10
1.2586776414
 20
17.9802186928
 10
1.2682641644
 20
18.0014507309
 10
1.2760398197
 20
18.0235797972
 10
1.2818307767
 20
18.0461398437
 10
1.2855998425
 20
18.0688486541
 10
1.2873588466
 20
18.0916499176
 10
1.2874963734
 20
18.1000612441
  0
LINE
  5
670
100
AcDbEntity
  8
0
100
AcDbLine
 62
7
  6
CONTINUOUS
 10
0.618628652
 20
17.4299610028
 11
0.5717664156
 21
17.4225217155
  0
LINE
  5
671
100
AcDbEntity
  8
0
100
AcDbLine
 62
7
  6
CONTINUOUS
 10
0.6188875653
 20
18.2300030271
 11
0.5720633729
 21
18.2225650469
  0
LINE
  5
672
100
AcDbEntity
  8
0
100
AcDbLine
 62
7
  6
CONTINUOUS
 10
-0.5302223005
 20
17.5722009508
 11
-0.4786561152
 21
17.5802693996
  0
LINE
  5
673
100
AcDbEntity
  8
0
100
AcDbLine
 62
7
  6
CONTINUOUS
 10
-0.5263962616
 20
16.7728162765
 11
-0.4764601208
 21
16.7806066429
  0
LINE
  5
674
100
AcDbEntity
  8
0
100
AcDbLine
 62
7
  6
CONTINUOUS
 10
-0.5510126772
 20
18.0708013176
 11
-0.6167823839
 21
18.0605076521
  0
LINE
  5
675
100
AcDbEntity
  8
0
100
AcDbLine
 62
7
  6
CONTINUOUS
 10
-0.5254084723
 20
18.372973685
 11
-0.4717833271
 21
18.3813197056
  0
LINE
  5
676
100
AcDbEntity
  8
0
100
AcDbLine
 62
7
  6
CONTINUOUS
 10
0.5996014462
 20
16.925214053
 11
0.6673539661
 21
16.9355996459
  0
LINE
  5
677
100
AcDbEntity
  8
0
100
AcDbLine
 62
7
  6
CONTINUOUS
 10
-0.5204874557
 20
17.2754021719
 11
-0.5882721845
 21
17.2650428829
  0
LINE
  5
678
100
AcDbEntity
  8
0
100
AcDbLine
 62
7
  6
CONTINUOUS
 10
0.5720633729
 20
18.2225650469
 11
0.5222625157
 21
18.2149868104
  0
LINE
  5
679
100
AcDbEntity
  8
0
100
AcDbLine
 62
7
  6
CONTINUOUS
 10
0.5717664156
 20
17.4225217155
 11
0.5220031404
 21
17.4149502654
  0
LINE
  5
67A
100
AcDbEntity
  8
0
100
AcDbLine
 62
7
  6
CONTINUOUS
 10
0.5914145602
 20
17.7239915145
 11
0.6605441551
 21
17.7345308948
  0
LINE
  5
67B
100
AcDbEntity
  8
0
100
AcDbLine
 62
7
  6
CONTINUOUS
 10
-0.4786561152
 20
17.5802693996
 11
-0.4239137483
 21
17.5884680636
  0
LINE
  5
67C
100
AcDbEntity
  8
0
100
AcDbLine
 62
7
  6
CONTINUOUS
 10
-0.4764601208
 20
16.7806066429
 11
-0.423502923
 21
16.7885271731
  0
LINE
  5
67D
100
AcDbEntity
  8
0
100
AcDbLine
 62
7
  6
CONTINUOUS
 10
-0.4717833271
 20
18.3813197056
 11
-0.4147006203
 21
18.3898154241
  0
LINE
  5
67E
100
AcDbEntity
  8
0
100
AcDbLine
 62
7
  6
CONTINUOUS
 10
-0.4827499703
 20
18.0809524813
 11
-0.5510126772
 21
18.0708013176
  0
LINE
  5
67F
100
AcDbEntity
  8
0
100
AcDbLine
 62
7
  6
CONTINUOUS
 10
0.5220031404
 20
17.4149502654
 11
0.469532148
 21
17.4072608841
  0
LINE
  5
680
100
AcDbEntity
  8
0
100
AcDbLine
 62
7
  6
CONTINUOUS
 10
0.5222625157
 20
18.2149868104
 11
0.469650906
 21
18.2072782681
  0
LINE
  5
681
100
AcDbEntity
  8
0
100
AcDbLine
 62
7
  6
CONTINUOUS
 10
0.5286192012
 20
16.9148502151
 11
0.5996014462
 21
16.925214053
  0
LINE
  5
682
100
AcDbEntity
  8
0
100
AcDbLine
 62
7
  6
CONTINUOUS
 10
-0.4501666515
 20
17.2856430883
 11
-0.5204874557
 21
17.2754021719
  0
LINE
  5
683
100
AcDbEntity
  8
0
100
AcDbLine
 62
7
  6
CONTINUOUS
 10
0.519535556
 20
17.7135540917
 11
0.5914145602
 21
17.7239915145
  0
LINE
  5
684
100
AcDbEntity
  8
0
100
AcDbLine
 62
7
  6
CONTINUOUS
 10
-0.423502923
 20
16.7885271731
 11
-0.3677740296
 21
16.7965616249
  0
LINE
  5
685
100
AcDbEntity
  8
0
100
AcDbLine
 62
7
  6
CONTINUOUS
 10
-0.4239137483
 20
17.5884680636
 11
-0.3662165851
 21
17.5967846181
  0
LINE
  5
686
100
AcDbEntity
  8
0
100
AcDbLine
 62
7
  6
CONTINUOUS
 10
-0.4147006203
 20
18.3898154241
 11
-0.3544699232
 21
18.3984412665
  0
LINE
  5
687
100
AcDbEntity
  8
0
100
AcDbLine
 62
7
  6
CONTINUOUS
 10
-0.4131770271
 20
18.0908679169
 11
-0.4827499703
 21
18.0809524813
  0
LINE
  5
688
100
AcDbEntity
  8
0
100
AcDbLine
 62
7
  6
CONTINUOUS
 10
0.4552753058
 20
16.9045662254
 11
0.5286192012
 21
16.9148502151
  0
LINE
  5
689
100
AcDbEntity
  8
0
100
AcDbLine
 62
7
  6
CONTINUOUS
 10
0.469532148
 20
17.4072608841
 11
0.3861663582
 21
17.3955272279
  0
LINE
  5
68A
100
AcDbEntity
  8
0
100
AcDbLine
 62
7
  6
CONTINUOUS
 10
-0.3782313878
 20
17.2957135324
 11
-0.4501666515
 21
17.2856430883
  0
LINE
  5
68B
100
AcDbEntity
  8
0
100
AcDbLine
 62
7
  6
CONTINUOUS
 10
0.469650906
 20
18.2072782681
 11
0.3858584596
 21
18.1954867242
  0
LINE
  5
68C
100
AcDbEntity
  8
0
100
AcDbLine
 62
7
  6
CONTINUOUS
 10
0.445581262
 20
17.7032352119
 11
0.519535556
 21
17.7135540917
  0
LINE
  5
68D
100
AcDbEntity
  8
0
100
AcDbLine
 62
7
  6
CONTINUOUS
 10
-0.3677740296
 20
16.7965616249
 11
-0.2794951517
 21
16.8088058647
  0
LINE
  5
68E
100
AcDbEntity
  8
0
100
AcDbLine
 62
7
  6
CONTINUOUS
 10
-0.3662165851
 20
17.5967846181
 11
-0.2746079058
 21
17.6094691145
  0
LINE
  5
68F
100
AcDbEntity
  8
0
100
AcDbLine
 62
7
  6
CONTINUOUS
 10
-0.3544699232
 20
18.3984412665
 11
-0.2590032017
 21
18.411579881
  0
LINE
  5
690
100
AcDbEntity
  8
0
100
AcDbLine
 62
7
  6
CONTINUOUS
 10
-0.3076923553
 20
18.1052851197
 11
-0.4131770271
 21
18.0908679169
  0
LINE
  5
691
100
AcDbEntity
  8
0
100
AcDbLine
 62
7
  6
CONTINUOUS
 10
-0.2699493823
 20
17.3103084167
 11
-0.3782313878
 21
17.2957135324
  0
LINE
  5
692
100
AcDbEntity
  8
0
100
AcDbLine
 62
7
  6
CONTINUOUS
 10
0.3429173773
 20
16.8894228734
 11
0.4552753058
 21
16.9045662254
  0
LINE
  5
693
100
AcDbEntity
  8
0
100
AcDbLine
 62
7
  6
CONTINUOUS
 10
0.3861663582
 20
17.3955272279
 11
0.2675157958
 21
17.3795573778
  0
LINE
  5
694
100
AcDbEntity
  8
0
100
AcDbLine
 62
7
  6
CONTINUOUS
 10
0.3321999182
 20
17.6880084413
 11
0.445581262
 21
17.7032352119
  0
LINE
  5
695
100
AcDbEntity
  8
0
100
AcDbLine
 62
7
  6
CONTINUOUS
 10
0.3858584596
 20
18.1954867242
 11
0.2660716276
 21
18.1793658937
  0
LINE
  5
696
100
AcDbEntity
  8
0
100
AcDbLine
 62
7
  6
CONTINUOUS
 10
-0.2794951517
 20
16.8088058647
 11
-0.1539741629
 21
16.8255014374
  0
LINE
  5
697
100
AcDbEntity
  8
0
100
AcDbLine
 62
7
  6
CONTINUOUS
 10
-0.2746079058
 20
17.6094691145
 11
-0.1437590232
 21
17.6268330595
  0
LINE
  5
698
100
AcDbEntity
  8
0
100
AcDbLine
 62
7
  6
CONTINUOUS
 10
-0.2590032017
 20
18.411579881
 11
-0.1240754644
 21
18.4293927647
  0
LINE
  5
699
100
AcDbEntity
  8
0
100
AcDbLine
 62
7
  6
CONTINUOUS
 10
-0.1321868305
 20
18.1282376684
 11
-0.3076923553
 21
18.1052851197
  0
LINE
  5
69A
100
AcDbEntity
  8
0
100
AcDbLine
 62
7
  6
CONTINUOUS
 10
0.2675157958
 20
17.3795573778
 11
0.109366071
 21
17.3590573154
  0
LINE
  5
69B
100
AcDbEntity
  8
0
100
AcDbLine
 62
7
  6
CONTINUOUS
 10
0.2660716276
 20
18.1793658937
 11
0.1058365434
 21
18.1586058634
  0
LWPOLYLINE
  5
69C
100
AcDbEntity
  8
0
100
AcDbPolyline
 62
253
  6
CONTINUOUS
 90
18
 70
0
 10
0.7621617357
 20
17.9787376664
 10
0.8188360072
 20
17.9859745971
 10
0.8729749696
 20
17.9932089609
 10
0.9245384664
 20
18.0004590063
 10
0.9733877832
 20
18.0077323546
 10
1.0192761215
 20
18.0150213845
 10
1.0619890541
 20
18.0223214806
 10
1.1013931984
 20
18.029634782
 10
1.1373489701
 20
18.0369591496
 10
1.1696829566
 20
18.04428355
 10
1.1982844375
 20
18.0516081638
 10
1.2230411791
 20
18.0589328104
 10
1.2438200548
 20
18.0662459139
 10
1.2605791218
 20
18.0735438094
 10
1.2733147389
 20
18.0808301619
 10
1.282011656
 20
18.08810439
 10
1.2866526495
 20
18.0953560421
 10
1.2874963695
 20
18.0999880803
  0
LINE
  5
69D
100
AcDbEntity
  8
0
100
AcDbLine
 62
7
  6
CONTINUOUS
 10
-0.1240754644
 20
18.4293927647
 11
0.0375
 21
18.450111216
  0
LWPOLYLINE
  5
69E
100
AcDbEntity
  8
0
100
AcDbPolyline
 62
7
  6
CONTINUOUS
 90
3
 70
0
 10
-0.1539741629
 20
16.8255014374
 10
0.0850108436
 20
16.8561586606
 10
0.3429173773
 20
16.8894228734
  0
LWPOLYLINE
  5
69F
100
AcDbEntity
  8
0
100
AcDbPolyline
 62
7
  6
CONTINUOUS
 90
3
 70
0
 10
0.109366071
 20
17.3590573154
 10
0.0097795881
 20
17.3463592987
 10
-0.2699493823
 20
17.3103084167
  0
LWPOLYLINE
  5
6A0
100
AcDbEntity
  8
0
100
AcDbPolyline
 62
7
  6
CONTINUOUS
 90
3
 70
0
 10
-0.1437590232
 20
17.6268330595
 10
0.0684561896
 20
17.6540523376
 10
0.3321999182
 20
17.6880084413
  0
LINE
  5
6A1
100
AcDbEntity
  8
0
100
AcDbLine
 62
7
  6
CONTINUOUS
 10
0.1058365434
 20
18.1586058634
 11
-0.1321868305
 21
18.1282376684
  0
LWPOLYLINE
  5
6A2
100
AcDbEntity
  8
0
100
AcDbPolyline
 62
253
  6
CONTINUOUS
 90
18
 70
0
 10
0.7466609105
 20
17.1768117361
 10
0.8041441669
 20
17.184066931
 10
0.85928192
 20
17.1913418051
 10
0.9119479039
 20
17.1986491314
 10
0.9618554904
 20
17.205976137
 10
1.0087087953
 20
17.2133028328
 10
1.0523219752
 20
17.2206225779
 10
1.0925915717
 20
17.2279420131
 10
1.1293699746
 20
17.2352610721
 10
1.1625434279
 20
17.2425861061
 10
1.191982332
 20
17.2499107638
 10
1.2175484429
 20
17.2572159252
 10
1.2391544589
 20
17.2644861742
 10
1.2568142886
 20
17.271736927
 10
1.270528775
 20
17.2789953119
 10
1.2802281202
 20
17.2862701529
 10
1.2858643853
 20
17.2935526261
 10
1.2874555313
 20
17.2999546608
  0
LINE
  5
6A3
100
AcDbEntity
  8
0
100
AcDbLine
 62
253
  6
CONTINUOUS
 10
0.6417666498
 20
17.9642419021
 11
0.7621617357
 21
17.9787376664
  0
LINE
  5
6A4
100
AcDbEntity
  8
0
100
AcDbLine
 62
253
  6
CONTINUOUS
 10
0.6250018353
 20
17.1623007215
 11
0.7466609105
 21
17.1768117361
  0
LINE
  5
6A5
100
AcDbEntity
  8
0
100
AcDbLine
 62
253
  6
CONTINUOUS
 10
-0.6658397799
 20
17.0239093313
 11
-0.5438007591
 21
17.0384137996
  0
LINE
  5
6A6
100
AcDbEntity
  8
0
100
AcDbLine
 62
253
  6
CONTINUOUS
 10
-0.649217129
 20
17.8259434929
 11
-0.5250954918
 21
17.8405583655
  0
LINE
  5
6A7
100
AcDbEntity
  8
0
100
AcDbLine
 62
253
  6
CONTINUOUS
 10
0.5135408081
 20
17.9497470225
 11
0.6417666498
 21
17.9642419021
  0
LINE
  5
6A8
100
AcDbEntity
  8
0
100
AcDbLine
 62
253
  6
CONTINUOUS
 10
0.4957036704
 20
17.1477861266
 11
0.6250018353
 21
17.1623007215
  0
LINE
  5
6A9
100
AcDbEntity
  8
0
100
AcDbLine
 62
253
  6
CONTINUOUS
 10
-0.5438007591
 20
17.0384137996
 11
-0.4132910488
 21
17.0530228881
  0
LINE
  5
6AA
100
AcDbEntity
  8
0
100
AcDbLine
 62
253
  6
CONTINUOUS
 10
-0.5250954918
 20
17.8405583655
 11
-0.3934294495
 21
17.8551857607
  0
LINE
  5
6AB
100
AcDbEntity
  8
0
100
AcDbLine
 62
253
  6
CONTINUOUS
 10
0.3791866071
 20
17.9352531761
 11
0.5135408081
 21
17.9497470225
  0
LINE
  5
6AC
100
AcDbEntity
  8
0
100
AcDbLine
 62
253
  6
CONTINUOUS
 10
-0.4132910488
 20
17.0530228881
 11
-0.2766540011
 21
17.067653866
  0
LINE
  5
6AD
100
AcDbEntity
  8
0
100
AcDbLine
 62
253
  6
CONTINUOUS
 10
-0.3934294495
 20
17.8551857607
 11
-0.2561516155
 21
17.8698054077
  0
LINE
  5
6AE
100
AcDbEntity
  8
0
100
AcDbLine
 62
253
  6
CONTINUOUS
 10
0.2908561176
 20
17.1259877637
 11
0.4957036704
 21
17.1477861266
  0
LINE
  5
6AF
100
AcDbEntity
  8
0
100
AcDbLine
 62
253
  6
CONTINUOUS
 10
-0.2766540011
 20
17.067653866
 11
-0.0646201324
 21
17.0895858962
  0
LWPOLYLINE
  5
6B0
100
AcDbEntity
  8
0
100
AcDbPolyline
 62
253
  6
CONTINUOUS
 90
3
 70
0
 10
-0.2561516155
 20
17.8698054077
 10
0.0272634798
 20
17.8989577442
 10
0.3791866071
 20
17.9352531761
  0
LINE
  5
6B1
100
AcDbEntity
  8
0
100
AcDbLine
 62
253
  6
CONTINUOUS
 10
-0.0646201324
 20
17.0895858962
 11
0.2908561176
 21
17.1259877637
  0
LINE
  5
6B2
100
AcDbEntity
  8
0
100
AcDbLine
 62
7
  6
CONTINUOUS
 10
16.0375
 20
17.6
 11
16.7875
 21
17.6
  0
LINE
  5
6B3
100
AcDbEntity
  8
0
100
AcDbLine
 62
7
  6
CONTINUOUS
 10
-15.9625
 20
17.6
 11
-16.7125
 21
17.6
  0
LINE
  5
6B4
100
AcDbEntity
  8
0
100
AcDbLine
 62
7
  6
CONTINUOUS
 10
-17.4625
 20
18.2
 11
-2.345143092
 21
18.2
  0
LINE
  5
6B5
100
AcDbEntity
  8
0
100
AcDbLine
 62
7
  6
CONTINUOUS
 10
2.420143092
 20
18.2
 11
17.5375
 21
18.2
  0
LINE
  5
6B6
100
AcDbEntity
  8
0
100
AcDbLine
 62
7
  6
CONTINUOUS
 10
1.949909649
 20
18.55
 11
-1.874909649
 21
18.55
  0
LINE
  5
6B7
100
AcDbEntity
  8
0
100
AcDbLine
 62
7
  6
CONTINUOUS
 10
-0.3993824317
 20
18.1072090569
 11
-0.3468417969
 21
18.1000032808
  0
LINE
  5
6B8
100
AcDbEntity
  8
0
100
AcDbLine
 62
7
  6
CONTINUOUS
 10
0.4912965069
 20
16.8904306221
 11
0.4218575454
 21
16.8999988502
  0
LINE
  5
6B9
100
AcDbEntity
  8
0
100
AcDbLine
 62
7
  6
CONTINUOUS
 10
-0.4261928295
 20
17.3109607546
 11
-0.3468439635
 21
17.3000007088
  0
LINE
  5
6BA
100
AcDbEntity
  8
0
100
AcDbLine
 62
7
  6
CONTINUOUS
 10
0.5080701813
 20
17.6880693731
 11
0.4218209218
 21
17.7000011381
  0
LINE
  5
6BB
100
AcDbEntity
  8
0
100
AcDbLine
 62
7
  6
CONTINUOUS
 10
-0.4738170817
 20
18.1177510219
 11
-0.3993824317
 21
18.1072090569
  0
LINE
  5
6BC
100
AcDbEntity
  8
0
100
AcDbLine
 62
7
  6
CONTINUOUS
 10
0.5634594833
 20
16.8801233193
 11
0.4912965069
 21
16.8904306221
  0
LINE
  5
6BD
100
AcDbEntity
  8
0
100
AcDbLine
 62
7
  6
CONTINUOUS
 10
-0.4957974183
 20
17.3209511637
 11
-0.4261928295
 21
17.3109607546
  0
LINE
  5
6BE
100
AcDbEntity
  8
0
100
AcDbLine
 62
7
  6
CONTINUOUS
 10
0.5782074896
 20
17.6779592876
 11
0.5080701813
 21
17.6880693731
  0
LINE
  5
6BF
100
AcDbEntity
  8
0
100
AcDbLine
 62
7
  6
CONTINUOUS
 10
-0.5455001182
 20
18.1283602772
 11
-0.4738170817
 21
18.1177510219
  0
LINE
  5
6C0
100
AcDbEntity
  8
0
100
AcDbLine
 62
7
  6
CONTINUOUS
 10
0.7014302293
 20
18.4589431926
 11
0.6875
 21
18.4611750638
  0
LINE
  5
6C1
100
AcDbEntity
  8
0
100
AcDbLine
 62
253
  6
CONTINUOUS
 10
0.2105667044
 20
17.4703513856
 11
-0.0812448733
 21
17.5202445387
  0
LINE
  5
6C2
100
AcDbEntity
  8
0
100
AcDbLine
 62
253
  6
CONTINUOUS
 10
-0.0812448733
 20
17.5202445387
 11
-0.1765288762
 21
17.5368467076
  0
LWPOLYLINE
  5
6C3
100
AcDbEntity
  8
0
100
AcDbPolyline
 62
253
  6
CONTINUOUS
 90
7
 70
0
 10
-0.1765288762
 20
17.5368467076
 10
-0.2680914064
 20
17.553435431
 10
-0.3121414797
 20
17.561751687
 10
-0.3547609049
 20
17.5700786456
 10
-0.3957514997
 20
17.5784151581
 10
-0.4349435766
 20
17.5867662754
 10
-0.4351219876
 20
17.5868063814
  0
LWPOLYLINE
  5
6C4
100
AcDbEntity
  8
0
100
AcDbPolyline
 62
253
  6
CONTINUOUS
 90
7
 70
0
 10
0.5100592426
 20
17.4131843486
 10
0.4764361513
 20
17.4203975574
 10
0.4358350531
 20
17.4287069517
 10
0.3934832492
 20
17.4370281783
 10
0.3495707723
 20
17.4453582344
 10
0.3043191007
 20
17.4536890102
 10
0.2105667044
 20
17.4703513856
  0
LWPOLYLINE
  5
6C5
100
AcDbEntity
  8
0
100
AcDbPolyline
 62
253
  6
CONTINUOUS
 90
4
 70
0
 10
0.5099799248
 20
18.2131710688
 10
0.486693092
 20
18.2182348381
 10
0.4467358968
 20
18.2265121986
 10
0.4174110799
 20
18.2323349823
  0
LINE
  5
6C6
100
AcDbEntity
  8
0
100
AcDbLine
 62
7
  6
CONTINUOUS
 10
-2.2711970374
 20
19.416256203
 11
2.3461970375
 21
19.416256203
  0
LINE
  5
6C7
100
AcDbEntity
  8
0
100
AcDbLine
 62
7
  6
CONTINUOUS
 10
-16.7125
 20
19.45
 11
-15.9625
 21
19.45
  0
LINE
  5
6C8
100
AcDbEntity
  8
0
100
AcDbLine
 62
7
  6
CONTINUOUS
 10
16.7875
 20
19.45
 11
16.0375
 21
19.45
  0
LINE
  5
6C9
100
AcDbEntity
  8
0
100
AcDbLine
 62
7
  6
CONTINUOUS
 10
-1.4625
 20
20.45
 11
1.5375
 21
20.45
  0
LINE
  5
6CA
100
AcDbEntity
  8
0
100
AcDbLine
 62
7
  6
CONTINUOUS
 10
-15.9625
 20
23.45
 11
-2.4625
 21
23.45
  0
LINE
  5
6CB
100
AcDbEntity
  8
0
100
AcDbLine
 62
7
  6
CONTINUOUS
 10
16.0375
 20
23.45
 11
2.5375
 21
23.45
  0
LINE
  5
6CC
100
AcDbEntity
  8
0
100
AcDbLine
 62
7
  6
CONTINUOUS
 10
-1.4625
 20
24.2
 11
1.5375
 21
24.2
  0
LINE
  5
6CD
100
AcDbEntity
  8
0
100
AcDbLine
 62
7
  6
CONTINUOUS
 10
2.5375
 20
24.2
 11
16.7875
 21
24.2
  0
LINE
  5
6CE
100
AcDbEntity
  8
0
100
AcDbLine
 62
7
  6
CONTINUOUS
 10
-2.4625
 20
24.2
 11
-16.7125
 21
24.2
  0
LINE
  5
6CF
100
AcDbEntity
  8
0
100
AcDbLine
 62
7
  6
CONTINUOUS
 10
-17.2125
 20
24.95
 11
17.2875
 21
24.95
  0
ARC
  5
6D0
100
AcDbEntity
  8
0
100
AcDbCircle
 62
7
  6
CONTINUOUS
 10
6.5375
 20
-12.2475
 40
1.5975
100
AcDbArc
 50
90.0
 51
270.0
  0
ARC
  5
6D1
100
AcDbEntity
  8
0
100
AcDbCircle
 62
7
  6
CONTINUOUS
 10
3.8125
 20
-12.2475
 40
1.5975
100
AcDbArc
 50
90.0
 51
270.0
  0
ARC
  5
6D2
100
AcDbEntity
  8
0
100
AcDbCircle
 62
7
  6
CONTINUOUS
 10
6.5375
 20
-12.2475
 40
1.1125
100
AcDbArc
 50
191.5428636527
 51
270.0
  0
ARC
  5
6D3
100
AcDbEntity
  8
0
100
AcDbCircle
 62
7
  6
CONTINUOUS
 10
6.5375
 20
-12.2475
 40
1.1125
100
AcDbArc
 50
90.0
 51
168.4571363473
  0
ARC
  5
6D4
100
AcDbEntity
  8
0
100
AcDbCircle
 62
7
  6
CONTINUOUS
 10
3.8125
 20
-12.2475
 40
1.1125
100
AcDbArc
 50
90.0
 51
270.0
  0
ARC
  5
6D5
100
AcDbEntity
  8
0
100
AcDbCircle
 62
7
  6
CONTINUOUS
 10
-9.2375
 20
-20.15
 40
0.6
100
AcDbArc
 50
180.0
 51
270.0
  0
ARC
  5
6D6
100
AcDbEntity
  8
0
100
AcDbCircle
 62
7
  6
CONTINUOUS
 10
-16.0875
 20
-20.15
 40
0.6
100
AcDbArc
 50
270.0
 51
360.0
  0
ARC
  5
6D7
100
AcDbEntity
  8
0
100
AcDbCircle
 62
7
  6
CONTINUOUS
 10
-8.6875
 20
-24.7
 40
0.25
100
AcDbArc
 50
270.0
 51
360.0
  0
ARC
  5
6D8
100
AcDbEntity
  8
0
100
AcDbCircle
 62
7
  6
CONTINUOUS
 10
-16.6375
 20
-24.7
 40
0.25
100
AcDbArc
 50
180.0
 51
270.0
  0
ARC
  5
6D9
100
AcDbEntity
  8
0
100
AcDbCircle
 62
7
  6
CONTINUOUS
 10
17.2875
 20
24.7
 40
0.25
100
AcDbArc
 50
0.0
 51
90.0
  0
ARC
  5
6DA
100
AcDbEntity
  8
0
100
AcDbCircle
 62
7
  6
CONTINUOUS
 10
-17.2125
 20
24.7
 40
0.25
100
AcDbArc
 50
90.0
 51
180.0
  0
ARC
  5
6DB
100
AcDbEntity
  8
0
100
AcDbCircle
 62
7
  6
CONTINUOUS
 10
-17.2125
 20
-19.8
 40
0.25
100
AcDbArc
 50
180.0
 51
270.0
  0
ARC
  5
6DC
100
AcDbEntity
  8
0
100
AcDbCircle
 62
7
  6
CONTINUOUS
 10
17.2875
 20
-19.8
 40
0.25
100
AcDbArc
 50
270.0
 51
360.0
  0
ELLIPSE
  5
6DD
100
AcDbEntity
  8
0
100
AcDbEllipse
 62
7
  6
CONTINUOUS
 10
0.0375
 20
18.3746165399
 30
0.0
 11
0.65
 21
-0.0
 31
0.0
 40
0.2698207078
 41
0.0
 42
1.5707963268
  0
ELLIPSE
  5
6DE
100
AcDbEntity
  8
0
100
AcDbEllipse
 62
7
  6
CONTINUOUS
 10
-0.8790517358
 20
10.8
 30
0.0
 11
-0.1057018101
 21
-0.0
 31
0.0
 40
0.9460575924
 41
-0.0
 42
1.5707963268
  0
ENDSEC
  0
SECTION
  2
OBJECTS
  0
DICTIONARY
  5
C
100
AcDbDictionary
280
0
281
1
  3
ACAD_GROUP
350
D
  3
ACAD_MLINESTYLE
350
17
  3
ACAD_LAYOUT
350
1A
  3
ACAD_PLOTSETTINGS
350
19
  3
ACAD_PLOTSTYLENAME
350
E
  0
DICTIONARY
  5
D
102
{ACAD_REACTORS
330
C
102
}
100
AcDbDictionary
280
0
281
1
  0
ACDBDICTIONARYWDFLT
  5
E
102
{ACAD_REACTORS
330
C
102
}
100
AcDbDictionary
281
1
  3
Normal
350
F
100
AcDbDictionaryWithDefault
340
F
  0
DICTIONARY
  5
17
102
{ACAD_REACTORS
330
C
102
}
100
AcDbDictionary
280
0
281
1
  3
Standard
350
18
  0
DICTIONARY
  5
19
102
{ACAD_REACTORS
330
C
102
}
100
AcDbDictionary
281
1
  0
DICTIONARY
  5
1A
102
{ACAD_REACTORS
330
C
102
}
100
AcDbDictionary
281
1
  3
Model
350
6DF
  3
Layout1
350
6E0
  0
ACDBPLACEHOLDER
  5
F
102
{ACAD_REACTORS
330
E
102
}
  0
MLINESTYLE
  5
18
102
{ACAD_REACTORS
330
17
102
}
100
AcDbMlineStyle
  2
STANDARD
 70
0
  3

 62
256
 51
90.0
 52
90.0
 71
2
 49
0.5
 62
256
  6
BYLAYER
 49
-0.5
 62
256
  6
BYLAYER
  0
LAYOUT
  5
6DF
102
{ACAD_REACTORS
330
1A
102
}
100
AcDbPlotSettings
  1

  2
none_device
  4
ISO_A4_(297.00_x_210.00_MM)
  6

 40
0.0
 41
0.0
 42
0.0
 43
0.0
 44
297.0
 45
210.0
 46
0.0
 47
0.0
 48
0.0
 49
0.0
140
0.0
141
0.0
142
1.0
143
1.0
 70
1024
 72
1
 73
0
 74
0
  7

 75
0
147
1.0
148
0.0
149
0.0
100
AcDbLayout
  1
Model
 70
0
 71
0
 10
0.0
 20
0.0
 11
297.0
 21
210.0
 12
0.0
 22
0.0
 32
0.0
 14
0.0
 24
0.0
 34
0.0
 15
0.0
 25
0.0
 35
0.0
146
0.0
 13
0.0
 23
0.0
 33
0.0
 16
1.0
 26
0.0
 36
0.0
 17
0.0
 27
1.0
 37
0.0
 76
0
330
20E
345
0
346
0
  0
LAYOUT
  5
6E0
102
{ACAD_REACTORS
330
1A
102
}
100
AcDbPlotSettings
  1

  2
none_device
  4
ISO_A4_(297.00_x_210.00_MM)
  6

 40
0.0
 41
0.0
 42
0.0
 43
0.0
 44
297.0
 45
210.0
 46
0.0
 47
0.0
 48
0.0
 49
0.0
140
0.0
141
0.0
142
1.0
143
1.0
 70
0
 72
1
 73
0
 74
0
  7

 75
0
147
1.0
148
0.0
149
0.0
100
AcDbLayout
  1
Layout1
 70
0
 71
1
 10
0.0
 20
0.0
 11
297.0
 21
210.0
 12
0.0
 22
0.0
 32
0.0
 14
0.0
 24
0.0
 34
0.0
 15
0.0
 25
0.0
 35
0.0
146
0.0
 13
0.0
 23
0.0
 33
0.0
 16
1.0
 26
0.0
 36
0.0
 17
0.0
 27
1.0
 37
0.0
 76
0
330
20F
345
0
346
0
  0
ENDSEC
  0
EOF
