  0
SECTION
  2
HEADER
  9
$ACADVER
  1
AC1015
  9
$DWGCODEPAGE
  3
ANSI_1252
  9
$EXTMAX
 10
297.0
 20
210.0
 30
0.0
  9
$EXTMIN
 10
0.0
 20
0.0
 30
0.0
  9
$LIMMIN
 10
0.0
 20
0.0
  9
$LIMMAX
 10
297.0
 20
210.0
  9
$VIEWCTR
 10
148.5
 20
105.0
  9
$VIEWSIZE
 40
210.0
  9
$CLAYER
  8
0
  9
$LTSCALE
 40
16.335
  9
$CELTYPE
  6
BYLAYER
  9
$DIMSCALE
 40
1.0
  9
$DIMASZ
 40
3.0
  9
$DIMEXO
 40
0.5
  9
$DIMDLI
 40
11.286
  9
$DIMEXE
 40
1.5
  9
$DIMCEN
 40
2.673
  9
$DIMLFAC
 40
1.0
  9
$DIMBLK
  1
_FILLED
  9
$DIMTXT
 40
3.0
  9
$DIMTOL
 70
1
  9
$DIMLIM
 70
0
  9
$DIMTFAC
 40
1.0
  9
$DIMTP
 40
0.01
  9
$DIMTM
 40
0.01
  9
$DIMGAP
 40
0.625
  9
$DIMDSEP
 70
44
  9
$PDMODE
 70
3
  9
$PDSIZE
 40
3.0
  9
$HANDSEED
  5
76F
  9
$TILEMODE
 70
1
  9
$MEASUREMENT
 70
1
  9
$INSUNITS
 70
4
  0
ENDSEC
  0
SECTION
  2
CLASSES
  0
CLASS
  1
ACDBDICTIONARYWDFLT
  2
AcDbDictionaryWithDefault
  3
AutoCAD 2000
 90
0
280
0
281
0
  0
CLASS
  1
ACDBPLACEHOLDER
  2
AcDbPlaceHolder
  3
AutoCAD 2000
 90
0
280
0
281
0
  0
CLASS
  1
LAYOUT
  2
AcDbLayout
  3
AutoCAD 2000
 90
0
280
0
281
0
  0
ENDSEC
  0
SECTION
  2
TABLES
  0
TABLE
  2
VPORT
  5
8
100
AcDbSymbolTable
 70
2
  0
VPORT
  5
1F4
100
AcDbSymbolTableRecord
100
AcDbViewportTableRecord
  2
*ACTIVE
 70
0
 10
0.0
 20
0.0
 11
1.0
 21
1.0
 12
148.5
 22
105.0
 13
0.0
 23
0.0
 14
1.0
 24
1.0
 15
0.0
 25
0.0
 16
0.0
 26
0.0
 36
1.0
 17
0.0
 27
0.0
 37
0.0
 40
210.0
 41
1.4142857143
 42
50.0
 43
0.0
 44
0.0
 50
0.0
 51
0.0
 71
0
 72
100
 73
1
 74
1
 75
0
 76
0
 77
0
 78
0
  0
ENDTAB
  0
TABLE
  2
LTYPE
  5
5
100
AcDbSymbolTable
 70
6
  0
LTYPE
  5
14
100
AcDbSymbolTableRecord
100
AcDbLinetypeTableRecord
  2
BYBLOCK
 70
0
  3

 72
65
 73
0
 40
0.0
  0
LTYPE
  5
15
100
AcDbSymbolTableRecord
100
AcDbLinetypeTableRecord
  2
BYLAYER
 70
0
  3

 72
65
 73
0
 40
0.0
  0
LTYPE
  5
16
100
AcDbSymbolTableRecord
100
AcDbLinetypeTableRecord
  2
CONTINUOUS
 70
64
  3
Solid line
 72
65
 73
0
 40
0.0
  0
LTYPE
  5
1F5
100
AcDbSymbolTableRecord
100
AcDbLinetypeTableRecord
  2
CENTER
 70
64
  3
____ _ ____ _ ____ _ ____ _ ____ _ ____ _ ____
 72
65
 73
4
 40
0.6
 49
0.375
 74
0
 49
-0.075
 74
0
 49
0.075
 74
0
 49
-0.075
 74
0
  0
LTYPE
  5
1F6
100
AcDbSymbolTableRecord
100
AcDbLinetypeTableRecord
  2
HIDDEN
 70
64
  3
- - - - - - - - - - - - - - - - - - - -
 72
65
 73
2
 40
0.2
 49
0.1
 74
0
 49
-0.1
 74
0
  0
LTYPE
  5
1F7
100
AcDbSymbolTableRecord
100
AcDbLinetypeTableRecord
  2
PHANTOM
 70
64
  3
_____ _ _ _____ _ _ _____ _ _ _____
 72
65
 73
6
 40
0.8
 49
0.45
 74
0
 49
-0.05
 74
0
 49
0.1
 74
0
 49
-0.05
 74
0
 49
0.1
 74
0
 49
-0.05
 74
0
  0
LTYPE
  5
1F8
100
AcDbSymbolTableRecord
100
AcDbLinetypeTableRecord
  2
DOT
 70
64
  3
. . . . . . . . . . . . . . . . . . . .
 72
65
 73
2
 40
0.2
 49
0.1
 74
0
 49
-0.1
 74
0
  0
LTYPE
  5
1F9
100
AcDbSymbolTableRecord
100
AcDbLinetypeTableRecord
  2
DASHED
 70
64
  3
- - - - - - - - - - - - - - - - - - - -
 72
65
 73
2
 40
0.2
 49
0.1
 74
0
 49
-0.1
 74
0
  0
ENDTAB
  0
TABLE
  2
LAYER
  5
2
100
AcDbSymbolTable
 70
36
  0
LAYER
  5
10
100
AcDbSymbolTableRecord
100
AcDbLayerTableRecord
  2
0
 70
0
 62
7
  6
CONTINUOUS
370
-3
390
F
  0
LAYER
  5
1FA
100
AcDbSymbolTableRecord
100
AcDbLayerTableRecord
  2
DEFAULT_1
 70
0
 62
7
  6
CENTER
370
-3
390
F
  0
LAYER
  5
1FB
100
AcDbSymbolTableRecord
100
AcDbLayerTableRecord
  2
DEFAULT_2
 70
0
 62
7
  6
HIDDEN
370
-3
390
F
  0
LAYER
  5
1FC
100
AcDbSymbolTableRecord
100
AcDbLayerTableRecord
  2
DEFAULT_3
 70
0
 62
7
  6
PHANTOM
370
-3
390
F
  0
LAYER
  5
1FD
100
AcDbSymbolTableRecord
100
AcDbLayerTableRecord
  2
2CDG110025_01_ASM
 70
0
 62
7
  6
CONTINUOUS
370
-3
390
F
  0
LAYER
  5
1FE
100
AcDbSymbolTableRecord
100
AcDbLayerTableRecord
  2
6F-OBERT_GHQ630_6634-21
 70
0
 62
7
  6
CONTINUOUS
370
-3
390
F
  0
LAYER
  5
1FF
100
AcDbSymbolTableRecord
100
AcDbLayerTableRecord
  2
ASM0001
 70
0
 62
7
  6
CONTINUOUS
370
-3
390
F
  0
LAYER
  5
200
100
AcDbSymbolTableRecord
100
AcDbLayerTableRecord
  2
ASSI
 70
0
 62
7
  6
CONTINUOUS
370
-3
390
F
  0
LAYER
  5
201
100
AcDbSymbolTableRecord
100
AcDbLayerTableRecord
  2
BUSKLEMME-KPL_ASM
 70
0
 62
7
  6
CONTINUOUS
370
-3
390
F
  0
LAYER
  5
202
100
AcDbSymbolTableRecord
100
AcDbLayerTableRecord
  2
BUSKLEMME-ROT
 70
0
 62
7
  6
CONTINUOUS
370
-3
390
F
  0
LAYER
  5
203
100
AcDbSymbolTableRecord
100
AcDbLayerTableRecord
  2
BUSKLEMME-SCHWARZ
 70
0
 62
7
  6
CONTINUOUS
370
-3
390
F
  0
LAYER
  5
204
100
AcDbSymbolTableRecord
100
AcDbLayerTableRecord
  2
COLOR
 70
0
 62
7
  6
CONTINUOUS
370
-3
390
F
  0
LAYER
  5
205
100
AcDbSymbolTableRecord
100
AcDbLayerTableRecord
  2
COLOR191
 70
0
 62
7
  6
CONTINUOUS
370
-3
390
F
  0
LAYER
  5
206
100
AcDbSymbolTableRecord
100
AcDbLayerTableRecord
  2
COLOR199
 70
0
 62
7
  6
CONTINUOUS
370
-3
390
F
  0
LAYER
  5
207
100
AcDbSymbolTableRecord
100
AcDbLayerTableRecord
  2
COLOR200
 70
0
 62
7
  6
CONTINUOUS
370
-3
390
F
  0
LAYER
  5
208
100
AcDbSymbolTableRecord
100
AcDbLayerTableRecord
  2
COLOR201
 70
0
 62
7
  6
CONTINUOUS
370
-3
390
F
  0
LAYER
  5
209
100
AcDbSymbolTableRecord
100
AcDbLayerTableRecord
  2
COLOR202
 70
0
 62
7
  6
CONTINUOUS
370
-3
390
F
  0
LAYER
  5
20A
100
AcDbSymbolTableRecord
100
AcDbLayerTableRecord
  2
COLOR203
 70
0
 62
7
  6
CONTINUOUS
370
-3
390
F
  0
LAYER
  5
20B
100
AcDbSymbolTableRecord
100
AcDbLayerTableRecord
  2
COLOR29
 70
0
 62
7
  6
CONTINUOUS
370
-3
390
F
  0
LAYER
  5
20C
100
AcDbSymbolTableRecord
100
AcDbLayerTableRecord
  2
COLOR30
 70
0
 62
7
  6
CONTINUOUS
370
-3
390
F
  0
LAYER
  5
20D
100
AcDbSymbolTableRecord
100
AcDbLayerTableRecord
  2
COLOR_1
 70
0
 62
7
  6
CONTINUOUS
370
-3
390
F
  0
LAYER
  5
20E
100
AcDbSymbolTableRecord
100
AcDbLayerTableRecord
  2
COLOR_1_1
 70
0
 62
7
  6
CONTINUOUS
370
-3
390
F
  0
LAYER
  5
20F
100
AcDbSymbolTableRecord
100
AcDbLayerTableRecord
  2
COLOR_1_2
 70
0
 62
7
  6
CONTINUOUS
370
-3
390
F
  0
LAYER
  5
210
100
AcDbSymbolTableRecord
100
AcDbLayerTableRecord
  2
COORDINATE
 70
0
 62
7
  6
CONTINUOUS
370
-3
390
F
  0
LAYER
  5
211
100
AcDbSymbolTableRecord
100
AcDbLayerTableRecord
  2
COPY_PUBLISH
 70
0
 62
7
  6
CONTINUOUS
370
-3
390
F
  0
LAYER
  5
212
100
AcDbSymbolTableRecord
100
AcDbLayerTableRecord
  2
COSMETICI
 70
0
 62
7
  6
CONTINUOUS
370
-3
390
F
  0
LAYER
  5
213
100
AcDbSymbolTableRecord
100
AcDbLayerTableRecord
  2
CURVE
 70
0
 62
7
  6
CONTINUOUS
370
-3
390
F
  0
LAYER
  5
214
100
AcDbSymbolTableRecord
100
AcDbLayerTableRecord
  2
DRAFT
 70
0
 62
7
  6
CONTINUOUS
370
-3
390
F
  0
LAYER
  5
215
100
AcDbSymbolTableRecord
100
AcDbLayerTableRecord
  2
E415859801_00
 70
0
 62
7
  6
CONTINUOUS
370
-3
390
F
  0
LAYER
  5
216
100
AcDbSymbolTableRecord
100
AcDbLayerTableRecord
  2
FEDER-RASTE
 70
0
 62
7
  6
CONTINUOUS
370
-3
390
F
  0
LAYER
  5
217
100
AcDbSymbolTableRecord
100
AcDbLayerTableRecord
  2
GHQ6306633-PRT
 70
0
 62
7
  6
CONTINUOUS
370
-3
390
F
  0
LAYER
  5
218
100
AcDbSymbolTableRecord
100
AcDbLayerTableRecord
  2
IMPORT_IGES
 70
0
 62
7
  6
CONTINUOUS
370
-3
390
F
  0
LAYER
  5
219
100
AcDbSymbolTableRecord
100
AcDbLayerTableRecord
  2
INTFCLR_10
 70
0
 62
7
  6
CONTINUOUS
370
-3
390
F
  0
LAYER
  5
21A
100
AcDbSymbolTableRecord
100
AcDbLayerTableRecord
  2
INTFCLR_3
 70
0
 62
7
  6
CONTINUOUS
370
-3
390
F
  0
LAYER
  5
21B
100
AcDbSymbolTableRecord
100
AcDbLayerTableRecord
  2
INTFCLR_4
 70
0
 62
7
  6
CONTINUOUS
370
-3
390
F
  0
LAYER
  5
21C
100
AcDbSymbolTableRecord
100
AcDbLayerTableRecord
  2
INTFCLR_5
 70
0
 62
7
  6
CONTINUOUS
370
-3
390
F
  0
LAYER
  5
21D
100
AcDbSymbolTableRecord
100
AcDbLayerTableRecord
  2
INTFCLR_6
 70
0
 62
7
  6
CONTINUOUS
370
-3
390
F
  0
LAYER
  5
21E
100
AcDbSymbolTableRecord
100
AcDbLayerTableRecord
  2
INTFCLR_7
 70
0
 62
7
  6
CONTINUOUS
370
-3
390
F
  0
LAYER
  5
21F
100
AcDbSymbolTableRecord
100
AcDbLayerTableRecord
  2
INTFCLR_8
 70
0
 62
7
  6
CONTINUOUS
370
-3
390
F
  0
LAYER
  5
220
100
AcDbSymbolTableRecord
100
AcDbLayerTableRecord
  2
INTFCLR_9
 70
0
 62
7
  6
CONTINUOUS
370
-3
390
F
  0
LAYER
  5
221
100
AcDbSymbolTableRecord
100
AcDbLayerTableRecord
  2
INTF_1
 70
0
 62
7
  6
CONTINUOUS
370
-3
390
F
  0
LAYER
  5
222
100
AcDbSymbolTableRecord
100
AcDbLayerTableRecord
  2
INTF_1_1
 70
0
 62
7
  6
CONTINUOUS
370
-3
390
F
  0
LAYER
  5
223
100
AcDbSymbolTableRecord
100
AcDbLayerTableRecord
  2
INTF_1_1_1
 70
0
 62
7
  6
CONTINUOUS
370
-3
390
F
  0
LAYER
  5
224
100
AcDbSymbolTableRecord
100
AcDbLayerTableRecord
  2
INTF_1_1_2
 70
0
 62
7
  6
CONTINUOUS
370
-3
390
F
  0
LAYER
  5
225
100
AcDbSymbolTableRecord
100
AcDbLayerTableRecord
  2
INTF_RED
 70
0
 62
7
  6
CONTINUOUS
370
-3
390
F
  0
LAYER
  5
226
100
AcDbSymbolTableRecord
100
AcDbLayerTableRecord
  2
LICHTLEITER
 70
0
 62
7
  6
CONTINUOUS
370
-3
390
F
  0
LAYER
  5
227
100
AcDbSymbolTableRecord
100
AcDbLayerTableRecord
  2
LICHTLEITER-LANG
 70
0
 62
7
  6
CONTINUOUS
370
-3
390
F
  0
LAYER
  5
228
100
AcDbSymbolTableRecord
100
AcDbLayerTableRecord
  2
LICHTLEITER-LANG_1
 70
0
 62
7
  6
CONTINUOUS
370
-3
390
F
  0
LAYER
  5
229
100
AcDbSymbolTableRecord
100
AcDbLayerTableRecord
  2
LP-DG_S81
 70
0
 62
7
  6
CONTINUOUS
370
-3
390
F
  0
LAYER
  5
22A
100
AcDbSymbolTableRecord
100
AcDbLayerTableRecord
  2
MKDS_3-5_08
 70
0
 62
7
  6
CONTINUOUS
370
-3
390
F
  0
LAYER
  5
22B
100
AcDbSymbolTableRecord
100
AcDbLayerTableRecord
  2
MKDS_3-5_08_1
 70
0
 62
7
  6
CONTINUOUS
370
-3
390
F
  0
LAYER
  5
22C
100
AcDbSymbolTableRecord
100
AcDbLayerTableRecord
  2
MKDS_3-5_08_2
 70
0
 62
7
  6
CONTINUOUS
370
-3
390
F
  0
LAYER
  5
22D
100
AcDbSymbolTableRecord
100
AcDbLayerTableRecord
  2
MKDS_3-5_08_3
 70
0
 62
7
  6
CONTINUOUS
370
-3
390
F
  0
LAYER
  5
22E
100
AcDbSymbolTableRecord
100
AcDbLayerTableRecord
  2
MKDS_3-5_08_4
 70
0
 62
7
  6
CONTINUOUS
370
-3
390
F
  0
LAYER
  5
22F
100
AcDbSymbolTableRecord
100
AcDbLayerTableRecord
  2
MKDS_3-5_08_5
 70
0
 62
7
  6
CONTINUOUS
370
-3
390
F
  0
LAYER
  5
230
100
AcDbSymbolTableRecord
100
AcDbLayerTableRecord
  2
MKDS_3-5_08_6
 70
0
 62
7
  6
CONTINUOUS
370
-3
390
F
  0
LAYER
  5
231
100
AcDbSymbolTableRecord
100
AcDbLayerTableRecord
  2
MKDS_3-5_08_7
 70
0
 62
7
  6
CONTINUOUS
370
-3
390
F
  0
LAYER
  5
232
100
AcDbSymbolTableRecord
100
AcDbLayerTableRecord
  2
NOTE
 70
0
 62
7
  6
CONTINUOUS
370
-3
390
F
  0
LAYER
  5
233
100
AcDbSymbolTableRecord
100
AcDbLayerTableRecord
  2
PIANI
 70
0
 62
7
  6
CONTINUOUS
370
-3
390
F
  0
LAYER
  5
234
100
AcDbSymbolTableRecord
100
AcDbLayerTableRecord
  2
PUNTI
 70
0
 62
7
  6
CONTINUOUS
370
-3
390
F
  0
LAYER
  5
235
100
AcDbSymbolTableRecord
100
AcDbLayerTableRecord
  2
RACCORDO
 70
0
 62
7
  6
CONTINUOUS
370
-3
390
F
  0
LAYER
  5
236
100
AcDbSymbolTableRecord
100
AcDbLayerTableRecord
  2
RASTE-KPL-SCHEMA_ASM
 70
0
 62
7
  6
CONTINUOUS
370
-3
390
F
  0
LAYER
  5
237
100
AcDbSymbolTableRecord
100
AcDbLayerTableRecord
  2
RASTE-SCHEMA
 70
0
 62
7
  6
CONTINUOUS
370
-3
390
F
  0
LAYER
  5
238
100
AcDbSymbolTableRecord
100
AcDbLayerTableRecord
  2
SIMBOLI
 70
0
 62
7
  6
CONTINUOUS
370
-3
390
F
  0
LAYER
  5
239
100
AcDbSymbolTableRecord
100
AcDbLayerTableRecord
  2
SMUSSO
 70
0
 62
7
  6
CONTINUOUS
370
-3
390
F
  0
LAYER
  5
23A
100
AcDbSymbolTableRecord
100
AcDbLayerTableRecord
  2
SNAPLINE
 70
0
 62
7
  6
CONTINUOUS
370
-3
390
F
  0
LAYER
  5
23B
100
AcDbSymbolTableRecord
100
AcDbLayerTableRecord
  2
SUPERFICI
 70
0
 62
7
  6
CONTINUOUS
370
-3
390
F
  0
LAYER
  5
23C
100
AcDbSymbolTableRecord
100
AcDbLayerTableRecord
  2
TRASH
 70
0
 62
7
  6
CONTINUOUS
370
-3
390
F
  0
LAYER
  5
23D
100
AcDbSymbolTableRecord
100
AcDbLayerTableRecord
  2
WHITE
 70
0
 62
7
  6
CONTINUOUS
370
-3
390
F
  0
LAYER
  5
23E
100
AcDbSymbolTableRecord
100
AcDbLayerTableRecord
  2
___SHELL
 70
0
 62
7
  6
CONTINUOUS
370
-3
390
F
  0
ENDTAB
  0
TABLE
  2
STYLE
  5
3
100
AcDbSymbolTable
 70
1
  0
STYLE
  5
11
100
AcDbSymbolTableRecord
100
AcDbTextStyleTableRecord
  2
STANDARD
 70
0
 40
0.0
 41
0.8
 50
0.0
 71
0
 42
0.2
  3
txt
  4

  0
STYLE
  5
23F
100
AcDbSymbolTableRecord
100
AcDbTextStyleTableRecord
  2
TEXTSTYLE_1
 70
0
 40
0.0
 41
0.8
 50
0.0
 71
0
 42
0.2
  3
gdt
  4

  0
ENDTAB
  0
TABLE
  2
VIEW
  5
6
100
AcDbSymbolTable
 70
0
  0
ENDTAB
  0
TABLE
  2
UCS
  5
7
100
AcDbSymbolTable
 70
0
  0
ENDTAB
  0
TABLE
  2
APPID
  5
9
100
AcDbSymbolTable
 70
1
  0
APPID
  5
240
100
AcDbSymbolTableRecord
100
AcDbRegAppTableRecord
  2
ACAD
 70
0
  0
ENDTAB
  0
TABLE
  2
BLOCK_RECORD
  5
1
100
AcDbSymbolTable
 70
0
  0
BLOCK_RECORD
  5
241
100
AcDbSymbolTableRecord
100
AcDbBlockTableRecord
  2
*Model_Space
  0
BLOCK_RECORD
  5
242
100
AcDbSymbolTableRecord
100
AcDbBlockTableRecord
  2
*Paper_Space
  0
ENDTAB
  0
TABLE
  2
DIMSTYLE
  5
A
100
AcDbSymbolTable
 70
1
100
AcDbDimStyleTable
 71
0
  0
DIMSTYLE
105
243
100
AcDbSymbolTableRecord
100
AcDbDimStyleTableRecord
  2
STANDARD
 70
0
  3

  4

 40
1.0
 41
3.0
 42
0.5
 43
0.38
 44
1.5
 45
0.0
 46
0.0
 47
0.01
 48
0.01
140
3.0
141
0.09
142
0.0
143
25.4
144
1.0
145
0.0
146
1.0
147
0.625
 71
1.0
 72
0.0
 73
0
 74
0
 75
0
 76
0
 77
1
 78
8
170
0
171
2
172
0
173
0
174
0
175
0
176
0
177
0
178
0
270
2
271
2
272
2
273
2
274
2
275
0
280
0
281
0
282
0
283
1
284
8
285
0
286
0
287
3
288
0
340
11
278
44
  0
ENDTAB
  0
ENDSEC
  0
SECTION
  2
BLOCKS
  0
BLOCK
  5
20
100
AcDbEntity
  8
0
100
AcDbBlockBegin
  2
*Model_Space
 70
0
 10
0.0
 20
0.0
 30
0.0
  3
*Model_Space
  1

  0
ENDBLK
  5
21
100
AcDbEntity
  8
0
100
AcDbBlockEnd
  0
BLOCK
  5
1C
100
AcDbEntity
  8
0
100
AcDbBlockBegin
  2
*Paper_Space
 70
0
 10
0.0
 20
0.0
 30
0.0
  3
*Paper_Space
  1

  0
ENDBLK
  5
1D
100
AcDbEntity
  8
0
100
AcDbBlockEnd
  0
ENDSEC
  0
SECTION
  2
ENTITIES
  0
LINE
  5
244
100
AcDbEntity
  8
IMPORT_IGES
100
AcDbLine
 62
7
  6
CONTINUOUS
 10
-43.7419944947
 20
45.007214196
 11
-43.7825979709
 21
44.9662806204
  0
LINE
  5
245
100
AcDbEntity
  8
IMPORT_IGES
100
AcDbLine
 62
7
  6
CONTINUOUS
 10
-43.2892816479
 20
45.4595969434
 11
-43.7419944947
 21
45.007214196
  0
LWPOLYLINE
  5
246
100
AcDbEntity
  8
IMPORT_IGES
100
AcDbPolyline
 62
7
  6
CONTINUOUS
 90
3
 70
0
 10
-43.2825979709
 20
45.4662806204
 10
-43.2833269627
 20
45.465608375
 10
-43.2892816479
 20
45.4595969434
  0
LINE
  5
247
100
AcDbEntity
  8
IMPORT_IGES
100
AcDbLine
 62
7
  6
CONTINUOUS
 10
-54.4325979709
 20
15.9662806204
 11
-54.4325979709
 21
9.9662806204
  0
LINE
  5
248
100
AcDbEntity
  8
IMPORT_IGES
100
AcDbLine
 62
7
  6
CONTINUOUS
 10
-54.3825979709
 20
17.4662806204
 11
-54.3825979709
 21
-13.5337193796
  0
LINE
  5
249
100
AcDbEntity
  8
IMPORT_IGES
100
AcDbLine
 62
7
  6
CONTINUOUS
 10
-54.2825979709
 20
-42.5337193698
 11
-54.2825979709
 21
46.4662806163
  0
LINE
  5
24A
100
AcDbEntity
  8
IMPORT_IGES
100
AcDbLine
 62
253
  6
CONTINUOUS
 10
-53.7825979709
 20
-43.0337193796
 11
-53.7825979709
 21
46.9662806204
  0
LINE
  5
24B
100
AcDbEntity
  8
IMPORT_IGES
100
AcDbLine
 62
253
  6
CONTINUOUS
 10
-52.5825979709
 20
-43.0337193796
 11
-52.5825979709
 21
-18.5337193796
  0
LINE
  5
24C
100
AcDbEntity
  8
IMPORT_IGES
100
AcDbLine
 62
253
  6
CONTINUOUS
 10
-52.5825979709
 20
22.0662806204
 11
-52.5825979709
 21
46.9662806204
  0
LINE
  5
24D
100
AcDbEntity
  8
IMPORT_IGES
100
AcDbLine
 62
7
  6
CONTINUOUS
 10
-52.0825979709
 20
46.4662806204
 11
-52.0825979709
 21
21.2662806204
  0
LINE
  5
24E
100
AcDbEntity
  8
IMPORT_IGES
100
AcDbLine
 62
7
  6
CONTINUOUS
 10
-52.0825979709
 20
-19.0337193796
 11
-52.0825979709
 21
-42.5337193769
  0
LINE
  5
24F
100
AcDbEntity
  8
IMPORT_IGES
100
AcDbLine
 62
7
  6
CONTINUOUS
 10
-51.8825979709
 20
44.6662806204
 11
-51.8825979709
 21
39.0662806204
  0
LINE
  5
250
100
AcDbEntity
  8
IMPORT_IGES
100
AcDbLine
 62
7
  6
CONTINUOUS
 10
-51.7825979709
 20
44.7240219329
 11
-51.7825979709
 21
44.6662806204
  0
LINE
  5
251
100
AcDbEntity
  8
IMPORT_IGES
100
AcDbLine
 62
7
  6
CONTINUOUS
 10
-42.9486119969
 20
31.5288049187
 11
-43.3202611284
 21
30.9713312215
  0
LINE
  5
252
100
AcDbEntity
  8
IMPORT_IGES
100
AcDbLine
 62
7
  6
CONTINUOUS
 10
-36.4908958482
 20
39.2404469756
 11
-36.3657894802
 21
39.4037806204
  0
LINE
  5
253
100
AcDbEntity
  8
IMPORT_IGES
100
AcDbLine
 62
7
  6
CONTINUOUS
 10
-36.1989809894
 20
39.2812806204
 11
-36.2823852348
 21
39.1996142653
  0
LINE
  5
254
100
AcDbEntity
  8
IMPORT_IGES
100
AcDbLine
 62
7
  6
CONTINUOUS
 10
-36.3657894802
 20
39.4037806204
 11
-36.1989809894
 21
39.5262806204
  0
LINE
  5
255
100
AcDbEntity
  8
IMPORT_IGES
100
AcDbLine
 62
7
  6
CONTINUOUS
 10
-45.2378925493
 20
34.7047895521
 11
-44.2328925493
 21
35.3747895521
  0
LINE
  5
256
100
AcDbEntity
  8
IMPORT_IGES
100
AcDbLine
 62
7
  6
CONTINUOUS
 10
-43.2261116932
 20
36.0459767895
 11
-41.3084802722
 21
37.3243977368
  0
LINE
  5
257
100
AcDbEntity
  8
IMPORT_IGES
100
AcDbLine
 62
7
  6
CONTINUOUS
 10
-40.9368311408
 20
36.7669240396
 11
-42.8544625617
 21
35.4885030923
  0
LINE
  5
258
100
AcDbEntity
  8
IMPORT_IGES
100
AcDbLine
 62
7
  6
CONTINUOUS
 10
-43.8612434178
 20
34.8173158549
 11
-44.8662434179
 21
34.1473158548
  0
LINE
  5
259
100
AcDbEntity
  8
IMPORT_IGES
100
AcDbLine
 62
7
  6
CONTINUOUS
 10
-35.9904702592
 20
40.7104469755
 11
-35.8653638911
 21
40.7921142653
  0
LINE
  5
25A
100
AcDbEntity
  8
IMPORT_IGES
100
AcDbLine
 62
7
  6
CONTINUOUS
 10
-52.0850230036
 20
-19.0313910415
 11
-52.0825979709
 21
-19.0337193796
  0
LWPOLYLINE
  5
25B
100
AcDbEntity
  8
IMPORT_IGES
100
AcDbPolyline
 62
7
  6
CONTINUOUS
 90
4
 70
0
 10
-52.416307901
 20
-18.6999680429
 10
-52.3673391132
 20
-18.7488177201
 10
-52.3220779158
 20
-18.7943803413
 10
-52.24023537
 20
-18.8759062735
  0
LWPOLYLINE
  5
25C
100
AcDbEntity
  8
IMPORT_IGES
100
AcDbPolyline
 62
7
  6
CONTINUOUS
 90
3
 70
0
 10
-52.24023537
 20
-18.8759062735
 10
-52.20453227
 20
-18.9118695845
 10
-52.1453044371
 20
-18.9707449934
  0
LINE
  5
25D
100
AcDbEntity
  8
IMPORT_IGES
100
AcDbLine
 62
7
  6
CONTINUOUS
 10
-52.1453044371
 20
-18.9707449934
 11
-52.0850230036
 21
-19.0313910415
  0
LWPOLYLINE
  5
25E
100
AcDbEntity
  8
IMPORT_IGES
100
AcDbPolyline
 62
7
  6
CONTINUOUS
 90
3
 70
0
 10
-52.5825979709
 20
-18.5337193796
 10
-52.5247090537
 20
-18.5924226566
 10
-52.416307901
 20
-18.6999680429
  0
LINE
  5
25F
100
AcDbEntity
  8
IMPORT_IGES
100
AcDbLine
 62
7
  6
CONTINUOUS
 10
-50.2825979709
 20
-17.5337193796
 11
-50.2825979709
 21
-16.3337193796
  0
LINE
  5
260
100
AcDbEntity
  8
IMPORT_IGES
100
AcDbLine
 62
7
  6
CONTINUOUS
 10
-50.2825979709
 20
19.0662806204
 11
-50.2825979709
 21
21.7662806204
  0
LINE
  5
261
100
AcDbEntity
  8
IMPORT_IGES
100
AcDbLine
 62
7
  6
CONTINUOUS
 10
-50.0825979709
 20
44.6662806204
 11
-50.0825979709
 21
44.7662806204
  0
LINE
  5
262
100
AcDbEntity
  8
IMPORT_IGES
100
AcDbLine
 62
7
  6
CONTINUOUS
 10
-49.0825979709
 20
44.2662806204
 11
-49.0825979709
 21
39.4662806204
  0
LINE
  5
263
100
AcDbEntity
  8
IMPORT_IGES
100
AcDbLine
 62
7
  6
CONTINUOUS
 10
-35.5734490323
 20
40.2204469755
 11
-35.281534115
 21
40.7921142653
  0
LINE
  5
264
100
AcDbEntity
  8
IMPORT_IGES
100
AcDbLine
 62
7
  6
CONTINUOUS
 10
-35.156427747
 20
40.7104469755
 11
-35.5734490323
 21
39.9346142653
  0
LINE
  5
265
100
AcDbEntity
  8
IMPORT_IGES
100
AcDbLine
 62
7
  6
CONTINUOUS
 10
-36.4908958482
 20
34.5854474429
 11
-36.3657894802
 21
34.7896142653
  0
LINE
  5
266
100
AcDbEntity
  8
IMPORT_IGES
100
AcDbLine
 62
7
  6
CONTINUOUS
 10
-35.7819596457
 20
34.6262806204
 11
-35.6568532777
 21
34.8304469755
  0
LINE
  5
267
100
AcDbEntity
  8
IMPORT_IGES
100
AcDbLine
 62
7
  6
CONTINUOUS
 10
-36.4908958482
 20
32.7887806204
 11
-36.3657894802
 21
32.9929474428
  0
LINE
  5
268
100
AcDbEntity
  8
IMPORT_IGES
100
AcDbLine
 62
7
  6
CONTINUOUS
 10
-35.7819596457
 20
32.829613798
 11
-35.6568532777
 21
33.0337806204
  0
LINE
  5
269
100
AcDbEntity
  8
IMPORT_IGES
100
AcDbLine
 62
7
  6
CONTINUOUS
 10
-41.5701820093
 20
31.4150913784
 11
-41.9418311408
 21
30.8576176812
  0
LINE
  5
26A
100
AcDbEntity
  8
IMPORT_IGES
100
AcDbLine
 62
7
  6
CONTINUOUS
 10
-42.3134802722
 20
30.300143984
 11
-42.6851294037
 21
29.7426702868
  0
LINE
  5
26B
100
AcDbEntity
  8
IMPORT_IGES
100
AcDbLine
 62
7
  6
CONTINUOUS
 10
-36.1989809894
 20
34.6671142653
 11
-36.2823852348
 21
34.544613798
  0
LINE
  5
26C
100
AcDbEntity
  8
IMPORT_IGES
100
AcDbLine
 62
7
  6
CONTINUOUS
 10
-35.4900447869
 20
34.7079469756
 11
-35.5734490323
 21
34.5854474428
  0
LINE
  5
26D
100
AcDbEntity
  8
IMPORT_IGES
100
AcDbLine
 62
7
  6
CONTINUOUS
 10
-36.1989809894
 20
32.8704474428
 11
-36.2823852348
 21
32.7479474428
  0
LINE
  5
26E
100
AcDbEntity
  8
IMPORT_IGES
100
AcDbLine
 62
7
  6
CONTINUOUS
 10
-34.9062149817
 20
33.932113798
 11
-34.8228107363
 21
34.054613798
  0
LINE
  5
26F
100
AcDbEntity
  8
IMPORT_IGES
100
AcDbLine
 62
7
  6
CONTINUOUS
 10
-35.4900447869
 20
32.9112806204
 11
-35.5734490323
 21
32.7887806204
  0
LINE
  5
270
100
AcDbEntity
  8
IMPORT_IGES
100
AcDbLine
 62
7
  6
CONTINUOUS
 10
-35.6568532777
 20
34.8304469755
 11
-35.5317469096
 21
34.9529469755
  0
LINE
  5
271
100
AcDbEntity
  8
IMPORT_IGES
100
AcDbLine
 62
7
  6
CONTINUOUS
 10
-35.4066405415
 20
34.7896142653
 11
-35.4900447869
 21
34.7079469756
  0
LINE
  5
272
100
AcDbEntity
  8
IMPORT_IGES
100
AcDbLine
 62
7
  6
CONTINUOUS
 10
-35.6568532777
 20
33.0337806204
 11
-35.5317469096
 21
33.1562806204
  0
LINE
  5
273
100
AcDbEntity
  8
IMPORT_IGES
100
AcDbLine
 62
7
  6
CONTINUOUS
 10
-35.4066405415
 20
32.9929474428
 11
-35.4900447869
 21
32.9112806204
  0
LINE
  5
274
100
AcDbEntity
  8
IMPORT_IGES
100
AcDbLine
 62
7
  6
CONTINUOUS
 10
-36.3657894802
 20
34.7896142653
 11
-36.1989809894
 21
34.9121142653
  0
LINE
  5
275
100
AcDbEntity
  8
IMPORT_IGES
100
AcDbLine
 62
7
  6
CONTINUOUS
 10
-36.3657894802
 20
32.9929474428
 11
-36.1989809894
 21
33.1154474428
  0
LINE
  5
276
100
AcDbEntity
  8
IMPORT_IGES
100
AcDbLine
 62
7
  6
CONTINUOUS
 10
-38.3448406163
 20
34.3723688142
 11
-39.3498406163
 21
33.7023688142
  0
LINE
  5
277
100
AcDbEntity
  8
IMPORT_IGES
100
AcDbLine
 62
7
  6
CONTINUOUS
 10
-36.0738746214
 20
34.7487806204
 11
-36.1989809894
 21
34.6671142653
  0
LINE
  5
278
100
AcDbEntity
  8
IMPORT_IGES
100
AcDbLine
 62
7
  6
CONTINUOUS
 10
-35.5317469096
 20
39.2404469755
 11
-34.5725979709
 21
39.6079469755
  0
LINE
  5
279
100
AcDbEntity
  8
IMPORT_IGES
100
AcDbLine
 62
7
  6
CONTINUOUS
 10
-34.5725979709
 20
39.3221142653
 11
-35.4483426642
 21
38.9954469755
  0
LINE
  5
27A
100
AcDbEntity
  8
IMPORT_IGES
100
AcDbLine
 62
7
  6
CONTINUOUS
 10
-36.1989809894
 20
39.5262806204
 11
-36.0738746214
 21
39.5671142653
  0
LINE
  5
27B
100
AcDbEntity
  8
IMPORT_IGES
100
AcDbLine
 62
7
  6
CONTINUOUS
 10
-36.0738746214
 20
39.3221142653
 11
-36.1989809894
 21
39.2812806204
  0
LINE
  5
27C
100
AcDbEntity
  8
IMPORT_IGES
100
AcDbLine
 62
253
  6
CONTINUOUS
 10
-43.7825979709
 20
44.9662806204
 11
-43.7825979709
 21
46.9662806204
  0
LINE
  5
27D
100
AcDbEntity
  8
IMPORT_IGES
100
AcDbLine
 62
7
  6
CONTINUOUS
 10
-43.4895942864
 20
35.4677018349
 11
-43.4895942864
 21
34.2598421576
  0
LINE
  5
27E
100
AcDbEntity
  8
IMPORT_IGES
100
AcDbLine
 62
7
  6
CONTINUOUS
 10
-43.2825979709
 20
46.4662806204
 11
-43.2825979709
 21
45.4662806204
  0
LINE
  5
27F
100
AcDbEntity
  8
IMPORT_IGES
100
AcDbLine
 62
7
  6
CONTINUOUS
 10
-42.6851294037
 20
29.7426702868
 11
-42.6851294037
 21
30.9505299641
  0
LINE
  5
280
100
AcDbEntity
  8
IMPORT_IGES
100
AcDbLine
 62
7
  6
CONTINUOUS
 10
-36.5325979709
 20
39.0362806204
 11
-36.4908958482
 21
39.2404469756
  0
LINE
  5
281
100
AcDbEntity
  8
IMPORT_IGES
100
AcDbLine
 62
7
  6
CONTINUOUS
 10
-36.5325979709
 20
34.3812806204
 11
-36.4908958482
 21
34.5854474429
  0
LINE
  5
282
100
AcDbEntity
  8
IMPORT_IGES
100
AcDbLine
 62
7
  6
CONTINUOUS
 10
-36.2823852348
 20
39.1996142653
 11
-36.3240873575
 21
39.0771142653
  0
LINE
  5
283
100
AcDbEntity
  8
IMPORT_IGES
100
AcDbLine
 62
7
  6
CONTINUOUS
 10
-36.2823852348
 20
34.544613798
 11
-36.3240873575
 21
34.422113798
  0
LINE
  5
284
100
AcDbEntity
  8
IMPORT_IGES
100
AcDbLine
 62
7
  6
CONTINUOUS
 10
-36.2823852348
 20
32.7479474428
 11
-36.3240873575
 21
32.6254474428
  0
LINE
  5
285
100
AcDbEntity
  8
IMPORT_IGES
100
AcDbLine
 62
7
  6
CONTINUOUS
 10
-35.5734490323
 20
34.5854474428
 11
-35.615151155
 21
34.4629474428
  0
LINE
  5
286
100
AcDbEntity
  8
IMPORT_IGES
100
AcDbLine
 62
7
  6
CONTINUOUS
 10
-35.5734490323
 20
32.7887806204
 11
-35.615151155
 21
32.6662806204
  0
LINE
  5
287
100
AcDbEntity
  8
IMPORT_IGES
100
AcDbLine
 62
7
  6
CONTINUOUS
 10
-34.8228107363
 20
34.054613798
 11
-34.7811086136
 21
34.177113798
  0
LINE
  5
288
100
AcDbEntity
  8
IMPORT_IGES
100
AcDbLine
 62
7
  6
CONTINUOUS
 10
-36.2823852348
 20
29.1137806204
 11
-36.3240873575
 21
28.9912806204
  0
LINE
  5
289
100
AcDbEntity
  8
IMPORT_IGES
100
AcDbLine
 62
7
  6
CONTINUOUS
 10
-34.8228107363
 20
32.2579474428
 11
-34.7811086136
 21
32.3804474428
  0
LINE
  5
28A
100
AcDbEntity
  8
IMPORT_IGES
100
AcDbLine
 62
7
  6
CONTINUOUS
 10
-35.5734490323
 20
27.3579472676
 11
-35.8653638911
 21
26.7862806204
  0
LINE
  5
28B
100
AcDbEntity
  8
IMPORT_IGES
100
AcDbLine
 62
7
  6
CONTINUOUS
 10
-35.9904702592
 20
26.8679472895
 11
-35.5734490323
 21
27.6437806204
  0
LINE
  5
28C
100
AcDbEntity
  8
IMPORT_IGES
100
AcDbLine
 62
7
  6
CONTINUOUS
 10
-34.6143000973
 20
34.0137806204
 11
-34.7394064763
 21
33.809613798
  0
LINE
  5
28D
100
AcDbEntity
  8
IMPORT_IGES
100
AcDbLine
 62
7
  6
CONTINUOUS
 10
-34.6143000973
 20
32.217113798
 11
-34.7394064763
 21
32.0129474428
  0
LINE
  5
28E
100
AcDbEntity
  8
IMPORT_IGES
100
AcDbLine
 62
7
  6
CONTINUOUS
 10
-34.9062149817
 20
32.1354474428
 11
-34.8228107363
 21
32.2579474428
  0
LINE
  5
28F
100
AcDbEntity
  8
IMPORT_IGES
100
AcDbLine
 62
7
  6
CONTINUOUS
 10
-36.4908958482
 20
29.1546140316
 11
-36.3657894802
 21
29.3179472092
  0
LINE
  5
290
100
AcDbEntity
  8
IMPORT_IGES
100
AcDbLine
 62
7
  6
CONTINUOUS
 10
-36.1989809894
 20
29.1954472092
 11
-36.2823852348
 21
29.1137806204
  0
LINE
  5
291
100
AcDbEntity
  8
IMPORT_IGES
100
AcDbLine
 62
7
  6
CONTINUOUS
 10
-34.7394064763
 20
33.809613798
 11
-34.9062149817
 21
33.687113798
  0
LINE
  5
292
100
AcDbEntity
  8
IMPORT_IGES
100
AcDbLine
 62
7
  6
CONTINUOUS
 10
-34.7394064763
 20
32.0129474428
 11
-34.9062149816
 21
31.8904474428
  0
LINE
  5
293
100
AcDbEntity
  8
IMPORT_IGES
100
AcDbLine
 62
7
  6
CONTINUOUS
 10
-36.3657894802
 20
29.3179472092
 11
-36.1989809894
 21
29.4404472092
  0
LINE
  5
294
100
AcDbEntity
  8
IMPORT_IGES
100
AcDbLine
 62
7
  6
CONTINUOUS
 10
-35.0313213789
 20
33.8504474428
 11
-34.9062149817
 21
33.932113798
  0
LINE
  5
295
100
AcDbEntity
  8
IMPORT_IGES
100
AcDbLine
 62
7
  6
CONTINUOUS
 10
-36.0738746214
 20
32.952113798
 11
-36.1989809894
 21
32.8704474428
  0
LINE
  5
296
100
AcDbEntity
  8
IMPORT_IGES
100
AcDbLine
 62
7
  6
CONTINUOUS
 10
-35.0313213789
 20
32.0537806204
 11
-34.9062149817
 21
32.1354474428
  0
LINE
  5
297
100
AcDbEntity
  8
IMPORT_IGES
100
AcDbLine
 62
7
  6
CONTINUOUS
 10
-42.6851294037
 20
30.9505299641
 11
-41.5701820093
 21
31.4150913784
  0
LINE
  5
298
100
AcDbEntity
  8
IMPORT_IGES
100
AcDbLine
 62
7
  6
CONTINUOUS
 10
-35.5317469096
 20
34.9529469755
 11
-35.3232362961
 21
35.0346142653
  0
LINE
  5
299
100
AcDbEntity
  8
IMPORT_IGES
100
AcDbLine
 62
7
  6
CONTINUOUS
 10
-34.9062149817
 20
33.687113798
 11
-35.1147256243
 21
33.6054474429
  0
LINE
  5
29A
100
AcDbEntity
  8
IMPORT_IGES
100
AcDbLine
 62
7
  6
CONTINUOUS
 10
-35.5317469096
 20
33.1562806204
 11
-35.3232362961
 21
33.2379474428
  0
LINE
  5
29B
100
AcDbEntity
  8
IMPORT_IGES
100
AcDbLine
 62
7
  6
CONTINUOUS
 10
-36.1989809894
 20
34.9121142653
 11
-36.0738746214
 21
34.9529469755
  0
LINE
  5
29C
100
AcDbEntity
  8
IMPORT_IGES
100
AcDbLine
 62
7
  6
CONTINUOUS
 10
-35.2815341151
 20
34.8304469755
 11
-35.4066405415
 21
34.7896142653
  0
LINE
  5
29D
100
AcDbEntity
  8
IMPORT_IGES
100
AcDbLine
 62
7
  6
CONTINUOUS
 10
53.2174020291
 20
-43.0337193796
 11
-53.7825979709
 21
-43.0337193796
  0
LINE
  5
29E
100
AcDbEntity
  8
IMPORT_IGES
100
AcDbLine
 62
253
  6
CONTINUOUS
 10
-52.0825979709
 20
-42.5337193796
 11
51.5174020291
 21
-42.5337193796
  0
LINE
  5
29F
100
AcDbEntity
  8
IMPORT_IGES
100
AcDbLine
 62
253
  6
CONTINUOUS
 10
51.5174020291
 20
-42.0337193796
 11
53.7174020291
 21
-42.0337193527
  0
LINE
  5
2A0
100
AcDbEntity
  8
IMPORT_IGES
100
AcDbLine
 62
253
  6
CONTINUOUS
 10
-52.0825979709
 20
-42.0337193527
 11
-54.2825979709
 21
-42.0337193798
  0
LINE
  5
2A1
100
AcDbEntity
  8
IMPORT_IGES
100
AcDbLine
 62
7
  6
CONTINUOUS
 10
51.5174020291
 20
-41.5337193796
 11
-52.0825979709
 21
-41.5337193796
  0
LINE
  5
2A2
100
AcDbEntity
  8
IMPORT_IGES
100
AcDbLine
 62
253
  6
CONTINUOUS
 10
9.0174020291
 20
-41.0337193796
 11
51.5174020291
 21
-41.0337193796
  0
LINE
  5
2A3
100
AcDbEntity
  8
IMPORT_IGES
100
AcDbLine
 62
253
  6
CONTINUOUS
 10
-9.5825979709
 20
-41.0337193796
 11
-52.0825979709
 21
-41.0337193796
  0
LWPOLYLINE
  5
2A4
100
AcDbEntity
  8
IMPORT_IGES
100
AcDbPolyline
 62
7
  6
CONTINUOUS
 90
28
 70
0
 10
-52.3825762056
 20
21.7662806204
 10
-52.38886137
 20
21.7856322243
 10
-52.395191383
 20
21.8043826287
 10
-52.4015662446
 20
21.8225318337
 10
-52.4079808291
 20
21.8400731121
 10
-52.4144402622
 20
21.857013191
 10
-52.4209599209
 20
21.873372252
 10
-52.4275378952
 20
21.8891545801
 10
-52.4341760951
 20
21.9043558902
 10
-52.4408956273
 20
21.9189835086
 10
-52.447694012
 20
21.9330440511
 10
-52.454573729
 20
21.946530902
 10
-52.4615633252
 20
21.9594315406
 10
-52.4686602275
 20
21.9717571282
 10
-52.475867009
 20
21.9834965036
 10
-52.4832199357
 20
21.994603662
 10
-52.490719866
 20
22.0050981222
 10
-52.4983659414
 20
22.0149603654
 10
-52.506191853
 20
22.0240858309
 10
-52.5142152589
 20
22.0325009698
 10
-52.522418501
 20
22.040179331
 10
-52.5307822957
 20
22.0469369998
 10
-52.5393631831
 20
22.0527682277
 10
-52.5481046231
 20
22.0576787633
 10
-52.5568177123
 20
22.061501938
 10
-52.5654394827
 20
22.0641821955
 10
-52.5740329023
 20
22.065775092
 10
-52.5825979709
 20
22.0662806276
  0
LINE
  5
2A5
100
AcDbEntity
  8
IMPORT_IGES
100
AcDbLine
 62
7
  6
CONTINUOUS
 10
-40.2825979709
 20
21.7662806204
 11
-40.2825979709
 21
19.0662806204
  0
LINE
  5
2A6
100
AcDbEntity
  8
IMPORT_IGES
100
AcDbLine
 62
7
  6
CONTINUOUS
 10
-39.6848406163
 20
30.8576626757
 11
-39.6848406163
 21
33.1623688142
  0
LINE
  5
2A7
100
AcDbEntity
  8
IMPORT_IGES
100
AcDbLine
 62
7
  6
CONTINUOUS
 10
-39.6848406163
 20
34.3723688142
 11
-39.6848406163
 21
36.0968790451
  0
LINE
  5
2A8
100
AcDbEntity
  8
IMPORT_IGES
100
AcDbLine
 62
7
  6
CONTINUOUS
 10
-39.0148406163
 20
36.0968790451
 11
-39.0148406163
 21
34.3723688142
  0
LINE
  5
2A9
100
AcDbEntity
  8
IMPORT_IGES
100
AcDbLine
 62
7
  6
CONTINUOUS
 10
-39.0148406163
 20
33.1623688142
 11
-39.0148406163
 21
30.8576626757
  0
LINE
  5
2AA
100
AcDbEntity
  8
IMPORT_IGES
100
AcDbLine
 62
7
  6
CONTINUOUS
 10
-36.5325979709
 20
32.584613798
 11
-36.4908958482
 21
32.7887806204
  0
LINE
  5
2AB
100
AcDbEntity
  8
IMPORT_IGES
100
AcDbLine
 62
7
  6
CONTINUOUS
 10
-35.8236617684
 20
34.422113798
 11
-35.7819596457
 21
34.6262806204
  0
LINE
  5
2AC
100
AcDbEntity
  8
IMPORT_IGES
100
AcDbLine
 62
7
  6
CONTINUOUS
 10
-35.8236617684
 20
32.6254474429
 11
-35.7819596457
 21
32.829613798
  0
LINE
  5
2AD
100
AcDbEntity
  8
IMPORT_IGES
100
AcDbLine
 62
7
  6
CONTINUOUS
 10
-36.5325979709
 20
28.9504472092
 11
-36.4908958482
 21
29.1546140316
  0
LINE
  5
2AE
100
AcDbEntity
  8
IMPORT_IGES
100
AcDbLine
 62
7
  6
CONTINUOUS
 10
-34.5725979709
 20
34.2179474428
 11
-34.6143000973
 21
34.0137806204
  0
LINE
  5
2AF
100
AcDbEntity
  8
IMPORT_IGES
100
AcDbLine
 62
7
  6
CONTINUOUS
 10
-34.5725979709
 20
32.4212806204
 11
-34.6143000973
 21
32.217113798
  0
LINE
  5
2B0
100
AcDbEntity
  8
IMPORT_IGES
100
AcDbLine
 62
7
  6
CONTINUOUS
 10
-35.156427747
 20
26.8679472895
 11
-35.281534115
 21
26.7862806204
  0
LINE
  5
2B1
100
AcDbEntity
  8
IMPORT_IGES
100
AcDbLine
 62
7
  6
CONTINUOUS
 10
-34.9062149816
 20
31.8904474428
 11
-35.1147256243
 21
31.8087806204
  0
LINE
  5
2B2
100
AcDbEntity
  8
IMPORT_IGES
100
AcDbLine
 62
7
  6
CONTINUOUS
 10
-36.5325979709
 20
30.7879474428
 11
-34.5725979709
 21
31.4412806204
  0
LINE
  5
2B3
100
AcDbEntity
  8
IMPORT_IGES
100
AcDbLine
 62
7
  6
CONTINUOUS
 10
-35.156427747
 20
33.809613798
 11
-35.0313213789
 21
33.8504474428
  0
LINE
  5
2B4
100
AcDbEntity
  8
IMPORT_IGES
100
AcDbLine
 62
7
  6
CONTINUOUS
 10
-36.1989809894
 20
33.1154474428
 11
-36.0738746214
 21
33.1562806204
  0
LINE
  5
2B5
100
AcDbEntity
  8
IMPORT_IGES
100
AcDbLine
 62
7
  6
CONTINUOUS
 10
-35.281534115
 20
33.0337806204
 11
-35.4066405415
 21
32.9929474428
  0
LINE
  5
2B6
100
AcDbEntity
  8
IMPORT_IGES
100
AcDbLine
 62
7
  6
CONTINUOUS
 10
-35.156427747
 20
32.0129474428
 11
-35.0313213789
 21
32.0537806204
  0
LINE
  5
2B7
100
AcDbEntity
  8
IMPORT_IGES
100
AcDbLine
 62
7
  6
CONTINUOUS
 10
-35.2398319924
 20
30.992113798
 11
-36.3657894802
 21
30.6246140316
  0
LINE
  5
2B8
100
AcDbEntity
  8
IMPORT_IGES
100
AcDbLine
 62
7
  6
CONTINUOUS
 10
-34.5725979709
 20
31.1962806204
 11
-35.0730235016
 21
31.0329474428
  0
LINE
  5
2B9
100
AcDbEntity
  8
IMPORT_IGES
100
AcDbLine
 62
7
  6
CONTINUOUS
 10
-36.1989809894
 20
29.4404472092
 11
-36.0738746214
 21
29.4812806204
  0
LINE
  5
2BA
100
AcDbEntity
  8
IMPORT_IGES
100
AcDbLine
 62
7
  6
CONTINUOUS
 10
-36.0738746214
 20
29.2362806204
 11
-36.1989809894
 21
29.1954472092
  0
LINE
  5
2BB
100
AcDbEntity
  8
IMPORT_IGES
100
AcDbLine
 62
7
  6
CONTINUOUS
 10
40.6944845677
 20
-30.1294640937
 11
40.4861520291
 21
-30.1826555767
  0
LINE
  5
2BC
100
AcDbEntity
  8
IMPORT_IGES
100
AcDbLine
 62
7
  6
CONTINUOUS
 10
42.7778194905
 20
-29.544357706
 11
42.5694845677
 21
-29.597549189
  0
LINE
  5
2BD
100
AcDbEntity
  8
IMPORT_IGES
100
AcDbLine
 62
7
  6
CONTINUOUS
 10
42.5694845677
 20
-29.3847832569
 11
42.7778194905
 21
-29.3315917739
  0
LINE
  5
2BE
100
AcDbEntity
  8
IMPORT_IGES
100
AcDbLine
 62
7
  6
CONTINUOUS
 10
40.5903194905
 20
-29.544357706
 11
40.3819845677
 21
-29.597549189
  0
LINE
  5
2BF
100
AcDbEntity
  8
IMPORT_IGES
100
AcDbLine
 62
7
  6
CONTINUOUS
 10
33.0382357598
 20
-30.7145704442
 11
33.2465682984
 21
-30.6613789612
  0
LINE
  5
2C0
100
AcDbEntity
  8
IMPORT_IGES
100
AcDbLine
 62
7
  6
CONTINUOUS
 10
35.0174020291
 20
-29.544357706
 11
34.8090682984
 21
-29.597549189
  0
LINE
  5
2C1
100
AcDbEntity
  8
IMPORT_IGES
100
AcDbLine
 62
7
  6
CONTINUOUS
 10
32.5694857598
 20
-28.8528682777
 11
32.3611520291
 21
-28.9060597607
  0
LINE
  5
2C2
100
AcDbEntity
  8
IMPORT_IGES
100
AcDbLine
 62
7
  6
CONTINUOUS
 10
28.0903182984
 20
-29.544357706
 11
27.8819857598
 21
-29.597549189
  0
LINE
  5
2C3
100
AcDbEntity
  8
IMPORT_IGES
100
AcDbLine
 62
7
  6
CONTINUOUS
 10
27.8819857598
 20
-29.3847832569
 11
28.0903182984
 21
-29.3315917739
  0
LINE
  5
2C4
100
AcDbEntity
  8
IMPORT_IGES
100
AcDbLine
 62
7
  6
CONTINUOUS
 10
21.1632351637
 20
-30.9805278919
 11
20.9549020291
 21
-31.0337193796
  0
LINE
  5
2C5
100
AcDbEntity
  8
IMPORT_IGES
100
AcDbLine
 62
7
  6
CONTINUOUS
 10
20.9549020291
 20
-30.7677619272
 11
21.1632351637
 21
-30.7145704442
  0
LINE
  5
2C6
100
AcDbEntity
  8
IMPORT_IGES
100
AcDbLine
 62
7
  6
CONTINUOUS
 10
41.0590694905
 20
-30.9805278919
 11
40.7986520291
 21
-31.0337193796
  0
LINE
  5
2C7
100
AcDbEntity
  8
IMPORT_IGES
100
AcDbLine
 62
7
  6
CONTINUOUS
 10
33.2986520291
 20
-30.9805278919
 11
33.0382357598
 21
-31.0337193796
  0
LINE
  5
2C8
100
AcDbEntity
  8
IMPORT_IGES
100
AcDbLine
 62
7
  6
CONTINUOUS
 10
36.9444845677
 20
-29.3847832569
 11
37.2049020291
 21
-29.3315917739
  0
LINE
  5
2C9
100
AcDbEntity
  8
IMPORT_IGES
100
AcDbLine
 62
7
  6
CONTINUOUS
 10
40.3819845677
 20
-29.9698895702
 11
40.6944845677
 21
-29.9166980871
  0
LINE
  5
2CA
100
AcDbEntity
  8
IMPORT_IGES
100
AcDbLine
 62
7
  6
CONTINUOUS
 10
37.2049020291
 20
-29.597549189
 11
36.8924020291
 21
-29.650740672
  0
LINE
  5
2CB
100
AcDbEntity
  8
IMPORT_IGES
100
AcDbLine
 62
7
  6
CONTINUOUS
 10
35.4340694905
 20
-30.9805278919
 11
35.0694845677
 21
-31.0337193796
  0
LINE
  5
2CC
100
AcDbEntity
  8
IMPORT_IGES
100
AcDbLine
 62
7
  6
CONTINUOUS
 10
35.0174020291
 20
-30.8209534289
 11
35.3819845677
 21
-30.7677619272
  0
LINE
  5
2CD
100
AcDbEntity
  8
IMPORT_IGES
100
AcDbLine
 62
7
  6
CONTINUOUS
 10
2.7174020291
 20
-39.5337193796
 11
-3.2825979709
 21
-39.5337193796
  0
LINE
  5
2CE
100
AcDbEntity
  8
IMPORT_IGES
100
AcDbLine
 62
7
  6
CONTINUOUS
 10
2.7174020291
 20
-38.0337193796
 11
-3.2825979709
 21
-38.0337193796
  0
LINE
  5
2CF
100
AcDbEntity
  8
IMPORT_IGES
100
AcDbLine
 62
7
  6
CONTINUOUS
 10
-10.0825979709
 20
-37.4334217684
 11
-5.9825979709
 21
-37.4334217684
  0
LINE
  5
2D0
100
AcDbEntity
  8
IMPORT_IGES
100
AcDbLine
 62
7
  6
CONTINUOUS
 10
5.4174020291
 20
-37.4334217684
 11
9.5174020291
 21
-37.4334217684
  0
LINE
  5
2D1
100
AcDbEntity
  8
IMPORT_IGES
100
AcDbLine
 62
7
  6
CONTINUOUS
 10
-5.2533654123
 20
-37.8544443825
 11
-5.9825979709
 21
-37.4334217684
  0
LINE
  5
2D2
100
AcDbEntity
  8
IMPORT_IGES
100
AcDbLine
 62
7
  6
CONTINUOUS
 10
-36.5325979709
 20
28.9504472092
 11
-36.5325979709
 21
27.970447326
  0
LINE
  5
2D3
100
AcDbEntity
  8
IMPORT_IGES
100
AcDbLine
 62
7
  6
CONTINUOUS
 10
-36.5325979709
 20
30.4612806204
 11
-36.5325979709
 21
30.7879474428
  0
LINE
  5
2D4
100
AcDbEntity
  8
IMPORT_IGES
100
AcDbLine
 62
7
  6
CONTINUOUS
 10
-36.5325979709
 20
32.4212806204
 11
-36.5325979709
 21
32.584613798
  0
LINE
  5
2D5
100
AcDbEntity
  8
IMPORT_IGES
100
AcDbLine
 62
7
  6
CONTINUOUS
 10
-36.5325979709
 20
34.2179474428
 11
-36.5325979709
 21
34.3812806204
  0
LINE
  5
2D6
100
AcDbEntity
  8
IMPORT_IGES
100
AcDbLine
 62
7
  6
CONTINUOUS
 10
-36.5325979709
 20
36.2596142653
 11
-36.5325979709
 21
37.7296142653
  0
LINE
  5
2D7
100
AcDbEntity
  8
IMPORT_IGES
100
AcDbLine
 62
7
  6
CONTINUOUS
 10
-36.5325979709
 20
38.0562806204
 11
-36.5325979709
 21
39.0362806204
  0
LINE
  5
2D8
100
AcDbEntity
  8
IMPORT_IGES
100
AcDbLine
 62
7
  6
CONTINUOUS
 10
-36.3240873575
 20
34.422113798
 11
-36.3240873575
 21
34.177113798
  0
LINE
  5
2D9
100
AcDbEntity
  8
IMPORT_IGES
100
AcDbLine
 62
7
  6
CONTINUOUS
 10
-36.3240873575
 20
32.6254474428
 11
-36.3240873575
 21
32.3804474428
  0
LINE
  5
2DA
100
AcDbEntity
  8
IMPORT_IGES
100
AcDbLine
 62
7
  6
CONTINUOUS
 10
-36.3240873575
 20
28.9912806204
 11
-36.3240873575
 21
28.215447326
  0
LINE
  5
2DB
100
AcDbEntity
  8
IMPORT_IGES
100
AcDbLine
 62
7
  6
CONTINUOUS
 10
-36.3240873575
 20
38.3012806204
 11
-36.3240873575
 21
39.0771142653
  0
LINE
  5
2DC
100
AcDbEntity
  8
IMPORT_IGES
100
AcDbLine
 62
7
  6
CONTINUOUS
 10
-36.2825979709
 20
17.5662806204
 11
-36.2825979709
 21
21.7662806204
  0
LINE
  5
2DD
100
AcDbEntity
  8
IMPORT_IGES
100
AcDbLine
 62
7
  6
CONTINUOUS
 10
-36.2823852348
 20
37.7296142653
 11
-36.2823852348
 21
36.5046142653
  0
LINE
  5
2DE
100
AcDbEntity
  8
IMPORT_IGES
100
AcDbLine
 62
7
  6
CONTINUOUS
 10
-36.0738746214
 20
34.9529469755
 11
-36.0738746214
 21
34.7487806204
  0
LINE
  5
2DF
100
AcDbEntity
  8
IMPORT_IGES
100
AcDbLine
 62
7
  6
CONTINUOUS
 10
-36.0738746214
 20
33.1562806204
 11
-36.0738746214
 21
32.952113798
  0
LINE
  5
2E0
100
AcDbEntity
  8
IMPORT_IGES
100
AcDbLine
 62
7
  6
CONTINUOUS
 10
-35.8236617684
 20
32.4212806204
 11
-35.8236617684
 21
32.6254474429
  0
LINE
  5
2E1
100
AcDbEntity
  8
IMPORT_IGES
100
AcDbLine
 62
7
  6
CONTINUOUS
 10
-35.8236617684
 20
34.2179474428
 11
-35.8236617684
 21
34.422113798
  0
LINE
  5
2E2
100
AcDbEntity
  8
IMPORT_IGES
100
AcDbLine
 62
7
  6
CONTINUOUS
 10
-35.740257523
 20
36.5046142653
 11
-35.740257523
 21
37.5662806204
  0
LINE
  5
2E3
100
AcDbEntity
  8
IMPORT_IGES
100
AcDbLine
 62
7
  6
CONTINUOUS
 10
-35.6985554003
 20
39.0771142653
 11
-35.6985554003
 21
38.3012806204
  0
LINE
  5
2E4
100
AcDbEntity
  8
IMPORT_IGES
100
AcDbLine
 62
7
  6
CONTINUOUS
 10
-35.6985554003
 20
28.215447326
 11
-35.6985554003
 21
28.9912806204
  0
LINE
  5
2E5
100
AcDbEntity
  8
IMPORT_IGES
100
AcDbLine
 62
7
  6
CONTINUOUS
 10
-35.615151155
 20
32.3804474428
 11
-35.615151155
 21
32.6662806204
  0
LINE
  5
2E6
100
AcDbEntity
  8
IMPORT_IGES
100
AcDbLine
 62
7
  6
CONTINUOUS
 10
-35.615151155
 20
34.177113798
 11
-35.615151155
 21
34.4629474428
  0
LINE
  5
2E7
100
AcDbEntity
  8
IMPORT_IGES
100
AcDbLine
 62
7
  6
CONTINUOUS
 10
-35.4900447869
 20
37.5662806204
 11
-35.4900447869
 21
36.5046142653
  0
LINE
  5
2E8
100
AcDbEntity
  8
IMPORT_IGES
100
AcDbLine
 62
7
  6
CONTINUOUS
 10
-35.4900447869
 20
35.3612806204
 11
-35.4900447869
 21
35.9329469755
  0
LINE
  5
2E9
100
AcDbEntity
  8
IMPORT_IGES
100
AcDbLine
 62
7
  6
CONTINUOUS
 10
-35.4483426642
 20
38.9954469755
 11
-35.4483426642
 21
38.3012806204
  0
LINE
  5
2EA
100
AcDbEntity
  8
IMPORT_IGES
100
AcDbLine
 62
7
  6
CONTINUOUS
 10
-35.4483426642
 20
28.215447326
 11
-35.4483426642
 21
28.9504472092
  0
LINE
  5
2EB
100
AcDbEntity
  8
IMPORT_IGES
100
AcDbLine
 62
7
  6
CONTINUOUS
 10
-35.281534115
 20
35.9329469755
 11
-35.281534115
 21
35.3612806204
  0
LINE
  5
2EC
100
AcDbEntity
  8
IMPORT_IGES
100
AcDbLine
 62
7
  6
CONTINUOUS
 10
-35.2398319924
 20
30.992113798
 11
-35.2398319924
 21
30.2571140316
  0
LINE
  5
2ED
100
AcDbEntity
  8
IMPORT_IGES
100
AcDbLine
 62
7
  6
CONTINUOUS
 10
-35.0730235016
 20
31.0329474428
 11
-35.0730235016
 21
30.2162806204
  0
LINE
  5
2EE
100
AcDbEntity
  8
IMPORT_IGES
100
AcDbLine
 62
7
  6
CONTINUOUS
 10
-34.7811086136
 20
34.4629474428
 11
-34.7811086136
 21
34.177113798
  0
LINE
  5
2EF
100
AcDbEntity
  8
IMPORT_IGES
100
AcDbLine
 62
7
  6
CONTINUOUS
 10
-34.7811086136
 20
32.6662806204
 11
-34.7811086136
 21
32.3804474428
  0
LINE
  5
2F0
100
AcDbEntity
  8
IMPORT_IGES
100
AcDbLine
 62
7
  6
CONTINUOUS
 10
-34.5725979709
 20
39.6079469755
 11
-34.5725979709
 21
39.3221142653
  0
LINE
  5
2F1
100
AcDbEntity
  8
IMPORT_IGES
100
AcDbLine
 62
7
  6
CONTINUOUS
 10
-34.5725979709
 20
38.3012806204
 11
-34.5725979709
 21
38.0562806204
  0
LINE
  5
2F2
100
AcDbEntity
  8
IMPORT_IGES
100
AcDbLine
 62
7
  6
CONTINUOUS
 10
-34.5725979709
 20
36.5046142653
 11
-34.5725979709
 21
36.2596142653
  0
LINE
  5
2F3
100
AcDbEntity
  8
IMPORT_IGES
100
AcDbLine
 62
7
  6
CONTINUOUS
 10
-34.5725979709
 20
34.422113798
 11
-34.5725979709
 21
34.2179474428
  0
LINE
  5
2F4
100
AcDbEntity
  8
IMPORT_IGES
100
AcDbLine
 62
7
  6
CONTINUOUS
 10
-34.5725979709
 20
32.6254474428
 11
-34.5725979709
 21
32.4212806204
  0
LINE
  5
2F5
100
AcDbEntity
  8
IMPORT_IGES
100
AcDbLine
 62
7
  6
CONTINUOUS
 10
-34.5725979709
 20
31.4412806204
 11
-34.5725979709
 21
31.1962806204
  0
LINE
  5
2F6
100
AcDbEntity
  8
IMPORT_IGES
100
AcDbLine
 62
7
  6
CONTINUOUS
 10
-34.5725979709
 20
30.0529472092
 11
-34.5725979709
 21
29.8079472092
  0
LINE
  5
2F7
100
AcDbEntity
  8
IMPORT_IGES
100
AcDbLine
 62
7
  6
CONTINUOUS
 10
-34.5725979709
 20
27.970447326
 11
-34.5725979709
 21
28.215447326
  0
LINE
  5
2F8
100
AcDbEntity
  8
IMPORT_IGES
100
AcDbLine
 62
7
  6
CONTINUOUS
 10
22.9340688944
 20
-29.544357706
 11
22.7257351637
 21
-29.597549189
  0
LINE
  5
2F9
100
AcDbEntity
  8
IMPORT_IGES
100
AcDbLine
 62
7
  6
CONTINUOUS
 10
18.6632354617
 20
-30.1294640937
 11
18.4549020291
 21
-30.1826555767
  0
LINE
  5
2FA
100
AcDbEntity
  8
IMPORT_IGES
100
AcDbLine
 62
7
  6
CONTINUOUS
 10
20.4340688944
 20
-29.3847832569
 11
20.6424020291
 21
-29.3315917739
  0
LINE
  5
2FB
100
AcDbEntity
  8
IMPORT_IGES
100
AcDbLine
 62
7
  6
CONTINUOUS
 10
18.5590685964
 20
-29.544357706
 11
18.3507354617
 21
-29.597549189
  0
LINE
  5
2FC
100
AcDbEntity
  8
IMPORT_IGES
100
AcDbLine
 62
7
  6
CONTINUOUS
 10
32.3090682984
 20
-28.5869108626
 11
32.5694857598
 21
-28.5337193796
  0
LINE
  5
2FD
100
AcDbEntity
  8
IMPORT_IGES
100
AcDbLine
 62
7
  6
CONTINUOUS
 10
19.0278185964
 20
-30.9805278919
 11
18.7674020291
 21
-31.0337193796
  0
LINE
  5
2FE
100
AcDbEntity
  8
IMPORT_IGES
100
AcDbLine
 62
7
  6
CONTINUOUS
 10
34.7569857598
 20
-29.3847832569
 11
35.0694845677
 21
-29.3315917739
  0
LINE
  5
2FF
100
AcDbEntity
  8
IMPORT_IGES
100
AcDbLine
 62
7
  6
CONTINUOUS
 10
22.6736520291
 20
-29.3847832569
 11
22.9861520291
 21
-29.3315917739
  0
LINE
  5
300
100
AcDbEntity
  8
IMPORT_IGES
100
AcDbLine
 62
7
  6
CONTINUOUS
 10
18.3507354617
 20
-29.9698895702
 11
18.6632354617
 21
-29.9166980871
  0
LINE
  5
301
100
AcDbEntity
  8
IMPORT_IGES
100
AcDbLine
 62
7
  6
CONTINUOUS
 10
40.2257345677
 20
-29.3847832569
 11
40.5903194905
 21
-29.3315917739
  0
LINE
  5
302
100
AcDbEntity
  8
IMPORT_IGES
100
AcDbLine
 62
7
  6
CONTINUOUS
 10
23.3507351637
 20
-30.9805278919
 11
22.9861520291
 21
-31.0337193796
  0
LINE
  5
303
100
AcDbEntity
  8
IMPORT_IGES
100
AcDbLine
 62
7
  6
CONTINUOUS
 10
22.9340688944
 20
-30.8209534289
 11
23.2986520291
 21
-30.7677619272
  0
LINE
  5
304
100
AcDbEntity
  8
IMPORT_IGES
100
AcDbLine
 62
7
  6
CONTINUOUS
 10
18.1944854617
 20
-29.3847832569
 11
18.5590685964
 21
-29.3315917739
  0
LINE
  5
305
100
AcDbEntity
  8
IMPORT_IGES
100
AcDbLine
 62
7
  6
CONTINUOUS
 10
-9.5825979709
 20
-34.0337193796
 11
9.0174020291
 21
-34.0337193796
  0
LINE
  5
306
100
AcDbEntity
  8
IMPORT_IGES
100
AcDbLine
 62
7
  6
CONTINUOUS
 10
44.5486520291
 20
-31.8847831824
 11
44.2361520291
 21
-31.8847831824
  0
LINE
  5
307
100
AcDbEntity
  8
IMPORT_IGES
100
AcDbLine
 62
7
  6
CONTINUOUS
 10
43.5069845677
 20
-31.0337193796
 11
43.2465694905
 21
-31.0337193796
  0
LINE
  5
308
100
AcDbEntity
  8
IMPORT_IGES
100
AcDbLine
 62
7
  6
CONTINUOUS
 10
42.3090694905
 20
-31.0337193796
 11
42.0486520291
 21
-31.0337193796
  0
LINE
  5
309
100
AcDbEntity
  8
IMPORT_IGES
100
AcDbLine
 62
7
  6
CONTINUOUS
 10
41.6319845677
 20
-31.0337193796
 11
41.3715694905
 21
-31.0337193796
  0
LINE
  5
30A
100
AcDbEntity
  8
IMPORT_IGES
100
AcDbLine
 62
7
  6
CONTINUOUS
 10
40.7986520291
 20
-31.0337193796
 11
40.4861520291
 21
-31.0337193796
  0
LINE
  5
30B
100
AcDbEntity
  8
IMPORT_IGES
100
AcDbLine
 62
7
  6
CONTINUOUS
 10
39.5486520291
 20
-31.0337193796
 11
39.2882345677
 21
-31.0337193796
  0
LINE
  5
30C
100
AcDbEntity
  8
IMPORT_IGES
100
AcDbLine
 62
7
  6
CONTINUOUS
 10
38.7153194905
 20
-31.0337193796
 11
38.4549020291
 21
-31.0337193796
  0
LINE
  5
30D
100
AcDbEntity
  8
IMPORT_IGES
100
AcDbLine
 62
7
  6
CONTINUOUS
 10
37.8819845677
 20
-31.0337193796
 11
37.6215694905
 21
-31.0337193796
  0
LINE
  5
30E
100
AcDbEntity
  8
IMPORT_IGES
100
AcDbLine
 62
7
  6
CONTINUOUS
 10
36.5278194905
 20
-31.0337193796
 11
36.2674020291
 21
-31.0337193796
  0
LINE
  5
30F
100
AcDbEntity
  8
IMPORT_IGES
100
AcDbLine
 62
7
  6
CONTINUOUS
 10
33.0382357598
 20
-31.0337193796
 11
32.5694857598
 21
-31.0337193796
  0
LINE
  5
310
100
AcDbEntity
  8
IMPORT_IGES
100
AcDbLine
 62
7
  6
CONTINUOUS
 10
28.8194857598
 20
-31.0337193796
 11
28.5590682984
 21
-31.0337193796
  0
LINE
  5
311
100
AcDbEntity
  8
IMPORT_IGES
100
AcDbLine
 62
7
  6
CONTINUOUS
 10
27.6215682984
 20
-31.0337193796
 11
27.3611520291
 21
-31.0337193796
  0
LINE
  5
312
100
AcDbEntity
  8
IMPORT_IGES
100
AcDbLine
 62
7
  6
CONTINUOUS
 10
26.9444857598
 20
-31.0337193796
 11
26.6840682984
 21
-31.0337193796
  0
LINE
  5
313
100
AcDbEntity
  8
IMPORT_IGES
100
AcDbLine
 62
7
  6
CONTINUOUS
 10
21.6840688944
 20
-31.0337193796
 11
21.4236520291
 21
-31.0337193796
  0
LINE
  5
314
100
AcDbEntity
  8
IMPORT_IGES
100
AcDbLine
 62
7
  6
CONTINUOUS
 10
20.9549020291
 20
-31.0337193796
 11
20.6424020291
 21
-31.0337193796
  0
LINE
  5
315
100
AcDbEntity
  8
IMPORT_IGES
100
AcDbLine
 62
7
  6
CONTINUOUS
 10
19.6007354617
 20
-31.0337193796
 11
19.3403185964
 21
-31.0337193796
  0
LINE
  5
316
100
AcDbEntity
  8
IMPORT_IGES
100
AcDbLine
 62
7
  6
CONTINUOUS
 10
18.7674020291
 20
-31.0337193796
 11
18.4549020291
 21
-31.0337193796
  0
LINE
  5
317
100
AcDbEntity
  8
IMPORT_IGES
100
AcDbLine
 62
7
  6
CONTINUOUS
 10
17.5174020291
 20
-31.0337193796
 11
17.2049020291
 21
-31.0337193796
  0
LINE
  5
318
100
AcDbEntity
  8
IMPORT_IGES
100
AcDbLine
 62
7
  6
CONTINUOUS
 10
16.4757353127
 20
-31.0337193796
 11
16.0590686709
 21
-31.0337193796
  0
LINE
  5
319
100
AcDbEntity
  8
IMPORT_IGES
100
AcDbLine
 62
7
  6
CONTINUOUS
 10
15.3299020291
 20
-31.0337193796
 11
15.0174020291
 21
-31.0337193796
  0
LINE
  5
31A
100
AcDbEntity
  8
IMPORT_IGES
100
AcDbLine
 62
7
  6
CONTINUOUS
 10
40.7986520291
 20
-30.8209534289
 11
40.4861520291
 21
-30.8209534289
  0
LINE
  5
31B
100
AcDbEntity
  8
IMPORT_IGES
100
AcDbLine
 62
7
  6
CONTINUOUS
 10
18.7674020291
 20
-30.8209534289
 11
18.4549020291
 21
-30.8209534289
  0
LINE
  5
31C
100
AcDbEntity
  8
IMPORT_IGES
100
AcDbLine
 62
7
  6
CONTINUOUS
 10
20.9549020291
 20
-30.7677619272
 11
20.7465688944
 21
-30.7677619272
  0
LINE
  5
31D
100
AcDbEntity
  8
IMPORT_IGES
100
AcDbLine
 62
7
  6
CONTINUOUS
 10
32.5694857598
 20
-30.7145704442
 11
33.0382357598
 21
-30.7145704442
  0
LINE
  5
31E
100
AcDbEntity
  8
IMPORT_IGES
100
AcDbLine
 62
7
  6
CONTINUOUS
 10
23.5069851637
 20
-30.5018044749
 11
23.7674020291
 21
-30.5018044749
  0
LINE
  5
31F
100
AcDbEntity
  8
IMPORT_IGES
100
AcDbLine
 62
7
  6
CONTINUOUS
 10
35.5903194905
 20
-30.5018044749
 11
35.8507345677
 21
-30.5018044749
  0
LWPOLYLINE
  5
320
100
AcDbEntity
  8
IMPORT_IGES
100
AcDbPolyline
 62
7
  6
CONTINUOUS
 90
8
 70
0
 10
1.5347520709
 20
-28.1009750721
 10
1.5144871158
 20
-28.1056741775
 10
1.4905764932
 20
-28.1107585692
 10
1.4635833674
 20
-28.1160598097
 10
1.4336249348
 20
-28.1215304586
 10
1.40057861
 20
-28.1271724586
 10
1.3646687098
 20
-28.1329319711
 10
1.3259443735
 20
-28.1387919688
  0
LWPOLYLINE
  5
321
100
AcDbEntity
  8
IMPORT_IGES
100
AcDbPolyline
 62
7
  6
CONTINUOUS
 90
8
 70
0
 10
1.5339027871
 20
-27.1011820791
 10
1.5133947335
 20
-27.1059138777
 10
1.4892556716
 20
-27.1110276088
 10
1.4620641395
 20
-27.1163518462
 10
1.4319405545
 20
-27.1218385573
 10
1.3987433806
 20
-27.1274927539
 10
1.3626772028
 20
-27.1332631107
 10
1.3237833234
 20
-27.1391326783
  0
LWPOLYLINE
  5
322
100
AcDbEntity
  8
IMPORT_IGES
100
AcDbPolyline
 62
7
  6
CONTINUOUS
 90
8
 70
0
 10
1.5327352312
 20
-26.1014648184
 10
1.5120229198
 20
-26.1062258261
 10
1.4877106229
 20
-26.1113583553
 10
1.4603409342
 20
-26.1166987891
 10
1.4300207095
 20
-26.1222005111
 10
1.3966043133
 20
-26.127867799
 10
1.3602801829
 20
-26.133651539
 10
1.3211015949
 20
-26.1395354097
  0
LWPOLYLINE
  5
323
100
AcDbEntity
  8
IMPORT_IGES
100
AcDbPolyline
 62
7
  6
CONTINUOUS
 90
6
 70
0
 10
-2.041159686
 20
-27.9614768704
 10
-2.0174737231
 20
-27.9575215784
 10
-1.9918273766
 20
-27.9534664732
 10
-1.9643266618
 20
-27.94933549
 10
-1.9349855083
 20
-27.9451355155
 10
-1.9037825828
 20
-27.9408676634
  0
LWPOLYLINE
  5
324
100
AcDbEntity
  8
IMPORT_IGES
100
AcDbPolyline
 62
7
  6
CONTINUOUS
 90
6
 70
0
 10
-2.0359187312
 20
-26.9605914438
 10
-2.0107711692
 20
-26.9564548877
 10
-1.9835334587
 20
-26.9522168797
 10
-1.9543311555
 20
-26.9479032142
 10
-1.9231869717
 20
-26.9435209534
 10
-1.8900879597
 20
-26.9390713419
  0
LWPOLYLINE
  5
325
100
AcDbEntity
  8
IMPORT_IGES
100
AcDbPolyline
 62
7
  6
CONTINUOUS
 90
10
 70
0
 10
1.3793934913
 20
-28.6345605959
 10
1.4234921338
 20
-28.6280270081
 10
1.4651587938
 20
-28.6214910574
 10
1.5044448217
 20
-28.6149400304
 10
1.5415461609
 20
-28.6083324738
 10
1.5764193733
 20
-28.6016638469
 10
1.609161586
 20
-28.5949009921
 10
1.6402124326
 20
-28.5879232514
 10
1.6695983568
 20
-28.5806791023
 10
1.6973720372
 20
-28.5731036859
  0
LWPOLYLINE
  5
326
100
AcDbEntity
  8
IMPORT_IGES
100
AcDbPolyline
 62
7
  6
CONTINUOUS
 90
11
 70
0
 10
1.3750441039
 20
-25.6352244261
 10
1.4192768606
 20
-25.6287098526
 10
1.46120694
 20
-25.6221740117
 10
1.5008211759
 20
-25.6156104868
 10
1.5382645194
 20
-25.6089835358
 10
1.5736097577
 20
-25.602262838
 10
1.6068073324
 20
-25.5954401914
 10
1.6379359557
 20
-25.588483102
 10
1.6669364044
 20
-25.5813886566
 10
1.6941069164
 20
-25.5740618082
 10
1.7174020291
 20
-25.5670745048
  0
LWPOLYLINE
  5
327
100
AcDbEntity
  8
IMPORT_IGES
100
AcDbPolyline
 62
7
  6
CONTINUOUS
 90
11
 70
0
 10
1.3674939793
 20
-26.6362972652
 10
1.411875981
 20
-26.6298220067
 10
1.4537900894
 20
-26.6233535976
 10
1.4932387313
 20
-26.6168880758
 10
1.5302959126
 20
-26.6104126042
 10
1.5649646431
 20
-26.6039269781
 10
1.5972717597
 20
-26.5974281681
 10
1.6273938987
 20
-26.5908814081
 10
1.6556506115
 20
-26.5842088228
 10
1.6819855338
 20
-26.5774108171
 10
1.7067135137
 20
-26.5703878263
  0
LWPOLYLINE
  5
328
100
AcDbEntity
  8
IMPORT_IGES
100
AcDbPolyline
 62
7
  6
CONTINUOUS
 90
10
 70
0
 10
1.3548249098
 20
-27.6380760488
 10
1.4020640069
 20
-27.6312691625
 10
1.4467212723
 20
-27.6244494838
 10
1.4888418211
 20
-27.6176044083
 10
1.5284589205
 20
-27.6107212419
 10
1.5655325122
 20
-27.6037995557
 10
1.6002014579
 20
-27.596804216
 10
1.6328527116
 20
-27.5896350707
 10
1.663372577
 20
-27.5822853105
 10
1.6920256384
 20
-27.5746512284
  0
LWPOLYLINE
  5
329
100
AcDbEntity
  8
IMPORT_IGES
100
AcDbPolyline
 62
7
  6
CONTINUOUS
 90
4
 70
0
 10
1.3259443735
 20
-28.1387919688
 10
1.2843608396
 20
-28.1447515144
 10
1.2399872167
 20
-28.1507944107
 10
1.1928406995
 20
-28.1569138472
  0
LWPOLYLINE
  5
32A
100
AcDbEntity
  8
IMPORT_IGES
100
AcDbPolyline
 62
7
  6
CONTINUOUS
 90
4
 70
0
 10
1.3237833234
 20
-27.1391326783
 10
1.2820078724
 20
-27.1451006545
 10
1.2374070468
 20
-27.1511525852
 10
1.1900122185
 20
-27.157282245
  0
LWPOLYLINE
  5
32B
100
AcDbEntity
  8
IMPORT_IGES
100
AcDbPolyline
 62
7
  6
CONTINUOUS
 90
4
 70
0
 10
1.3211015949
 20
-26.1395354097
 10
1.2790456113
 20
-26.1455173498
 10
1.2341911304
 20
-26.1515820774
 10
1.1865694077
 20
-26.1577230593
  0
LINE
  5
32C
100
AcDbEntity
  8
IMPORT_IGES
100
AcDbLine
 62
253
  6
CONTINUOUS
 10
-2.2825979709
 20
-28.7126760115
 11
-2.1801669841
 21
-28.6990490734
  0
LWPOLYLINE
  5
32D
100
AcDbEntity
  8
IMPORT_IGES
100
AcDbPolyline
 62
253
  6
CONTINUOUS
 90
6
 70
0
 10
-2.2825979709
 20
-27.7127010005
 10
-2.1800594999
 20
-27.6990508538
 10
-2.0616489406
 20
-27.6853568586
 10
-1.9283672799
 20
-27.6716118941
 10
-1.7814926639
 20
-27.6578114433
 10
-1.6222787098
 20
-27.6439478493
  0
LWPOLYLINE
  5
32E
100
AcDbEntity
  8
IMPORT_IGES
100
AcDbPolyline
 62
253
  6
CONTINUOUS
 90
6
 70
0
 10
-2.2825979709
 20
-26.7127116775
 10
-2.1819057279
 20
-26.6993003611
 10
-2.0656252803
 20
-26.685805944
 10
-1.9344878782
 20
-26.6722206414
 10
-1.7893664862
 20
-26.658533355
 10
-1.6315040453
 20
-26.6447420507
  0
LWPOLYLINE
  5
32F
100
AcDbEntity
  8
IMPORT_IGES
100
AcDbPolyline
 62
7
  6
CONTINUOUS
 90
11
 70
0
 10
-1.9278242886
 20
-26.4414662106
 10
-1.9742506215
 20
-26.4475608312
 10
-2.0178305241
 20
-26.4536099311
 10
-2.0585932502
 20
-26.459617348
 10
-2.0966306634
 20
-26.465596424
 10
-2.1321500643
 20
-26.471582401
 10
-2.1651377834
 20
-26.4775772564
 10
-2.195781691
 20
-26.4836209391
 10
-2.2246351116
 20
-26.4898451855
 10
-2.2516617864
 20
-26.496278389
 10
-2.2770969945
 20
-26.5030187651
  0
LWPOLYLINE
  5
330
100
AcDbEntity
  8
IMPORT_IGES
100
AcDbPolyline
 62
7
  6
CONTINUOUS
 90
3
 70
0
 10
-1.9037825828
 20
-27.9408676634
 10
-1.8707664843
 20
-27.9365417753
 10
-1.8359509826
 20
-27.9321606935
  0
LWPOLYLINE
  5
331
100
AcDbEntity
  8
IMPORT_IGES
100
AcDbPolyline
 62
7
  6
CONTINUOUS
 90
11
 70
0
 10
-1.9242183743
 20
-27.4409865773
 10
-1.9710454722
 20
-27.4471077005
 10
-2.0149557169
 20
-27.4531798499
 10
-2.0559865794
 20
-27.459205926
 10
-2.0942494192
 20
-27.4651999722
 10
-2.1299632634
 20
-27.4711968557
 10
-2.1631088728
 20
-27.4771951099
 10
-2.1938953636
 20
-27.4832356093
 10
-2.2229214431
 20
-27.4894564896
 10
-2.2501539379
 20
-27.4958889596
 10
-2.27579336
 20
-27.50262864
  0
LWPOLYLINE
  5
332
100
AcDbEntity
  8
IMPORT_IGES
100
AcDbPolyline
 62
7
  6
CONTINUOUS
 90
12
 70
0
 10
-1.9206746233
 20
-28.4405293568
 10
-1.9678430912
 20
-28.4466667134
 10
-2.0120856649
 20
-28.452753659
 10
-2.0534206164
 20
-28.4587940303
 10
-2.0919402965
 20
-28.4648014688
 10
-2.1278656172
 20
-28.4708097947
 10
-2.1611883214
 20
-28.4768173985
 10
-2.1921263866
 20
-28.4828645467
 10
-2.2212738465
 20
-28.4890854038
 10
-2.2485899932
 20
-28.4955056331
 10
-2.274290335
 20
-28.5022192454
 10
-2.2825979709
 20
-28.5046606986
  0
LWPOLYLINE
  5
333
100
AcDbEntity
  8
IMPORT_IGES
100
AcDbPolyline
 62
7
  6
CONTINUOUS
 90
3
 70
0
 10
-1.8900879597
 20
-26.9390713419
 10
-1.8550994968
 20
-26.9345653141
 10
-1.8182371415
 20
-26.9300060187
  0
LINE
  5
334
100
AcDbEntity
  8
IMPORT_IGES
100
AcDbLine
 62
7
  6
CONTINUOUS
 10
1.1928406995
 20
-28.1569138472
 11
1.1429102509
 21
-28.1631075988
  0
LINE
  5
335
100
AcDbEntity
  8
IMPORT_IGES
100
AcDbLine
 62
7
  6
CONTINUOUS
 10
1.1900122185
 20
-27.157282245
 11
1.1398408566
 21
-27.1634865988
  0
LINE
  5
336
100
AcDbEntity
  8
IMPORT_IGES
100
AcDbLine
 62
7
  6
CONTINUOUS
 10
1.1865694077
 20
-26.1577230593
 11
1.1361875469
 21
-26.1639378433
  0
LWPOLYLINE
  5
337
100
AcDbEntity
  8
IMPORT_IGES
100
AcDbPolyline
 62
7
  6
CONTINUOUS
 90
5
 70
0
 10
1.1679611822
 20
-26.6620368063
 10
1.2211998128
 20
-26.6556032324
 10
1.2721188071
 20
-26.6491838606
 10
1.3208528078
 20
-26.6427556318
 10
1.3674939793
 20
-26.6362972652
  0
LINE
  5
338
100
AcDbEntity
  8
IMPORT_IGES
100
AcDbLine
 62
7
  6
CONTINUOUS
 10
1.1429102509
 20
-28.1631075988
 11
1.0902220436
 21
-28.1693711539
  0
LWPOLYLINE
  5
339
100
AcDbEntity
  8
IMPORT_IGES
100
AcDbPolyline
 62
7
  6
CONTINUOUS
 90
5
 70
0
 10
1.1416209487
 20
-27.6651154772
 10
1.1983626108
 20
-27.6583878252
 10
1.2528572351
 20
-27.6516405465
 10
1.305030568
 20
-27.6448714713
 10
1.3548249098
 20
-27.6380760488
  0
LINE
  5
33A
100
AcDbEntity
  8
IMPORT_IGES
100
AcDbLine
 62
7
  6
CONTINUOUS
 10
1.1398408566
 20
-27.1634865988
 11
1.0869324507
 21
-27.1697607225
  0
LINE
  5
33B
100
AcDbEntity
  8
IMPORT_IGES
100
AcDbLine
 62
7
  6
CONTINUOUS
 10
1.1361875469
 20
-26.1639378433
 11
1.0830721769
 21
-26.1702222301
  0
LWPOLYLINE
  5
33C
100
AcDbEntity
  8
IMPORT_IGES
100
AcDbPolyline
 62
7
  6
CONTINUOUS
 90
6
 70
0
 10
1.1220572168
 20
-28.6673660853
 10
1.1784684613
 20
-28.6607716888
 10
1.2324222232
 20
-28.6541956916
 10
1.2838983449
 20
-28.6476363637
 10
1.3328829349
 20
-28.6410929708
 10
1.3793934913
 20
-28.6345605959
  0
LINE
  5
33D
100
AcDbEntity
  8
IMPORT_IGES
100
AcDbLine
 62
7
  6
CONTINUOUS
 10
-1.8359509826
 20
-27.9321606935
 11
-1.7609958079
 21
-27.9232415553
  0
LWPOLYLINE
  5
33E
100
AcDbEntity
  8
IMPORT_IGES
100
AcDbPolyline
 62
7
  6
CONTINUOUS
 90
6
 70
0
 10
1.1176954092
 20
-25.6679051387
 10
1.1740533867
 20
-25.6613332965
 10
1.2280092185
 20
-25.6547773888
 10
1.279514905
 20
-25.6482397426
 10
1.3285067967
 20
-25.6417256576
 10
1.3750441039
 20
-25.6352244261
  0
LINE
  5
33F
100
AcDbEntity
  8
IMPORT_IGES
100
AcDbLine
 62
253
  6
CONTINUOUS
 10
-2.1801669841
 20
-28.6990490734
 11
-2.061927797
 21
-28.6853807713
  0
LINE
  5
340
100
AcDbEntity
  8
IMPORT_IGES
100
AcDbLine
 62
7
  6
CONTINUOUS
 10
-1.8182371415
 20
-26.9300060187
 11
-1.7389215205
 21
-26.920733875
  0
LWPOLYLINE
  5
341
100
AcDbEntity
  8
IMPORT_IGES
100
AcDbPolyline
 62
7
  6
CONTINUOUS
 90
4
 70
0
 10
-1.7708917376
 20
-26.4228354874
 10
-1.8261806316
 20
-26.4291080023
 10
-1.8784859053
 20
-26.4353174895
 10
-1.9278242886
 20
-26.4414662106
  0
LWPOLYLINE
  5
342
100
AcDbEntity
  8
IMPORT_IGES
100
AcDbPolyline
 62
7
  6
CONTINUOUS
 90
4
 70
0
 10
-1.7658308087
 20
-27.422267946
 10
-1.8216236738
 20
-27.4285712617
 10
-1.874421242
 20
-27.4348098996
 10
-1.9242183743
 20
-27.4409865773
  0
LWPOLYLINE
  5
343
100
AcDbEntity
  8
IMPORT_IGES
100
AcDbPolyline
 62
7
  6
CONTINUOUS
 90
4
 70
0
 10
-1.7612029019
 20
-28.4217450099
 10
-1.8173755433
 20
-28.4280729615
 10
-1.8705334888
 20
-28.4343338155
 10
-1.9206746233
 20
-28.4405293568
  0
LINE
  5
344
100
AcDbEntity
  8
IMPORT_IGES
100
AcDbLine
 62
7
  6
CONTINUOUS
 10
-1.7982405355
 20
-25.9276241045
 11
-1.7082478819
 21
-25.917327147
  0
LINE
  5
345
100
AcDbEntity
  8
IMPORT_IGES
100
AcDbLine
 62
7
  6
CONTINUOUS
 10
1.0545051804
 20
-26.6749661713
 11
1.1679611822
 21
-26.6620368063
  0
LINE
  5
346
100
AcDbEntity
  8
IMPORT_IGES
100
AcDbLine
 62
7
  6
CONTINUOUS
 10
1.0902220436
 20
-28.1693711539
 11
0.9767277576
 21
-28.182095554
  0
LINE
  5
347
100
AcDbEntity
  8
IMPORT_IGES
100
AcDbLine
 62
7
  6
CONTINUOUS
 10
1.0869324507
 20
-27.1697607225
 11
0.9730391893
 21
-27.1825058378
  0
LINE
  5
348
100
AcDbEntity
  8
IMPORT_IGES
100
AcDbLine
 62
7
  6
CONTINUOUS
 10
1.0224337048
 20
-27.6784399028
 11
1.1416209487
 21
-27.6651154772
  0
LINE
  5
349
100
AcDbEntity
  8
IMPORT_IGES
100
AcDbLine
 62
7
  6
CONTINUOUS
 10
-1.7609958079
 20
-27.9232415553
 11
-1.6791292995
 21
-27.9141302175
  0
LINE
  5
34A
100
AcDbEntity
  8
IMPORT_IGES
100
AcDbLine
 62
7
  6
CONTINUOUS
 10
1.0830721769
 20
-26.1702222301
 11
0.9687440689
 21
-26.1829872949
  0
LINE
  5
34B
100
AcDbEntity
  8
IMPORT_IGES
100
AcDbLine
 62
7
  6
CONTINUOUS
 10
1.0020260151
 20
-28.6806166931
 11
1.1220572168
 21
-28.6673660853
  0
LINE
  5
34C
100
AcDbEntity
  8
IMPORT_IGES
100
AcDbLine
 62
7
  6
CONTINUOUS
 10
0.9978686471
 20
-25.6811026655
 11
1.1176954092
 21
-25.6679051387
  0
LINE
  5
34D
100
AcDbEntity
  8
IMPORT_IGES
100
AcDbLine
 62
7
  6
CONTINUOUS
 10
-1.7389215205
 20
-26.920733875
 11
-1.6523514654
 21
-26.9112738739
  0
LINE
  5
34E
100
AcDbEntity
  8
IMPORT_IGES
100
AcDbLine
 62
7
  6
CONTINUOUS
 10
-1.7082478819
 20
-25.917327147
 11
-1.6092018667
 21
-25.9067712452
  0
LINE
  5
34F
100
AcDbEntity
  8
IMPORT_IGES
100
AcDbLine
 62
7
  6
CONTINUOUS
 10
-1.6515440491
 20
-26.4101058262
 11
-1.7708917376
 21
-26.4228354874
  0
LINE
  5
350
100
AcDbEntity
  8
IMPORT_IGES
100
AcDbLine
 62
7
  6
CONTINUOUS
 10
0.9320869327
 20
-26.6879686714
 11
1.0545051804
 21
-26.6749661713
  0
LINE
  5
351
100
AcDbEntity
  8
IMPORT_IGES
100
AcDbLine
 62
7
  6
CONTINUOUS
 10
-1.6454755871
 20
-27.4094740275
 11
-1.7658308087
 21
-27.422267946
  0
LINE
  5
352
100
AcDbEntity
  8
IMPORT_IGES
100
AcDbLine
 62
7
  6
CONTINUOUS
 10
-1.6400283373
 20
-28.408898812
 11
-1.7612029019
 21
-28.4217450099
  0
LINE
  5
353
100
AcDbEntity
  8
IMPORT_IGES
100
AcDbLine
 62
7
  6
CONTINUOUS
 10
-1.6791292995
 20
-27.9141302175
 11
-1.5906135194
 21
-27.9048446606
  0
LWPOLYLINE
  5
354
100
AcDbEntity
  8
IMPORT_IGES
100
AcDbPolyline
 62
253
  6
CONTINUOUS
 90
4
 70
0
 10
-2.061927797
 20
-28.6853807713
 10
-1.9290245449
 20
-28.6716644249
 10
-1.782662204
 20
-28.6578987011
 10
-1.6239385346
 20
-28.6440718109
  0
LINE
  5
355
100
AcDbEntity
  8
IMPORT_IGES
100
AcDbLine
 62
7
  6
CONTINUOUS
 10
0.9767277576
 20
-28.182095554
 11
0.8526444193
 21
-28.1950728408
  0
LINE
  5
356
100
AcDbEntity
  8
IMPORT_IGES
100
AcDbLine
 62
7
  6
CONTINUOUS
 10
0.8963472178
 20
-27.6915963574
 11
1.0224337048
 21
-27.6784399028
  0
LINE
  5
357
100
AcDbEntity
  8
IMPORT_IGES
100
AcDbLine
 62
7
  6
CONTINUOUS
 10
0.9730391893
 20
-27.1825058378
 11
0.848544422
 21
-27.195505278
  0
LINE
  5
358
100
AcDbEntity
  8
IMPORT_IGES
100
AcDbLine
 62
7
  6
CONTINUOUS
 10
0.9687440689
 20
-26.1829872949
 11
0.843700622
 21
-26.1960093151
  0
LINE
  5
359
100
AcDbEntity
  8
IMPORT_IGES
100
AcDbLine
 62
7
  6
CONTINUOUS
 10
0.8728133421
 20
-28.6939470319
 11
1.0020260151
 21
-28.6806166931
  0
LINE
  5
35A
100
AcDbEntity
  8
IMPORT_IGES
100
AcDbLine
 62
7
  6
CONTINUOUS
 10
-1.6523514654
 20
-26.9112738739
 11
-1.5587889177
 21
-26.9016363417
  0
LINE
  5
35B
100
AcDbEntity
  8
IMPORT_IGES
100
AcDbLine
 62
7
  6
CONTINUOUS
 10
0.8691293479
 20
-25.6943560069
 11
0.9978686471
 21
-25.6811026655
  0
LINE
  5
35C
100
AcDbEntity
  8
IMPORT_IGES
100
AcDbLine
 62
7
  6
CONTINUOUS
 10
-1.6092018667
 20
-25.9067712452
 11
-1.5012451053
 21
-25.8959593456
  0
LINE
  5
35D
100
AcDbEntity
  8
IMPORT_IGES
100
AcDbLine
 62
7
  6
CONTINUOUS
 10
0.801262193
 20
-26.7010280366
 11
0.9320869327
 21
-26.6879686714
  0
LINE
  5
35E
100
AcDbEntity
  8
IMPORT_IGES
100
AcDbLine
 62
7
  6
CONTINUOUS
 10
-1.5906135194
 20
-27.9048446606
 11
-1.4956541132
 21
-27.8953911032
  0
LINE
  5
35F
100
AcDbEntity
  8
IMPORT_IGES
100
AcDbLine
 62
7
  6
CONTINUOUS
 10
-1.5208061527
 20
-26.397120912
 11
-1.6515440491
 21
-26.4101058262
  0
LINE
  5
360
100
AcDbEntity
  8
IMPORT_IGES
100
AcDbLine
 62
7
  6
CONTINUOUS
 10
-1.5137000895
 20
-27.3964231463
 11
-1.6454755871
 21
-27.4094740275
  0
LINE
  5
361
100
AcDbEntity
  8
IMPORT_IGES
100
AcDbLine
 62
7
  6
CONTINUOUS
 10
-1.5073073019
 20
-28.395793417
 11
-1.6400283373
 21
-28.408898812
  0
LINE
  5
362
100
AcDbEntity
  8
IMPORT_IGES
100
AcDbLine
 62
7
  6
CONTINUOUS
 10
0.8526444193
 20
-28.1950728408
 11
0.7183121777
 21
-28.208292709
  0
LINE
  5
363
100
AcDbEntity
  8
IMPORT_IGES
100
AcDbLine
 62
7
  6
CONTINUOUS
 10
0.7643292398
 20
-27.7045774747
 11
0.8963472178
 21
-27.6915963574
  0
LINE
  5
364
100
AcDbEntity
  8
IMPORT_IGES
100
AcDbLine
 62
7
  6
CONTINUOUS
 10
0.848544422
 20
-27.195505278
 11
0.7137119338
 21
-27.2087495627
  0
LINE
  5
365
100
AcDbEntity
  8
IMPORT_IGES
100
AcDbLine
 62
7
  6
CONTINUOUS
 10
-1.5587889177
 20
-26.9016363417
 11
-1.4585115492
 21
-26.8918276805
  0
LINE
  5
366
100
AcDbEntity
  8
IMPORT_IGES
100
AcDbLine
 62
7
  6
CONTINUOUS
 10
0.843700622
 20
-26.1960093151
 11
0.7082398529
 21
-26.2092805859
  0
LINE
  5
367
100
AcDbEntity
  8
IMPORT_IGES
100
AcDbLine
 62
7
  6
CONTINUOUS
 10
0.7349861673
 20
-28.707353912
 11
0.8728133421
 21
-28.6939470319
  0
LINE
  5
368
100
AcDbEntity
  8
IMPORT_IGES
100
AcDbLine
 62
7
  6
CONTINUOUS
 10
0.7321971263
 20
-25.7076547807
 11
0.8691293479
 21
-25.6943560069
  0
LINE
  5
369
100
AcDbEntity
  8
IMPORT_IGES
100
AcDbLine
 62
7
  6
CONTINUOUS
 10
-1.5012451053
 20
-25.8959593456
 11
-1.3846159724
 21
-25.884887766
  0
LINE
  5
36A
100
AcDbEntity
  8
IMPORT_IGES
100
AcDbLine
 62
7
  6
CONTINUOUS
 10
0.6632898821
 20
-26.7140842971
 11
0.801262193
 21
-26.7010280366
  0
LINE
  5
36B
100
AcDbEntity
  8
IMPORT_IGES
100
AcDbLine
 62
7
  6
CONTINUOUS
 10
-1.3793405751
 20
-26.3838891513
 11
-1.5208061527
 21
-26.397120912
  0
LINE
  5
36C
100
AcDbEntity
  8
IMPORT_IGES
100
AcDbLine
 62
7
  6
CONTINUOUS
 10
0.7183121777
 20
-28.208292709
 11
0.5740460499
 21
-28.2217555147
  0
LINE
  5
36D
100
AcDbEntity
  8
IMPORT_IGES
100
AcDbLine
 62
7
  6
CONTINUOUS
 10
-1.4956541132
 20
-27.8953911032
 11
-1.3415022196
 21
-27.880892866
  0
LINE
  5
36E
100
AcDbEntity
  8
IMPORT_IGES
100
AcDbLine
 62
7
  6
CONTINUOUS
 10
-1.3711602506
 20
-27.3831286855
 11
-1.5137000895
 21
-27.3964231463
  0
LINE
  5
36F
100
AcDbEntity
  8
IMPORT_IGES
100
AcDbLine
 62
7
  6
CONTINUOUS
 10
-1.3637782242
 20
-28.3824479722
 11
-1.5073073019
 21
-28.395793417
  0
LINE
  5
370
100
AcDbEntity
  8
IMPORT_IGES
100
AcDbLine
 62
7
  6
CONTINUOUS
 10
-1.4585115492
 20
-26.8918276805
 11
-1.2962106622
 21
-26.8768065067
  0
LINE
  5
371
100
AcDbEntity
  8
IMPORT_IGES
100
AcDbLine
 62
7
  6
CONTINUOUS
 10
0.5569254311
 20
-27.7237443159
 11
0.7643292398
 21
-27.7045774747
  0
LINE
  5
372
100
AcDbEntity
  8
IMPORT_IGES
100
AcDbLine
 62
7
  6
CONTINUOUS
 10
0.7137119338
 20
-27.2087495627
 11
0.4928576904
 21
-27.229074056
  0
LINE
  5
373
100
AcDbEntity
  8
IMPORT_IGES
100
AcDbLine
 62
7
  6
CONTINUOUS
 10
0.7082398529
 20
-26.2092805859
 11
0.4864200842
 21
-26.2296580701
  0
LINE
  5
374
100
AcDbEntity
  8
IMPORT_IGES
100
AcDbLine
 62
7
  6
CONTINUOUS
 10
0.5136942922
 20
-28.7275809517
 11
0.7349861673
 21
-28.707353912
  0
LINE
  5
375
100
AcDbEntity
  8
IMPORT_IGES
100
AcDbLine
 62
7
  6
CONTINUOUS
 10
0.5134713979
 20
-25.7276386204
 11
0.7321971263
 21
-25.7076547807
  0
LWPOLYLINE
  5
376
100
AcDbEntity
  8
IMPORT_IGES
100
AcDbPolyline
 62
253
  6
CONTINUOUS
 90
7
 70
0
 10
0.893131529
 20
-28.4554866022
 10
1.0625380597
 20
-28.4404141257
 10
1.2207495054
 20
-28.4252775407
 10
1.366476218
 20
-28.4100767
 10
1.4984624345
 20
-28.3948154194
 10
1.6157309793
 20
-28.3795026731
 10
1.7174020291
 20
-28.3641459447
  0
LWPOLYLINE
  5
377
100
AcDbEntity
  8
IMPORT_IGES
100
AcDbPolyline
 62
253
  6
CONTINUOUS
 90
7
 70
0
 10
0.8902602873
 20
-27.4557518236
 10
1.0595174633
 20
-27.4407075807
 10
1.2176609151
 20
-27.4255935202
 10
1.3637876749
 20
-27.4103788471
 10
1.4966596277
 20
-27.3950567563
 10
1.6148561869
 20
-27.3796452588
 10
1.7174020291
 20
-27.3641515555
  0
LWPOLYLINE
  5
378
100
AcDbEntity
  8
IMPORT_IGES
100
AcDbPolyline
 62
253
  6
CONTINUOUS
 90
7
 70
0
 10
0.8839108076
 20
-26.4563072705
 10
1.0551203072
 20
-26.4411290336
 10
1.2150704009
 20
-26.4258674105
 10
1.362438935
 20
-26.4105338614
 10
1.4960442711
 20
-26.3951369104
 10
1.6147390508
 20
-26.3796814269
 10
1.7174020291
 20
-26.3641742335
  0
LINE
  5
379
100
AcDbEntity
  8
IMPORT_IGES
100
AcDbLine
 62
7
  6
CONTINUOUS
 10
-1.3846159724
 20
-25.884887766
 11
-1.1939899126
 21
-25.8677748681
  0
LINE
  5
37A
100
AcDbEntity
  8
IMPORT_IGES
100
AcDbLine
 62
7
  6
CONTINUOUS
 10
0.4459297453
 20
-26.733549651
 11
0.6632898821
 21
-26.7140842971
  0
LINE
  5
37B
100
AcDbEntity
  8
IMPORT_IGES
100
AcDbLine
 62
7
  6
CONTINUOUS
 10
0.5740460499
 20
-28.2217555147
 11
0.3403498807
 21
-28.2423788838
  0
LINE
  5
37C
100
AcDbEntity
  8
IMPORT_IGES
100
AcDbLine
 62
7
  6
CONTINUOUS
 10
-1.3415022196
 20
-27.880892866
 11
-1.1151328587
 21
-27.8609390961
  0
LINE
  5
37D
100
AcDbEntity
  8
IMPORT_IGES
100
AcDbLine
 62
7
  6
CONTINUOUS
 10
-1.1489859714
 20
-26.3636118225
 11
-1.3793405751
 21
-26.3838891513
  0
LINE
  5
37E
100
AcDbEntity
  8
IMPORT_IGES
100
AcDbLine
 62
7
  6
CONTINUOUS
 10
-1.1392895598
 20
-27.3627745243
 11
-1.3711602506
 21
-27.3831286855
  0
LINE
  5
37F
100
AcDbEntity
  8
IMPORT_IGES
100
AcDbLine
 62
7
  6
CONTINUOUS
 10
-1.1307189116
 20
-28.3620324917
 11
-1.3637782242
 21
-28.3824479722
  0
LINE
  5
380
100
AcDbEntity
  8
IMPORT_IGES
100
AcDbLine
 62
7
  6
CONTINUOUS
 10
-1.2962106622
 20
-26.8768065067
 11
-1.059347423
 21
-26.856206968
  0
LINE
  5
381
100
AcDbEntity
  8
IMPORT_IGES
100
AcDbLine
 62
7
  6
CONTINUOUS
 10
0.2684143854
 20
-27.7486995389
 11
0.5569254311
 21
-27.7237443159
  0
LINE
  5
382
100
AcDbEntity
  8
IMPORT_IGES
100
AcDbLine
 62
7
  6
CONTINUOUS
 10
0.4928576904
 20
-27.229074056
 11
0.1679286009
 21
-27.2569419008
  0
LINE
  5
383
100
AcDbEntity
  8
IMPORT_IGES
100
AcDbLine
 62
7
  6
CONTINUOUS
 10
0.4864200842
 20
-26.2296580701
 11
0.1598945363
 21
-26.2576234599
  0
LINE
  5
384
100
AcDbEntity
  8
IMPORT_IGES
100
AcDbLine
 62
7
  6
CONTINUOUS
 10
0.202506969
 20
-25.7542297294
 11
0.5134713979
 21
-25.7276386204
  0
LINE
  5
385
100
AcDbEntity
  8
IMPORT_IGES
100
AcDbLine
 62
7
  6
CONTINUOUS
 10
0.1972609024
 20
-28.7546247258
 11
0.5136942922
 21
-28.7275809517
  0
LINE
  5
386
100
AcDbEntity
  8
IMPORT_IGES
100
AcDbLine
 62
7
  6
CONTINUOUS
 10
-1.1939899126
 20
-25.8677748681
 11
-0.9125717593
 21
-25.8439820726
  0
LINE
  5
387
100
AcDbEntity
  8
IMPORT_IGES
100
AcDbLine
 62
7
  6
CONTINUOUS
 10
0.068460305
 20
-26.7652457799
 11
0.4459297453
 21
-26.733549651
  0
LINE
  5
388
100
AcDbEntity
  8
IMPORT_IGES
100
AcDbLine
 62
7
  6
CONTINUOUS
 10
0.3403498807
 20
-28.2423788838
 11
-0.0842326852
 21
-28.2775408135
  0
LINE
  5
389
100
AcDbEntity
  8
IMPORT_IGES
100
AcDbLine
 62
7
  6
CONTINUOUS
 10
-1.1151328587
 20
-27.8609390961
 11
-0.735797889
 21
-27.8295633715
  0
LINE
  5
38A
100
AcDbEntity
  8
IMPORT_IGES
100
AcDbLine
 62
7
  6
CONTINUOUS
 10
-0.7270106588
 20
-26.3288366271
 11
-1.1489859714
 21
-26.3636118225
  0
LINE
  5
38B
100
AcDbEntity
  8
IMPORT_IGES
100
AcDbLine
 62
7
  6
CONTINUOUS
 10
-0.7067153378
 20
-28.3271796898
 11
-1.1307189116
 21
-28.3620324917
  0
LINE
  5
38C
100
AcDbEntity
  8
IMPORT_IGES
100
AcDbLine
 62
7
  6
CONTINUOUS
 10
-0.7162041746
 20
-27.3279549767
 11
-1.1392895598
 21
-27.3627745243
  0
LWPOLYLINE
  5
38D
100
AcDbEntity
  8
IMPORT_IGES
100
AcDbPolyline
 62
7
  6
CONTINUOUS
 90
3
 70
0
 10
-1.059347423
 20
-26.856206968
 10
-0.5246060178
 20
-26.8126755273
 10
0.068460305
 20
-26.7652457799
  0
LINE
  5
38E
100
AcDbEntity
  8
IMPORT_IGES
100
AcDbLine
 62
7
  6
CONTINUOUS
 10
-0.7873895016
 20
-28.8337193796
 11
0.1972609024
 21
-28.7546247258
  0
LINE
  5
38F
100
AcDbEntity
  8
IMPORT_IGES
100
AcDbLine
 62
253
  6
CONTINUOUS
 10
0.5261591055
 20
-28.4854177695
 11
0.893131529
 21
-28.4554866022
  0
LINE
  5
390
100
AcDbEntity
  8
IMPORT_IGES
100
AcDbLine
 62
7
  6
CONTINUOUS
 10
-0.0842326852
 20
-28.2775408135
 11
-0.7067153378
 21
-28.3271796898
  0
LINE
  5
391
100
AcDbEntity
  8
IMPORT_IGES
100
AcDbLine
 62
7
  6
CONTINUOUS
 10
-0.735797889
 20
-27.8295633715
 11
0.2684143854
 21
-27.7486995389
  0
LINE
  5
392
100
AcDbEntity
  8
IMPORT_IGES
100
AcDbLine
 62
253
  6
CONTINUOUS
 10
0.5236370186
 20
-27.4856242327
 11
0.8902602873
 21
-27.4557518236
  0
LINE
  5
393
100
AcDbEntity
  8
IMPORT_IGES
100
AcDbLine
 62
7
  6
CONTINUOUS
 10
0.1679286009
 20
-27.2569419008
 11
-0.7162041746
 21
-27.3279549767
  0
LINE
  5
394
100
AcDbEntity
  8
IMPORT_IGES
100
AcDbLine
 62
7
  6
CONTINUOUS
 10
0.1598945363
 20
-26.2576234599
 11
-0.7270106588
 21
-26.3288366271
  0
LINE
  5
395
100
AcDbEntity
  8
IMPORT_IGES
100
AcDbLine
 62
7
  6
CONTINUOUS
 10
-0.9125717593
 20
-25.8439820726
 11
0.202506969
 21
-25.7542297294
  0
LINE
  5
396
100
AcDbEntity
  8
IMPORT_IGES
100
AcDbLine
 62
253
  6
CONTINUOUS
 10
0.5138932361
 20
-26.48639428
 11
0.8839108076
 21
-26.4563072705
  0
LINE
  5
397
100
AcDbEntity
  8
IMPORT_IGES
100
AcDbLine
 62
253
  6
CONTINUOUS
 10
-1.6315040453
 20
-26.6447420507
 11
-1.2830278946
 21
-26.6168581341
  0
LINE
  5
398
100
AcDbEntity
  8
IMPORT_IGES
100
AcDbLine
 62
253
  6
CONTINUOUS
 10
-1.6239385346
 20
-28.6440718109
 11
-1.2743340927
 21
-28.6161723414
  0
LINE
  5
399
100
AcDbEntity
  8
IMPORT_IGES
100
AcDbLine
 62
253
  6
CONTINUOUS
 10
-1.6222787098
 20
-27.6439478493
 11
-1.2718504818
 21
-27.6159946866
  0
LINE
  5
39A
100
AcDbEntity
  8
IMPORT_IGES
100
AcDbLine
 62
253
  6
CONTINUOUS
 10
-0.0721766977
 20
-28.5297545778
 11
0.5261591055
 21
-28.4854177695
  0
LINE
  5
39B
100
AcDbEntity
  8
IMPORT_IGES
100
AcDbLine
 62
253
  6
CONTINUOUS
 10
-0.0743457611
 20
-27.5299239761
 11
0.5236370186
 21
-27.4856242327
  0
LINE
  5
39C
100
AcDbEntity
  8
IMPORT_IGES
100
AcDbLine
 62
253
  6
CONTINUOUS
 10
-0.086403008
 20
-26.5307967408
 11
0.5138932361
 21
-26.48639428
  0
LINE
  5
39D
100
AcDbEntity
  8
IMPORT_IGES
100
AcDbLine
 62
253
  6
CONTINUOUS
 10
-1.2743340927
 20
-28.6161723414
 11
-0.0721766977
 21
-28.5297545778
  0
LINE
  5
39E
100
AcDbEntity
  8
IMPORT_IGES
100
AcDbLine
 62
253
  6
CONTINUOUS
 10
-1.2718504818
 20
-27.6159946866
 11
-0.0743457611
 21
-27.5299239761
  0
LINE
  5
39F
100
AcDbEntity
  8
IMPORT_IGES
100
AcDbLine
 62
253
  6
CONTINUOUS
 10
-1.2830278946
 20
-26.6168581341
 11
-0.086403008
 21
-26.5307967408
  0
LINE
  5
3A0
100
AcDbEntity
  8
IMPORT_IGES
100
AcDbLine
 62
7
  6
CONTINUOUS
 10
35.8507345677
 20
-30.1826555767
 11
34.4444857598
 21
-30.1826555767
  0
LINE
  5
3A1
100
AcDbEntity
  8
IMPORT_IGES
100
AcDbLine
 62
7
  6
CONTINUOUS
 10
23.7674020291
 20
-30.1826555767
 11
22.3611520291
 21
-30.1826555767
  0
LINE
  5
3A2
100
AcDbEntity
  8
IMPORT_IGES
100
AcDbLine
 62
7
  6
CONTINUOUS
 10
18.6632354617
 20
-30.1294640937
 11
19.2361520291
 21
-30.1294640937
  0
LINE
  5
3A3
100
AcDbEntity
  8
IMPORT_IGES
100
AcDbLine
 62
7
  6
CONTINUOUS
 10
40.6944845677
 20
-30.1294640937
 11
41.2674020291
 21
-30.1294640937
  0
LINE
  5
3A4
100
AcDbEntity
  8
IMPORT_IGES
100
AcDbLine
 62
7
  6
CONTINUOUS
 10
35.5903194905
 20
-29.9698895702
 11
34.4965682984
 21
-29.9698895702
  0
LINE
  5
3A5
100
AcDbEntity
  8
IMPORT_IGES
100
AcDbLine
 62
7
  6
CONTINUOUS
 10
33.4549020291
 20
-29.9698895702
 11
32.9861520291
 21
-29.9698895702
  0
LINE
  5
3A6
100
AcDbEntity
  8
IMPORT_IGES
100
AcDbLine
 62
7
  6
CONTINUOUS
 10
23.5069851637
 20
-29.9698895702
 11
22.4132351637
 21
-29.9698895702
  0
LINE
  5
3A7
100
AcDbEntity
  8
IMPORT_IGES
100
AcDbLine
 62
7
  6
CONTINUOUS
 10
18.6632354617
 20
-29.9166980871
 11
19.2361520291
 21
-29.9166980871
  0
LINE
  5
3A8
100
AcDbEntity
  8
IMPORT_IGES
100
AcDbLine
 62
7
  6
CONTINUOUS
 10
40.6944845677
 20
-29.9166980871
 11
41.2674020291
 21
-29.9166980871
  0
LINE
  5
3A9
100
AcDbEntity
  8
IMPORT_IGES
100
AcDbLine
 62
7
  6
CONTINUOUS
 10
40.2257345677
 20
-29.7571236381
 11
39.9653194905
 21
-29.7571236381
  0
LINE
  5
3AA
100
AcDbEntity
  8
IMPORT_IGES
100
AcDbLine
 62
7
  6
CONTINUOUS
 10
18.1944854617
 20
-29.7571236381
 11
17.9340685964
 21
-29.7571236381
  0
LINE
  5
3AB
100
AcDbEntity
  8
IMPORT_IGES
100
AcDbLine
 62
7
  6
CONTINUOUS
 10
32.9861520291
 20
-29.650740672
 11
33.7674020291
 21
-29.650740672
  0
LINE
  5
3AC
100
AcDbEntity
  8
IMPORT_IGES
100
AcDbLine
 62
7
  6
CONTINUOUS
 10
20.6424020291
 20
-29.597549189
 11
20.9549020291
 21
-29.597549189
  0
LINE
  5
3AD
100
AcDbEntity
  8
IMPORT_IGES
100
AcDbLine
 62
7
  6
CONTINUOUS
 10
40.9028194905
 20
-29.544357706
 11
40.5903194905
 21
-29.544357706
  0
LINE
  5
3AE
100
AcDbEntity
  8
IMPORT_IGES
100
AcDbLine
 62
7
  6
CONTINUOUS
 10
39.0799020291
 20
-29.544357706
 11
38.9236520291
 21
-29.544357706
  0
LINE
  5
3AF
100
AcDbEntity
  8
IMPORT_IGES
100
AcDbLine
 62
7
  6
CONTINUOUS
 10
38.2465694905
 20
-29.544357706
 11
38.1424020291
 21
-29.544357706
  0
LINE
  5
3B0
100
AcDbEntity
  8
IMPORT_IGES
100
AcDbLine
 62
7
  6
CONTINUOUS
 10
18.8715685964
 20
-29.544357706
 11
18.5590685964
 21
-29.544357706
  0
LINE
  5
3B1
100
AcDbEntity
  8
IMPORT_IGES
100
AcDbLine
 62
7
  6
CONTINUOUS
 10
18.5590685964
 20
-29.3315917739
 11
18.8715685964
 21
-29.3315917739
  0
LINE
  5
3B2
100
AcDbEntity
  8
IMPORT_IGES
100
AcDbLine
 62
7
  6
CONTINUOUS
 10
20.6424020291
 20
-29.3315917739
 11
20.9549020291
 21
-29.3315917739
  0
LINE
  5
3B3
100
AcDbEntity
  8
IMPORT_IGES
100
AcDbLine
 62
7
  6
CONTINUOUS
 10
26.6840682984
 20
-29.3315917739
 11
26.9444857598
 21
-29.3315917739
  0
LINE
  5
3B4
100
AcDbEntity
  8
IMPORT_IGES
100
AcDbLine
 62
7
  6
CONTINUOUS
 10
27.3611520291
 20
-29.3315917739
 11
27.6215682984
 21
-29.3315917739
  0
LINE
  5
3B5
100
AcDbEntity
  8
IMPORT_IGES
100
AcDbLine
 62
7
  6
CONTINUOUS
 10
28.0903182984
 20
-29.3315917739
 11
28.2986520291
 21
-29.3315917739
  0
LINE
  5
3B6
100
AcDbEntity
  8
IMPORT_IGES
100
AcDbLine
 62
7
  6
CONTINUOUS
 10
36.2674020291
 20
-29.3315917739
 11
36.5278194905
 21
-29.3315917739
  0
LINE
  5
3B7
100
AcDbEntity
  8
IMPORT_IGES
100
AcDbLine
 62
7
  6
CONTINUOUS
 10
37.6215694905
 20
-29.3315917739
 11
37.8819845677
 21
-29.3315917739
  0
LINE
  5
3B8
100
AcDbEntity
  8
IMPORT_IGES
100
AcDbLine
 62
7
  6
CONTINUOUS
 10
38.1424020291
 20
-29.3315917739
 11
38.3507345677
 21
-29.3315917739
  0
LINE
  5
3B9
100
AcDbEntity
  8
IMPORT_IGES
100
AcDbLine
 62
7
  6
CONTINUOUS
 10
38.9757345677
 20
-29.3315917739
 11
39.1840694905
 21
-29.3315917739
  0
LINE
  5
3BA
100
AcDbEntity
  8
IMPORT_IGES
100
AcDbLine
 62
7
  6
CONTINUOUS
 10
40.5903194905
 20
-29.3315917739
 11
40.9028194905
 21
-29.3315917739
  0
LINE
  5
3BB
100
AcDbEntity
  8
IMPORT_IGES
100
AcDbLine
 62
7
  6
CONTINUOUS
 10
42.0486520291
 20
-29.3315917739
 11
42.3090694905
 21
-29.3315917739
  0
LINE
  5
3BC
100
AcDbEntity
  8
IMPORT_IGES
100
AcDbLine
 62
7
  6
CONTINUOUS
 10
42.7778194905
 20
-29.3315917739
 11
42.9861520291
 21
-29.3315917739
  0
LINE
  5
3BD
100
AcDbEntity
  8
IMPORT_IGES
100
AcDbLine
 62
7
  6
CONTINUOUS
 10
43.9236520291
 20
-29.3315917739
 11
44.2361520291
 21
-29.3315917739
  0
LINE
  5
3BE
100
AcDbEntity
  8
IMPORT_IGES
100
AcDbLine
 62
7
  6
CONTINUOUS
 10
45.2778194905
 20
-29.3315917739
 11
45.5903194905
 21
-29.3315917739
  0
LINE
  5
3BF
100
AcDbEntity
  8
IMPORT_IGES
100
AcDbLine
 62
7
  6
CONTINUOUS
 10
33.7674020291
 20
-29.1720173248
 11
33.4549020291
 21
-29.1720173248
  0
LINE
  5
3C0
100
AcDbEntity
  8
IMPORT_IGES
100
AcDbLine
 62
7
  6
CONTINUOUS
 10
33.0382357598
 20
-28.8528682777
 11
32.5694857598
 21
-28.8528682777
  0
LINE
  5
3C1
100
AcDbEntity
  8
IMPORT_IGES
100
AcDbLine
 62
7
  6
CONTINUOUS
 10
1.7174020291
 20
-28.8337193796
 11
-2.2825979709
 21
-28.8337193796
  0
LINE
  5
3C2
100
AcDbEntity
  8
IMPORT_IGES
100
AcDbLine
 62
7
  6
CONTINUOUS
 10
26.9444857598
 20
-28.7996767947
 11
26.6840682984
 21
-28.7996767947
  0
LINE
  5
3C3
100
AcDbEntity
  8
IMPORT_IGES
100
AcDbLine
 62
7
  6
CONTINUOUS
 10
15.0174020291
 20
-28.5337193796
 11
15.4861520291
 21
-28.5337193796
  0
LINE
  5
3C4
100
AcDbEntity
  8
IMPORT_IGES
100
AcDbLine
 62
7
  6
CONTINUOUS
 10
17.0486520291
 20
-28.5337193796
 11
17.5174020291
 21
-28.5337193796
  0
LINE
  5
3C5
100
AcDbEntity
  8
IMPORT_IGES
100
AcDbLine
 62
7
  6
CONTINUOUS
 10
21.4236520291
 20
-28.5337193796
 11
21.6840688944
 21
-28.5337193796
  0
LINE
  5
3C6
100
AcDbEntity
  8
IMPORT_IGES
100
AcDbLine
 62
7
  6
CONTINUOUS
 10
26.6840682984
 20
-28.5337193796
 11
26.9444857598
 21
-28.5337193796
  0
LINE
  5
3C7
100
AcDbEntity
  8
IMPORT_IGES
100
AcDbLine
 62
7
  6
CONTINUOUS
 10
32.5694857598
 20
-28.5337193796
 11
33.0382357598
 21
-28.5337193796
  0
LINE
  5
3C8
100
AcDbEntity
  8
IMPORT_IGES
100
AcDbLine
 62
7
  6
CONTINUOUS
 10
1.7174020291
 20
-26.6337193796
 11
1.3851630384
 21
-26.6337193796
  0
LINE
  5
3C9
100
AcDbEntity
  8
IMPORT_IGES
100
AcDbLine
 62
7
  6
CONTINUOUS
 10
1.7174020291
 20
-25.8337193796
 11
0.4575696352
 21
-25.8337193796
  0
LINE
  5
3CA
100
AcDbEntity
  8
IMPORT_IGES
100
AcDbLine
 62
7
  6
CONTINUOUS
 10
-1.0255880731
 20
-27.2130220479
 11
-0.1533695274
 21
-27.2831077644
  0
LINE
  5
3CB
100
AcDbEntity
  8
IMPORT_IGES
100
AcDbLine
 62
7
  6
CONTINUOUS
 10
-1.0404206529
 20
-26.2117951915
 11
-0.1533597297
 21
-26.2831173316
  0
LINE
  5
3CC
100
AcDbEntity
  8
IMPORT_IGES
100
AcDbLine
 62
7
  6
CONTINUOUS
 10
0.3154806764
 20
-26.8214809658
 11
-0.1530520128
 21
-26.7831157806
  0
LINE
  5
3CD
100
AcDbEntity
  8
IMPORT_IGES
100
AcDbLine
 62
7
  6
CONTINUOUS
 10
0.3185878772
 20
-25.8217588247
 11
-0.1530607454
 21
-25.7831269732
  0
LINE
  5
3CE
100
AcDbEntity
  8
IMPORT_IGES
100
AcDbLine
 62
7
  6
CONTINUOUS
 10
0.336601813
 20
-27.8232623267
 11
-0.1530336236
 21
-27.7831017441
  0
LINE
  5
3CF
100
AcDbEntity
  8
IMPORT_IGES
100
AcDbLine
 62
7
  6
CONTINUOUS
 10
-1.2317245447
 20
-28.1954634187
 11
-1.0395535645
 21
-28.2118300632
  0
LINE
  5
3D0
100
AcDbEntity
  8
IMPORT_IGES
100
AcDbLine
 62
7
  6
CONTINUOUS
 10
-1.2578863042
 20
-26.193205421
 11
-1.0404206529
 21
-26.2117951915
  0
LINE
  5
3D1
100
AcDbEntity
  8
IMPORT_IGES
100
AcDbLine
 62
7
  6
CONTINUOUS
 10
-1.3055046625
 20
-27.188982101
 11
-1.0255880731
 21
-27.2130220479
  0
LINE
  5
3D2
100
AcDbEntity
  8
IMPORT_IGES
100
AcDbLine
 62
7
  6
CONTINUOUS
 10
0.5568987852
 20
-26.8424696166
 11
0.3154806764
 21
-26.8214809658
  0
LINE
  5
3D3
100
AcDbEntity
  8
IMPORT_IGES
100
AcDbLine
 62
7
  6
CONTINUOUS
 10
0.5594119319
 20
-25.842708326
 11
0.3185878772
 21
-25.8217588247
  0
LINE
  5
3D4
100
AcDbEntity
  8
IMPORT_IGES
100
AcDbLine
 62
7
  6
CONTINUOUS
 10
0.5753662817
 20
-27.8441108009
 11
0.336601813
 21
-27.8232623267
  0
LINE
  5
3D5
100
AcDbEntity
  8
IMPORT_IGES
100
AcDbLine
 62
7
  6
CONTINUOUS
 10
-1.4477087092
 20
-28.1760260956
 11
-1.2317245447
 21
-28.1954634187
  0
LINE
  5
3D6
100
AcDbEntity
  8
IMPORT_IGES
100
AcDbLine
 62
7
  6
CONTINUOUS
 10
-1.4568703122
 20
-26.1751907188
 11
-1.2578863042
 21
-26.193205421
  0
LINE
  5
3D7
100
AcDbEntity
  8
IMPORT_IGES
100
AcDbLine
 62
7
  6
CONTINUOUS
 10
0.7086945841
 20
-26.8563720413
 11
0.5568987852
 21
-26.8424696166
  0
LINE
  5
3D8
100
AcDbEntity
  8
IMPORT_IGES
100
AcDbLine
 62
7
  6
CONTINUOUS
 10
0.7108780383
 20
-25.8565862398
 11
0.5594119319
 21
-25.842708326
  0
LINE
  5
3D9
100
AcDbEntity
  8
IMPORT_IGES
100
AcDbLine
 62
7
  6
CONTINUOUS
 10
0.725129322
 20
-27.8579034566
 11
0.5753662817
 21
-27.8441108009
  0
LINE
  5
3DA
100
AcDbEntity
  8
IMPORT_IGES
100
AcDbLine
 62
7
  6
CONTINUOUS
 10
-1.4933938799
 20
-27.1717309647
 11
-1.3055046625
 21
-27.188982101
  0
LWPOLYLINE
  5
3DB
100
AcDbEntity
  8
IMPORT_IGES
100
AcDbPolyline
 62
253
  6
CONTINUOUS
 90
8
 70
0
 10
-0.920342065
 20
-25.9653383836
 10
0.198566732
 20
-26.0687646874
 10
0.3777430461
 20
-26.0863368212
 10
0.5490705387
 20
-26.1039922056
 10
0.7105442257
 20
-26.1217267132
 10
0.86020721
 20
-26.1395340341
 10
0.9964533106
 20
-26.1574090586
 10
1.0831032632
 20
-26.1702185521
  0
LINE
  5
3DC
100
AcDbEntity
  8
IMPORT_IGES
100
AcDbLine
 62
7
  6
CONTINUOUS
 10
-1.5807046743
 20
-28.1632551575
 11
-1.4477087092
 21
-28.1760260956
  0
LINE
  5
3DD
100
AcDbEntity
  8
IMPORT_IGES
100
AcDbLine
 62
7
  6
CONTINUOUS
 10
-1.5784663454
 20
-26.1634959349
 11
-1.4568703122
 21
-26.1751907188
  0
LINE
  5
3DE
100
AcDbEntity
  8
IMPORT_IGES
100
AcDbLine
 62
7
  6
CONTINUOUS
 10
0.8516060181
 20
-26.8701403025
 11
0.7086945841
 21
-26.8563720413
  0
LINE
  5
3DF
100
AcDbEntity
  8
IMPORT_IGES
100
AcDbLine
 62
7
  6
CONTINUOUS
 10
0.8534884572
 20
-25.8703354515
 11
0.7108780383
 21
-25.8565862398
  0
LINE
  5
3E0
100
AcDbEntity
  8
IMPORT_IGES
100
AcDbLine
 62
7
  6
CONTINUOUS
 10
0.8659370169
 20
-27.8715551811
 11
0.725129322
 21
-27.8579034566
  0
LINE
  5
3E1
100
AcDbEntity
  8
IMPORT_IGES
100
AcDbLine
 62
7
  6
CONTINUOUS
 10
-1.6079717491
 20
-27.1605493015
 11
-1.4933938799
 21
-27.1717309647
  0
LWPOLYLINE
  5
3E2
100
AcDbEntity
  8
IMPORT_IGES
100
AcDbPolyline
 62
253
  6
CONTINUOUS
 90
7
 70
0
 10
0.3395494708
 20
-28.0825976711
 10
0.4279649159
 20
-28.0913818024
 10
0.594606287
 20
-28.1088445374
 10
0.7512685579
 20
-28.1264011502
 10
0.8962023476
 20
-28.1440454088
 10
1.0278250207
 20
-28.1617950503
 10
1.0828564495
 20
-28.1702126531
  0
LWPOLYLINE
  5
3E3
100
AcDbEntity
  8
IMPORT_IGES
100
AcDbPolyline
 62
253
  6
CONTINUOUS
 90
7
 70
0
 10
0.1269461117
 20
-27.0619185809
 10
0.4786944918
 20
-27.0966058148
 10
0.6419308645
 20
-27.1140264281
 10
0.7948817717
 20
-27.1315522705
 10
0.9358151071
 20
-27.1491960158
 10
1.0629357
 20
-27.166932876
 10
1.0832973109
 20
-27.1701751847
  0
LINE
  5
3E4
100
AcDbEntity
  8
IMPORT_IGES
100
AcDbLine
 62
7
  6
CONTINUOUS
 10
-1.6909671769
 20
-26.152034749
 11
-1.5784663454
 21
-26.1634959349
  0
LINE
  5
3E5
100
AcDbEntity
  8
IMPORT_IGES
100
AcDbLine
 62
7
  6
CONTINUOUS
 10
0.9848446817
 20
-26.8837569685
 11
0.8516060181
 21
-26.8701403025
  0
LINE
  5
3E6
100
AcDbEntity
  8
IMPORT_IGES
100
AcDbLine
 62
7
  6
CONTINUOUS
 10
0.9864345771
 20
-25.8839405041
 11
0.8534884572
 21
-25.8703354515
  0
LINE
  5
3E7
100
AcDbEntity
  8
IMPORT_IGES
100
AcDbLine
 62
7
  6
CONTINUOUS
 10
-1.7032244657
 20
-28.1507136543
 11
-1.5807046743
 21
-28.1632551575
  0
LINE
  5
3E8
100
AcDbEntity
  8
IMPORT_IGES
100
AcDbLine
 62
7
  6
CONTINUOUS
 10
0.9971376396
 20
-27.8850519234
 11
0.8659370169
 21
-27.8715551811
  0
LINE
  5
3E9
100
AcDbEntity
  8
IMPORT_IGES
100
AcDbLine
 62
7
  6
CONTINUOUS
 10
-1.7140123718
 20
-27.1495838803
 11
-1.6079717491
 21
-27.1605493015
  0
LINE
  5
3EA
100
AcDbEntity
  8
IMPORT_IGES
100
AcDbLine
 62
7
  6
CONTINUOUS
 10
-1.7942374437
 20
-26.1407890976
 11
-1.6909671769
 21
-26.152034749
  0
LINE
  5
3EB
100
AcDbEntity
  8
IMPORT_IGES
100
AcDbLine
 62
7
  6
CONTINUOUS
 10
-1.8142902188
 20
-28.1384706678
 11
-1.7032244657
 21
-28.1507136543
  0
LINE
  5
3EC
100
AcDbEntity
  8
IMPORT_IGES
100
AcDbLine
 62
7
  6
CONTINUOUS
 10
-1.8115209321
 20
-27.1388056988
 11
-1.7140123718
 21
-27.1495838803
  0
LWPOLYLINE
  5
3ED
100
AcDbEntity
  8
IMPORT_IGES
100
AcDbPolyline
 62
253
  6
CONTINUOUS
 90
5
 70
0
 10
-1.5374059521
 20
-25.8995296397
 10
-1.4065213567
 20
-25.9151926257
 10
-1.2553139314
 20
-25.9318067029
 10
-1.0926427251
 20
-25.9485203503
 10
-0.920342065
 20
-25.9653383836
  0
LWPOLYLINE
  5
3EE
100
AcDbEntity
  8
IMPORT_IGES
100
AcDbPolyline
 62
7
  6
CONTINUOUS
 90
4
 70
0
 10
1.2293716124
 20
-27.9116142416
 10
1.1751877746
 20
-27.905026484
 10
1.1183998161
 20
-27.8984041843
 10
0.9971376396
 20
-27.8850519234
  0
LWPOLYLINE
  5
3EF
100
AcDbEntity
  8
IMPORT_IGES
100
AcDbPolyline
 62
253
  6
CONTINUOUS
 90
6
 70
0
 10
-1.5367553832
 20
-26.8994546612
 10
-1.4472183249
 20
-26.9104747497
 10
-1.3011174368
 20
-26.926890242
 10
-1.1433927357
 20
-26.9433932092
 10
-0.9758437581
 20
-26.9599873957
 10
0.1269461117
 20
-27.0619185809
  0
LWPOLYLINE
  5
3F0
100
AcDbEntity
  8
IMPORT_IGES
100
AcDbPolyline
 62
7
  6
CONTINUOUS
 90
5
 70
0
 10
1.2729806825
 20
-26.917156674
 10
1.220585209
 20
-26.910547253
 10
1.1655670779
 20
-26.903903808
 10
1.1079296967
 20
-26.8972248622
 10
0.9848446817
 20
-26.8837569685
  0
LWPOLYLINE
  5
3F1
100
AcDbEntity
  8
IMPORT_IGES
100
AcDbPolyline
 62
253
  6
CONTINUOUS
 90
6
 70
0
 10
-1.5367425675
 20
-27.8994321278
 10
-1.4950565362
 20
-27.9047587643
 10
-1.3520055427
 20
-27.9213106991
 10
-1.1962209526
 20
-27.9379670553
 10
-1.0299289627
 20
-27.9546996075
 10
-0.7500172488
 20
-27.9813058196
  0
LWPOLYLINE
  5
3F2
100
AcDbEntity
  8
IMPORT_IGES
100
AcDbPolyline
 62
7
  6
CONTINUOUS
 90
4
 70
0
 10
1.4144866865
 20
-26.9368049752
 10
1.3699173061
 20
-26.9302820199
 10
1.3227602948
 20
-26.923734708
 10
1.2729806825
 20
-26.917156674
  0
LWPOLYLINE
  5
3F3
100
AcDbEntity
  8
IMPORT_IGES
100
AcDbPolyline
 62
7
  6
CONTINUOUS
 90
5
 70
0
 10
1.4202109521
 20
-27.937663343
 10
1.376346479
 20
-27.9311903328
 10
1.3299407058
 20
-27.9246944508
 10
1.2809495148
 20
-27.9181692453
 10
1.2293716124
 20
-27.9116142416
  0
LINE
  5
3F4
100
AcDbEntity
  8
IMPORT_IGES
100
AcDbLine
 62
7
  6
CONTINUOUS
 10
22.9861520291
 20
-31.0337193796
 11
22.673652029
 21
-30.9805278919
  0
LINE
  5
3F5
100
AcDbEntity
  8
IMPORT_IGES
100
AcDbLine
 62
7
  6
CONTINUOUS
 10
18.8715685964
 20
-29.3315917739
 11
19.1840685964
 21
-29.3847832569
  0
LWPOLYLINE
  5
3F6
100
AcDbEntity
  8
IMPORT_IGES
100
AcDbPolyline
 62
7
  6
CONTINUOUS
 90
10
 70
0
 10
-2.1483520633
 20
-26.0917678824
 10
-2.1172095821
 20
-26.0972255468
 10
-2.0842855314
 20
-26.1026269332
 10
-2.0493342144
 20
-26.1080207223
 10
-2.0122920834
 20
-26.1134204374
 10
-1.9731671228
 20
-26.1188281721
 10
-1.9318315281
 20
-26.1242637906
 10
-1.8882450401
 20
-26.1297334715
 10
-1.842401381
 20
-26.1352389054
 10
-1.7942374437
 20
-26.1407890976
  0
LWPOLYLINE
  5
3F7
100
AcDbEntity
  8
IMPORT_IGES
100
AcDbPolyline
 62
7
  6
CONTINUOUS
 90
15
 70
0
 10
-2.2825979709
 20
-27.0616210301
 10
-2.2601377909
 20
-27.0677715585
 10
-2.2355496771
 20
-27.0738505304
 10
-2.2093700275
 20
-27.0797404504
 10
-2.1816891655
 20
-27.0854499392
 10
-2.1524334543
 20
-27.0910212191
 10
-2.1217001292
 20
-27.096460531
 10
-2.0894129992
 20
-27.1018053513
 10
-2.055342932
 20
-27.1071094855
 10
-2.0194914004
 20
-27.1123831431
 10
-1.9818791266
 20
-27.1176326497
 10
-1.9422996678
 20
-27.1228931842
 10
-1.9007122426
 20
-27.1281736541
 10
-1.8571534895
 20
-27.1334727449
 10
-1.8115209321
 20
-27.1388056988
  0
LWPOLYLINE
  5
3F8
100
AcDbEntity
  8
IMPORT_IGES
100
AcDbPolyline
 62
7
  6
CONTINUOUS
 90
15
 70
0
 10
-2.2825979709
 20
-28.0615923962
 10
-2.2803881805
 20
-28.0622597205
 10
-2.2561439741
 20
-28.0687850604
 10
-2.2306083453
 20
-28.0749812635
 10
-2.2037056417
 20
-28.0809213002
 10
-2.1754145789
 20
-28.086654191
 10
-2.1451292904
 20
-28.0923257844
 10
-2.1126819078
 20
-28.0979725021
 10
-2.0780821639
 20
-28.1035961312
 10
-2.0409810144
 20
-28.1092529568
 10
-2.0012549939
 20
-28.1149580812
 10
-1.9588827161
 20
-28.1207134022
 10
-1.9136646029
 20
-28.1265442207
 10
-1.8654595362
 20
-28.1324651972
 10
-1.8142902188
 20
-28.1384706678
  0
LWPOLYLINE
  5
3F9
100
AcDbEntity
  8
IMPORT_IGES
100
AcDbPolyline
 62
7
  6
CONTINUOUS
 90
11
 70
0
 10
1.7174020291
 20
-27.9991159816
 10
1.7166671087
 20
-27.9988716884
 10
1.6907210819
 20
-27.9911981818
 10
1.6634245063
 20
-27.9839295866
 10
1.6345303711
 20
-27.9769421671
 10
1.6041646019
 20
-27.9702196383
 10
1.5717844738
 20
-27.9636091588
 10
1.5372607565
 20
-27.9570691013
 10
1.5006315536
 20
-27.9505940886
 10
1.4616409752
 20
-27.9441307524
 10
1.4202109521
 20
-27.937663343
  0
LINE
  5
3FA
100
AcDbEntity
  8
IMPORT_IGES
100
AcDbLine
 62
7
  6
CONTINUOUS
 10
-36.4908958482
 20
32.217113798
 11
-36.5325979709
 21
32.4212806204
  0
LINE
  5
3FB
100
AcDbEntity
  8
IMPORT_IGES
100
AcDbLine
 62
7
  6
CONTINUOUS
 10
-36.4908958482
 20
34.0137806204
 11
-36.5325979709
 21
34.2179474428
  0
LINE
  5
3FC
100
AcDbEntity
  8
IMPORT_IGES
100
AcDbLine
 62
7
  6
CONTINUOUS
 10
-35.4900447869
 20
29.1546140316
 11
-35.4483426642
 21
28.9504472092
  0
LINE
  5
3FD
100
AcDbEntity
  8
IMPORT_IGES
100
AcDbLine
 62
7
  6
CONTINUOUS
 10
-35.7819596457
 20
32.217113798
 11
-35.8236617684
 21
32.4212806204
  0
LINE
  5
3FE
100
AcDbEntity
  8
IMPORT_IGES
100
AcDbLine
 62
7
  6
CONTINUOUS
 10
-35.7819596457
 20
34.0137806204
 11
-35.8236617684
 21
34.2179474428
  0
LINE
  5
3FF
100
AcDbEntity
  8
IMPORT_IGES
100
AcDbLine
 62
7
  6
CONTINUOUS
 10
-26.2010121164
 20
35.4801748098
 11
-26.2010121164
 21
37.0797881033
  0
LINE
  5
400
100
AcDbEntity
  8
IMPORT_IGES
100
AcDbLine
 62
7
  6
CONTINUOUS
 10
-25.3710121164
 20
37.0797881033
 11
-25.3710121164
 21
35.4801748098
  0
LWPOLYLINE
  5
401
100
AcDbEntity
  8
IMPORT_IGES
100
AcDbPolyline
 62
7
  6
CONTINUOUS
 90
9
 70
0
 10
1.5444061159
 20
-24.098607469
 10
1.5279326508
 20
-24.102649688
 10
1.5085314365
 20
-24.1070338494
 10
1.4867060429
 20
-24.1116034301
 10
1.4625839409
 20
-24.1163109117
 10
1.4360716261
 20
-24.1211597242
 10
1.407331353
 20
-24.1261089813
 10
1.3763992006
 20
-24.131145606
 10
1.3432710252
 20
-24.1362645966
  0
LWPOLYLINE
  5
402
100
AcDbEntity
  8
IMPORT_IGES
100
AcDbPolyline
 62
7
  6
CONTINUOUS
 90
8
 70
0
 10
1.5390966284
 20
-22.0999702412
 10
1.5196981487
 20
-22.1045646486
 10
1.4966283523
 20
-22.1095734435
 10
1.4704541852
 20
-22.1148174782
 10
1.4412631874
 20
-22.120248972
 10
1.4089082356
 20
-22.1258692934
 10
1.373630782
 20
-22.1316164403
 10
1.3354542454
 20
-22.1374738527
  0
LWPOLYLINE
  5
403
100
AcDbEntity
  8
IMPORT_IGES
100
AcDbPolyline
 62
7
  6
CONTINUOUS
 90
8
 70
0
 10
1.5365634791
 20
-23.1005990618
 10
1.5180072211
 20
-23.1049498667
 10
1.4963560264
 20
-23.1096287854
 10
1.4720360456
 20
-23.1145040793
 10
1.4451166139
 20
-23.1195397267
 10
1.4155157525
 20
-23.1247322133
 10
1.3834153802
 20
-23.1300352531
 10
1.3488422875
 20
-23.1354351979
  0
LWPOLYLINE
  5
404
100
AcDbEntity
  8
IMPORT_IGES
100
AcDbPolyline
 62
7
  6
CONTINUOUS
 90
14
 70
0
 10
1.5703638201
 20
-21.602945819
 10
1.6039020602
 20
-21.5961016936
 10
1.6352927212
 20
-21.5891411748
 10
1.6644796317
 20
-21.582063563
 10
1.6917708743
 20
-21.5747756537
 10
1.7179697606
 20
-21.5670014602
 10
1.7428234308
 20
-21.5587220434
 10
1.7668258952
 20
-21.5496515228
 10
1.7918676028
 20
-21.5387385325
 10
1.8180182128
 20
-21.5252887214
 10
1.8447416203
 20
-21.5086877089
 10
1.8726167176
 20
-21.4871680016
 10
1.9014042283
 20
-21.4582461597
 10
1.9174020291
 20
-21.4377151863
  0
LWPOLYLINE
  5
405
100
AcDbEntity
  8
IMPORT_IGES
100
AcDbPolyline
 62
7
  6
CONTINUOUS
 90
5
 70
0
 10
1.5651612703
 20
-22.603936434
 10
1.5992488062
 20
-22.5970665942
 10
1.6314652481
 20
-22.5900131943
 10
1.6617212254
 20
-22.5827608194
 10
1.6902095541
 20
-22.5752200029
  0
LWPOLYLINE
  5
406
100
AcDbEntity
  8
IMPORT_IGES
100
AcDbPolyline
 62
253
  6
CONTINUOUS
 90
3
 70
0
 10
-2.3540710296
 20
-21.7238905944
 10
-2.431821467
 20
-21.7388161969
 10
-2.4825979709
 20
-21.7523299767
  0
LWPOLYLINE
  5
407
100
AcDbEntity
  8
IMPORT_IGES
100
AcDbPolyline
 62
253
  6
CONTINUOUS
 90
3
 70
0
 10
1.7788342371
 20
-21.3534522024
 10
1.6770524857
 20
-21.3706463877
 10
1.5550399852
 20
-21.3877772079
  0
LWPOLYLINE
  5
408
100
AcDbEntity
  8
IMPORT_IGES
100
AcDbPolyline
 62
7
  6
CONTINUOUS
 90
6
 70
0
 10
-2.0432823815
 20
-23.9618895433
 10
-2.01769676
 20
-23.9576032002
 10
-1.9897902196
 20
-23.953198995
 10
-1.9594948968
 20
-23.9486784075
 10
-1.9268423717
 20
-23.9440559003
 10
-1.8918314414
 20
-23.9393372374
  0
LWPOLYLINE
  5
409
100
AcDbEntity
  8
IMPORT_IGES
100
AcDbPolyline
 62
7
  6
CONTINUOUS
 90
6
 70
0
 10
-2.0400410308
 20
-25.9612952609
 10
-2.0126969061
 20
-25.9567658289
 10
-1.9829231689
 20
-25.9521296414
 10
-1.9506696259
 20
-25.9473863349
 10
-1.9160552942
 20
-25.9425588802
 10
-1.8791095951
 20
-25.9376543508
  0
LWPOLYLINE
  5
40A
100
AcDbEntity
  8
IMPORT_IGES
100
AcDbPolyline
 62
7
  6
CONTINUOUS
 90
6
 70
0
 10
-2.0387743257
 20
-22.9611345061
 10
-2.0118720772
 20
-22.9566851099
 10
-1.9826047143
 20
-22.9521268652
 10
-1.9509226591
 20
-22.947461425
 10
-1.9170032289
 20
-22.9427213127
 10
-1.8808931048
 20
-22.9379161069
  0
LWPOLYLINE
  5
40B
100
AcDbEntity
  8
IMPORT_IGES
100
AcDbPolyline
 62
7
  6
CONTINUOUS
 90
5
 70
0
 10
-2.0279060436
 20
-21.9593101169
 10
-2.0008895732
 20
-21.9549549585
 10
-1.9714682452
 20
-21.9504739163
 10
-1.9397119138
 20
-21.9458875674
 10
-1.9056145384
 20
-21.9412024759
  0
LWPOLYLINE
  5
40C
100
AcDbEntity
  8
IMPORT_IGES
100
AcDbPolyline
 62
253
  6
CONTINUOUS
 90
7
 70
0
 10
1.7174020291
 20
-23.364208205
 10
1.6167097862
 20
-23.379432626
 10
1.5004293389
 20
-23.3946438256
 10
1.369291937
 20
-23.4098340195
 10
1.2241705452
 20
-23.425000491
 10
1.0663081047
 20
-23.4401328241
 10
0.8971056502
 20
-23.4552120094
  0
LINE
  5
40D
100
AcDbEntity
  8
IMPORT_IGES
100
AcDbLine
 62
253
  6
CONTINUOUS
 10
1.7174020291
 20
-22.3642188006
 11
1.6148635581
 21
-22.3797137883
  0
LWPOLYLINE
  5
40E
100
AcDbEntity
  8
IMPORT_IGES
100
AcDbPolyline
 62
253
  6
CONTINUOUS
 90
7
 70
0
 10
1.7174020291
 20
-24.3642083829
 10
1.6156274765
 20
-24.3795746288
 10
1.4982419909
 20
-24.3948914337
 10
1.3662384378
 20
-24.4101517027
 10
1.2206886441
 20
-24.4253406375
 10
1.0626564323
 20
-24.4404596552
 10
0.893270827
 20
-24.4555267436
  0
LWPOLYLINE
  5
40F
100
AcDbEntity
  8
IMPORT_IGES
100
AcDbPolyline
 62
7
  6
CONTINUOUS
 90
10
 70
0
 10
1.3857268576
 20
-23.6337126735
 10
1.4294185936
 20
-23.6271874975
 10
1.4709021246
 20
-23.6206237627
 10
1.5101305037
 20
-23.6140192193
 10
1.5469616208
 20
-23.6073901599
 10
1.5813950445
 20
-23.6007316241
 10
1.6135649435
 20
-23.5940110076
 10
1.6436703748
 20
-23.5871734101
 10
1.6716772359
 20
-23.5802106718
 10
1.697881112
 20
-23.5730313748
  0
LWPOLYLINE
  5
410
100
AcDbEntity
  8
IMPORT_IGES
100
AcDbPolyline
 62
7
  6
CONTINUOUS
 90
5
 70
0
 10
1.3488422875
 20
-23.1354351979
 10
1.3117640222
 20
-23.1409291582
 10
1.2722623931
 20
-23.1464987264
 10
1.230346617
 20
-23.1521381296
 10
1.1860086474
 20
-23.1578446707
  0
LWPOLYLINE
  5
411
100
AcDbEntity
  8
IMPORT_IGES
100
AcDbPolyline
 62
7
  6
CONTINUOUS
 90
10
 70
0
 10
1.3762905156
 20
-24.6350598557
 10
1.4206731729
 20
-24.6285122186
 10
1.4626222083
 20
-24.6219603177
 10
1.5021756425
 20
-24.6153923136
 10
1.5394994273
 20
-24.6087710777
 10
1.5745387562
 20
-24.6020939454
 10
1.6074087252
 20
-24.5953265663
 10
1.6385732747
 20
-24.5883494923
 10
1.6680496794
 20
-24.5811177888
 10
1.6959027013
 20
-24.5735651077
  0
LWPOLYLINE
  5
412
100
AcDbEntity
  8
IMPORT_IGES
100
AcDbPolyline
 62
7
  6
CONTINUOUS
 90
5
 70
0
 10
1.3432710252
 20
-24.1362645966
 10
1.3080211703
 20
-24.1414502544
 10
1.2706768502
 20
-24.146695907
 10
1.2312367173
 20
-24.1519996177
 10
1.1897144263
 20
-24.1573577883
  0
LWPOLYLINE
  5
413
100
AcDbEntity
  8
IMPORT_IGES
100
AcDbPolyline
 62
7
  6
CONTINUOUS
 90
4
 70
0
 10
1.3354542454
 20
-22.1374738527
 10
1.2943269023
 20
-22.1434386911
 10
1.2504038876
 20
-22.1494831512
 10
1.2037252821
 20
-22.1556005528
  0
LWPOLYLINE
  5
414
100
AcDbEntity
  8
IMPORT_IGES
100
AcDbPolyline
 62
7
  6
CONTINUOUS
 90
6
 70
0
 10
1.3586023713
 20
-22.637612033
 10
1.4049696977
 20
-22.6309064788
 10
1.4487318963
 20
-22.6242021098
 10
1.4899486123
 20
-22.6174873777
 10
1.5287695795
 20
-22.6107326011
 10
1.5651612703
 20
-22.603936434
  0
LWPOLYLINE
  5
415
100
AcDbEntity
  8
IMPORT_IGES
100
AcDbPolyline
 62
7
  6
CONTINUOUS
 90
5
 70
0
 10
1.3245984322
 20
-25.1390279789
 10
1.2830497044
 20
-25.1449692172
 10
1.2387479402
 20
-25.1509918463
 10
1.1917183153
 20
-25.157089147
 10
1.1419573308
 20
-25.1632590024
  0
LWPOLYLINE
  5
416
100
AcDbEntity
  8
IMPORT_IGES
100
AcDbPolyline
 62
253
  6
CONTINUOUS
 90
6
 70
0
 10
-2.2825979709
 20
-25.7127135061
 10
-2.1808234187
 20
-25.699176264
 10
-2.0634379335
 20
-25.6855862918
 10
-1.9314343807
 20
-25.6719364944
 10
-1.7858845871
 20
-25.6582267648
 10
-1.6278523753
 20
-25.6444438288
  0
LWPOLYLINE
  5
417
100
AcDbEntity
  8
IMPORT_IGES
100
AcDbPolyline
 62
7
  6
CONTINUOUS
 90
4
 70
0
 10
-1.9109450857
 20
-24.9418804723
 10
-1.8740127943
 20
-24.9370098139
 10
-1.8348414817
 20
-24.9320720508
 10
-1.793471396
 20
-24.9270727188
  0
LWPOLYLINE
  5
418
100
AcDbEntity
  8
IMPORT_IGES
100
AcDbPolyline
 62
7
  6
CONTINUOUS
 90
13
 70
0
 10
-1.9344277449
 20
-22.4423604717
 10
-1.9725534663
 20
-22.4473792047
 10
-2.0089865045
 20
-22.4524022379
 10
-2.043670184
 20
-22.4574257897
 10
-2.0766672453
 20
-22.4624633702
 10
-2.1082608227
 20
-22.4675675582
 10
-2.1385485006
 20
-22.4727706833
 10
-2.1673714384
 20
-22.4780641874
 10
-2.1946823744
 20
-22.4834575405
 10
-2.2204594402
 20
-22.488965553
 10
-2.2448126479
 20
-22.4946349411
 10
-2.2680430964
 20
-22.5005738601
 10
-2.2825979709
 20
-22.5046944208
  0
LWPOLYLINE
  5
419
100
AcDbEntity
  8
IMPORT_IGES
100
AcDbPolyline
 62
7
  6
CONTINUOUS
 90
11
 70
0
 10
-1.930367437
 20
-23.4418283485
 10
-1.9738751607
 20
-23.4475409206
 10
-2.0149125793
 20
-23.4532213698
 10
-2.0534976738
 20
-23.4588748159
 10
-2.0896508349
 20
-23.4645036478
 10
-2.1234800605
 20
-23.4701236401
 10
-2.155196425
 20
-23.4757722999
 10
-2.1847717611
 20
-23.4814487711
 10
-2.2123993774
 20
-23.4871960271
 10
-2.2386551545
 20
-23.4931584005
 10
-2.2633214629
 20
-23.4993234041
  0
LWPOLYLINE
  5
41A
100
AcDbEntity
  8
IMPORT_IGES
100
AcDbPolyline
 62
7
  6
CONTINUOUS
 90
4
 70
0
 10
-1.9056145384
 20
-21.9412024759
 10
-1.8691390856
 20
-21.9364200207
 10
-1.8302941906
 20
-21.931546821
 10
-1.7890670715
 20
-21.9265857096
  0
LWPOLYLINE
  5
41B
100
AcDbEntity
  8
IMPORT_IGES
100
AcDbPolyline
 62
253
  6
CONTINUOUS
 90
6
 70
0
 10
1.6148635581
 20
-22.3797137883
 10
1.4964529989
 20
-22.3951463851
 10
1.3631713381
 20
-22.41050947
 10
1.2162967222
 20
-22.4257951313
 10
1.0570827681
 20
-22.4409991069
 10
0.8867342063
 20
-22.4561206693
  0
LWPOLYLINE
  5
41C
100
AcDbEntity
  8
IMPORT_IGES
100
AcDbPolyline
 62
7
  6
CONTINUOUS
 90
11
 70
0
 10
-1.9192804111
 20
-25.440396051
 10
-1.9666033503
 20
-25.4465466499
 10
-2.0110222128
 20
-25.4526491404
 10
-2.0525631668
 20
-25.458708179
 10
-2.0913068994
 20
-25.4647366091
 10
-2.1274341695
 20
-25.4707660462
 10
-2.1609349894
 20
-25.4767981897
 10
-2.1920185826
 20
-25.482871602
 10
-2.221238006
 20
-25.489110175
 10
-2.2485477495
 20
-25.4955340049
 10
-2.2742027577
 20
-25.5022413021
  0
LWPOLYLINE
  5
41D
100
AcDbEntity
  8
IMPORT_IGES
100
AcDbPolyline
 62
7
  6
CONTINUOUS
 90
13
 70
0
 10
-1.9147228915
 20
-24.4398348146
 10
-1.9545333034
 20
-24.4449603846
 10
-1.992622625
 20
-24.4500924593
 10
-2.0289495694
 20
-24.4552319356
 10
-2.063527444
 20
-24.4603876856
 10
-2.0965704963
 20
-24.4656025572
 10
-2.128180168
 20
-24.4709100358
 10
-2.158188597
 20
-24.4763003135
 10
-2.1864863539
 20
-24.4817672897
 10
-2.2130582887
 20
-24.4873196425
 10
-2.2380565878
 20
-24.4930038755
 10
-2.2617781289
 20
-24.4989151345
 10
-2.2825979709
 20
-24.5046436569
  0
LWPOLYLINE
  5
41E
100
AcDbEntity
  8
IMPORT_IGES
100
AcDbPolyline
 62
7
  6
CONTINUOUS
 90
3
 70
0
 10
-1.8918314414
 20
-23.9393372374
 10
-1.8544413387
 20
-23.9345243375
 10
-1.8146686235
 20
-23.9296206597
  0
LWPOLYLINE
  5
41F
100
AcDbEntity
  8
IMPORT_IGES
100
AcDbPolyline
 62
7
  6
CONTINUOUS
 90
3
 70
0
 10
-1.8808931048
 20
-22.9379161069
 10
-1.8425594781
 20
-22.9330438525
 10
-1.8020751129
 20
-22.9281143982
  0
LWPOLYLINE
  5
420
100
AcDbEntity
  8
IMPORT_IGES
100
AcDbPolyline
 62
7
  6
CONTINUOUS
 90
3
 70
0
 10
-1.8791095951
 20
-25.9376543508
 10
-1.8398227615
 20
-25.9326736762
 10
-1.7982405355
 20
-25.9276241045
  0
LWPOLYLINE
  5
421
100
AcDbEntity
  8
IMPORT_IGES
100
AcDbPolyline
 62
253
  6
CONTINUOUS
 90
3
 70
0
 10
-2.1363846712
 20
-21.693882681
 10
-2.2552058416
 20
-21.7089165836
 10
-2.3540710296
 20
-21.7238905944
  0
LWPOLYLINE
  5
422
100
AcDbEntity
  8
IMPORT_IGES
100
AcDbPolyline
 62
7
  6
CONTINUOUS
 90
3
 70
0
 10
1.2037252821
 20
-22.1556005528
 10
1.1543134314
 20
-22.1617875889
 10
1.102317173
 20
-22.1680267343
  0
LINE
  5
423
100
AcDbEntity
  8
IMPORT_IGES
100
AcDbLine
 62
7
  6
CONTINUOUS
 10
1.1897144263
 20
-24.1573577883
 11
1.1461270022
 21
-24.1627669305
  0
LINE
  5
424
100
AcDbEntity
  8
IMPORT_IGES
100
AcDbLine
 62
7
  6
CONTINUOUS
 10
-1.8730412313
 20
-24.4346915053
 11
-1.9147228915
 21
-24.4398348146
  0
LINE
  5
425
100
AcDbEntity
  8
IMPORT_IGES
100
AcDbLine
 62
7
  6
CONTINUOUS
 10
1.1860086474
 20
-23.1578446707
 11
1.1393111331
 21
-23.1636089094
  0
LWPOLYLINE
  5
426
100
AcDbEntity
  8
IMPORT_IGES
100
AcDbPolyline
 62
7
  6
CONTINUOUS
 90
3
 70
0
 10
-1.8526928659
 20
-22.4322708873
 10
-1.8944819856
 20
-22.4373260978
 10
-1.9344277449
 20
-22.4423604717
  0
LWPOLYLINE
  5
427
100
AcDbEntity
  8
IMPORT_IGES
100
AcDbPolyline
 62
253
  6
CONTINUOUS
 90
4
 70
0
 10
1.5550399852
 20
-21.3877772079
 10
1.4142352838
 20
-21.4048312732
 10
1.2562972465
 20
-21.4217882084
 10
1.0830641385
 20
-21.4386147105
  0
LWPOLYLINE
  5
428
100
AcDbEntity
  8
IMPORT_IGES
100
AcDbPolyline
 62
7
  6
CONTINUOUS
 90
10
 70
0
 10
1.1646071506
 20
-21.662501826
 10
1.2191196502
 20
-21.6559267004
 10
1.2712152605
 20
-21.6493658703
 10
1.3207924758
 20
-21.6428281332
 10
1.3679282423
 20
-21.6362992665
 10
1.4128773439
 20
-21.6297358737
 10
1.4557439931
 20
-21.6231088194
 10
1.4963412175
 20
-21.6164316256
 10
1.5345406121
 20
-21.6097140833
 10
1.5703638201
 20
-21.602945819
  0
LWPOLYLINE
  5
429
100
AcDbEntity
  8
IMPORT_IGES
100
AcDbPolyline
 62
7
  6
CONTINUOUS
 90
3
 70
0
 10
-1.8358637515
 20
-23.4302836482
 10
-1.8843618864
 20
-23.4360767978
 10
-1.930367437
 20
-23.4418283485
  0
LWPOLYLINE
  5
42A
100
AcDbEntity
  8
IMPORT_IGES
100
AcDbPolyline
 62
7
  6
CONTINUOUS
 90
5
 70
0
 10
1.1474061992
 20
-22.6645062346
 10
1.2040180607
 20
-22.6577646174
 10
1.2581107118
 20
-22.6510365319
 10
1.3096441792
 20
-22.6443205161
 10
1.3586023713
 20
-22.637612033
  0
LINE
  5
42B
100
AcDbEntity
  8
IMPORT_IGES
100
AcDbLine
 62
7
  6
CONTINUOUS
 10
1.1419573308
 20
-25.1632590024
 11
1.0894819745
 21
-25.1694972938
  0
LWPOLYLINE
  5
42C
100
AcDbEntity
  8
IMPORT_IGES
100
AcDbPolyline
 62
7
  6
CONTINUOUS
 90
6
 70
0
 10
1.1356583909
 20
-23.6658645528
 10
1.1898633834
 20
-23.6594718028
 10
1.2418165975
 20
-23.6530885619
 10
1.2917648417
 20
-23.646675959
 10
1.3397967165
 20
-23.6402124377
 10
1.3857268576
 20
-23.6337126735
  0
LWPOLYLINE
  5
42D
100
AcDbEntity
  8
IMPORT_IGES
100
AcDbPolyline
 62
7
  6
CONTINUOUS
 90
9
 70
0
 10
-1.8142790356
 20
-21.4278022565
 10
-1.8632297643
 20
-21.4335449111
 10
-1.9099622088
 20
-21.4392732097
 10
-1.9543061882
 20
-21.4449703937
 10
-1.9962580641
 20
-21.450638598
 10
-2.0358567805
 20
-21.4562857867
 10
-2.0730703685
 20
-21.4619097034
 10
-2.1079134961
 20
-21.4675138165
 10
-2.1404854782
 20
-21.4731157424
  0
LWPOLYLINE
  5
42E
100
AcDbEntity
  8
IMPORT_IGES
100
AcDbPolyline
 62
7
  6
CONTINUOUS
 90
6
 70
0
 10
1.1177394243
 20
-24.6679148031
 10
1.1743347755
 20
-24.6613146904
 10
1.2285093248
 20
-24.6547301741
 10
1.2802368342
 20
-24.6481607074
 10
1.3294942894
 20
-24.6416055814
 10
1.3762905156
 20
-24.6350598557
  0
LINE
  5
42F
100
AcDbEntity
  8
IMPORT_IGES
100
AcDbLine
 62
7
  6
CONTINUOUS
 10
1.1461270022
 20
-24.1627669305
 11
1.0527483658
 21
-24.1737353765
  0
LINE
  5
430
100
AcDbEntity
  8
IMPORT_IGES
100
AcDbLine
 62
7
  6
CONTINUOUS
 10
1.1393111331
 20
-23.1636089094
 11
1.038953207
 21
-23.175301015
  0
LINE
  5
431
100
AcDbEntity
  8
IMPORT_IGES
100
AcDbLine
 62
7
  6
CONTINUOUS
 10
-1.7840072696
 20
-24.4243319763
 11
-1.8730412313
 21
-24.4346915053
  0
LINE
  5
432
100
AcDbEntity
  8
IMPORT_IGES
100
AcDbLine
 62
7
  6
CONTINUOUS
 10
-1.8146686235
 20
-23.9296206597
 11
-1.7279647874
 21
-23.9195510784
  0
LINE
  5
433
100
AcDbEntity
  8
IMPORT_IGES
100
AcDbLine
 62
7
  6
CONTINUOUS
 10
-1.8020751129
 20
-22.9281143982
 11
-1.7148193582
 21
-22.9180962147
  0
LWPOLYLINE
  5
434
100
AcDbEntity
  8
IMPORT_IGES
100
AcDbPolyline
 62
7
  6
CONTINUOUS
 90
4
 70
0
 10
-1.7594624863
 20
-25.4215881258
 10
-1.8157340064
 20
-25.427921172
 10
-1.8690054104
 20
-25.4341898071
 10
-1.9192804111
 20
-25.440396051
  0
LINE
  5
435
100
AcDbEntity
  8
IMPORT_IGES
100
AcDbLine
 62
7
  6
CONTINUOUS
 10
1.1196729404
 20
-21.1659878363
 11
1.0130085486
 21
-21.1782247079
  0
LINE
  5
436
100
AcDbEntity
  8
IMPORT_IGES
100
AcDbLine
 62
7
  6
CONTINUOUS
 10
-1.7636219872
 20
-22.4220874334
 11
-1.8526928659
 21
-22.4322708873
  0
LINE
  5
437
100
AcDbEntity
  8
IMPORT_IGES
100
AcDbLine
 62
7
  6
CONTINUOUS
 10
-1.793471396
 20
-24.9270727188
 11
-1.7042164533
 21
-24.916897946
  0
LINE
  5
438
100
AcDbEntity
  8
IMPORT_IGES
100
AcDbLine
 62
7
  6
CONTINUOUS
 10
1.0483557082
 20
-21.675709839
 11
1.1646071506
 21
-21.662501826
  0
LINE
  5
439
100
AcDbEntity
  8
IMPORT_IGES
100
AcDbLine
 62
7
  6
CONTINUOUS
 10
-1.7890670715
 20
-21.9265857096
 11
-1.6993584991
 21
-21.9164014549
  0
LINE
  5
43A
100
AcDbEntity
  8
IMPORT_IGES
100
AcDbLine
 62
7
  6
CONTINUOUS
 10
1.102317173
 20
-22.1680267343
 11
0.9907679719
 21
-22.1806483411
  0
LINE
  5
43B
100
AcDbEntity
  8
IMPORT_IGES
100
AcDbLine
 62
7
  6
CONTINUOUS
 10
1.0894819745
 20
-25.1694972938
 11
0.9764709423
 21
-25.1821667261
  0
LINE
  5
43C
100
AcDbEntity
  8
IMPORT_IGES
100
AcDbLine
 62
7
  6
CONTINUOUS
 10
-1.7316773714
 20
-23.4185896402
 11
-1.8358637515
 21
-23.4302836482
  0
LINE
  5
43D
100
AcDbEntity
  8
IMPORT_IGES
100
AcDbLine
 62
7
  6
CONTINUOUS
 10
1.0269415981
 20
-22.678019705
 11
1.1474061992
 21
-22.6645062346
  0
LINE
  5
43E
100
AcDbEntity
  8
IMPORT_IGES
100
AcDbLine
 62
7
  6
CONTINUOUS
 10
1.0204769136
 20
-23.6787050565
 11
1.1356583909
 21
-23.6658645528
  0
LINE
  5
43F
100
AcDbEntity
  8
IMPORT_IGES
100
AcDbLine
 62
7
  6
CONTINUOUS
 10
-1.7098940447
 20
-21.4162714867
 11
-1.8142790356
 21
-21.4278022565
  0
LINE
  5
440
100
AcDbEntity
  8
IMPORT_IGES
100
AcDbLine
 62
7
  6
CONTINUOUS
 10
0.9973863278
 20
-24.6811681669
 11
1.1177394243
 21
-24.6679148031
  0
LINE
  5
441
100
AcDbEntity
  8
IMPORT_IGES
100
AcDbLine
 62
7
  6
CONTINUOUS
 10
1.0527483658
 20
-24.1737353765
 11
0.9511322377
 21
-24.1849008266
  0
LINE
  5
442
100
AcDbEntity
  8
IMPORT_IGES
100
AcDbLine
 62
7
  6
CONTINUOUS
 10
1.038953207
 20
-23.175301015
 11
0.929752018
 21
-23.1871746263
  0
LINE
  5
443
100
AcDbEntity
  8
IMPORT_IGES
100
AcDbLine
 62
7
  6
CONTINUOUS
 10
-1.6874202901
 20
-24.4138566888
 11
-1.7840072696
 21
-24.4243319763
  0
LINE
  5
444
100
AcDbEntity
  8
IMPORT_IGES
100
AcDbLine
 62
7
  6
CONTINUOUS
 10
-1.7279647874
 20
-23.9195510784
 11
-1.6315035239
 21
-23.9091214003
  0
LINE
  5
445
100
AcDbEntity
  8
IMPORT_IGES
100
AcDbLine
 62
7
  6
CONTINUOUS
 10
-1.7148193582
 20
-22.9180962147
 11
-1.6193116638
 21
-22.9078649347
  0
LINE
  5
446
100
AcDbEntity
  8
IMPORT_IGES
100
AcDbLine
 62
7
  6
CONTINUOUS
 10
-1.6671430169
 20
-22.4117725028
 11
-1.7636219872
 21
-22.4220874334
  0
LINE
  5
447
100
AcDbEntity
  8
IMPORT_IGES
100
AcDbLine
 62
7
  6
CONTINUOUS
 10
1.0130085486
 20
-21.1782247079
 11
0.896412525
 21
-21.1906894054
  0
LINE
  5
448
100
AcDbEntity
  8
IMPORT_IGES
100
AcDbLine
 62
7
  6
CONTINUOUS
 10
-1.7042164533
 20
-24.916897946
 11
-1.6063196102
 21
-24.9064885216
  0
LINE
  5
449
100
AcDbEntity
  8
IMPORT_IGES
100
AcDbLine
 62
7
  6
CONTINUOUS
 10
-1.6993584991
 20
-21.9164014549
 11
-1.5999233015
 21
-21.9058729169
  0
LINE
  5
44A
100
AcDbEntity
  8
IMPORT_IGES
100
AcDbLine
 62
7
  6
CONTINUOUS
 10
0.9227225234
 20
-21.6889959642
 11
1.0483557082
 21
-21.675709839
  0
LINE
  5
44B
100
AcDbEntity
  8
IMPORT_IGES
100
AcDbLine
 62
7
  6
CONTINUOUS
 10
-1.6380960369
 20
-25.4087378365
 11
-1.7594624863
 21
-25.4215881258
  0
LINE
  5
44C
100
AcDbEntity
  8
IMPORT_IGES
100
AcDbLine
 62
7
  6
CONTINUOUS
 10
0.9907679719
 20
-22.1806483411
 11
0.8697408056
 21
-22.1934175112
  0
LINE
  5
44D
100
AcDbEntity
  8
IMPORT_IGES
100
AcDbLine
 62
7
  6
CONTINUOUS
 10
0.9764709423
 20
-25.1821667261
 11
0.8529007992
 21
-25.1950875505
  0
LINE
  5
44E
100
AcDbEntity
  8
IMPORT_IGES
100
AcDbLine
 62
7
  6
CONTINUOUS
 10
0.8972631505
 20
-22.6915712986
 11
1.0269415981
 21
-22.678019705
  0
LINE
  5
44F
100
AcDbEntity
  8
IMPORT_IGES
100
AcDbLine
 62
7
  6
CONTINUOUS
 10
0.8967048787
 20
-23.6916104367
 11
1.0204769136
 21
-23.6787050565
  0
LINE
  5
450
100
AcDbEntity
  8
IMPORT_IGES
100
AcDbLine
 62
7
  6
CONTINUOUS
 10
-1.6180942018
 20
-23.4067402633
 11
-1.7316773714
 21
-23.4185896402
  0
LINE
  5
451
100
AcDbEntity
  8
IMPORT_IGES
100
AcDbLine
 62
7
  6
CONTINUOUS
 10
0.9511322377
 20
-24.1849008266
 11
0.841374666
 21
-24.1962665236
  0
LINE
  5
452
100
AcDbEntity
  8
IMPORT_IGES
100
AcDbLine
 62
7
  6
CONTINUOUS
 10
0.8679934854
 20
-24.6944836866
 11
0.9973863278
 21
-24.6811681669
  0
LINE
  5
453
100
AcDbEntity
  8
IMPORT_IGES
100
AcDbLine
 62
7
  6
CONTINUOUS
 10
-1.5973884634
 20
-21.404687928
 11
-1.7098940447
 21
-21.4162714867
  0
LINE
  5
454
100
AcDbEntity
  8
IMPORT_IGES
100
AcDbLine
 62
7
  6
CONTINUOUS
 10
0.929752018
 20
-23.1871746263
 11
0.8121374855
 21
-23.1992072904
  0
LINE
  5
455
100
AcDbEntity
  8
IMPORT_IGES
100
AcDbLine
 62
7
  6
CONTINUOUS
 10
-1.5832920139
 20
-24.4032437183
 11
-1.6874202901
 21
-24.4138566888
  0
LINE
  5
456
100
AcDbEntity
  8
IMPORT_IGES
100
AcDbLine
 62
7
  6
CONTINUOUS
 10
-1.6315035239
 20
-23.9091214003
 11
-1.5249473372
 21
-23.8983080757
  0
LINE
  5
457
100
AcDbEntity
  8
IMPORT_IGES
100
AcDbLine
 62
7
  6
CONTINUOUS
 10
-1.6193116638
 20
-22.9078649347
 11
-1.5157610967
 21
-22.8974218729
  0
LINE
  5
458
100
AcDbEntity
  8
IMPORT_IGES
100
AcDbLine
 62
7
  6
CONTINUOUS
 10
-1.5632182772
 20
-22.4012955392
 11
-1.6671430169
 21
-22.4117725028
  0
LINE
  5
459
100
AcDbEntity
  8
IMPORT_IGES
100
AcDbLine
 62
7
  6
CONTINUOUS
 10
0.896412525
 20
-21.1906894054
 11
0.7704443506
 21
-21.2033446576
  0
LINE
  5
45A
100
AcDbEntity
  8
IMPORT_IGES
100
AcDbLine
 62
7
  6
CONTINUOUS
 10
-1.6063196102
 20
-24.9064885216
 11
-1.4999181492
 21
-24.8958444031
  0
LINE
  5
45B
100
AcDbEntity
  8
IMPORT_IGES
100
AcDbLine
 62
7
  6
CONTINUOUS
 10
-1.5999233015
 20
-21.9058729169
 11
-1.4907362179
 21
-21.8949947364
  0
LINE
  5
45C
100
AcDbEntity
  8
IMPORT_IGES
100
AcDbLine
 62
7
  6
CONTINUOUS
 10
0.7882888399
 20
-21.7023493469
 11
0.9227225234
 21
-21.6889959642
  0
LWPOLYLINE
  5
45D
100
AcDbEntity
  8
IMPORT_IGES
100
AcDbPolyline
 62
253
  6
CONTINUOUS
 90
3
 70
0
 10
-1.8437265632
 20
-21.6635915829
 10
-1.9988361171
 20
-21.6787799866
 10
-2.1363846712
 20
-21.693882681
  0
LINE
  5
45E
100
AcDbEntity
  8
IMPORT_IGES
100
AcDbLine
 62
7
  6
CONTINUOUS
 10
0.8697408056
 20
-22.1934175112
 11
0.7398853109
 21
-22.2063018776
  0
LINE
  5
45F
100
AcDbEntity
  8
IMPORT_IGES
100
AcDbLine
 62
7
  6
CONTINUOUS
 10
0.8529007992
 20
-25.1950875505
 11
0.7191290628
 21
-25.2082513036
  0
LINE
  5
460
100
AcDbEntity
  8
IMPORT_IGES
100
AcDbLine
 62
7
  6
CONTINUOUS
 10
-1.5052180566
 20
-25.3956354365
 11
-1.6380960369
 21
-25.4087378365
  0
LINE
  5
461
100
AcDbEntity
  8
IMPORT_IGES
100
AcDbLine
 62
7
  6
CONTINUOUS
 10
0.841374666
 20
-24.1962665236
 11
0.7236427231
 21
-24.207833313
  0
LINE
  5
462
100
AcDbEntity
  8
IMPORT_IGES
100
AcDbLine
 62
7
  6
CONTINUOUS
 10
0.7647188636
 20
-23.7045903251
 11
0.8967048787
 21
-23.6916104367
  0
LINE
  5
463
100
AcDbEntity
  8
IMPORT_IGES
100
AcDbLine
 62
7
  6
CONTINUOUS
 10
0.7591845371
 20
-22.7051350111
 11
0.8972631505
 21
-22.6915712986
  0
LINE
  5
464
100
AcDbEntity
  8
IMPORT_IGES
100
AcDbLine
 62
7
  6
CONTINUOUS
 10
-1.4956367423
 20
-23.3947465936
 11
-1.6180942018
 21
-23.4067402633
  0
LINE
  5
465
100
AcDbEntity
  8
IMPORT_IGES
100
AcDbLine
 62
7
  6
CONTINUOUS
 10
0.730223768
 20
-24.7078559507
 11
0.8679934854
 21
-24.6944836866
  0
LINE
  5
466
100
AcDbEntity
  8
IMPORT_IGES
100
AcDbLine
 62
7
  6
CONTINUOUS
 10
0.8121374855
 20
-23.1992072904
 11
0.6865690904
 21
-23.2113816078
  0
LINE
  5
467
100
AcDbEntity
  8
IMPORT_IGES
100
AcDbLine
 62
7
  6
CONTINUOUS
 10
-1.4771260618
 20
-21.3930226836
 11
-1.5973884634
 21
-21.404687928
  0
LINE
  5
468
100
AcDbEntity
  8
IMPORT_IGES
100
AcDbLine
 62
7
  6
CONTINUOUS
 10
-1.4717395082
 20
-24.3924729698
 11
-1.5832920139
 21
-24.4032437183
  0
LINE
  5
469
100
AcDbEntity
  8
IMPORT_IGES
100
AcDbLine
 62
7
  6
CONTINUOUS
 10
-1.5249473372
 20
-23.8983080757
 11
-1.4073627582
 21
-23.8870289674
  0
LINE
  5
46A
100
AcDbEntity
  8
IMPORT_IGES
100
AcDbLine
 62
7
  6
CONTINUOUS
 10
-1.5157610967
 20
-22.8974218729
 11
-1.4043305517
 21
-22.8867597595
  0
LINE
  5
46B
100
AcDbEntity
  8
IMPORT_IGES
100
AcDbLine
 62
7
  6
CONTINUOUS
 10
0.7704443506
 20
-21.2033446576
 11
0.6360166777
 21
-21.2161421583
  0
LINE
  5
46C
100
AcDbEntity
  8
IMPORT_IGES
100
AcDbLine
 62
7
  6
CONTINUOUS
 10
-1.4907362179
 20
-21.8949947364
 11
-1.3718576681
 21
-21.8837618087
  0
LINE
  5
46D
100
AcDbEntity
  8
IMPORT_IGES
100
AcDbLine
 62
7
  6
CONTINUOUS
 10
0.6458705349
 20
-21.715755565
 11
0.7882888399
 21
-21.7023493469
  0
LINE
  5
46E
100
AcDbEntity
  8
IMPORT_IGES
100
AcDbLine
 62
7
  6
CONTINUOUS
 10
-1.3934544621
 20
-22.3852281834
 11
-1.5632182772
 21
-22.4012955392
  0
LINE
  5
46F
100
AcDbEntity
  8
IMPORT_IGES
100
AcDbLine
 62
7
  6
CONTINUOUS
 10
-1.3616561391
 20
-25.3822972398
 11
-1.5052180566
 21
-25.3956354365
  0
LINE
  5
470
100
AcDbEntity
  8
IMPORT_IGES
100
AcDbLine
 62
7
  6
CONTINUOUS
 10
-1.4999181492
 20
-24.8958444031
 11
-1.324815338
 21
-24.8794195022
  0
LINE
  5
471
100
AcDbEntity
  8
IMPORT_IGES
100
AcDbLine
 62
7
  6
CONTINUOUS
 10
0.7236427231
 20
-24.207833313
 11
0.5323711345
 21
-24.2255803478
  0
LINE
  5
472
100
AcDbEntity
  8
IMPORT_IGES
100
AcDbLine
 62
7
  6
CONTINUOUS
 10
0.7398853109
 20
-22.2063018776
 11
0.5305247443
 21
-22.2257696237
  0
LINE
  5
473
100
AcDbEntity
  8
IMPORT_IGES
100
AcDbLine
 62
7
  6
CONTINUOUS
 10
0.5523167431
 20
-23.7242120022
 11
0.7647188636
 21
-23.7045903251
  0
LINE
  5
474
100
AcDbEntity
  8
IMPORT_IGES
100
AcDbLine
 62
7
  6
CONTINUOUS
 10
0.7191290628
 20
-25.2082513036
 11
0.5001607454
 21
-25.2284514595
  0
LINE
  5
475
100
AcDbEntity
  8
IMPORT_IGES
100
AcDbLine
 62
7
  6
CONTINUOUS
 10
0.5381643701
 20
-22.7254838081
 11
0.7591845371
 21
-22.7051350111
  0
LINE
  5
476
100
AcDbEntity
  8
IMPORT_IGES
100
AcDbLine
 62
7
  6
CONTINUOUS
 10
0.6865690904
 20
-23.2113816078
 11
0.4844034572
 21
-23.2298809707
  0
LINE
  5
477
100
AcDbEntity
  8
IMPORT_IGES
100
AcDbLine
 62
7
  6
CONTINUOUS
 10
-1.2951181069
 20
-23.3763620902
 11
-1.4956367423
 21
-23.3947465936
  0
LINE
  5
478
100
AcDbEntity
  8
IMPORT_IGES
100
AcDbLine
 62
7
  6
CONTINUOUS
 10
-1.2910065143
 20
-24.3759866534
 11
-1.4717395082
 21
-24.3924729698
  0
LINE
  5
479
100
AcDbEntity
  8
IMPORT_IGES
100
AcDbLine
 62
7
  6
CONTINUOUS
 10
0.509688899
 20
-24.7279879286
 11
0.730223768
 21
-24.7078559507
  0
LWPOLYLINE
  5
47A
100
AcDbEntity
  8
IMPORT_IGES
100
AcDbPolyline
 62
253
  6
CONTINUOUS
 90
3
 70
0
 10
1.0830641385
 20
-21.4386147105
 10
0.8960588656
 20
-21.4553276818
 10
0.6965822281
 20
-21.4719827374
  0
LINE
  5
47B
100
AcDbEntity
  8
IMPORT_IGES
100
AcDbLine
 62
7
  6
CONTINUOUS
 10
-1.2813838175
 20
-21.3751726971
 11
-1.4771260618
 21
-21.3930226836
  0
LWPOLYLINE
  5
47C
100
AcDbEntity
  8
IMPORT_IGES
100
AcDbPolyline
 62
253
  6
CONTINUOUS
 90
7
 70
0
 10
0.8910378904
 20
-25.4557045279
 10
1.0609858629
 20
-25.4405991918
 10
1.2196362145
 20
-25.4254311142
 10
1.3656587999
 20
-25.4102002942
 10
1.4979584707
 20
-25.3949115739
 10
1.6155331364
 20
-25.3795738602
 10
1.7174020291
 20
-25.3641943351
  0
LINE
  5
47D
100
AcDbEntity
  8
IMPORT_IGES
100
AcDbLine
 62
7
  6
CONTINUOUS
 10
-1.4043305517
 20
-22.8867597595
 11
-1.222744127
 21
-22.8703296444
  0
LINE
  5
47E
100
AcDbEntity
  8
IMPORT_IGES
100
AcDbLine
 62
7
  6
CONTINUOUS
 10
-1.4073627582
 20
-23.8870289674
 11
-1.2102235821
 21
-23.8692216629
  0
LINE
  5
47F
100
AcDbEntity
  8
IMPORT_IGES
100
AcDbLine
 62
7
  6
CONTINUOUS
 10
0.6360166777
 20
-21.2161421583
 11
0.4206658567
 21
-21.2355193659
  0
LINE
  5
480
100
AcDbEntity
  8
IMPORT_IGES
100
AcDbLine
 62
7
  6
CONTINUOUS
 10
-1.3718576681
 20
-21.8837618087
 11
-1.1755739516
 21
-21.8662233326
  0
LINE
  5
481
100
AcDbEntity
  8
IMPORT_IGES
100
AcDbLine
 62
7
  6
CONTINUOUS
 10
-1.2072206708
 20
-22.368672924
 11
-1.3934544621
 21
-22.3852281834
  0
LINE
  5
482
100
AcDbEntity
  8
IMPORT_IGES
100
AcDbLine
 62
7
  6
CONTINUOUS
 10
0.4192210917
 20
-21.7359354954
 11
0.6458705349
 21
-21.715755565
  0
LWPOLYLINE
  5
483
100
AcDbEntity
  8
IMPORT_IGES
100
AcDbPolyline
 62
253
  6
CONTINUOUS
 90
6
 70
0
 10
-1.6261818051
 20
-24.6443171971
 10
-1.7848321566
 20
-24.6581460707
 10
-1.930854742
 20
-24.6718942817
 10
-2.0631544127
 20
-24.6855699163
 10
-2.1807290783
 20
-24.6991786373
 10
-2.2825979709
 20
-24.7127276265
  0
LWPOLYLINE
  5
484
100
AcDbEntity
  8
IMPORT_IGES
100
AcDbPolyline
 62
253
  6
CONTINUOUS
 90
6
 70
0
 10
-1.6247134046
 20
-22.6442202935
 10
-1.7828568565
 20
-22.6580003243
 10
-1.9289836164
 20
-22.6717360847
 10
-2.0618555693
 20
-22.6854440354
 10
-2.1800521286
 20
-22.6991189216
 10
-2.2825979709
 20
-22.7127679444
  0
LWPOLYLINE
  5
485
100
AcDbEntity
  8
IMPORT_IGES
100
AcDbPolyline
 62
253
  6
CONTINUOUS
 90
6
 70
0
 10
-1.6203162479
 20
-23.6438333357
 10
-1.7802663419
 20
-23.6577512542
 10
-1.9276348762
 20
-23.6715953542
 10
-2.0612402125
 20
-23.6853706936
 10
-2.1799349924
 20
-23.6990856081
 10
-2.2825979709
 20
-23.7127469201
  0
LINE
  5
486
100
AcDbEntity
  8
IMPORT_IGES
100
AcDbLine
 62
7
  6
CONTINUOUS
 10
-1.324815338
 20
-24.8794195022
 11
-1.1318423739
 21
-24.8624107782
  0
LINE
  5
487
100
AcDbEntity
  8
IMPORT_IGES
100
AcDbLine
 62
7
  6
CONTINUOUS
 10
0.5305247443
 20
-22.2257696237
 11
0.3069020168
 21
-22.2453166654
  0
LINE
  5
488
100
AcDbEntity
  8
IMPORT_IGES
100
AcDbLine
 62
7
  6
CONTINUOUS
 10
-1.1286383773
 20
-25.3618928134
 11
-1.3616561391
 21
-25.3822972398
  0
LINE
  5
489
100
AcDbEntity
  8
IMPORT_IGES
100
AcDbLine
 62
7
  6
CONTINUOUS
 10
0.5001607454
 20
-25.2284514595
 11
0.260966316
 21
-25.2491750611
  0
LINE
  5
48A
100
AcDbEntity
  8
IMPORT_IGES
100
AcDbLine
 62
7
  6
CONTINUOUS
 10
0.5323711345
 20
-24.2255803478
 11
0.252498904
 21
-24.2499038741
  0
LINE
  5
48B
100
AcDbEntity
  8
IMPORT_IGES
100
AcDbLine
 62
7
  6
CONTINUOUS
 10
0.2455678706
 20
-23.7506668439
 11
0.5523167431
 21
-23.7242120022
  0
LINE
  5
48C
100
AcDbEntity
  8
IMPORT_IGES
100
AcDbLine
 62
7
  6
CONTINUOUS
 10
0.4844034572
 20
-23.2298809707
 11
0.1925903922
 21
-23.2549396863
  0
LINE
  5
48D
100
AcDbEntity
  8
IMPORT_IGES
100
AcDbLine
 62
7
  6
CONTINUOUS
 10
-1.0266321616
 20
-24.3533207152
 11
-1.2910065143
 21
-24.3759866534
  0
LINE
  5
48E
100
AcDbEntity
  8
IMPORT_IGES
100
AcDbLine
 62
7
  6
CONTINUOUS
 10
0.2240551867
 20
-22.7524770601
 11
0.5381643701
 21
-22.7254838081
  0
LINE
  5
48F
100
AcDbEntity
  8
IMPORT_IGES
100
AcDbLine
 62
7
  6
CONTINUOUS
 10
0.1951697586
 20
-24.7548530899
 11
0.509688899
 21
-24.7279879286
  0
LINE
  5
490
100
AcDbEntity
  8
IMPORT_IGES
100
AcDbLine
 62
7
  6
CONTINUOUS
 10
-1.0009557034
 20
-23.3512005536
 11
-1.2951181069
 21
-23.3763620902
  0
LINE
  5
491
100
AcDbEntity
  8
IMPORT_IGES
100
AcDbLine
 62
7
  6
CONTINUOUS
 10
-1.222744127
 20
-22.8703296444
 11
-0.9550520139
 21
-22.84753524
  0
LINE
  5
492
100
AcDbEntity
  8
IMPORT_IGES
100
AcDbLine
 62
7
  6
CONTINUOUS
 10
-0.9956803032
 20
-21.3507865524
 11
-1.2813838175
 21
-21.3751726971
  0
LINE
  5
493
100
AcDbEntity
  8
IMPORT_IGES
100
AcDbLine
 62
7
  6
CONTINUOUS
 10
-1.2102235821
 20
-23.8692216629
 11
-0.913398381
 21
-23.8440792878
  0
LWPOLYLINE
  5
494
100
AcDbEntity
  8
IMPORT_IGES
100
AcDbPolyline
 62
253
  6
CONTINUOUS
 90
3
 70
0
 10
-1.4872881683
 20
-21.6329244022
 10
-1.6725994675
 20
-21.6483088285
 10
-1.8437265632
 20
-21.6635915829
  0
LINE
  5
495
100
AcDbEntity
  8
IMPORT_IGES
100
AcDbLine
 62
7
  6
CONTINUOUS
 10
0.4206658567
 20
-21.2355193659
 11
0.1136998935
 21
-21.261510932
  0
LINE
  5
496
100
AcDbEntity
  8
IMPORT_IGES
100
AcDbLine
 62
7
  6
CONTINUOUS
 10
-1.1755739516
 20
-21.8662233326
 11
-0.8837589482
 21
-21.8416689983
  0
LINE
  5
497
100
AcDbEntity
  8
IMPORT_IGES
100
AcDbLine
 62
7
  6
CONTINUOUS
 10
-0.8623829032
 20
-22.3398298647
 11
-1.2072206708
 21
-22.368672924
  0
LINE
  5
498
100
AcDbEntity
  8
IMPORT_IGES
100
AcDbLine
 62
7
  6
CONTINUOUS
 10
0.0157400014
 20
-21.7695985614
 11
0.4192210917
 21
-21.7359354954
  0
LINE
  5
499
100
AcDbEntity
  8
IMPORT_IGES
100
AcDbLine
 62
7
  6
CONTINUOUS
 10
-1.1318423739
 20
-24.8624107782
 11
-0.7731767848
 21
-24.8326227229
  0
LINE
  5
49A
100
AcDbEntity
  8
IMPORT_IGES
100
AcDbLine
 62
7
  6
CONTINUOUS
 10
-0.7044009843
 20
-25.3270343902
 11
-1.1286383773
 21
-25.3618928134
  0
LINE
  5
49B
100
AcDbEntity
  8
IMPORT_IGES
100
AcDbLine
 62
7
  6
CONTINUOUS
 10
0.3069020168
 20
-22.2453166654
 11
-0.1650906446
 21
-22.284117186
  0
LINE
  5
49C
100
AcDbEntity
  8
IMPORT_IGES
100
AcDbLine
 62
253
  6
CONTINUOUS
 10
0.893270827
 20
-24.4555267436
 11
0.5258636063
 21
-24.485495203
  0
LINE
  5
49D
100
AcDbEntity
  8
IMPORT_IGES
100
AcDbLine
 62
253
  6
CONTINUOUS
 10
0.8971056502
 20
-23.4552120094
 11
0.5298974493
 21
-23.4851924004
  0
LINE
  5
49E
100
AcDbEntity
  8
IMPORT_IGES
100
AcDbLine
 62
253
  6
CONTINUOUS
 10
0.5229477174
 20
-25.4857073954
 11
0.8910378904
 21
-25.4557045279
  0
LINE
  5
49F
100
AcDbEntity
  8
IMPORT_IGES
100
AcDbLine
 62
7
  6
CONTINUOUS
 10
0.260966316
 20
-25.2491750611
 11
-0.7044009843
 21
-25.3270343902
  0
LINE
  5
4A0
100
AcDbEntity
  8
IMPORT_IGES
100
AcDbLine
 62
7
  6
CONTINUOUS
 10
-0.7731767848
 20
-24.8326227229
 11
0.1951697586
 21
-24.7548530899
  0
LINE
  5
4A1
100
AcDbEntity
  8
IMPORT_IGES
100
AcDbLine
 62
7
  6
CONTINUOUS
 10
0.252498904
 20
-24.2499038741
 11
-1.0266321616
 21
-24.3533207152
  0
LINE
  5
4A2
100
AcDbEntity
  8
IMPORT_IGES
100
AcDbLine
 62
7
  6
CONTINUOUS
 10
-0.913398381
 20
-23.8440792878
 11
0.2455678706
 21
-23.7506668439
  0
LINE
  5
4A3
100
AcDbEntity
  8
IMPORT_IGES
100
AcDbLine
 62
7
  6
CONTINUOUS
 10
0.1925903922
 20
-23.2549396863
 11
-1.0009557034
 21
-23.3512005536
  0
LINE
  5
4A4
100
AcDbEntity
  8
IMPORT_IGES
100
AcDbLine
 62
7
  6
CONTINUOUS
 10
-0.9550520139
 20
-22.84753524
 11
0.2240551867
 21
-22.7524770601
  0
LINE
  5
4A5
100
AcDbEntity
  8
IMPORT_IGES
100
AcDbLine
 62
253
  6
CONTINUOUS
 10
0.8867342063
 20
-22.4561206693
 11
0.518412032
 21
-22.4860955632
  0
LINE
  5
4A6
100
AcDbEntity
  8
IMPORT_IGES
100
AcDbLine
 62
7
  6
CONTINUOUS
 10
-0.1650906446
 20
-22.284117186
 11
-0.8623829032
 21
-22.3398298647
  0
LINE
  5
4A7
100
AcDbEntity
  8
IMPORT_IGES
100
AcDbLine
 62
7
  6
CONTINUOUS
 10
-0.8837589482
 20
-21.8416689983
 11
0.0157400014
 21
-21.7695985614
  0
LINE
  5
4A8
100
AcDbEntity
  8
IMPORT_IGES
100
AcDbLine
 62
7
  6
CONTINUOUS
 10
0.1136998935
 20
-21.261510932
 11
-0.9956803032
 21
-21.3507865524
  0
LINE
  5
4A9
100
AcDbEntity
  8
IMPORT_IGES
100
AcDbLine
 62
253
  6
CONTINUOUS
 10
-1.6278523753
 20
-25.6444438288
 11
-1.27904913
 21
-25.6165700179
  0
LINE
  5
4AA
100
AcDbEntity
  8
IMPORT_IGES
100
AcDbLine
 62
253
  6
CONTINUOUS
 10
-1.2764101971
 20
-24.6163832264
 11
-1.6261818051
 21
-24.6443171971
  0
LINE
  5
4AB
100
AcDbEntity
  8
IMPORT_IGES
100
AcDbLine
 62
253
  6
CONTINUOUS
 10
-1.2762969787
 20
-22.6163984426
 11
-1.6247134046
 21
-22.6442202935
  0
LINE
  5
4AC
100
AcDbEntity
  8
IMPORT_IGES
100
AcDbLine
 62
253
  6
CONTINUOUS
 10
-1.2681804416
 20
-23.6157699089
 11
-1.6203162479
 21
-23.6438333357
  0
LINE
  5
4AD
100
AcDbEntity
  8
IMPORT_IGES
100
AcDbLine
 62
253
  6
CONTINUOUS
 10
0.6965822281
 20
-21.4719827374
 11
0.2672588774
 21
-21.5051603848
  0
LINE
  5
4AE
100
AcDbEntity
  8
IMPORT_IGES
100
AcDbLine
 62
253
  6
CONTINUOUS
 10
-1.0812817463
 20
-21.6018016205
 11
-1.4872881683
 21
-21.6329244022
  0
LINE
  5
4AF
100
AcDbEntity
  8
IMPORT_IGES
100
AcDbLine
 62
253
  6
CONTINUOUS
 10
0.5258636063
 20
-24.485495203
 11
-0.0750838671
 21
-24.5300147949
  0
LINE
  5
4B0
100
AcDbEntity
  8
IMPORT_IGES
100
AcDbLine
 62
253
  6
CONTINUOUS
 10
0.5298974493
 20
-23.4851924004
 11
-0.0680481962
 21
-23.5295264264
  0
LINE
  5
4B1
100
AcDbEntity
  8
IMPORT_IGES
100
AcDbLine
 62
253
  6
CONTINUOUS
 10
-0.0774503188
 20
-25.5301694618
 11
0.5229477174
 21
-25.4857073954
  0
LINE
  5
4B2
100
AcDbEntity
  8
IMPORT_IGES
100
AcDbLine
 62
253
  6
CONTINUOUS
 10
0.518412032
 20
-22.4860955632
 11
-0.0801618457
 21
-22.530405096
  0
LINE
  5
4B3
100
AcDbEntity
  8
IMPORT_IGES
100
AcDbLine
 62
253
  6
CONTINUOUS
 10
-1.27904913
 20
-25.6165700179
 11
-0.0774503188
 21
-25.5301694618
  0
LINE
  5
4B4
100
AcDbEntity
  8
IMPORT_IGES
100
AcDbLine
 62
253
  6
CONTINUOUS
 10
-0.0750838671
 20
-24.5300147949
 11
-1.2764101971
 21
-24.6163832264
  0
LINE
  5
4B5
100
AcDbEntity
  8
IMPORT_IGES
100
AcDbLine
 62
253
  6
CONTINUOUS
 10
-0.0680481962
 20
-23.5295264264
 11
-1.2681804416
 21
-23.6157699089
  0
LINE
  5
4B6
100
AcDbEntity
  8
IMPORT_IGES
100
AcDbLine
 62
253
  6
CONTINUOUS
 10
-0.0801618457
 20
-22.530405096
 11
-1.2762969787
 21
-22.6163984426
  0
LINE
  5
4B7
100
AcDbEntity
  8
IMPORT_IGES
100
AcDbLine
 62
253
  6
CONTINUOUS
 10
0.2672588774
 20
-21.5051603848
 11
-1.0812817463
 21
-21.6018016205
  0
LINE
  5
4B8
100
AcDbEntity
  8
IMPORT_IGES
100
AcDbLine
 62
7
  6
CONTINUOUS
 10
4.8674020291
 20
-22.2337193796
 11
1.7174020291
 21
-22.2337193796
  0
LINE
  5
4B9
100
AcDbEntity
  8
IMPORT_IGES
100
AcDbLine
 62
7
  6
CONTINUOUS
 10
-2.2825979709
 20
-22.2337193796
 11
-5.4325979709
 21
-22.2337193796
  0
LINE
  5
4BA
100
AcDbEntity
  8
IMPORT_IGES
100
AcDbLine
 62
7
  6
CONTINUOUS
 10
-2.4825979709
 20
-21.3637193796
 11
-1.2825979709
 21
-21.3637193796
  0
LINE
  5
4BB
100
AcDbEntity
  8
IMPORT_IGES
100
AcDbLine
 62
7
  6
CONTINUOUS
 10
-1.0237528979
 20
-23.2132268655
 11
-0.1533604127
 21
-23.2831610134
  0
LINE
  5
4BC
100
AcDbEntity
  8
IMPORT_IGES
100
AcDbLine
 62
7
  6
CONTINUOUS
 10
-1.026787032
 20
-25.2129466881
 11
-0.1533577928
 21
-25.2831323031
  0
LINE
  5
4BD
100
AcDbEntity
  8
IMPORT_IGES
100
AcDbLine
 62
7
  6
CONTINUOUS
 10
-1.0486627906
 20
-24.2111320154
 11
-0.1533606717
 21
-24.2831468551
  0
LINE
  5
4BE
100
AcDbEntity
  8
IMPORT_IGES
100
AcDbLine
 62
7
  6
CONTINUOUS
 10
0.2678026645
 20
-23.8175053476
 11
-0.1530231119
 21
-23.783154574
  0
LINE
  5
4BF
100
AcDbEntity
  8
IMPORT_IGES
100
AcDbLine
 62
7
  6
CONTINUOUS
 10
0.2765332606
 20
-22.818249772
 11
-0.1530503861
 21
-22.7831670802
  0
LINE
  5
4C0
100
AcDbEntity
  8
IMPORT_IGES
100
AcDbLine
 62
7
  6
CONTINUOUS
 10
-1.0908870391
 20
-22.2076131608
 11
-0.7744758104
 21
-22.2336348242
  0
LINE
  5
4C1
100
AcDbEntity
  8
IMPORT_IGES
100
AcDbLine
 62
7
  6
CONTINUOUS
 10
0.3315882384
 20
-24.8228774772
 11
-0.1530314882
 21
-24.7831400102
  0
LINE
  5
4C2
100
AcDbEntity
  8
IMPORT_IGES
100
AcDbLine
 62
7
  6
CONTINUOUS
 10
-1.2550548014
 20
-23.1934898698
 11
-1.0237528979
 21
-23.2132268655
  0
LINE
  5
4C3
100
AcDbEntity
  8
IMPORT_IGES
100
AcDbLine
 62
7
  6
CONTINUOUS
 10
0.5135181314
 20
-23.8386477344
 11
0.2678026645
 21
-23.8175053476
  0
LINE
  5
4C4
100
AcDbEntity
  8
IMPORT_IGES
100
AcDbLine
 62
7
  6
CONTINUOUS
 10
0.5094236025
 20
-22.8382964104
 11
0.2765332606
 21
-22.818249772
  0
LINE
  5
4C5
100
AcDbEntity
  8
IMPORT_IGES
100
AcDbLine
 62
7
  6
CONTINUOUS
 10
-1.2982431981
 20
-22.1896943395
 11
-1.0908870391
 21
-22.2076131608
  0
LINE
  5
4C6
100
AcDbEntity
  8
IMPORT_IGES
100
AcDbLine
 62
7
  6
CONTINUOUS
 10
-1.3100327149
 20
-25.1886096025
 11
-1.026787032
 21
-25.2129466881
  0
LINE
  5
4C7
100
AcDbEntity
  8
IMPORT_IGES
100
AcDbLine
 62
7
  6
CONTINUOUS
 10
-1.3209960826
 20
-24.1876450157
 11
-1.0486627906
 21
-24.2111320154
  0
LINE
  5
4C8
100
AcDbEntity
  8
IMPORT_IGES
100
AcDbLine
 62
7
  6
CONTINUOUS
 10
0.5635798311
 20
-24.8430924986
 11
0.3315882384
 21
-24.8228774772
  0
LINE
  5
4C9
100
AcDbEntity
  8
IMPORT_IGES
100
AcDbLine
 62
7
  6
CONTINUOUS
 10
-1.467788862
 20
-23.17420886
 11
-1.2550548014
 21
-23.1934898698
  0
LINE
  5
4CA
100
AcDbEntity
  8
IMPORT_IGES
100
AcDbLine
 62
253
  6
CONTINUOUS
 10
-0.833048753
 20
-24.9736301379
 11
0.0923824678
 21
-25.0586799768
  0
LINE
  5
4CB
100
AcDbEntity
  8
IMPORT_IGES
100
AcDbLine
 62
253
  6
CONTINUOUS
 10
0.1113521296
 20
-24.0604846232
 11
-0.8163970058
 21
-23.9752097124
  0
LINE
  5
4CC
100
AcDbEntity
  8
IMPORT_IGES
100
AcDbLine
 62
253
  6
CONTINUOUS
 10
0.1131738454
 20
-23.0606695191
 11
-0.8029614589
 21
-22.9764838224
  0
LINE
  5
4CD
100
AcDbEntity
  8
IMPORT_IGES
100
AcDbLine
 62
7
  6
CONTINUOUS
 10
0.7333818002
 20
-22.8587508015
 11
0.5094236025
 21
-22.8382964104
  0
LINE
  5
4CE
100
AcDbEntity
  8
IMPORT_IGES
100
AcDbLine
 62
7
  6
CONTINUOUS
 10
0.7403140055
 20
-23.85939059
 11
0.5135181314
 21
-23.8386477344
  0
LINE
  5
4CF
100
AcDbEntity
  8
IMPORT_IGES
100
AcDbLine
 62
7
  6
CONTINUOUS
 10
-1.4869895263
 20
-22.1724041201
 11
-1.2982431981
 21
-22.1896943395
  0
LINE
  5
4D0
100
AcDbEntity
  8
IMPORT_IGES
100
AcDbLine
 62
7
  6
CONTINUOUS
 10
0.7472430468
 20
-21.8600781008
 11
0.5923568683
 21
-21.8457343054
  0
LINE
  5
4D1
100
AcDbEntity
  8
IMPORT_IGES
100
AcDbLine
 62
7
  6
CONTINUOUS
 10
-1.5026637749
 20
-25.1708732087
 11
-1.3100327149
 21
-25.1886096025
  0
LINE
  5
4D2
100
AcDbEntity
  8
IMPORT_IGES
100
AcDbLine
 62
7
  6
CONTINUOUS
 10
-1.5043216408
 20
-24.1707328976
 11
-1.3209960826
 21
-24.1876450157
  0
LINE
  5
4D3
100
AcDbEntity
  8
IMPORT_IGES
100
AcDbLine
 62
7
  6
CONTINUOUS
 10
0.7787616654
 20
-24.8630508677
 11
0.5635798311
 21
-24.8430924986
  0
LINE
  5
4D4
100
AcDbEntity
  8
IMPORT_IGES
100
AcDbLine
 62
7
  6
CONTINUOUS
 10
-1.5977953669
 20
-23.1616225658
 11
-1.467788862
 21
-23.17420886
  0
LINE
  5
4D5
100
AcDbEntity
  8
IMPORT_IGES
100
AcDbLine
 62
7
  6
CONTINUOUS
 10
0.8748945221
 20
-22.8725160107
 11
0.7333818002
 21
-22.8587508015
  0
LINE
  5
4D6
100
AcDbEntity
  8
IMPORT_IGES
100
AcDbLine
 62
7
  6
CONTINUOUS
 10
-1.6022587791
 20
-22.1611860199
 11
-1.4869895263
 21
-22.1724041201
  0
LINE
  5
4D7
100
AcDbEntity
  8
IMPORT_IGES
100
AcDbLine
 62
7
  6
CONTINUOUS
 10
0.8791926338
 20
-23.8729330583
 11
0.7403140055
 21
-23.85939059
  0
LWPOLYLINE
  5
4D8
100
AcDbEntity
  8
IMPORT_IGES
100
AcDbPolyline
 62
253
  6
CONTINUOUS
 90
5
 70
0
 10
-0.8029614589
 20
-22.9764838224
 10
-1.141693199
 20
-22.9436181113
 10
-1.2975371348
 20
-22.927332922
 10
-1.442027339
 20
-22.9111362744
 10
-1.5368219417
 20
-22.8995165227
  0
LWPOLYLINE
  5
4D9
100
AcDbEntity
  8
IMPORT_IGES
100
AcDbPolyline
 62
253
  6
CONTINUOUS
 90
5
 70
0
 10
-1.0935932152
 20
-21.9483906449
 10
-1.1462745763
 20
-21.9431674762
 10
-1.3020921211
 20
-21.9268501826
 10
-1.4466777554
 20
-21.9106024877
 10
-1.5368104022
 20
-21.8995212883
  0
LINE
  5
4DA
100
AcDbEntity
  8
IMPORT_IGES
100
AcDbLine
 62
7
  6
CONTINUOUS
 10
0.8844577493
 20
-21.8734834148
 11
0.7472430468
 21
-21.8600781008
  0
LINE
  5
4DB
100
AcDbEntity
  8
IMPORT_IGES
100
AcDbLine
 62
7
  6
CONTINUOUS
 10
-1.6163611354
 20
-24.1597419654
 11
-1.5043216408
 21
-24.1707328976
  0
LWPOLYLINE
  5
4DC
100
AcDbEntity
  8
IMPORT_IGES
100
AcDbPolyline
 62
253
  6
CONTINUOUS
 90
5
 70
0
 10
-0.8163970058
 20
-23.9752097124
 10
-1.1585032095
 20
-23.9418978648
 10
-1.3152399887
 20
-23.925403046
 10
-1.4600116299
 20
-23.9090038499
 10
-1.5366687678
 20
-23.8994802526
  0
LINE
  5
4DD
100
AcDbEntity
  8
IMPORT_IGES
100
AcDbLine
 62
7
  6
CONTINUOUS
 10
-1.6210351574
 20
-25.1592557381
 11
-1.5026637749
 21
-25.1708732087
  0
LWPOLYLINE
  5
4DE
100
AcDbEntity
  8
IMPORT_IGES
100
AcDbPolyline
 62
253
  6
CONTINUOUS
 90
5
 70
0
 10
-0.833048753
 20
-24.9736301379
 10
-1.1709457564
 20
-24.9406123454
 10
-1.3255324787
 20
-24.9242611115
 10
-1.4683913533
 20
-24.9079970623
 10
-1.5366577537
 20
-24.8994686722
  0
LWPOLYLINE
  5
4DF
100
AcDbEntity
  8
IMPORT_IGES
100
AcDbPolyline
 62
253
  6
CONTINUOUS
 90
7
 70
0
 10
0.0923824678
 20
-25.0586799768
 10
0.4488552031
 20
-25.0935563844
 10
0.6149978352
 20
-25.1110944718
 10
0.7706608107
 20
-25.1287114237
 10
0.9142092175
 20
-25.1464045603
 10
1.0439707192
 20
-25.1641620732
 10
1.0829902118
 20
-25.1702389714
  0
LINE
  5
4E0
100
AcDbEntity
  8
IMPORT_IGES
100
AcDbLine
 62
7
  6
CONTINUOUS
 10
0.9117560815
 20
-24.876210984
 11
0.7787616654
 21
-24.8630508677
  0
LINE
  5
4E1
100
AcDbEntity
  8
IMPORT_IGES
100
AcDbLine
 62
7
  6
CONTINUOUS
 10
-1.7090474131
 20
-22.150179057
 11
-1.6022587791
 21
-22.1611860199
  0
LINE
  5
4E2
100
AcDbEntity
  8
IMPORT_IGES
100
AcDbLine
 62
7
  6
CONTINUOUS
 10
1.0083192894
 20
-22.886308075
 11
0.8748945221
 21
-22.8725160107
  0
LINE
  5
4E3
100
AcDbEntity
  8
IMPORT_IGES
100
AcDbLine
 62
7
  6
CONTINUOUS
 10
1.0078021087
 20
-23.8862447585
 11
0.8791926338
 21
-23.8729330583
  0
LINE
  5
4E4
100
AcDbEntity
  8
IMPORT_IGES
100
AcDbLine
 62
7
  6
CONTINUOUS
 10
-1.7186139199
 20
-23.1491408431
 11
-1.5977953669
 21
-23.1616225658
  0
LINE
  5
4E5
100
AcDbEntity
  8
IMPORT_IGES
100
AcDbLine
 62
7
  6
CONTINUOUS
 10
1.0120741189
 20
-21.8867199358
 11
0.8844577493
 21
-21.8734834148
  0
LINE
  5
4E6
100
AcDbEntity
  8
IMPORT_IGES
100
AcDbLine
 62
7
  6
CONTINUOUS
 10
-1.7203511358
 20
-24.148938361
 11
-1.6163611354
 21
-24.1597419654
  0
LINE
  5
4E7
100
AcDbEntity
  8
IMPORT_IGES
100
AcDbLine
 62
7
  6
CONTINUOUS
 10
-1.7311103408
 20
-25.1477717648
 11
-1.6210351574
 21
-25.1592557381
  0
LINE
  5
4E8
100
AcDbEntity
  8
IMPORT_IGES
100
AcDbLine
 62
7
  6
CONTINUOUS
 10
1.0359596314
 20
-24.8892654597
 11
0.9117560815
 21
-24.876210984
  0
LINE
  5
4E9
100
AcDbEntity
  8
IMPORT_IGES
100
AcDbLine
 62
7
  6
CONTINUOUS
 10
-1.8073098725
 20
-22.1393561427
 11
-1.7090474131
 21
-22.150179057
  0
LINE
  5
4EA
100
AcDbEntity
  8
IMPORT_IGES
100
AcDbLine
 62
7
  6
CONTINUOUS
 10
-1.8163273041
 20
-24.1382923562
 11
-1.7203511358
 21
-24.148938361
  0
LWPOLYLINE
  5
4EB
100
AcDbEntity
  8
IMPORT_IGES
100
AcDbPolyline
 62
7
  6
CONTINUOUS
 90
3
 70
0
 10
-1.8298459682
 20
-23.136738467
 10
-1.7755189363
 20
-23.1429237056
 10
-1.7186139199
 20
-23.1491408431
  0
LINE
  5
4EC
100
AcDbEntity
  8
IMPORT_IGES
100
AcDbLine
 62
7
  6
CONTINUOUS
 10
-1.8323094562
 20
-25.1364346534
 11
-1.7311103408
 21
-25.1477717648
  0
LWPOLYLINE
  5
4ED
100
AcDbEntity
  8
IMPORT_IGES
100
AcDbPolyline
 62
7
  6
CONTINUOUS
 90
4
 70
0
 10
1.2342183447
 20
-23.912270478
 10
1.1814457498
 20
-23.9058296762
 10
1.1261191643
 20
-23.8993470154
 10
1.0078021087
 20
-23.8862447585
  0
LWPOLYLINE
  5
4EE
100
AcDbEntity
  8
IMPORT_IGES
100
AcDbPolyline
 62
7
  6
CONTINUOUS
 90
4
 70
0
 10
1.237588224
 20
-21.9127265523
 10
1.18494177
 20
-21.9062792747
 10
1.1298018858
 20
-21.8997964249
 10
1.0120741189
 20
-21.8867199358
  0
LWPOLYLINE
  5
4EF
100
AcDbEntity
  8
IMPORT_IGES
100
AcDbPolyline
 62
7
  6
CONTINUOUS
 90
4
 70
0
 10
1.2463076349
 20
-22.9138028759
 10
1.1907163568
 20
-22.9069532644
 10
1.1325007286
 20
-22.9000891892
 10
1.0083192894
 20
-22.886308075
  0
LWPOLYLINE
  5
4F0
100
AcDbEntity
  8
IMPORT_IGES
100
AcDbPolyline
 62
7
  6
CONTINUOUS
 90
4
 70
0
 10
1.2574069423
 20
-24.9151766805
 10
1.2055764272
 20
-24.9087273004
 10
1.1513642975
 20
-24.9022594214
 10
1.0359596314
 20
-24.8892654597
  0
LWPOLYLINE
  5
4F1
100
AcDbEntity
  8
IMPORT_IGES
100
AcDbPolyline
 62
7
  6
CONTINUOUS
 90
5
 70
0
 10
1.274395268
 20
-25.9173478437
 10
1.2219797115
 20
-25.9107322201
 10
1.166957022
 20
-25.904084904
 10
1.1093460578
 20
-25.8974047906
 10
0.9864345771
 20
-25.8839405041
  0
LWPOLYLINE
  5
4F2
100
AcDbEntity
  8
IMPORT_IGES
100
AcDbPolyline
 62
7
  6
CONTINUOUS
 90
4
 70
0
 10
1.3965200272
 20
-22.9341899924
 10
1.3491980038
 20
-22.9274178891
 10
1.2991416707
 20
-22.9206247228
 10
1.2463076349
 20
-22.9138028759
  0
LWPOLYLINE
  5
4F3
100
AcDbEntity
  8
IMPORT_IGES
100
AcDbPolyline
 62
7
  6
CONTINUOUS
 90
4
 70
0
 10
1.3982996319
 20
-24.9344192636
 10
1.3537904001
 20
-24.9280232333
 10
1.3068262948
 20
-24.921609325
 10
1.2574069423
 20
-24.9151766805
  0
LWPOLYLINE
  5
4F4
100
AcDbEntity
  8
IMPORT_IGES
100
AcDbPolyline
 62
7
  6
CONTINUOUS
 90
4
 70
0
 10
1.4159176992
 20
-25.9370252228
 10
1.3713580877
 20
-25.9304905188
 10
1.3241914146
 20
-25.9239334064
 10
1.274395268
 20
-25.9173478437
  0
LWPOLYLINE
  5
4F5
100
AcDbEntity
  8
IMPORT_IGES
100
AcDbPolyline
 62
7
  6
CONTINUOUS
 90
5
 70
0
 10
1.4203137338
 20
-23.9377285568
 10
1.3774585813
 20
-23.9313973721
 10
1.3321795983
 20
-23.9250470019
 10
1.284433976
 20
-23.9186716864
 10
1.2342183447
 20
-23.912270478
  0
LWPOLYLINE
  5
4F6
100
AcDbEntity
  8
IMPORT_IGES
100
AcDbPolyline
 62
7
  6
CONTINUOUS
 90
5
 70
0
 10
1.4236599629
 20
-21.9382557262
 10
1.3807772034
 20
-21.9319018358
 10
1.3354811902
 20
-21.9255322461
 10
1.2877481095
 20
-21.9191409071
 10
1.237588224
 20
-21.9127265523
  0
LWPOLYLINE
  5
4F7
100
AcDbEntity
  8
IMPORT_IGES
100
AcDbPolyline
 62
253
  6
CONTINUOUS
 90
7
 70
0
 10
1.0830133974
 20
-23.1702600582
 10
1.0468634458
 20
-23.1646154826
 10
0.9193273219
 20
-23.1470890026
 10
0.7783437082
 20
-23.129643868
 10
0.6256130712
 20
-23.1122862236
 10
0.4626854947
 20
-23.0950032777
 10
0.1131738454
 20
-23.0606695191
  0
LWPOLYLINE
  5
4F8
100
AcDbEntity
  8
IMPORT_IGES
100
AcDbPolyline
 62
253
  6
CONTINUOUS
 90
7
 70
0
 10
1.082976835
 20
-22.170256805
 10
1.0504790035
 20
-22.1651619432
 10
0.922342568
 20
-22.1474984489
 10
0.7804231726
 20
-22.1298976002
 10
0.6261633603
 20
-22.1123578821
 10
0.4614652679
 20
-22.0948940139
 10
0.4040202793
 20
-22.0891307606
  0
LWPOLYLINE
  5
4F9
100
AcDbEntity
  8
IMPORT_IGES
100
AcDbPolyline
 62
253
  6
CONTINUOUS
 90
7
 70
0
 10
1.0831029155
 20
-24.1702313635
 10
1.0533794583
 20
-24.1655511926
 10
0.9252500904
 20
-24.1478539641
 10
0.7833504101
 20
-24.1302261342
 10
0.6292650348
 20
-24.1126696313
 10
0.4646713472
 20
-24.0951949695
 10
0.1113521296
 20
-24.0604846232
  0
LINE
  5
4FA
100
AcDbEntity
  8
IMPORT_IGES
100
AcDbLine
 62
7
  6
CONTINUOUS
 10
23.2465688944
 20
-29.597549189
 11
22.9340688944
 21
-29.544357706
  0
LINE
  5
4FB
100
AcDbEntity
  8
IMPORT_IGES
100
AcDbLine
 62
7
  6
CONTINUOUS
 10
22.9861520291
 20
-29.3315917739
 11
23.2986520291
 21
-29.3847832569
  0
LINE
  5
4FC
100
AcDbEntity
  8
IMPORT_IGES
100
AcDbLine
 62
7
  6
CONTINUOUS
 10
35.0694845677
 20
-31.0337193796
 11
34.7569857597
 21
-30.9805278919
  0
LINE
  5
4FD
100
AcDbEntity
  8
IMPORT_IGES
100
AcDbLine
 62
7
  6
CONTINUOUS
 10
35.3299020291
 20
-29.597549189
 11
35.0174020291
 21
-29.544357706
  0
LINE
  5
4FE
100
AcDbEntity
  8
IMPORT_IGES
100
AcDbLine
 62
7
  6
CONTINUOUS
 10
35.0694845677
 20
-29.3315917739
 11
35.3819845677
 21
-29.3847832569
  0
LINE
  5
4FF
100
AcDbEntity
  8
IMPORT_IGES
100
AcDbLine
 62
7
  6
CONTINUOUS
 10
40.9028194905
 20
-29.3315917739
 11
41.2153194905
 21
-29.3847832569
  0
LWPOLYLINE
  5
500
100
AcDbEntity
  8
IMPORT_IGES
100
AcDbPolyline
 62
7
  6
CONTINUOUS
 90
10
 70
0
 10
-2.1503903812
 20
-22.0914595621
 10
-2.1195206789
 20
-22.0968950039
 10
-2.0871307928
 20
-22.1022329331
 10
-2.0529214229
 20
-22.1075378291
 10
-2.0168479531
 20
-22.1128250165
 10
-1.9789583453
 20
-22.1180950137
 10
-1.9390810852
 20
-22.1233772334
 10
-1.8971846235
 20
-22.1286790968
 10
-1.8532925844
 20
-22.134000715
 10
-1.8073098725
 20
-22.1393561427
  0
LWPOLYLINE
  5
501
100
AcDbEntity
  8
IMPORT_IGES
100
AcDbPolyline
 62
7
  6
CONTINUOUS
 90
5
 70
0
 10
1.5693857365
 20
-25.9631782528
 10
1.5345045125
 20
-25.9565959248
 10
1.4974386187
 20
-25.950069442
 10
1.4579415273
 20
-25.9435510137
 10
1.4159176992
 20
-25.9370252228
  0
LINE
  5
502
100
AcDbEntity
  8
IMPORT_IGES
100
AcDbLine
 62
7
  6
CONTINUOUS
 10
32.5694857598
 20
-31.0337193796
 11
32.3090682984
 21
-30.9805278919
  0
LINE
  5
503
100
AcDbEntity
  8
IMPORT_IGES
100
AcDbLine
 62
7
  6
CONTINUOUS
 10
33.0382357598
 20
-28.5337193796
 11
33.2986520291
 21
-28.5869108626
  0
LINE
  5
504
100
AcDbEntity
  8
IMPORT_IGES
100
AcDbLine
 62
7
  6
CONTINUOUS
 10
18.4549020291
 20
-31.0337193796
 11
18.2465685964
 21
-30.9805278919
  0
LINE
  5
505
100
AcDbEntity
  8
IMPORT_IGES
100
AcDbLine
 62
7
  6
CONTINUOUS
 10
20.6424020291
 20
-31.0337193796
 11
20.4340688944
 21
-30.9805278919
  0
LINE
  5
506
100
AcDbEntity
  8
IMPORT_IGES
100
AcDbLine
 62
7
  6
CONTINUOUS
 10
20.5382351637
 20
-30.7145704442
 11
20.7465688944
 21
-30.7677619272
  0
LINE
  5
507
100
AcDbEntity
  8
IMPORT_IGES
100
AcDbLine
 62
7
  6
CONTINUOUS
 10
22.7257351637
 20
-30.7677619272
 11
22.9340688944
 21
-30.8209534289
  0
LINE
  5
508
100
AcDbEntity
  8
IMPORT_IGES
100
AcDbLine
 62
7
  6
CONTINUOUS
 10
19.0799020291
 20
-29.597549189
 11
18.8715685964
 21
-29.544357706
  0
LINE
  5
509
100
AcDbEntity
  8
IMPORT_IGES
100
AcDbLine
 62
7
  6
CONTINUOUS
 10
21.1632351637
 20
-29.650740672
 11
20.9549020291
 21
-29.597549189
  0
LINE
  5
50A
100
AcDbEntity
  8
IMPORT_IGES
100
AcDbLine
 62
7
  6
CONTINUOUS
 10
20.9549020291
 20
-29.3315917739
 11
21.1632351637
 21
-29.3847832569
  0
LINE
  5
50B
100
AcDbEntity
  8
IMPORT_IGES
100
AcDbLine
 62
7
  6
CONTINUOUS
 10
32.3611520291
 20
-30.6613789612
 11
32.5694857598
 21
-30.7145704442
  0
LINE
  5
50C
100
AcDbEntity
  8
IMPORT_IGES
100
AcDbLine
 62
7
  6
CONTINUOUS
 10
28.2986520291
 20
-29.597549189
 11
28.0903182984
 21
-29.544357706
  0
LINE
  5
50D
100
AcDbEntity
  8
IMPORT_IGES
100
AcDbLine
 62
7
  6
CONTINUOUS
 10
34.8090682984
 20
-30.7677619272
 11
35.0174020291
 21
-30.8209534289
  0
LWPOLYLINE
  5
50E
100
AcDbEntity
  8
IMPORT_IGES
100
AcDbPolyline
 62
7
  6
CONTINUOUS
 90
15
 70
0
 10
-2.2825979709
 20
-24.0616707282
 10
-2.2616683329
 20
-24.0674258352
 10
-2.2374727565
 20
-24.0734367344
 10
-2.2116601642
 20
-24.0792763166
 10
-2.1843243454
 20
-24.0849501187
 10
-2.155300055
 20
-24.0905160015
 10
-2.1245245845
 20
-24.0960024893
 10
-2.0919992584
 20
-24.1014231802
 10
-2.0578024351
 20
-24.1067784522
 10
-2.0221029695
 20
-24.1120566996
 10
-1.984795659
 20
-24.1172867499
 10
-1.9455851067
 20
-24.1225173848
 10
-1.9044127999
 20
-24.1277614342
 10
-1.8613609383
 20
-24.1330139516
 10
-1.8163273041
 20
-24.1382923562
  0
LWPOLYLINE
  5
50F
100
AcDbEntity
  8
IMPORT_IGES
100
AcDbPolyline
 62
7
  6
CONTINUOUS
 90
14
 70
0
 10
-2.2825979709
 20
-23.0616345
 10
-2.279180702
 20
-23.0626626217
 10
-2.2534878478
 20
-23.0695226352
 10
-2.2269685115
 20
-23.0758838379
 10
-2.1985297676
 20
-23.0820751385
 10
-2.1678132462
 20
-23.088189278
 10
-2.1349260918
 20
-23.0942153632
 10
-2.0995130173
 20
-23.1002255933
 10
-2.0613986729
 20
-23.1062488297
 10
-2.0205757769
 20
-23.1122877577
 10
-1.977023489
 20
-23.118349805
 10
-1.9306912587
 20
-23.1244460716
 10
-1.8815827754
 20
-23.1305799779
 10
-1.8298459682
 20
-23.136738467
  0
LWPOLYLINE
  5
510
100
AcDbEntity
  8
IMPORT_IGES
100
AcDbPolyline
 62
7
  6
CONTINUOUS
 90
15
 70
0
 10
-2.2825979709
 20
-25.0616384285
 10
-2.2798416731
 20
-25.0624702525
 10
-2.255954914
 20
-25.0688963754
 10
-2.2308334426
 20
-25.0749925035
 10
-2.2042275338
 20
-25.0808681687
 10
-2.1762877764
 20
-25.0865322321
 10
-2.1465072437
 20
-25.0921155585
 10
-2.1147495461
 20
-25.0976551199
 10
-2.0810572902
 20
-25.1031528972
 10
-2.0452211705
 20
-25.1086496629
 10
-2.0071671693
 20
-25.114159522
 10
-1.9668986859
 20
-25.1196843533
 10
-1.9243521995
 20
-25.1252349891
 10
-1.8794896757
 20
-25.1308178543
 10
-1.8323094562
 20
-25.1364346534
  0
LWPOLYLINE
  5
511
100
AcDbEntity
  8
IMPORT_IGES
100
AcDbPolyline
 62
7
  6
CONTINUOUS
 90
7
 70
0
 10
-2.2825979709
 20
-26.0616357723
 10
-2.2807349667
 20
-26.0622005097
 10
-2.2567529128
 20
-26.0686775471
 10
-2.2316233783
 20
-26.0747955064
 10
-2.2052342826
 20
-26.0806414639
 10
-2.1776536307
 20
-26.0862521903
 10
-2.1483520633
 20
-26.0917678824
  0
LWPOLYLINE
  5
512
100
AcDbEntity
  8
IMPORT_IGES
100
AcDbPolyline
 62
7
  6
CONTINUOUS
 90
11
 70
0
 10
1.7174020291
 20
-24.9992194402
 10
1.7005403699
 20
-24.9940267423
 10
1.6741054138
 20
-24.9867181927
 10
1.6462186276
 20
-24.9797325198
 10
1.6170155835
 20
-24.9730441646
 10
1.5859114854
 20
-24.9664808788
 10
1.5527513684
 20
-24.9599947147
 10
1.5175836126
 20
-24.9535827942
 10
1.4801616501
 20
-24.9471919182
 10
1.4403986831
 20
-24.9408045181
 10
1.3982996319
 20
-24.9344192636
  0
LWPOLYLINE
  5
513
100
AcDbEntity
  8
IMPORT_IGES
100
AcDbPolyline
 62
7
  6
CONTINUOUS
 90
11
 70
0
 10
1.7174020291
 20
-22.9992660402
 10
1.711179662
 20
-22.9972497332
 10
1.6842362327
 20
-22.989477535
 10
1.6556956803
 20
-22.982068685
 10
1.6254312232
 20
-22.9749366054
 10
1.593409284
 20
-22.9680307733
 10
1.559078818
 20
-22.9612090397
 10
1.5222702466
 20
-22.954428457
 10
1.4830156835
 20
-22.9476867972
 10
1.4411256375
 20
-22.9409456578
 10
1.3965200272
 20
-22.9341899924
  0
LWPOLYLINE
  5
514
100
AcDbEntity
  8
IMPORT_IGES
100
AcDbPolyline
 62
7
  6
CONTINUOUS
 90
11
 70
0
 10
1.7174020291
 20
-26.9991733519
 10
1.714440961
 20
-26.9982004552
 10
1.6883209418
 20
-26.9905577785
 10
1.6608107945
 20
-26.9833022061
 10
1.6316517101
 20
-26.9763096678
 10
1.6009883803
 20
-26.9695699107
 10
1.568261064
 20
-26.9629315639
 10
1.5333052993
 20
-26.9563525814
 10
1.4961495133
 20
-26.9498313198
 10
1.4565646984
 20
-26.9433203225
 10
1.4144866865
 20
-26.9368049752
  0
LWPOLYLINE
  5
515
100
AcDbEntity
  8
IMPORT_IGES
100
AcDbPolyline
 62
7
  6
CONTINUOUS
 90
7
 70
0
 10
1.7174020291
 20
-25.9991490374
 10
1.7153376122
 20
-25.9984682269
 10
1.6892370426
 20
-25.9908112304
 10
1.6617586497
 20
-25.9835493773
 10
1.6326427722
 20
-25.9765548025
 10
1.6020438388
 20
-25.9698168145
 10
1.5693857365
 20
-25.9631782528
  0
LWPOLYLINE
  5
516
100
AcDbEntity
  8
IMPORT_IGES
100
AcDbPolyline
 62
7
  6
CONTINUOUS
 90
11
 70
0
 10
1.7174020291
 20
-23.9991753265
 10
1.7152985595
 20
-23.998480408
 10
1.6888438627
 20
-23.9907142325
 10
1.6611090197
 20
-23.9833943196
 10
1.6320731424
 20
-23.9764349873
 10
1.6017463255
 20
-23.9697710344
 10
1.5695461384
 20
-23.963234221
 10
1.5353517153
 20
-23.9567820456
 10
1.4992337006
 20
-23.9504127645
 10
1.4609092878
 20
-23.9440665025
 10
1.4203137338
 20
-23.9377285568
  0
LINE
  5
517
100
AcDbEntity
  8
IMPORT_IGES
100
AcDbLine
 62
7
  6
CONTINUOUS
 10
22.673652029
 20
-30.9805278919
 11
22.5174020291
 21
-30.9273364042
  0
LINE
  5
518
100
AcDbEntity
  8
IMPORT_IGES
100
AcDbLine
 62
7
  6
CONTINUOUS
 10
-35.6985554003
 20
28.9912806204
 11
-35.740257523
 21
29.1137806204
  0
LINE
  5
519
100
AcDbEntity
  8
IMPORT_IGES
100
AcDbLine
 62
7
  6
CONTINUOUS
 10
-36.3240873575
 20
32.3804474428
 11
-36.2823852348
 21
32.2579474428
  0
LINE
  5
51A
100
AcDbEntity
  8
IMPORT_IGES
100
AcDbLine
 62
7
  6
CONTINUOUS
 10
-36.3240873575
 20
34.177113798
 11
-36.2823852348
 21
34.054613798
  0
LINE
  5
51B
100
AcDbEntity
  8
IMPORT_IGES
100
AcDbLine
 62
7
  6
CONTINUOUS
 10
-35.615151155
 20
32.3804474428
 11
-35.5734490323
 21
32.2579474428
  0
LINE
  5
51C
100
AcDbEntity
  8
IMPORT_IGES
100
AcDbLine
 62
7
  6
CONTINUOUS
 10
-35.615151155
 20
34.177113798
 11
-35.5734490323
 21
34.054613798
  0
LINE
  5
51D
100
AcDbEntity
  8
IMPORT_IGES
100
AcDbLine
 62
7
  6
CONTINUOUS
 10
-34.6143000973
 20
32.829613798
 11
-34.5725979709
 21
32.6254474428
  0
LINE
  5
51E
100
AcDbEntity
  8
IMPORT_IGES
100
AcDbLine
 62
7
  6
CONTINUOUS
 10
-34.6143000973
 20
34.6262806204
 11
-34.5725979709
 21
34.422113798
  0
LWPOLYLINE
  5
51F
100
AcDbEntity
  8
IMPORT_IGES
100
AcDbPolyline
 62
7
  6
CONTINUOUS
 90
6
 70
0
 10
-2.1404854782
 20
-21.4731157424
 10
-2.1709543424
 20
-21.4787491565
 10
-2.1993047132
 20
-21.4844172454
 10
-2.2257433614
 20
-21.4901672248
 10
-2.2508292618
 20
-21.4961429881
 10
-2.2743618595
 20
-21.5023300702
  0
LINE
  5
520
100
AcDbEntity
  8
IMPORT_IGES
100
AcDbLine
 62
7
  6
CONTINUOUS
 10
-5.4325979709
 20
-20.6899471601
 11
-5.2825979709
 21
-20.6899471601
  0
LINE
  5
521
100
AcDbEntity
  8
IMPORT_IGES
100
AcDbLine
 62
7
  6
CONTINUOUS
 10
4.7174020291
 20
-20.6899471601
 11
4.8674020291
 21
-20.6899471601
  0
LINE
  5
522
100
AcDbEntity
  8
IMPORT_IGES
100
AcDbLine
 62
253
  6
CONTINUOUS
 10
-5.2825979709
 20
-19.3237193796
 11
4.7174020291
 21
-19.3237193796
  0
LINE
  5
523
100
AcDbEntity
  8
IMPORT_IGES
100
AcDbLine
 62
7
  6
CONTINUOUS
 10
-52.0825979709
 20
-19.0337193796
 11
-7.7825979709
 21
-19.0337193796
  0
LINE
  5
524
100
AcDbEntity
  8
IMPORT_IGES
100
AcDbLine
 62
7
  6
CONTINUOUS
 10
51.5174020291
 20
-19.0337193796
 11
7.2174020291
 21
-19.0337193796
  0
LINE
  5
525
100
AcDbEntity
  8
IMPORT_IGES
100
AcDbLine
 62
253
  6
CONTINUOUS
 10
-52.5825979709
 20
-18.5337193796
 11
-7.7825979709
 21
-18.5337193796
  0
LINE
  5
526
100
AcDbEntity
  8
IMPORT_IGES
100
AcDbLine
 62
253
  6
CONTINUOUS
 10
52.0174020291
 20
-18.5337193796
 11
7.2174020291
 21
-18.5337193796
  0
LINE
  5
527
100
AcDbEntity
  8
IMPORT_IGES
100
AcDbLine
 62
253
  6
CONTINUOUS
 10
-5.2825979709
 20
-18.4122908081
 11
4.7174020291
 21
-18.4122908081
  0
LINE
  5
528
100
AcDbEntity
  8
IMPORT_IGES
100
AcDbLine
 62
7
  6
CONTINUOUS
 10
49.7174020291
 20
-17.5337193796
 11
4.8674020291
 21
-17.5337193796
  0
LINE
  5
529
100
AcDbEntity
  8
IMPORT_IGES
100
AcDbLine
 62
7
  6
CONTINUOUS
 10
-5.4325979709
 20
-17.5337193796
 11
-50.2825979709
 21
-17.5337193796
  0
LINE
  5
52A
100
AcDbEntity
  8
IMPORT_IGES
100
AcDbLine
 62
7
  6
CONTINUOUS
 10
6.1174020291
 20
-17.2899471601
 11
4.7174020291
 21
-17.2899471601
  0
LINE
  5
52B
100
AcDbEntity
  8
IMPORT_IGES
100
AcDbLine
 62
7
  6
CONTINUOUS
 10
-5.2825979709
 20
-17.2899471601
 11
-6.6825979709
 21
-17.2899471601
  0
LINE
  5
52C
100
AcDbEntity
  8
IMPORT_IGES
100
AcDbLine
 62
7
  6
CONTINUOUS
 10
53.2174020291
 20
-17.0337193796
 11
49.7174020291
 21
-17.0337193796
  0
LINE
  5
52D
100
AcDbEntity
  8
IMPORT_IGES
100
AcDbLine
 62
7
  6
CONTINUOUS
 10
-50.2825979709
 20
-17.0337193796
 11
-53.7825979709
 21
-17.0337193796
  0
LINE
  5
52E
100
AcDbEntity
  8
IMPORT_IGES
100
AcDbLine
 62
7
  6
CONTINUOUS
 10
53.2174020291
 20
-16.3337193796
 11
49.7174020291
 21
-16.3337193796
  0
LINE
  5
52F
100
AcDbEntity
  8
IMPORT_IGES
100
AcDbLine
 62
7
  6
CONTINUOUS
 10
-50.2825979709
 20
-16.3337193796
 11
-53.7825979709
 21
-16.3337193796
  0
LINE
  5
530
100
AcDbEntity
  8
IMPORT_IGES
100
AcDbLine
 62
7
  6
CONTINUOUS
 10
40.4861520291
 20
-31.0337193796
 11
40.2778194905
 21
-30.9805278919
  0
LINE
  5
531
100
AcDbEntity
  8
IMPORT_IGES
100
AcDbLine
 62
7
  6
CONTINUOUS
 10
33.2465682984
 20
-28.9060597607
 11
33.0382357598
 21
-28.8528682777
  0
LINE
  5
532
100
AcDbEntity
  8
IMPORT_IGES
100
AcDbLine
 62
7
  6
CONTINUOUS
 10
41.1111520291
 20
-29.597549189
 11
40.9028194905
 21
-29.544357706
  0
LINE
  5
533
100
AcDbEntity
  8
IMPORT_IGES
100
AcDbLine
 62
7
  6
CONTINUOUS
 10
42.9861520291
 20
-29.597549189
 11
42.7778194905
 21
-29.544357706
  0
LINE
  5
534
100
AcDbEntity
  8
IMPORT_IGES
100
AcDbLine
 62
7
  6
CONTINUOUS
 10
28.2986520291
 20
-29.3315917739
 11
28.4549020291
 21
-29.3847832569
  0
LINE
  5
535
100
AcDbEntity
  8
IMPORT_IGES
100
AcDbLine
 62
7
  6
CONTINUOUS
 10
34.7569857597
 20
-30.9805278919
 11
34.6007357598
 21
-30.9273364042
  0
LINE
  5
536
100
AcDbEntity
  8
IMPORT_IGES
100
AcDbLine
 62
7
  6
CONTINUOUS
 10
18.2465685964
 20
-30.9805278919
 11
18.1424020291
 21
-30.9273364042
  0
LINE
  5
537
100
AcDbEntity
  8
IMPORT_IGES
100
AcDbLine
 62
7
  6
CONTINUOUS
 10
18.2465685964
 20
-30.7145704442
 11
18.4549020291
 21
-30.8209534289
  0
LINE
  5
538
100
AcDbEntity
  8
IMPORT_IGES
100
AcDbLine
 62
7
  6
CONTINUOUS
 10
19.1840685964
 20
-29.650740672
 11
19.0799020291
 21
-29.597549189
  0
LINE
  5
539
100
AcDbEntity
  8
IMPORT_IGES
100
AcDbLine
 62
7
  6
CONTINUOUS
 10
22.6215688944
 20
-30.7145704442
 11
22.7257351637
 21
-30.7677619272
  0
LINE
  5
53A
100
AcDbEntity
  8
IMPORT_IGES
100
AcDbLine
 62
7
  6
CONTINUOUS
 10
21.1632351637
 20
-29.3847832569
 11
21.2674020291
 21
-29.4379747399
  0
LINE
  5
53B
100
AcDbEntity
  8
IMPORT_IGES
100
AcDbLine
 62
7
  6
CONTINUOUS
 10
-35.5734490323
 20
27.6437806204
 11
-35.156427747
 21
26.8679472895
  0
LINE
  5
53C
100
AcDbEntity
  8
IMPORT_IGES
100
AcDbLine
 62
7
  6
CONTINUOUS
 10
-35.281534115
 20
26.7862806204
 11
-35.5734490323
 21
27.3579472676
  0
LINE
  5
53D
100
AcDbEntity
  8
IMPORT_IGES
100
AcDbLine
 62
7
  6
CONTINUOUS
 10
-34.7811086136
 20
32.6662806204
 11
-34.8228107363
 21
32.7887806204
  0
LINE
  5
53E
100
AcDbEntity
  8
IMPORT_IGES
100
AcDbLine
 62
7
  6
CONTINUOUS
 10
-34.7811086136
 20
34.4629474428
 11
-34.8228107363
 21
34.5854474429
  0
LINE
  5
53F
100
AcDbEntity
  8
IMPORT_IGES
100
AcDbLine
 62
7
  6
CONTINUOUS
 10
-35.6985554003
 20
39.0771142653
 11
-35.740257523
 21
39.1996142653
  0
LWPOLYLINE
  5
540
100
AcDbEntity
  8
IMPORT_IGES
100
AcDbPolyline
 62
7
  6
CONTINUOUS
 90
25
 70
0
 10
-53.7825979709
 20
-17.0337193796
 10
-53.8101996174
 20
-17.0343947884
 10
-53.8379151821
 20
-17.0364258022
 10
-53.8656561533
 20
-17.0398381856
 10
-53.8932624788
 20
-17.0446422567
 10
-53.9207098569
 20
-17.0508563824
 10
-53.9481001172
 20
-17.058544887
 10
-53.9753453061
 20
-17.0677565509
 10
-54.0023018417
 20
-17.0785144604
 10
-54.0289602086
 20
-17.0908893441
 10
-54.0551651583
 20
-17.1049090276
 10
-54.0807801083
 20
-17.1206042375
 10
-54.1057830475
 20
-17.1380828883
 10
-54.1300250914
 20
-17.1574016371
 10
-54.1532648439
 20
-17.1785462177
 10
-54.1753052237
 20
-17.2015237627
 10
-54.1959698002
 20
-17.2263554332
 10
-54.2149837818
 20
-17.2529554706
 10
-54.2320275388
 20
-17.2811178
 10
-54.246902769
 20
-17.310704854
 10
-54.2594317816
 20
-17.341607382
 10
-54.2693996364
 20
-17.3735971853
 10
-54.2766587191
 20
-17.4064672848
 10
-54.281096105
 20
-17.4400445198
 10
-54.2825979709
 20
-17.4741163351
  0
LINE
  5
541
100
AcDbEntity
  8
IMPORT_IGES
100
AcDbLine
 62
7
  6
CONTINUOUS
 10
-5.9825979709
 20
-14.5337193796
 11
-5.2825979709
 21
-14.5337193796
  0
LINE
  5
542
100
AcDbEntity
  8
IMPORT_IGES
100
AcDbLine
 62
7
  6
CONTINUOUS
 10
4.7174020291
 20
-14.5337193796
 11
5.4174020291
 21
-14.5337193796
  0
LINE
  5
543
100
AcDbEntity
  8
IMPORT_IGES
100
AcDbLine
 62
253
  6
CONTINUOUS
 10
-5.2825979709
 20
-14.0858392689
 11
4.7174020291
 21
-14.0858392689
  0
LINE
  5
544
100
AcDbEntity
  8
IMPORT_IGES
100
AcDbLine
 62
7
  6
CONTINUOUS
 10
-54.3825979709
 20
-13.5337193796
 11
-54.2825979709
 21
-13.5337193796
  0
LINE
  5
545
100
AcDbEntity
  8
IMPORT_IGES
100
AcDbLine
 62
7
  6
CONTINUOUS
 10
-5.2825979709
 20
-13.3899471601
 11
4.7174020291
 21
-13.3899471601
  0
LINE
  5
546
100
AcDbEntity
  8
IMPORT_IGES
100
AcDbLine
 62
253
  6
CONTINUOUS
 10
-5.2825979709
 20
-12.9414262888
 11
4.7174020291
 21
-12.9414262888
  0
LINE
  5
547
100
AcDbEntity
  8
IMPORT_IGES
100
AcDbLine
 62
7
  6
CONTINUOUS
 10
4.7174020291
 20
-12.6637193796
 11
-5.2825979709
 21
-12.6637193796
  0
LINE
  5
548
100
AcDbEntity
  8
IMPORT_IGES
100
AcDbLine
 62
253
  6
CONTINUOUS
 10
-54.3825979709
 20
-11.9337193796
 11
-54.2825979709
 21
-11.9337193796
  0
LWPOLYLINE
  5
549
100
AcDbEntity
  8
IMPORT_IGES
100
AcDbPolyline
 62
7
  6
CONTINUOUS
 90
25
 70
0
 10
53.2174020291
 20
-17.0337193796
 10
53.2450016911
 20
-17.0343602715
 10
53.272715112
 20
-17.0363995566
 10
53.3004538027
 20
-17.0398372348
 10
53.3280576792
 20
-17.0446344199
 10
53.35550253
 20
-17.0508299981
 10
53.382890391
 20
-17.0585406284
 10
53.4101333979
 20
-17.0677603279
 10
53.4370879352
 20
-17.0784950794
 10
53.4637445074
 20
-17.09087949
 10
53.4899480168
 20
-17.1049067297
 10
53.5155617861
 20
-17.1205836285
 10
53.5405635091
 20
-17.1380652832
 10
53.5648043289
 20
-17.157406938
 10
53.5880430273
 20
-17.1785533488
 10
53.6100825423
 20
-17.20149388
 10
53.6307459907
 20
-17.2263451142
 10
53.6497594785
 20
-17.2529904688
 10
53.6668048906
 20
-17.2810695606
 10
53.6816834576
 20
-17.3106406131
 10
53.6942170237
 20
-17.3416454028
 10
53.7041908329
 20
-17.3735488753
 10
53.7114561204
 20
-17.4061726791
 10
53.715898263
 20
-17.4396951657
 10
53.7174020291
 20
-17.4741163326
  0
LINE
  5
54A
100
AcDbEntity
  8
IMPORT_IGES
100
AcDbLine
 62
7
  6
CONTINUOUS
 10
38.3507345677
 20
-29.3315917739
 11
38.5069845677
 21
-29.3847832569
  0
LINE
  5
54B
100
AcDbEntity
  8
IMPORT_IGES
100
AcDbLine
 62
7
  6
CONTINUOUS
 10
39.1840694905
 20
-29.3315917739
 11
39.3403194905
 21
-29.3847832569
  0
LINE
  5
54C
100
AcDbEntity
  8
IMPORT_IGES
100
AcDbLine
 62
7
  6
CONTINUOUS
 10
42.9861520291
 20
-29.3315917739
 11
43.1424020291
 21
-29.3847832569
  0
LINE
  5
54D
100
AcDbEntity
  8
IMPORT_IGES
100
AcDbLine
 62
7
  6
CONTINUOUS
 10
28.4028182984
 20
-29.650740672
 11
28.2986520291
 21
-29.597549189
  0
LINE
  5
54E
100
AcDbEntity
  8
IMPORT_IGES
100
AcDbLine
 62
7
  6
CONTINUOUS
 10
32.3090682984
 20
-30.9805278919
 11
32.1007357598
 21
-30.8741449119
  0
LINE
  5
54F
100
AcDbEntity
  8
IMPORT_IGES
100
AcDbLine
 62
7
  6
CONTINUOUS
 10
23.2986520291
 20
-29.3847832569
 11
23.5590688944
 21
-29.544357706
  0
LINE
  5
550
100
AcDbEntity
  8
IMPORT_IGES
100
AcDbLine
 62
7
  6
CONTINUOUS
 10
20.4340688944
 20
-30.9805278919
 11
20.2778188944
 21
-30.8741449119
  0
LINE
  5
551
100
AcDbEntity
  8
IMPORT_IGES
100
AcDbLine
 62
7
  6
CONTINUOUS
 10
20.3819851637
 20
-30.6081874782
 11
20.5382351637
 21
-30.7145704442
  0
LINE
  5
552
100
AcDbEntity
  8
IMPORT_IGES
100
AcDbLine
 62
7
  6
CONTINUOUS
 10
19.1840685964
 20
-29.3847832569
 11
19.3403185964
 21
-29.491166223
  0
LINE
  5
553
100
AcDbEntity
  8
IMPORT_IGES
100
AcDbLine
 62
7
  6
CONTINUOUS
 10
22.5174020291
 20
-30.9273364042
 11
22.3611520291
 21
-30.8209534289
  0
LINE
  5
554
100
AcDbEntity
  8
IMPORT_IGES
100
AcDbLine
 62
7
  6
CONTINUOUS
 10
21.3194851637
 20
-29.7571236381
 11
21.1632351637
 21
-29.650740672
  0
LWPOLYLINE
  5
555
100
AcDbEntity
  8
IMPORT_IGES
100
AcDbPolyline
 62
7
  6
CONTINUOUS
 90
16
 70
0
 10
1.8739673599
 20
-22.0803711408
 10
1.8466182244
 20
-22.0589699357
 10
1.8193788301
 20
-22.0418404998
 10
1.7932924666
 20
-22.0282972381
 10
1.7681388201
 20
-22.0172425247
 10
1.7427188713
 20
-22.0076028613
 10
1.7169469351
 20
-21.9990398918
 10
1.6908488388
 20
-21.991326605
 10
1.6634751053
 20
-21.9840419726
 10
1.6347089763
 20
-21.9770837925
 10
1.6046165151
 20
-21.9704100763
 10
1.5726214253
 20
-21.9638580062
 10
1.5385777545
 20
-21.9573841414
 10
1.5025402731
 20
-21.9509879288
 10
1.464252796
 20
-21.9446165851
 10
1.4236599629
 20
-21.9382557262
  0
LINE
  5
556
100
AcDbEntity
  8
IMPORT_IGES
100
AcDbLine
 62
7
  6
CONTINUOUS
 10
-43.4895942864
 20
34.2598421576
 11
-43.8612434178
 21
34.8173158549
  0
LINE
  5
557
100
AcDbEntity
  8
IMPORT_IGES
100
AcDbLine
 62
7
  6
CONTINUOUS
 10
-44.2328925493
 20
35.3747895521
 11
-44.6045416808
 21
35.9322632493
  0
LINE
  5
558
100
AcDbEntity
  8
IMPORT_IGES
100
AcDbLine
 62
7
  6
CONTINUOUS
 10
-42.8544625617
 20
35.4885030923
 11
-43.2261116932
 21
36.0459767895
  0
LWPOLYLINE
  5
559
100
AcDbEntity
  8
IMPORT_IGES
100
AcDbPolyline
 62
7
  6
CONTINUOUS
 90
15
 70
0
 10
-2.4825979709
 20
-21.9354116583
 10
-2.4762315113
 20
-21.9451360191
 10
-2.449869747
 20
-21.9743558893
 10
-2.4235681348
 20
-21.996584769
 10
-2.3978133659
 20
-22.0139062166
 10
-2.3728497725
 20
-22.027641597
 10
-2.3495124847
 20
-22.0384009013
 10
-2.3275876154
 20
-22.0470766301
 10
-2.3053494813
 20
-22.0547594995
 10
-2.2823741611
 20
-22.0617681218
 10
-2.2588731811
 20
-22.0681715783
 10
-2.2340680784
 20
-22.0742711591
 10
-2.2076913228
 20
-22.0801719259
 10
-2.1798249784
 20
-22.0858863643
 10
-2.1503903812
 20
-22.0914595621
  0
LINE
  5
55A
100
AcDbEntity
  8
IMPORT_IGES
100
AcDbLine
 62
7
  6
CONTINUOUS
 10
-36.3657894802
 20
32.0129474428
 11
-36.4908958482
 21
32.217113798
  0
LINE
  5
55B
100
AcDbEntity
  8
IMPORT_IGES
100
AcDbLine
 62
7
  6
CONTINUOUS
 10
-36.3657894802
 20
33.809613798
 11
-36.4908958482
 21
34.0137806204
  0
LINE
  5
55C
100
AcDbEntity
  8
IMPORT_IGES
100
AcDbLine
 62
7
  6
CONTINUOUS
 10
-35.615151155
 20
39.4037806204
 11
-35.5317469096
 21
39.2404469755
  0
LINE
  5
55D
100
AcDbEntity
  8
IMPORT_IGES
100
AcDbLine
 62
7
  6
CONTINUOUS
 10
-35.8653638911
 20
40.7921142653
 11
-35.5734490323
 21
40.2204469755
  0
LINE
  5
55E
100
AcDbEntity
  8
IMPORT_IGES
100
AcDbLine
 62
253
  6
CONTINUOUS
 10
-10.0825979709
 20
-37.4334217684
 11
-10.0825979709
 21
-41.5337193796
  0
LINE
  5
55F
100
AcDbEntity
  8
IMPORT_IGES
100
AcDbLine
 62
7
  6
CONTINUOUS
 10
-9.5825979709
 20
-41.0337193796
 11
-9.5825979709
 21
-37.722096903
  0
LINE
  5
560
100
AcDbEntity
  8
IMPORT_IGES
100
AcDbLine
 62
7
  6
CONTINUOUS
 10
-9.5825979709
 20
-34.0337193796
 11
-9.5825979709
 21
-19.0337193796
  0
LINE
  5
561
100
AcDbEntity
  8
IMPORT_IGES
100
AcDbLine
 62
7
  6
CONTINUOUS
 10
34.7049020291
 20
-30.7145704442
 11
34.8090682984
 21
-30.7677619272
  0
LINE
  5
562
100
AcDbEntity
  8
IMPORT_IGES
100
AcDbLine
 62
7
  6
CONTINUOUS
 10
33.2986520291
 20
-28.5869108626
 11
33.5069857598
 21
-28.6932938286
  0
LINE
  5
563
100
AcDbEntity
  8
IMPORT_IGES
100
AcDbLine
 62
7
  6
CONTINUOUS
 10
40.2778194905
 20
-30.9805278919
 11
40.1736520291
 21
-30.9273364042
  0
LINE
  5
564
100
AcDbEntity
  8
IMPORT_IGES
100
AcDbLine
 62
7
  6
CONTINUOUS
 10
40.2778194905
 20
-30.7145704442
 11
40.4861520291
 21
-30.8209534289
  0
LINE
  5
565
100
AcDbEntity
  8
IMPORT_IGES
100
AcDbLine
 62
7
  6
CONTINUOUS
 10
38.3507345677
 20
-29.597549189
 11
38.2465694905
 21
-29.544357706
  0
LINE
  5
566
100
AcDbEntity
  8
IMPORT_IGES
100
AcDbLine
 62
7
  6
CONTINUOUS
 10
39.1840694905
 20
-29.597549189
 11
39.0799020291
 21
-29.544357706
  0
LINE
  5
567
100
AcDbEntity
  8
IMPORT_IGES
100
AcDbLine
 62
7
  6
CONTINUOUS
 10
41.2153194905
 20
-29.650740672
 11
41.1111520291
 21
-29.597549189
  0
LINE
  5
568
100
AcDbEntity
  8
IMPORT_IGES
100
AcDbLine
 62
7
  6
CONTINUOUS
 10
23.4028188944
 20
-29.7039321551
 11
23.2465688944
 21
-29.597549189
  0
LINE
  5
569
100
AcDbEntity
  8
IMPORT_IGES
100
AcDbLine
 62
7
  6
CONTINUOUS
 10
28.4549020291
 20
-29.3847832569
 11
28.6111520291
 21
-29.491166223
  0
LINE
  5
56A
100
AcDbEntity
  8
IMPORT_IGES
100
AcDbLine
 62
7
  6
CONTINUOUS
 10
18.1424020291
 20
-30.9273364042
 11
17.9861520291
 21
-30.7677619272
  0
LINE
  5
56B
100
AcDbEntity
  8
IMPORT_IGES
100
AcDbLine
 62
7
  6
CONTINUOUS
 10
-35.615151155
 20
29.3179472092
 11
-35.4900447869
 21
29.1546140316
  0
LWPOLYLINE
  5
56C
100
AcDbEntity
  8
IMPORT_IGES
100
AcDbPolyline
 62
7
  6
CONTINUOUS
 90
3
 70
0
 10
1.9174020291
 20
-22.1298216173
 10
1.9004136439
 20
-22.106960244
 10
1.8739673599
 20
-22.0803711408
  0
LINE
  5
56D
100
AcDbEntity
  8
IMPORT_IGES
100
AcDbLine
 62
7
  6
CONTINUOUS
 10
-36.2823852348
 20
32.2579474428
 11
-36.1989809894
 21
32.1354474428
  0
LINE
  5
56E
100
AcDbEntity
  8
IMPORT_IGES
100
AcDbLine
 62
7
  6
CONTINUOUS
 10
-35.615151155
 20
31.972113798
 11
-35.7819596457
 21
32.217113798
  0
LINE
  5
56F
100
AcDbEntity
  8
IMPORT_IGES
100
AcDbLine
 62
7
  6
CONTINUOUS
 10
-35.5734490323
 20
32.2579474428
 11
-35.4900447869
 21
32.1354474429
  0
LINE
  5
570
100
AcDbEntity
  8
IMPORT_IGES
100
AcDbLine
 62
7
  6
CONTINUOUS
 10
-36.2823852348
 20
34.054613798
 11
-36.1989809894
 21
33.932113798
  0
LINE
  5
571
100
AcDbEntity
  8
IMPORT_IGES
100
AcDbLine
 62
7
  6
CONTINUOUS
 10
-35.615151155
 20
33.7687806204
 11
-35.7819596457
 21
34.0137806204
  0
LINE
  5
572
100
AcDbEntity
  8
IMPORT_IGES
100
AcDbLine
 62
7
  6
CONTINUOUS
 10
-34.8228107363
 20
32.7887806204
 11
-34.9062149816
 21
32.9112806204
  0
LINE
  5
573
100
AcDbEntity
  8
IMPORT_IGES
100
AcDbLine
 62
7
  6
CONTINUOUS
 10
-35.5734490323
 20
34.054613798
 11
-35.4900447869
 21
33.932113798
  0
LINE
  5
574
100
AcDbEntity
  8
IMPORT_IGES
100
AcDbLine
 62
7
  6
CONTINUOUS
 10
-34.8228107363
 20
34.5854474429
 11
-34.9062149816
 21
34.7079469756
  0
LINE
  5
575
100
AcDbEntity
  8
IMPORT_IGES
100
AcDbLine
 62
7
  6
CONTINUOUS
 10
-34.7394064763
 20
33.0337806204
 11
-34.6143000973
 21
32.829613798
  0
LINE
  5
576
100
AcDbEntity
  8
IMPORT_IGES
100
AcDbLine
 62
7
  6
CONTINUOUS
 10
-34.7394064763
 20
34.8304469755
 11
-34.6143000973
 21
34.6262806204
  0
LINE
  5
577
100
AcDbEntity
  8
IMPORT_IGES
100
AcDbLine
 62
7
  6
CONTINUOUS
 10
-35.5734490323
 20
39.9346142653
 11
-35.9904702592
 21
40.7104469755
  0
LINE
  5
578
100
AcDbEntity
  8
IMPORT_IGES
100
AcDbLine
 62
7
  6
CONTINUOUS
 10
-7.7825979709
 20
-18.5337193796
 11
-7.7825979709
 21
-34.0337193796
  0
LINE
  5
579
100
AcDbEntity
  8
IMPORT_IGES
100
AcDbLine
 62
7
  6
CONTINUOUS
 10
-6.6825979709
 20
-17.2899471601
 11
-6.6825979709
 21
-17.5337193796
  0
LINE
  5
57A
100
AcDbEntity
  8
IMPORT_IGES
100
AcDbLine
 62
7
  6
CONTINUOUS
 10
-5.9825979709
 20
-37.4334217684
 11
-5.9825979709
 21
-34.0337193796
  0
LINE
  5
57B
100
AcDbEntity
  8
IMPORT_IGES
100
AcDbLine
 62
7
  6
CONTINUOUS
 10
-5.9825979709
 20
-17.2899471601
 11
-5.9825979709
 21
-14.5337193796
  0
LINE
  5
57C
100
AcDbEntity
  8
IMPORT_IGES
100
AcDbLine
 62
7
  6
CONTINUOUS
 10
-5.4325979709
 20
-22.2337193796
 11
-5.4325979709
 21
-17.5337193796
  0
LINE
  5
57D
100
AcDbEntity
  8
IMPORT_IGES
100
AcDbLine
 62
7
  6
CONTINUOUS
 10
-5.2825979709
 20
-37.5337193796
 11
-5.2825979709
 21
-34.0337193796
  0
LINE
  5
57E
100
AcDbEntity
  8
IMPORT_IGES
100
AcDbLine
 62
7
  6
CONTINUOUS
 10
-5.2825979709
 20
-22.2337193796
 11
-5.2825979709
 21
-12.6637193796
  0
LINE
  5
57F
100
AcDbEntity
  8
IMPORT_IGES
100
AcDbLine
 62
7
  6
CONTINUOUS
 10
43.0903194905
 20
-29.650740672
 11
42.9861520291
 21
-29.597549189
  0
LINE
  5
580
100
AcDbEntity
  8
IMPORT_IGES
100
AcDbLine
 62
7
  6
CONTINUOUS
 10
35.3819845677
 20
-29.3847832569
 11
35.6424020291
 21
-29.544357706
  0
LINE
  5
581
100
AcDbEntity
  8
IMPORT_IGES
100
AcDbLine
 62
7
  6
CONTINUOUS
 10
32.2049020291
 20
-30.5549959579
 11
32.3611520291
 21
-30.6613789612
  0
LINE
  5
582
100
AcDbEntity
  8
IMPORT_IGES
100
AcDbLine
 62
7
  6
CONTINUOUS
 10
34.6007357598
 20
-30.9273364042
 11
34.4444857598
 21
-30.8209534289
  0
LINE
  5
583
100
AcDbEntity
  8
IMPORT_IGES
100
AcDbLine
 62
7
  6
CONTINUOUS
 10
33.4028182984
 20
-29.0124427268
 11
33.2465682984
 21
-28.9060597607
  0
LINE
  5
584
100
AcDbEntity
  8
IMPORT_IGES
100
AcDbLine
 62
7
  6
CONTINUOUS
 10
35.4861520291
 20
-29.7039321551
 11
35.3299020291
 21
-29.597549189
  0
LINE
  5
585
100
AcDbEntity
  8
IMPORT_IGES
100
AcDbLine
 62
7
  6
CONTINUOUS
 10
-35.740257523
 20
29.1137806204
 11
-35.8236617684
 21
29.1954472092
  0
LINE
  5
586
100
AcDbEntity
  8
IMPORT_IGES
100
AcDbLine
 62
7
  6
CONTINUOUS
 10
20.2778188944
 20
-30.8741449119
 11
20.1215688944
 21
-30.7145704442
  0
LINE
  5
587
100
AcDbEntity
  8
IMPORT_IGES
100
AcDbLine
 62
7
  6
CONTINUOUS
 10
19.3403185964
 20
-29.491166223
 11
19.4444854617
 21
-29.597549189
  0
LINE
  5
588
100
AcDbEntity
  8
IMPORT_IGES
100
AcDbLine
 62
7
  6
CONTINUOUS
 10
22.3611520291
 20
-30.8209534289
 11
22.2569851637
 21
-30.7145704442
  0
LINE
  5
589
100
AcDbEntity
  8
IMPORT_IGES
100
AcDbLine
 62
7
  6
CONTINUOUS
 10
21.2674020291
 20
-29.4379747399
 11
21.3715688944
 21
-29.544357706
  0
LINE
  5
58A
100
AcDbEntity
  8
IMPORT_IGES
100
AcDbLine
 62
7
  6
CONTINUOUS
 10
22.4653188944
 20
-30.5549959579
 11
22.6215688944
 21
-30.7145704442
  0
LWPOLYLINE
  5
58B
100
AcDbEntity
  8
IMPORT_IGES
100
AcDbPolyline
 62
7
  6
CONTINUOUS
 90
14
 70
0
 10
1.9182725951
 20
-21.3189073052
 10
1.915046259
 20
-21.2816636952
 10
1.9070420594
 20
-21.2466496704
 10
1.8942599963
 20
-21.213865231
 10
1.876385738
 20
-21.1827217541
 10
1.8537336162
 20
-21.1538078624
 10
1.8272466258
 20
-21.1288894244
 10
1.7964406377
 20
-21.1080985103
 10
1.7617997809
 20
-21.0913030498
 10
1.7257194375
 20
-21.0798727003
 10
1.6882021294
 20
-21.0742159748
 10
1.6492453347
 20
-21.0739243604
 10
1.6112368698
 20
-21.0791419754
 10
1.5770127276
 20
-21.0891543226
  0
LINE
  5
58C
100
AcDbEntity
  8
IMPORT_IGES
100
AcDbLine
 62
7
  6
CONTINUOUS
 10
-3.2825979709
 20
-38.0337193796
 11
-3.2825979709
 21
-34.0337193796
  0
LINE
  5
58D
100
AcDbEntity
  8
IMPORT_IGES
100
AcDbLine
 62
7
  6
CONTINUOUS
 10
-2.7825979709
 20
-12.6637193796
 11
-2.7825979709
 21
-1.0337193796
  0
LINE
  5
58E
100
AcDbEntity
  8
IMPORT_IGES
100
AcDbLine
 62
7
  6
CONTINUOUS
 10
-2.4825979709
 20
-22.2337193796
 11
-2.4825979709
 21
-21.3637193796
  0
LINE
  5
58F
100
AcDbEntity
  8
IMPORT_IGES
100
AcDbLine
 62
7
  6
CONTINUOUS
 10
-2.2825979709
 20
-28.8337193796
 11
-2.2825979709
 21
-22.2337193796
  0
LINE
  5
590
100
AcDbEntity
  8
IMPORT_IGES
100
AcDbLine
 62
253
  6
CONTINUOUS
 10
-0.2825941969
 20
-25.2728037549
 11
-0.282609998
 21
-24.793473774
  0
LINE
  5
591
100
AcDbEntity
  8
IMPORT_IGES
100
AcDbLine
 62
7
  6
CONTINUOUS
 10
-2.7825979709
 20
-1.0337193796
 11
2.2174020291
 21
-1.0337193796
  0
LINE
  5
592
100
AcDbEntity
  8
IMPORT_IGES
100
AcDbLine
 62
7
  6
CONTINUOUS
 10
-41.3084802722
 20
29.630143984
 11
-42.3134802722
 21
30.300143984
  0
LINE
  5
593
100
AcDbEntity
  8
IMPORT_IGES
100
AcDbLine
 62
7
  6
CONTINUOUS
 10
-43.3202611284
 20
30.9713312215
 11
-45.2378925493
 21
32.2497521687
  0
LINE
  5
594
100
AcDbEntity
  8
IMPORT_IGES
100
AcDbLine
 62
7
  6
CONTINUOUS
 10
41.2153194905
 20
-29.3847832569
 11
41.3715694905
 21
-29.491166223
  0
LINE
  5
595
100
AcDbEntity
  8
IMPORT_IGES
100
AcDbLine
 62
7
  6
CONTINUOUS
 10
43.1424020291
 20
-29.3847832569
 11
43.2986520291
 21
-29.491166223
  0
LINE
  5
596
100
AcDbEntity
  8
IMPORT_IGES
100
AcDbLine
 62
7
  6
CONTINUOUS
 10
-35.4900447869
 20
32.1354474429
 11
-35.4066405415
 21
32.0537806204
  0
LINE
  5
597
100
AcDbEntity
  8
IMPORT_IGES
100
AcDbLine
 62
7
  6
CONTINUOUS
 10
-35.4900447869
 20
33.932113798
 11
-35.4066405415
 21
33.8504474429
  0
LINE
  5
598
100
AcDbEntity
  8
IMPORT_IGES
100
AcDbLine
 62
7
  6
CONTINUOUS
 10
28.5069857598
 20
-29.7571236381
 11
28.4028182984
 21
-29.650740672
  0
LINE
  5
599
100
AcDbEntity
  8
IMPORT_IGES
100
AcDbLine
 62
7
  6
CONTINUOUS
 10
28.6111520291
 20
-29.491166223
 11
28.7153182984
 21
-29.597549189
  0
LINE
  5
59A
100
AcDbEntity
  8
IMPORT_IGES
100
AcDbLine
 62
7
  6
CONTINUOUS
 10
32.1007357598
 20
-30.8741449119
 11
31.8924020291
 21
-30.6613789612
  0
LINE
  5
59B
100
AcDbEntity
  8
IMPORT_IGES
100
AcDbLine
 62
7
  6
CONTINUOUS
 10
23.5590688944
 20
-29.544357706
 11
23.7153188944
 21
-29.7571236381
  0
LINE
  5
59C
100
AcDbEntity
  8
IMPORT_IGES
100
AcDbLine
 62
7
  6
CONTINUOUS
 10
1.7174020291
 20
-22.2337193796
 11
1.7174020291
 21
-28.8337193796
  0
LINE
  5
59D
100
AcDbEntity
  8
IMPORT_IGES
100
AcDbLine
 62
7
  6
CONTINUOUS
 10
1.9174020291
 20
-21.3637193796
 11
1.9174020291
 21
-22.2337193796
  0
LINE
  5
59E
100
AcDbEntity
  8
IMPORT_IGES
100
AcDbLine
 62
7
  6
CONTINUOUS
 10
2.2174020291
 20
-1.0337193796
 11
2.2174020291
 21
-12.6637193796
  0
LINE
  5
59F
100
AcDbEntity
  8
IMPORT_IGES
100
AcDbLine
 62
7
  6
CONTINUOUS
 10
2.7174020291
 20
-34.0337193796
 11
2.7174020291
 21
-38.0337193796
  0
LINE
  5
5A0
100
AcDbEntity
  8
IMPORT_IGES
100
AcDbLine
 62
7
  6
CONTINUOUS
 10
4.7174020291
 20
-22.2337193796
 11
4.7174020291
 21
-12.6637193796
  0
LINE
  5
5A1
100
AcDbEntity
  8
IMPORT_IGES
100
AcDbLine
 62
7
  6
CONTINUOUS
 10
4.7174020291
 20
-34.0337193796
 11
4.7174020291
 21
-37.5337193796
  0
LINE
  5
5A2
100
AcDbEntity
  8
IMPORT_IGES
100
AcDbLine
 62
7
  6
CONTINUOUS
 10
4.8674020291
 20
-17.5337193796
 11
4.8674020291
 21
-22.2337193796
  0
LWPOLYLINE
  5
5A3
100
AcDbEntity
  8
IMPORT_IGES
100
AcDbPolyline
 62
7
  6
CONTINUOUS
 90
7
 70
0
 10
1.9156763781
 20
-21.3637193796
 10
1.9162048804
 20
-21.3564079206
 10
1.9166950629
 20
-21.3490335736
 10
1.9171469256
 20
-21.3415963386
 10
1.9175604685
 20
-21.3340962155
 10
1.9179356917
 20
-21.3265332044
 10
1.9182725951
 20
-21.3189073052
  0
LINE
  5
5A4
100
AcDbEntity
  8
IMPORT_IGES
100
AcDbLine
 62
7
  6
CONTINUOUS
 10
-35.8653638911
 20
26.7862806204
 11
-35.9904702592
 21
26.8679472895
  0
LINE
  5
5A5
100
AcDbEntity
  8
IMPORT_IGES
100
AcDbLine
 62
7
  6
CONTINUOUS
 10
-44.8662434178
 20
32.8072258659
 11
-42.9486119969
 21
31.5288049187
  0
LINE
  5
5A6
100
AcDbEntity
  8
IMPORT_IGES
100
AcDbLine
 62
7
  6
CONTINUOUS
 10
-41.9418311408
 20
30.8576176812
 11
-40.9368311408
 21
30.1876176812
  0
LINE
  5
5A7
100
AcDbEntity
  8
IMPORT_IGES
100
AcDbLine
 62
7
  6
CONTINUOUS
 10
-39.3498406163
 20
33.7023688142
 11
-40.3548406163
 21
34.3723688142
  0
LINE
  5
5A8
100
AcDbEntity
  8
IMPORT_IGES
100
AcDbLine
 62
7
  6
CONTINUOUS
 10
-35.7819596457
 20
29.4404472092
 11
-35.615151155
 21
29.3179472092
  0
LINE
  5
5A9
100
AcDbEntity
  8
IMPORT_IGES
100
AcDbLine
 62
7
  6
CONTINUOUS
 10
-36.1989809894
 20
31.8904474428
 11
-36.3657894802
 21
32.0129474428
  0
LINE
  5
5AA
100
AcDbEntity
  8
IMPORT_IGES
100
AcDbLine
 62
7
  6
CONTINUOUS
 10
-36.1989809894
 20
33.687113798
 11
-36.3657894802
 21
33.809613798
  0
LINE
  5
5AB
100
AcDbEntity
  8
IMPORT_IGES
100
AcDbLine
 62
7
  6
CONTINUOUS
 10
-34.9062149817
 20
33.1562806204
 11
-34.7394064763
 21
33.0337806204
  0
LINE
  5
5AC
100
AcDbEntity
  8
IMPORT_IGES
100
AcDbLine
 62
7
  6
CONTINUOUS
 10
-35.740257523
 20
39.1996142653
 11
-35.8236617684
 21
39.2812806204
  0
LINE
  5
5AD
100
AcDbEntity
  8
IMPORT_IGES
100
AcDbLine
 62
7
  6
CONTINUOUS
 10
34.4444857598
 20
-30.8209534289
 11
34.3403182984
 21
-30.7145704442
  0
LINE
  5
5AE
100
AcDbEntity
  8
IMPORT_IGES
100
AcDbLine
 62
7
  6
CONTINUOUS
 10
34.5486520291
 20
-30.5549959579
 11
34.7049020291
 21
-30.7145704442
  0
LINE
  5
5AF
100
AcDbEntity
  8
IMPORT_IGES
100
AcDbLine
 62
7
  6
CONTINUOUS
 10
33.5069857598
 20
-28.6932938286
 11
33.7153182984
 21
-28.9060597607
  0
LINE
  5
5B0
100
AcDbEntity
  8
IMPORT_IGES
100
AcDbLine
 62
7
  6
CONTINUOUS
 10
21.4236520291
 20
-29.9166980871
 11
21.3194851637
 21
-29.7571236381
  0
LINE
  5
5B1
100
AcDbEntity
  8
IMPORT_IGES
100
AcDbLine
 62
7
  6
CONTINUOUS
 10
23.5069851637
 20
-29.8635066041
 11
23.4028188944
 21
-29.7039321551
  0
LINE
  5
5B2
100
AcDbEntity
  8
IMPORT_IGES
100
AcDbLine
 62
7
  6
CONTINUOUS
 10
18.1944854617
 20
-30.6081874782
 11
18.2465685964
 21
-30.7145704442
  0
LINE
  5
5B3
100
AcDbEntity
  8
IMPORT_IGES
100
AcDbLine
 62
7
  6
CONTINUOUS
 10
19.3403185964
 20
-31.0337193796
 11
19.2882354617
 21
-30.9273364042
  0
LINE
  5
5B4
100
AcDbEntity
  8
IMPORT_IGES
100
AcDbLine
 62
7
  6
CONTINUOUS
 10
19.2361520291
 20
-29.7571236381
 11
19.1840685964
 21
-29.650740672
  0
LINE
  5
5B5
100
AcDbEntity
  8
IMPORT_IGES
100
AcDbLine
 62
7
  6
CONTINUOUS
 10
20.1215688944
 20
-30.7145704442
 11
20.0694851637
 21
-30.6081874782
  0
LINE
  5
5B6
100
AcDbEntity
  8
IMPORT_IGES
100
AcDbLine
 62
7
  6
CONTINUOUS
 10
16.0590686709
 20
-31.0337193796
 11
15.3299020291
 21
-29.0656342098
  0
LINE
  5
5B7
100
AcDbEntity
  8
IMPORT_IGES
100
AcDbLine
 62
7
  6
CONTINUOUS
 10
15.4861520291
 20
-28.5337193796
 11
16.2674020291
 21
-30.7677619272
  0
LINE
  5
5B8
100
AcDbEntity
  8
IMPORT_IGES
100
AcDbLine
 62
7
  6
CONTINUOUS
 10
5.4174020291
 20
-14.5337193796
 11
5.4174020291
 21
-17.2899471601
  0
LINE
  5
5B9
100
AcDbEntity
  8
IMPORT_IGES
100
AcDbLine
 62
7
  6
CONTINUOUS
 10
5.4174020291
 20
-34.0337193796
 11
5.4174020291
 21
-37.4334217684
  0
LINE
  5
5BA
100
AcDbEntity
  8
IMPORT_IGES
100
AcDbLine
 62
7
  6
CONTINUOUS
 10
6.1174020291
 20
-17.5337193796
 11
6.1174020291
 21
-17.2899471601
  0
LINE
  5
5BB
100
AcDbEntity
  8
IMPORT_IGES
100
AcDbLine
 62
7
  6
CONTINUOUS
 10
7.2174020291
 20
-34.0337193796
 11
7.2174020291
 21
-18.5337193796
  0
LINE
  5
5BC
100
AcDbEntity
  8
IMPORT_IGES
100
AcDbLine
 62
7
  6
CONTINUOUS
 10
9.0174020291
 20
-34.0337193796
 11
9.0174020291
 21
-19.0337193796
  0
LINE
  5
5BD
100
AcDbEntity
  8
IMPORT_IGES
100
AcDbLine
 62
7
  6
CONTINUOUS
 10
9.0174020291
 20
-37.722096903
 11
9.0174020291
 21
-41.0337193796
  0
LINE
  5
5BE
100
AcDbEntity
  8
IMPORT_IGES
100
AcDbLine
 62
253
  6
CONTINUOUS
 10
9.5174020291
 20
-37.4334217684
 11
9.5174020291
 21
-41.5337193796
  0
LINE
  5
5BF
100
AcDbEntity
  8
IMPORT_IGES
100
AcDbLine
 62
7
  6
CONTINUOUS
 10
-54.3825979709
 20
9.9662806204
 11
-54.4325979709
 21
9.9662806204
  0
LINE
  5
5C0
100
AcDbEntity
  8
IMPORT_IGES
100
AcDbLine
 62
7
  6
CONTINUOUS
 10
-36.1989809894
 20
32.1354474428
 11
-36.0738746214
 21
32.0537806204
  0
LINE
  5
5C1
100
AcDbEntity
  8
IMPORT_IGES
100
AcDbLine
 62
7
  6
CONTINUOUS
 10
-34.9062149816
 20
32.9112806204
 11
-35.0313213789
 21
32.9929474428
  0
LINE
  5
5C2
100
AcDbEntity
  8
IMPORT_IGES
100
AcDbLine
 62
7
  6
CONTINUOUS
 10
-36.1989809894
 20
33.932113798
 11
-36.0738746214
 21
33.8504474429
  0
LINE
  5
5C3
100
AcDbEntity
  8
IMPORT_IGES
100
AcDbLine
 62
7
  6
CONTINUOUS
 10
-34.9062149816
 20
34.7079469756
 11
-35.0313213789
 21
34.7896142653
  0
LINE
  5
5C4
100
AcDbEntity
  8
IMPORT_IGES
100
AcDbLine
 62
7
  6
CONTINUOUS
 10
-34.9062149817
 20
34.9529469755
 11
-34.7394064763
 21
34.8304469755
  0
LINE
  5
5C5
100
AcDbEntity
  8
IMPORT_IGES
100
AcDbLine
 62
7
  6
CONTINUOUS
 10
-35.7819596457
 20
39.5262806204
 11
-35.615151155
 21
39.4037806204
  0
LINE
  5
5C6
100
AcDbEntity
  8
IMPORT_IGES
100
AcDbLine
 62
7
  6
CONTINUOUS
 10
38.4028194905
 20
-29.650740672
 11
38.3507345677
 21
-29.597549189
  0
LINE
  5
5C7
100
AcDbEntity
  8
IMPORT_IGES
100
AcDbLine
 62
7
  6
CONTINUOUS
 10
38.5069845677
 20
-29.3847832569
 11
38.6632345677
 21
-29.544357706
  0
LINE
  5
5C8
100
AcDbEntity
  8
IMPORT_IGES
100
AcDbLine
 62
7
  6
CONTINUOUS
 10
40.1736520291
 20
-30.9273364042
 11
40.0174020291
 21
-30.7677619272
  0
LINE
  5
5C9
100
AcDbEntity
  8
IMPORT_IGES
100
AcDbLine
 62
7
  6
CONTINUOUS
 10
39.2361520291
 20
-29.650740672
 11
39.1840694905
 21
-29.597549189
  0
LINE
  5
5CA
100
AcDbEntity
  8
IMPORT_IGES
100
AcDbLine
 62
7
  6
CONTINUOUS
 10
39.3403194905
 20
-29.3847832569
 11
39.4444845677
 21
-29.491166223
  0
LINE
  5
5CB
100
AcDbEntity
  8
IMPORT_IGES
100
AcDbLine
 62
7
  6
CONTINUOUS
 10
41.3715694905
 20
-29.491166223
 11
41.4757345677
 21
-29.597549189
  0
LINE
  5
5CC
100
AcDbEntity
  8
IMPORT_IGES
100
AcDbLine
 62
7
  6
CONTINUOUS
 10
43.1944845677
 20
-29.7571236381
 11
43.0903194905
 21
-29.650740672
  0
LINE
  5
5CD
100
AcDbEntity
  8
IMPORT_IGES
100
AcDbLine
 62
7
  6
CONTINUOUS
 10
43.2986520291
 20
-29.491166223
 11
43.4028194905
 21
-29.597549189
  0
LINE
  5
5CE
100
AcDbEntity
  8
IMPORT_IGES
100
AcDbLine
 62
7
  6
CONTINUOUS
 10
32.1007357598
 20
-30.3954215088
 11
32.2049020291
 21
-30.5549959579
  0
LINE
  5
5CF
100
AcDbEntity
  8
IMPORT_IGES
100
AcDbLine
 62
7
  6
CONTINUOUS
 10
21.3715688944
 20
-29.544357706
 11
21.4236520291
 21
-29.650740672
  0
LINE
  5
5D0
100
AcDbEntity
  8
IMPORT_IGES
100
AcDbLine
 62
7
  6
CONTINUOUS
 10
22.2569851637
 20
-30.7145704442
 11
22.1528188944
 21
-30.5018044749
  0
LINE
  5
5D1
100
AcDbEntity
  8
IMPORT_IGES
100
AcDbLine
 62
7
  6
CONTINUOUS
 10
22.4132351637
 20
-30.4486129918
 11
22.4653188944
 21
-30.5549959579
  0
LINE
  5
5D2
100
AcDbEntity
  8
IMPORT_IGES
100
AcDbLine
 62
7
  6
CONTINUOUS
 10
20.2778188944
 20
-30.3422300258
 11
20.3819851637
 21
-30.6081874782
  0
LINE
  5
5D3
100
AcDbEntity
  8
IMPORT_IGES
100
AcDbLine
 62
7
  6
CONTINUOUS
 10
19.2882354617
 20
-30.9273364042
 11
19.2361520291
 21
-30.7677619272
  0
LINE
  5
5D4
100
AcDbEntity
  8
IMPORT_IGES
100
AcDbLine
 62
7
  6
CONTINUOUS
 10
19.5486520291
 20
-30.8741449119
 11
19.6007354617
 21
-31.0337193796
  0
LINE
  5
5D5
100
AcDbEntity
  8
IMPORT_IGES
100
AcDbLine
 62
7
  6
CONTINUOUS
 10
19.4444854617
 20
-29.597549189
 11
19.4965685964
 21
-29.7571236381
  0
LINE
  5
5D6
100
AcDbEntity
  8
IMPORT_IGES
100
AcDbLine
 62
253
  6
CONTINUOUS
 10
-54.3825979709
 20
15.8662806204
 11
-54.2825979709
 21
15.8662806204
  0
LINE
  5
5D7
100
AcDbEntity
  8
IMPORT_IGES
100
AcDbLine
 62
7
  6
CONTINUOUS
 10
-54.4325979709
 20
15.9662806204
 11
-54.3825979709
 21
15.9662806204
  0
LINE
  5
5D8
100
AcDbEntity
  8
IMPORT_IGES
100
AcDbLine
 62
7
  6
CONTINUOUS
 10
-44.6045416808
 20
35.9322632493
 11
-43.4895942864
 21
35.4677018349
  0
LINE
  5
5D9
100
AcDbEntity
  8
IMPORT_IGES
100
AcDbLine
 62
7
  6
CONTINUOUS
 10
-35.281534115
 20
40.7921142653
 11
-35.156427747
 21
40.7104469755
  0
LINE
  5
5DA
100
AcDbEntity
  8
IMPORT_IGES
100
AcDbLine
 62
7
  6
CONTINUOUS
 10
35.6424020291
 20
-29.544357706
 11
35.7986520291
 21
-29.7571236381
  0
LINE
  5
5DB
100
AcDbEntity
  8
IMPORT_IGES
100
AcDbLine
 62
7
  6
CONTINUOUS
 10
35.5903194905
 20
-29.8635066041
 11
35.4861520291
 21
-29.7039321551
  0
LINE
  5
5DC
100
AcDbEntity
  8
IMPORT_IGES
100
AcDbLine
 62
7
  6
CONTINUOUS
 10
31.8924020291
 20
-30.6613789612
 11
31.7882357598
 21
-30.4486129919
  0
LINE
  5
5DD
100
AcDbEntity
  8
IMPORT_IGES
100
AcDbLine
 62
7
  6
CONTINUOUS
 10
22.3611520291
 20
-30.2890385428
 11
22.4132351637
 21
-30.4486129918
  0
LINE
  5
5DE
100
AcDbEntity
  8
IMPORT_IGES
100
AcDbLine
 62
7
  6
CONTINUOUS
 10
17.9861520291
 20
-30.7677619272
 11
17.9340685964
 21
-30.5549959579
  0
LINE
  5
5DF
100
AcDbEntity
  8
IMPORT_IGES
100
AcDbLine
 62
7
  6
CONTINUOUS
 10
20.0694851637
 20
-30.6081874782
 11
20.0174020291
 21
-30.3954215088
  0
LINE
  5
5E0
100
AcDbEntity
  8
IMPORT_IGES
100
AcDbLine
 62
7
  6
CONTINUOUS
 10
19.4965685964
 20
-30.6081874782
 11
19.5486520291
 21
-30.8741449119
  0
LINE
  5
5E1
100
AcDbEntity
  8
IMPORT_IGES
100
AcDbLine
 62
7
  6
CONTINUOUS
 10
15.0174020291
 20
-31.0337193796
 11
15.0174020291
 21
-28.5337193796
  0
LINE
  5
5E2
100
AcDbEntity
  8
IMPORT_IGES
100
AcDbLine
 62
7
  6
CONTINUOUS
 10
15.3299020291
 20
-29.0656342098
 11
15.3299020291
 21
-31.0337193796
  0
LINE
  5
5E3
100
AcDbEntity
  8
IMPORT_IGES
100
AcDbLine
 62
7
  6
CONTINUOUS
 10
17.2049020291
 20
-31.0337193796
 11
17.2049020291
 21
-29.0656342098
  0
LINE
  5
5E4
100
AcDbEntity
  8
IMPORT_IGES
100
AcDbLine
 62
7
  6
CONTINUOUS
 10
17.5174020291
 20
-28.5337193796
 11
17.5174020291
 21
-31.0337193796
  0
LINE
  5
5E5
100
AcDbEntity
  8
IMPORT_IGES
100
AcDbLine
 62
7
  6
CONTINUOUS
 10
17.9340685964
 20
-30.5549959579
 11
17.9340685964
 21
-30.3954215088
  0
LINE
  5
5E6
100
AcDbEntity
  8
IMPORT_IGES
100
AcDbLine
 62
7
  6
CONTINUOUS
 10
17.9340685964
 20
-29.7571236381
 11
17.9340685964
 21
-29.650740672
  0
LINE
  5
5E7
100
AcDbEntity
  8
IMPORT_IGES
100
AcDbLine
 62
7
  6
CONTINUOUS
 10
18.1944854617
 20
-30.6081874782
 11
18.1944854617
 21
-30.5018044749
  0
LINE
  5
5E8
100
AcDbEntity
  8
IMPORT_IGES
100
AcDbLine
 62
7
  6
CONTINUOUS
 10
-53.7825979709
 20
17.0662806204
 11
-36.7825979709
 21
17.0662806204
  0
LINE
  5
5E9
100
AcDbEntity
  8
IMPORT_IGES
100
AcDbLine
 62
7
  6
CONTINUOUS
 10
36.2174020291
 20
17.0662806204
 11
53.2174020291
 21
17.0662806204
  0
LINE
  5
5EA
100
AcDbEntity
  8
IMPORT_IGES
100
AcDbLine
 62
7
  6
CONTINUOUS
 10
-54.3825979709
 20
17.4662806204
 11
-54.2825979709
 21
17.4662806204
  0
LINE
  5
5EB
100
AcDbEntity
  8
IMPORT_IGES
100
AcDbLine
 62
253
  6
CONTINUOUS
 10
53.7174020291
 20
17.5662806204
 11
35.7174020291
 21
17.5662806204
  0
LINE
  5
5EC
100
AcDbEntity
  8
IMPORT_IGES
100
AcDbLine
 62
253
  6
CONTINUOUS
 10
-36.2825979709
 20
17.5662806204
 11
-54.2825979709
 21
17.5662806204
  0
LINE
  5
5ED
100
AcDbEntity
  8
IMPORT_IGES
100
AcDbLine
 62
7
  6
CONTINUOUS
 10
49.7174020291
 20
19.0662806204
 11
39.7174020291
 21
19.0662806204
  0
LINE
  5
5EE
100
AcDbEntity
  8
IMPORT_IGES
100
AcDbLine
 62
7
  6
CONTINUOUS
 10
-40.2825979709
 20
19.0662806204
 11
-50.2825979709
 21
19.0662806204
  0
LINE
  5
5EF
100
AcDbEntity
  8
IMPORT_IGES
100
AcDbLine
 62
253
  6
CONTINUOUS
 10
39.7174020291
 20
21.0662806204
 11
49.7174020291
 21
21.0662806204
  0
LINE
  5
5F0
100
AcDbEntity
  8
IMPORT_IGES
100
AcDbLine
 62
253
  6
CONTINUOUS
 10
-40.2825979709
 20
21.0662806204
 11
-50.2825979709
 21
21.0662806204
  0
LINE
  5
5F1
100
AcDbEntity
  8
IMPORT_IGES
100
AcDbLine
 62
253
  6
CONTINUOUS
 10
51.5174020291
 20
21.2662806204
 11
49.7174020291
 21
21.2662806204
  0
LINE
  5
5F2
100
AcDbEntity
  8
IMPORT_IGES
100
AcDbLine
 62
253
  6
CONTINUOUS
 10
39.7174020291
 20
21.2662806204
 11
35.7174020291
 21
21.2662806204
  0
LINE
  5
5F3
100
AcDbEntity
  8
IMPORT_IGES
100
AcDbLine
 62
253
  6
CONTINUOUS
 10
-36.2825979709
 20
21.2662806204
 11
-40.2825979709
 21
21.2662806204
  0
LINE
  5
5F4
100
AcDbEntity
  8
IMPORT_IGES
100
AcDbLine
 62
253
  6
CONTINUOUS
 10
-50.2825979709
 20
21.2662806204
 11
-52.0825979709
 21
21.2662806204
  0
LINE
  5
5F5
100
AcDbEntity
  8
IMPORT_IGES
100
AcDbLine
 62
7
  6
CONTINUOUS
 10
-35.8236617684
 20
29.1954472092
 11
-35.9487681365
 21
29.2362806204
  0
LINE
  5
5F6
100
AcDbEntity
  8
IMPORT_IGES
100
AcDbLine
 62
7
  6
CONTINUOUS
 10
-35.9070660138
 20
29.4812806204
 11
-35.7819596457
 21
29.4404472092
  0
LINE
  5
5F7
100
AcDbEntity
  8
IMPORT_IGES
100
AcDbLine
 62
7
  6
CONTINUOUS
 10
-36.3657894802
 20
30.6246140316
 11
-35.2398319924
 21
30.2571140316
  0
LINE
  5
5F8
100
AcDbEntity
  8
IMPORT_IGES
100
AcDbLine
 62
7
  6
CONTINUOUS
 10
-35.0730235016
 20
30.2162806204
 11
-34.5725979709
 21
30.0529472092
  0
LINE
  5
5F9
100
AcDbEntity
  8
IMPORT_IGES
100
AcDbLine
 62
7
  6
CONTINUOUS
 10
-36.0738746214
 20
32.0537806204
 11
-35.9487681365
 21
32.0129474429
  0
LINE
  5
5FA
100
AcDbEntity
  8
IMPORT_IGES
100
AcDbLine
 62
7
  6
CONTINUOUS
 10
-35.4066405415
 20
32.0537806204
 11
-35.281534115
 21
32.0129474428
  0
LINE
  5
5FB
100
AcDbEntity
  8
IMPORT_IGES
100
AcDbLine
 62
7
  6
CONTINUOUS
 10
-35.0313213789
 20
32.9929474428
 11
-35.156427747
 21
33.0337806204
  0
LINE
  5
5FC
100
AcDbEntity
  8
IMPORT_IGES
100
AcDbLine
 62
7
  6
CONTINUOUS
 10
-36.0738746214
 20
33.8504474429
 11
-35.9487681365
 21
33.809613798
  0
LINE
  5
5FD
100
AcDbEntity
  8
IMPORT_IGES
100
AcDbLine
 62
7
  6
CONTINUOUS
 10
-34.5725979709
 20
29.8079472092
 11
-36.5325979709
 21
30.4612806204
  0
LINE
  5
5FE
100
AcDbEntity
  8
IMPORT_IGES
100
AcDbLine
 62
7
  6
CONTINUOUS
 10
-35.9904702592
 20
31.8087806204
 11
-36.1989809894
 21
31.8904474428
  0
LINE
  5
5FF
100
AcDbEntity
  8
IMPORT_IGES
100
AcDbLine
 62
7
  6
CONTINUOUS
 10
-35.1147256243
 20
33.2379474428
 11
-34.9062149817
 21
33.1562806204
  0
LINE
  5
600
100
AcDbEntity
  8
IMPORT_IGES
100
AcDbLine
 62
7
  6
CONTINUOUS
 10
-35.9904702592
 20
33.6054474428
 11
-36.1989809894
 21
33.687113798
  0
LINE
  5
601
100
AcDbEntity
  8
IMPORT_IGES
100
AcDbLine
 62
7
  6
CONTINUOUS
 10
-35.1147256243
 20
35.0346142653
 11
-34.9062149817
 21
34.9529469755
  0
LINE
  5
602
100
AcDbEntity
  8
IMPORT_IGES
100
AcDbLine
 62
7
  6
CONTINUOUS
 10
34.3403182984
 20
-30.7145704442
 11
34.2361520291
 21
-30.5018044749
  0
LINE
  5
603
100
AcDbEntity
  8
IMPORT_IGES
100
AcDbLine
 62
7
  6
CONTINUOUS
 10
34.4965682984
 20
-30.4486129918
 11
34.5486520291
 21
-30.5549959579
  0
LINE
  5
604
100
AcDbEntity
  8
IMPORT_IGES
100
AcDbLine
 62
7
  6
CONTINUOUS
 10
28.7153182984
 20
-29.597549189
 11
28.7674020291
 21
-29.7571236381
  0
LINE
  5
605
100
AcDbEntity
  8
IMPORT_IGES
100
AcDbLine
 62
7
  6
CONTINUOUS
 10
23.7153188944
 20
-29.7571236381
 11
23.7674020291
 21
-29.9698895702
  0
LINE
  5
606
100
AcDbEntity
  8
IMPORT_IGES
100
AcDbLine
 62
7
  6
CONTINUOUS
 10
22.1528188944
 20
-30.5018044749
 11
22.1007351637
 21
-30.1826555767
  0
LINE
  5
607
100
AcDbEntity
  8
IMPORT_IGES
100
AcDbLine
 62
7
  6
CONTINUOUS
 10
19.2361520291
 20
-29.9166980871
 11
19.2361520291
 21
-29.7571236381
  0
LINE
  5
608
100
AcDbEntity
  8
IMPORT_IGES
100
AcDbLine
 62
7
  6
CONTINUOUS
 10
19.2361520291
 20
-30.1294640937
 11
19.2361520291
 21
-30.4486129919
  0
LINE
  5
609
100
AcDbEntity
  8
IMPORT_IGES
100
AcDbLine
 62
7
  6
CONTINUOUS
 10
19.4965685964
 20
-29.7571236381
 11
19.4965685964
 21
-30.6081874782
  0
LINE
  5
60A
100
AcDbEntity
  8
IMPORT_IGES
100
AcDbLine
 62
7
  6
CONTINUOUS
 10
20.0174020291
 20
-30.3954215088
 11
20.0174020291
 21
-29.9698895702
  0
LINE
  5
60B
100
AcDbEntity
  8
IMPORT_IGES
100
AcDbLine
 62
7
  6
CONTINUOUS
 10
20.2778188944
 20
-30.3422300258
 11
20.2778188944
 21
-30.0230810532
  0
LINE
  5
60C
100
AcDbEntity
  8
IMPORT_IGES
100
AcDbLine
 62
7
  6
CONTINUOUS
 10
21.4236520291
 20
-31.0337193796
 11
21.4236520291
 21
-30.7145704442
  0
LINE
  5
60D
100
AcDbEntity
  8
IMPORT_IGES
100
AcDbLine
 62
7
  6
CONTINUOUS
 10
21.4236520291
 20
-29.650740672
 11
21.4236520291
 21
-28.5337193796
  0
LINE
  5
60E
100
AcDbEntity
  8
IMPORT_IGES
100
AcDbLine
 62
7
  6
CONTINUOUS
 10
21.4236520291
 20
-29.9166980871
 11
21.4236520291
 21
-30.4486129919
  0
LINE
  5
60F
100
AcDbEntity
  8
IMPORT_IGES
100
AcDbLine
 62
7
  6
CONTINUOUS
 10
21.6840688944
 20
-28.5337193796
 11
21.6840688944
 21
-31.0337193796
  0
LINE
  5
610
100
AcDbEntity
  8
IMPORT_IGES
100
AcDbLine
 62
7
  6
CONTINUOUS
 10
22.3611520291
 20
-30.1826555767
 11
22.3611520291
 21
-30.2890385428
  0
LINE
  5
611
100
AcDbEntity
  8
IMPORT_IGES
100
AcDbLine
 62
7
  6
CONTINUOUS
 10
22.4132351637
 20
-29.9698895702
 11
22.4132351637
 21
-29.9166980871
  0
LINE
  5
612
100
AcDbEntity
  8
IMPORT_IGES
100
AcDbLine
 62
7
  6
CONTINUOUS
 10
23.5069851637
 20
-29.8635066041
 11
23.5069851637
 21
-29.9698895702
  0
LWPOLYLINE
  5
613
100
AcDbEntity
  8
IMPORT_IGES
100
AcDbPolyline
 62
7
  6
CONTINUOUS
 90
8
 70
0
 10
1.5715998442
 20
-23.0920762651
 10
1.5745557782
 20
-23.0904836791
 10
1.5791844612
 20
-23.0882428959
 10
1.5782567644
 20
-23.0886020373
 10
1.5734300919
 20
-23.0903049273
 10
1.5649051462
 20
-23.0929939549
 10
1.5522625444
 20
-23.0965743456
 10
1.5365634791
 20
-23.1005990618
  0
LWPOLYLINE
  5
614
100
AcDbEntity
  8
IMPORT_IGES
100
AcDbPolyline
 62
7
  6
CONTINUOUS
 90
10
 70
0
 10
-2.1548636127
 20
-23.9863515657
 10
-2.1550889411
 20
-23.9864416947
 10
-2.1522671455
 20
-23.9854909005
 10
-2.1448867974
 20
-23.9832803707
 10
-2.1345569764
 20
-23.9805094027
 10
-2.1216200716
 20
-23.9773571758
 10
-2.1056813624
 20
-23.9737991029
 10
-2.087288945
 20
-23.9700115113
 10
-2.0665360245
 20
-23.9660423655
 10
-2.0432823815
 20
-23.9618895433
  0
LWPOLYLINE
  5
615
100
AcDbEntity
  8
IMPORT_IGES
100
AcDbPolyline
 62
7
  6
CONTINUOUS
 90
11
 70
0
 10
-2.1543235616
 20
-21.9861944848
 10
-2.1550389845
 20
-21.9864792131
 10
-2.1534608199
 20
-21.985926611
 10
-2.147416456
 20
-21.9840397808
 10
-2.1383847523
 20
-21.9815219502
 10
-2.1266766418
 20
-21.978565267
 10
-2.111908585
 20
-21.9751591885
 10
-2.0946215455
 20
-21.971493294
 10
-2.0748883566
 20
-21.9676183512
 10
-2.0525791506
 20
-21.9635371215
 10
-2.0279060436
 20
-21.9593101169
  0
LWPOLYLINE
  5
616
100
AcDbEntity
  8
IMPORT_IGES
100
AcDbPolyline
 62
7
  6
CONTINUOUS
 90
10
 70
0
 10
-2.1545542312
 20
-22.9862547529
 10
-2.1548491574
 20
-22.9863715555
 10
-2.1521711246
 20
-22.9854643802
 10
-2.1448395696
 20
-22.9832623838
 10
-2.1343530019
 20
-22.9804514177
 10
-2.1209812386
 20
-22.9772056425
 10
-2.1043566474
 20
-22.9735188606
 10
-2.0850937968
 20
-22.9695869858
 10
-2.0632780534
 20
-22.9654585658
 10
-2.0387743257
 20
-22.9611345061
  0
LWPOLYLINE
  5
617
100
AcDbEntity
  8
IMPORT_IGES
100
AcDbPolyline
 62
7
  6
CONTINUOUS
 90
3
 70
0
 10
1.5773724684
 20
-22.0889658064
 10
1.5754834014
 20
-22.0896341313
 10
1.5676494963
 20
-22.0921749201
  0
LINE
  5
618
100
AcDbEntity
  8
IMPORT_IGES
100
AcDbLine
 62
7
  6
CONTINUOUS
 10
1.5769908898
 20
-21.0890945479
 11
1.5755228619
 21
-21.089610415
  0
LWPOLYLINE
  5
619
100
AcDbEntity
  8
IMPORT_IGES
100
AcDbPolyline
 62
7
  6
CONTINUOUS
 90
17
 70
0
 10
1.5755228619
 20
-21.089610415
 10
1.5744727542
 20
-21.0899698053
 10
1.5659404274
 20
-21.0926876129
 10
1.5528405215
 20
-21.0964185181
 10
1.5365253649
 20
-21.1006121754
 10
1.5172874794
 20
-21.1051247732
 10
1.4948015252
 20
-21.1099757921
 10
1.4695024864
 20
-21.1150272615
 10
1.4414637229
 20
-21.1202393264
 10
1.4105765306
 20
-21.1256104937
 10
1.3769819947
 20
-21.1311004986
 10
1.3407102138
 20
-21.1366957374
 10
1.3017450116
 20
-21.1423916192
 10
1.260147583
 20
-21.1481737192
 10
1.2159330519
 20
-21.1540361142
 10
1.1691008996
 20
-21.1599758418
 10
1.1196729404
 20
-21.1659878363
  0
LWPOLYLINE
  5
61A
100
AcDbEntity
  8
IMPORT_IGES
100
AcDbPolyline
 62
253
  6
CONTINUOUS
 90
3
 70
0
 10
1.9182725951
 20
-21.3189073052
 10
1.8595045256
 20
-21.3362020047
 10
1.7788342371
 20
-21.3534522024
  0
LWPOLYLINE
  5
61B
100
AcDbEntity
  8
IMPORT_IGES
100
AcDbPolyline
 62
7
  6
CONTINUOUS
 90
10
 70
0
 10
-2.2743618595
 20
-21.5023300702
 10
-2.2967604625
 20
-21.508881562
 10
-2.3195037992
 20
-21.516374069
 10
-2.3424614018
 20
-21.5250338634
 10
-2.3657106787
 20
-21.5352384524
 10
-2.3909383529
 20
-21.5484087114
 10
-2.4188660185
 20
-21.5663336454
 10
-2.4473128781
 20
-21.5895955134
 10
-2.4735919203
 20
-21.6178853997
 10
-2.4825979709
 20
-21.6310558744
  0
LWPOLYLINE
  5
61C
100
AcDbEntity
  8
IMPORT_IGES
100
AcDbPolyline
 62
7
  6
CONTINUOUS
 90
3
 70
0
 10
1.5676494963
 20
-22.0921749201
 10
1.5551309946
 20
-22.0957959653
 10
1.5390966284
 20
-22.0999702412
  0
LWPOLYLINE
  5
61D
100
AcDbEntity
  8
IMPORT_IGES
100
AcDbPolyline
 62
7
  6
CONTINUOUS
 90
12
 70
0
 10
-53.8480766914
 20
22.0660275172
 10
-53.9123267457
 20
22.0651268067
 10
-53.9742529832
 20
22.0636146719
 10
-54.0327758452
 20
22.0615906068
 10
-54.0869526914
 20
22.0590855528
 10
-54.135966308
 20
22.0560547216
 10
-54.178977271
 20
22.0526186831
 10
-54.2152575407
 20
22.0488737261
 10
-54.2442391947
 20
22.0447506801
 10
-54.2653888428
 20
22.040319263
 10
-54.2782675703
 20
22.0357904403
 10
-54.2825979709
 20
22.0313172142
  0
LINE
  5
61E
100
AcDbEntity
  8
IMPORT_IGES
100
AcDbLine
 62
7
  6
CONTINUOUS
 10
35.7174020291
 20
21.7662806204
 11
51.8173802637
 21
21.7662806204
  0
LINE
  5
61F
100
AcDbEntity
  8
IMPORT_IGES
100
AcDbLine
 62
7
  6
CONTINUOUS
 10
-36.2825979709
 20
21.7662806204
 11
-52.3825762056
 21
21.7662806204
  0
LINE
  5
620
100
AcDbEntity
  8
IMPORT_IGES
100
AcDbLine
 62
7
  6
CONTINUOUS
 10
-52.5825979709
 20
22.0662806204
 11
-53.8480766914
 21
22.0660275172
  0
LINE
  5
621
100
AcDbEntity
  8
IMPORT_IGES
100
AcDbLine
 62
7
  6
CONTINUOUS
 10
53.2174020291
 20
22.0662806062
 11
52.0174020291
 21
22.0662806204
  0
LWPOLYLINE
  5
622
100
AcDbEntity
  8
IMPORT_IGES
100
AcDbPolyline
 62
7
  6
CONTINUOUS
 90
13
 70
0
 10
53.2174020291
 20
22.0662806348
 10
53.2828807254
 20
22.0659320789
 10
53.3471307594
 20
22.0650411922
 10
53.4090569813
 20
22.0636079745
 10
53.4675798328
 20
22.0615907012
 10
53.5217566739
 20
22.0590310969
 10
53.5707702914
 20
22.0560543362
 10
53.61378126
 20
22.052641648
 10
53.6500615399
 20
22.0488118033
 10
53.6790432088
 20
22.0447462892
 10
53.7001928741
 20
22.0405056015
 10
53.7130716174
 20
22.0360292444
 10
53.7174020291
 20
22.0313172181
  0
LINE
  5
623
100
AcDbEntity
  8
IMPORT_IGES
100
AcDbLine
 62
7
  6
CONTINUOUS
 10
-35.9487681365
 20
32.0129474429
 11
-35.6985554003
 21
31.972113798
  0
LINE
  5
624
100
AcDbEntity
  8
IMPORT_IGES
100
AcDbLine
 62
7
  6
CONTINUOUS
 10
-35.4066405415
 20
33.8504474429
 11
-35.281534115
 21
33.809613798
  0
LINE
  5
625
100
AcDbEntity
  8
IMPORT_IGES
100
AcDbLine
 62
7
  6
CONTINUOUS
 10
-35.0313213789
 20
34.7896142653
 11
-35.156427747
 21
34.8304469755
  0
LINE
  5
626
100
AcDbEntity
  8
IMPORT_IGES
100
AcDbLine
 62
7
  6
CONTINUOUS
 10
38.4549020291
 20
-29.7571236381
 11
38.4028194905
 21
-29.650740672
  0
LINE
  5
627
100
AcDbEntity
  8
IMPORT_IGES
100
AcDbLine
 62
7
  6
CONTINUOUS
 10
39.2882345677
 20
-29.7571236381
 11
39.2361520291
 21
-29.650740672
  0
LINE
  5
628
100
AcDbEntity
  8
IMPORT_IGES
100
AcDbLine
 62
7
  6
CONTINUOUS
 10
40.2257345677
 20
-30.6081874782
 11
40.2778194905
 21
-30.7145704442
  0
LINE
  5
629
100
AcDbEntity
  8
IMPORT_IGES
100
AcDbLine
 62
7
  6
CONTINUOUS
 10
41.3715694905
 20
-31.0337193796
 11
41.3194845677
 21
-30.9273364042
  0
LINE
  5
62A
100
AcDbEntity
  8
IMPORT_IGES
100
AcDbLine
 62
7
  6
CONTINUOUS
 10
41.2674020291
 20
-29.7571236381
 11
41.2153194905
 21
-29.650740672
  0
LINE
  5
62B
100
AcDbEntity
  8
IMPORT_IGES
100
AcDbLine
 62
7
  6
CONTINUOUS
 10
33.4549020291
 20
-29.1720173248
 11
33.4028182984
 21
-29.0124427268
  0
LINE
  5
62C
100
AcDbEntity
  8
IMPORT_IGES
100
AcDbLine
 62
7
  6
CONTINUOUS
 10
34.4444857598
 20
-30.2890385428
 11
34.4965682984
 21
-30.4486129918
  0
LINE
  5
62D
100
AcDbEntity
  8
IMPORT_IGES
100
AcDbLine
 62
7
  6
CONTINUOUS
 10
32.0486520291
 20
-30.1826555767
 11
32.1007357598
 21
-30.3954215088
  0
LINE
  5
62E
100
AcDbEntity
  8
IMPORT_IGES
100
AcDbLine
 62
7
  6
CONTINUOUS
 10
28.5590682984
 20
-30.0230810532
 11
28.5069857598
 21
-29.7571236381
  0
LINE
  5
62F
100
AcDbEntity
  8
IMPORT_IGES
100
AcDbLine
 62
7
  6
CONTINUOUS
 10
28.7674020291
 20
-29.7571236381
 11
28.8194857598
 21
-30.0230810532
  0
LINE
  5
630
100
AcDbEntity
  8
IMPORT_IGES
100
AcDbLine
 62
7
  6
CONTINUOUS
 10
23.7674020291
 20
-29.9698895702
 11
23.7674020291
 21
-30.1826555767
  0
LINE
  5
631
100
AcDbEntity
  8
IMPORT_IGES
100
AcDbLine
 62
7
  6
CONTINUOUS
 10
26.6840682984
 20
-31.0337193796
 11
26.6840682984
 21
-29.3315917739
  0
LINE
  5
632
100
AcDbEntity
  8
IMPORT_IGES
100
AcDbLine
 62
7
  6
CONTINUOUS
 10
26.6840682984
 20
-28.7996767947
 11
26.6840682984
 21
-28.5337193796
  0
LINE
  5
633
100
AcDbEntity
  8
IMPORT_IGES
100
AcDbLine
 62
7
  6
CONTINUOUS
 10
26.9444857598
 20
-28.5337193796
 11
26.9444857598
 21
-28.7996767947
  0
LINE
  5
634
100
AcDbEntity
  8
IMPORT_IGES
100
AcDbLine
 62
7
  6
CONTINUOUS
 10
26.9444857598
 20
-29.3315917739
 11
26.9444857598
 21
-31.0337193796
  0
LINE
  5
635
100
AcDbEntity
  8
IMPORT_IGES
100
AcDbLine
 62
7
  6
CONTINUOUS
 10
27.3611520291
 20
-31.0337193796
 11
27.3611520291
 21
-29.3315917739
  0
LINE
  5
636
100
AcDbEntity
  8
IMPORT_IGES
100
AcDbLine
 62
7
  6
CONTINUOUS
 10
27.6215682984
 20
-29.3315917739
 11
27.6215682984
 21
-29.597549189
  0
LINE
  5
637
100
AcDbEntity
  8
IMPORT_IGES
100
AcDbLine
 62
7
  6
CONTINUOUS
 10
27.6215682984
 20
-29.8103151211
 11
27.6215682984
 21
-31.0337193796
  0
LINE
  5
638
100
AcDbEntity
  8
IMPORT_IGES
100
AcDbLine
 62
7
  6
CONTINUOUS
 10
22.1007351637
 20
-30.1826555767
 11
22.1528188944
 21
-29.8635066041
  0
LINE
  5
639
100
AcDbEntity
  8
IMPORT_IGES
100
AcDbLine
 62
7
  6
CONTINUOUS
 10
20.0174020291
 20
-29.9698895702
 11
20.0694851637
 21
-29.7571236381
  0
LINE
  5
63A
100
AcDbEntity
  8
IMPORT_IGES
100
AcDbLine
 62
7
  6
CONTINUOUS
 10
18.2465685964
 20
-30.3422300258
 11
18.1944854617
 21
-30.5018044749
  0
LINE
  5
63B
100
AcDbEntity
  8
IMPORT_IGES
100
AcDbLine
 62
7
  6
CONTINUOUS
 10
16.2674020291
 20
-30.7677619272
 11
17.0486520291
 21
-28.5337193796
  0
LINE
  5
63C
100
AcDbEntity
  8
IMPORT_IGES
100
AcDbLine
 62
7
  6
CONTINUOUS
 10
17.2049020291
 20
-29.0656342098
 11
16.4757353127
 21
-31.0337193796
  0
LWPOLYLINE
  5
63D
100
AcDbEntity
  8
IMPORT_IGES
100
AcDbPolyline
 62
7
  6
CONTINUOUS
 90
15
 70
0
 10
1.5711397277
 20
-25.0923341436
 10
1.5744491538
 20
-25.0905323663
 10
1.579381949
 20
-25.0881313316
 10
1.5785129844
 20
-25.0884671647
 10
1.5734728628
 20
-25.090244632
 10
1.5643624008
 20
-25.0931066725
 10
1.55071342
 20
-25.0969426089
 10
1.5336347899
 20
-25.1012734297
 10
1.5132764892
 20
-25.1059778898
 10
1.4893368974
 20
-25.1110551012
 10
1.4623212451
 20
-25.1163464064
 10
1.432326916
 20
-25.1218074351
 10
1.3992479019
 20
-25.1274380347
 10
1.3633184365
 20
-25.1331840286
 10
1.3245984322
 20
-25.1390279789
  0
LWPOLYLINE
  5
63E
100
AcDbEntity
  8
IMPORT_IGES
100
AcDbPolyline
 62
7
  6
CONTINUOUS
 90
8
 70
0
 10
1.5710465418
 20
-26.0924004605
 10
1.5743993604
 20
-26.0905760428
 10
1.5794037155
 20
-26.0881408873
 10
1.5785394067
 20
-26.0884692104
 10
1.5734118616
 20
-26.0902670835
 10
1.5640960972
 20
-26.0931772503
 10
1.5501484005
 20
-26.097074352
 10
1.5327352312
 20
-26.1014648184
  0
LWPOLYLINE
  5
63F
100
AcDbEntity
  8
IMPORT_IGES
100
AcDbPolyline
 62
7
  6
CONTINUOUS
 90
14
 70
0
 10
-2.1548083412
 20
-24.986344586
 10
-2.1550114491
 20
-24.9864265724
 10
-2.1520804637
 20
-24.9854377467
 10
-2.1444422486
 20
-24.9831519043
 10
-2.1336332768
 20
-24.9802626151
 10
-2.1199208465
 20
-24.9769437602
 10
-2.1029016843
 20
-24.9731828207
 10
-2.0831785329
 20
-24.9691755259
 10
-2.0608221534
 20
-24.964970107
 10
-2.0356871037
 20
-24.9605681546
 10
-2.0080872259
 20
-24.9560435233
 10
-1.97809255
 20
-24.9514161221
 10
-1.9456574944
 20
-24.9466857088
 10
-1.9109450857
 20
-24.9418804723
  0
LWPOLYLINE
  5
640
100
AcDbEntity
  8
IMPORT_IGES
100
AcDbPolyline
 62
7
  6
CONTINUOUS
 90
11
 70
0
 10
-2.1540076185
 20
-26.9859947416
 10
-2.1549436643
 20
-26.9863720139
 10
-2.1539639661
 20
-26.9860242466
 10
-2.1484813547
 20
-26.9842828586
 10
-2.1400684129
 20
-26.9818990272
 10
-2.1290474921
 20
-26.9790711321
 10
-2.1150346419
 20
-26.9757880482
 10
-2.0986536527
 20
-26.9722583368
 10
-2.080020672
 20
-26.9685368701
 10
-2.0590181469
 20
-26.9646249584
 10
-2.0359187312
 20
-26.9605914438
  0
LWPOLYLINE
  5
641
100
AcDbEntity
  8
IMPORT_IGES
100
AcDbPolyline
 62
7
  6
CONTINUOUS
 90
11
 70
0
 10
-2.1543023499
 20
-27.9860751548
 10
-2.1550516783
 20
-27.9863723391
 10
-2.1537590105
 20
-27.985918112
 10
-2.14826058
 20
-27.9841913326
 10
-2.140033231
 20
-27.9818754789
 10
-2.1293778721
 20
-27.979147582
 10
-2.1159650626
 20
-27.9759985224
 10
-2.1003854751
 20
-27.9726209032
 10
-2.0827468997
 20
-27.9690652492
 10
-2.0629282595
 20
-27.9653302489
 10
-2.041159686
 20
-27.9614768704
  0
LWPOLYLINE
  5
642
100
AcDbEntity
  8
IMPORT_IGES
100
AcDbPolyline
 62
7
  6
CONTINUOUS
 90
10
 70
0
 10
-2.1545197574
 20
-25.9862129025
 10
-2.1551895006
 20
-25.9864783622
 10
-2.1532001345
 20
-25.9857886799
 10
-2.1463522026
 20
-25.9836841799
 10
-2.1362081951
 20
-25.980909414
 10
-2.1230068796
 20
-25.977649142
 10
-2.106339815
 20
-25.9739015
 10
-2.0869220503
 20
-25.9698969684
 10
-2.0648825055
 20
-25.9656966198
 10
-2.0400410308
 20
-25.9612952609
  0
LWPOLYLINE
  5
643
100
AcDbEntity
  8
IMPORT_IGES
100
AcDbPolyline
 62
7
  6
CONTINUOUS
 90
5
 70
0
 10
1.5776368822
 20
-24.0888076082
 10
1.5759922172
 20
-24.0893969907
 10
1.5691241774
 20
-24.0916663917
 10
1.5582139289
 20
-24.0949019261
 10
1.5444061159
 20
-24.098607469
  0
LWPOLYLINE
  5
644
100
AcDbEntity
  8
IMPORT_IGES
100
AcDbPolyline
 62
7
  6
CONTINUOUS
 90
5
 70
0
 10
1.5762847277
 20
-27.0892873159
 10
1.5736954123
 20
-27.0901774344
 10
1.5646990393
 20
-27.0930068223
 10
1.5510552709
 20
-27.0968388042
 10
1.5339027871
 20
-27.1011820791
  0
LINE
  5
645
100
AcDbEntity
  8
IMPORT_IGES
100
AcDbLine
 62
7
  6
CONTINUOUS
 10
1.6902095541
 20
-22.5752200029
 11
1.7174020291
 21
-22.5671816347
  0
LINE
  5
646
100
AcDbEntity
  8
IMPORT_IGES
100
AcDbLine
 62
7
  6
CONTINUOUS
 10
-36.5325979709
 20
27.970447326
 11
-34.5725979709
 21
27.970447326
  0
LINE
  5
647
100
AcDbEntity
  8
IMPORT_IGES
100
AcDbLine
 62
7
  6
CONTINUOUS
 10
-36.3240873575
 20
28.215447326
 11
-35.6985554003
 21
28.215447326
  0
LINE
  5
648
100
AcDbEntity
  8
IMPORT_IGES
100
AcDbLine
 62
7
  6
CONTINUOUS
 10
-34.5725979709
 20
28.215447326
 11
-35.4483426642
 21
28.215447326
  0
LINE
  5
649
100
AcDbEntity
  8
IMPORT_IGES
100
AcDbLine
 62
7
  6
CONTINUOUS
 10
-35.9487681365
 20
29.2362806204
 11
-36.0738746214
 21
29.2362806204
  0
LINE
  5
64A
100
AcDbEntity
  8
IMPORT_IGES
100
AcDbLine
 62
7
  6
CONTINUOUS
 10
-35.9070660138
 20
29.4812806204
 11
-36.0738746214
 21
29.4812806204
  0
LINE
  5
64B
100
AcDbEntity
  8
IMPORT_IGES
100
AcDbLine
 62
7
  6
CONTINUOUS
 10
-35.6985554003
 20
31.7679474428
 11
-35.9904702592
 21
31.8087806204
  0
LINE
  5
64C
100
AcDbEntity
  8
IMPORT_IGES
100
AcDbLine
 62
7
  6
CONTINUOUS
 10
-35.6985554004
 20
33.564613798
 11
-35.9904702592
 21
33.6054474428
  0
LINE
  5
64D
100
AcDbEntity
  8
IMPORT_IGES
100
AcDbLine
 62
7
  6
CONTINUOUS
 10
-35.9487681365
 20
33.809613798
 11
-35.6985554003
 21
33.7687806204
  0
LINE
  5
64E
100
AcDbEntity
  8
IMPORT_IGES
100
AcDbLine
 62
7
  6
CONTINUOUS
 10
-35.8236617684
 20
39.2812806204
 11
-35.9487681365
 21
39.3221142653
  0
LINE
  5
64F
100
AcDbEntity
  8
IMPORT_IGES
100
AcDbLine
 62
7
  6
CONTINUOUS
 10
-35.9070660138
 20
39.5671142653
 11
-35.7819596457
 21
39.5262806204
  0
LINE
  5
650
100
AcDbEntity
  8
IMPORT_IGES
100
AcDbLine
 62
7
  6
CONTINUOUS
 10
44.2361520291
 20
-29.3315917739
 11
44.8090694905
 21
-30.4486129919
  0
LINE
  5
651
100
AcDbEntity
  8
IMPORT_IGES
100
AcDbLine
 62
7
  6
CONTINUOUS
 10
44.6528194905
 20
-30.8209534289
 11
43.9236520291
 21
-29.3315917739
  0
LINE
  5
652
100
AcDbEntity
  8
IMPORT_IGES
100
AcDbLine
 62
7
  6
CONTINUOUS
 10
39.4444845677
 20
-29.491166223
 11
39.5486520291
 21
-29.7571236381
  0
LINE
  5
653
100
AcDbEntity
  8
IMPORT_IGES
100
AcDbLine
 62
7
  6
CONTINUOUS
 10
35.7986520291
 20
-29.7571236381
 11
35.8507345677
 21
-29.9698895702
  0
LINE
  5
654
100
AcDbEntity
  8
IMPORT_IGES
100
AcDbLine
 62
7
  6
CONTINUOUS
 10
31.7882357598
 20
-30.4486129919
 11
31.7361520291
 21
-30.1826555767
  0
LINE
  5
655
100
AcDbEntity
  8
IMPORT_IGES
100
AcDbLine
 62
7
  6
CONTINUOUS
 10
33.7153182984
 20
-28.9060597607
 11
33.7674020291
 21
-29.1720173248
  0
LINE
  5
656
100
AcDbEntity
  8
IMPORT_IGES
100
AcDbLine
 62
7
  6
CONTINUOUS
 10
28.5590682984
 20
-31.0337193796
 11
28.5590682984
 21
-30.0230810532
  0
LINE
  5
657
100
AcDbEntity
  8
IMPORT_IGES
100
AcDbLine
 62
7
  6
CONTINUOUS
 10
28.8194857598
 20
-30.0230810532
 11
28.8194857598
 21
-31.0337193796
  0
LINE
  5
658
100
AcDbEntity
  8
IMPORT_IGES
100
AcDbLine
 62
7
  6
CONTINUOUS
 10
31.7361520291
 20
-30.1826555767
 11
31.7361520291
 21
-29.3847832569
  0
LINE
  5
659
100
AcDbEntity
  8
IMPORT_IGES
100
AcDbLine
 62
7
  6
CONTINUOUS
 10
32.0486520291
 20
-29.3847832569
 11
32.0486520291
 21
-30.1826555767
  0
LINE
  5
65A
100
AcDbEntity
  8
IMPORT_IGES
100
AcDbLine
 62
7
  6
CONTINUOUS
 10
32.9861520291
 20
-29.9698895702
 11
32.9861520291
 21
-29.650740672
  0
LINE
  5
65B
100
AcDbEntity
  8
IMPORT_IGES
100
AcDbLine
 62
7
  6
CONTINUOUS
 10
23.7674020291
 20
-30.5018044749
 11
23.7153188944
 21
-30.7145704442
  0
LINE
  5
65C
100
AcDbEntity
  8
IMPORT_IGES
100
AcDbLine
 62
7
  6
CONTINUOUS
 10
20.3299020291
 20
-29.8635066041
 11
20.2778188944
 21
-30.0230810532
  0
LINE
  5
65D
100
AcDbEntity
  8
IMPORT_IGES
100
AcDbLine
 62
7
  6
CONTINUOUS
 10
23.4549020291
 20
-30.6613789612
 11
23.5069851637
 21
-30.5018044749
  0
LINE
  5
65E
100
AcDbEntity
  8
IMPORT_IGES
100
AcDbLine
 62
7
  6
CONTINUOUS
 10
17.9340685964
 20
-29.650740672
 11
17.9861520291
 21
-29.544357706
  0
LINE
  5
65F
100
AcDbEntity
  8
IMPORT_IGES
100
AcDbLine
 62
7
  6
CONTINUOUS
 10
18.2465685964
 20
-29.650740672
 11
18.1944854617
 21
-29.7571236381
  0
LINE
  5
660
100
AcDbEntity
  8
IMPORT_IGES
100
AcDbLine
 62
7
  6
CONTINUOUS
 10
17.9340685964
 20
-30.3954215088
 11
18.0382354617
 21
-30.1826555767
  0
LINE
  5
661
100
AcDbEntity
  8
IMPORT_IGES
100
AcDbLine
 62
7
  6
CONTINUOUS
 10
19.1840685964
 20
-30.5549959579
 11
19.2361520291
 21
-30.4486129919
  0
LINE
  5
662
100
AcDbEntity
  8
IMPORT_IGES
100
AcDbLine
 62
7
  6
CONTINUOUS
 10
19.2361520291
 20
-30.7677619272
 11
19.1840685964
 21
-30.8741449119
  0
LINE
  5
663
100
AcDbEntity
  8
IMPORT_IGES
100
AcDbLine
 62
7
  6
CONTINUOUS
 10
20.0694851637
 20
-29.7571236381
 11
20.1215688944
 21
-29.650740672
  0
LWPOLYLINE
  5
664
100
AcDbEntity
  8
IMPORT_IGES
100
AcDbPolyline
 62
7
  6
CONTINUOUS
 90
5
 70
0
 10
1.5763886634
 20
-28.0892111689
 10
1.5738584455
 20
-28.0900861802
 10
1.5650527903
 20
-28.0928757491
 10
1.5516517834
 20
-28.096667734
 10
1.5347520709
 20
-28.1009750721
  0
LINE
  5
665
100
AcDbEntity
  8
IMPORT_IGES
100
AcDbLine
 62
7
  6
CONTINUOUS
 10
1.6920256384
 20
-27.5746512284
 11
1.7174020291
 21
-27.5670839957
  0
LINE
  5
666
100
AcDbEntity
  8
IMPORT_IGES
100
AcDbLine
 62
7
  6
CONTINUOUS
 10
-35.4066405415
 20
31.7679474428
 11
-35.6985554003
 21
31.7679474428
  0
LINE
  5
667
100
AcDbEntity
  8
IMPORT_IGES
100
AcDbLine
 62
7
  6
CONTINUOUS
 10
-35.6985554003
 20
31.972113798
 11
-35.615151155
 21
31.972113798
  0
LINE
  5
668
100
AcDbEntity
  8
IMPORT_IGES
100
AcDbLine
 62
7
  6
CONTINUOUS
 10
-35.156427747
 20
32.0129474428
 11
-35.281534115
 21
32.0129474428
  0
LINE
  5
669
100
AcDbEntity
  8
IMPORT_IGES
100
AcDbLine
 62
7
  6
CONTINUOUS
 10
-28.5360121164
 20
32.6797881033
 11
-27.7110121164
 21
32.6797881033
  0
LINE
  5
66A
100
AcDbEntity
  8
IMPORT_IGES
100
AcDbLine
 62
7
  6
CONTINUOUS
 10
-23.8610121164
 20
32.6797881033
 11
-23.0360121164
 21
32.6797881033
  0
LINE
  5
66B
100
AcDbEntity
  8
IMPORT_IGES
100
AcDbLine
 62
7
  6
CONTINUOUS
 10
-35.281534115
 20
33.0337806204
 11
-35.156427747
 21
33.0337806204
  0
LINE
  5
66C
100
AcDbEntity
  8
IMPORT_IGES
100
AcDbLine
 62
7
  6
CONTINUOUS
 10
-39.6848406163
 20
33.1623688142
 11
-39.0148406163
 21
33.1623688142
  0
LINE
  5
66D
100
AcDbEntity
  8
IMPORT_IGES
100
AcDbLine
 62
7
  6
CONTINUOUS
 10
-35.3232362961
 20
33.2379474428
 11
-35.1147256243
 21
33.2379474428
  0
LINE
  5
66E
100
AcDbEntity
  8
IMPORT_IGES
100
AcDbLine
 62
7
  6
CONTINUOUS
 10
-35.4066405415
 20
33.564613798
 11
-35.6985554004
 21
33.564613798
  0
LINE
  5
66F
100
AcDbEntity
  8
IMPORT_IGES
100
AcDbLine
 62
7
  6
CONTINUOUS
 10
-35.6985554003
 20
33.7687806204
 11
-35.615151155
 21
33.7687806204
  0
LINE
  5
670
100
AcDbEntity
  8
IMPORT_IGES
100
AcDbLine
 62
7
  6
CONTINUOUS
 10
-35.156427747
 20
33.809613798
 11
-35.281534115
 21
33.809613798
  0
LINE
  5
671
100
AcDbEntity
  8
IMPORT_IGES
100
AcDbLine
 62
7
  6
CONTINUOUS
 10
-40.3548406163
 20
34.3723688142
 11
-39.6848406163
 21
34.3723688142
  0
LINE
  5
672
100
AcDbEntity
  8
IMPORT_IGES
100
AcDbLine
 62
7
  6
CONTINUOUS
 10
-39.0148406163
 20
34.3723688142
 11
-38.3448406163
 21
34.3723688142
  0
LINE
  5
673
100
AcDbEntity
  8
IMPORT_IGES
100
AcDbLine
 62
7
  6
CONTINUOUS
 10
-35.2815341151
 20
34.8304469755
 11
-35.156427747
 21
34.8304469755
  0
LINE
  5
674
100
AcDbEntity
  8
IMPORT_IGES
100
AcDbLine
 62
7
  6
CONTINUOUS
 10
-35.3232362961
 20
35.0346142653
 11
-35.1147256243
 21
35.0346142653
  0
LINE
  5
675
100
AcDbEntity
  8
IMPORT_IGES
100
AcDbLine
 62
7
  6
CONTINUOUS
 10
-35.281534115
 20
35.3612806204
 11
-35.4900447869
 21
35.3612806204
  0
LINE
  5
676
100
AcDbEntity
  8
IMPORT_IGES
100
AcDbLine
 62
7
  6
CONTINUOUS
 10
41.3194845677
 20
-30.9273364042
 11
41.2674020291
 21
-30.7677619272
  0
LINE
  5
677
100
AcDbEntity
  8
IMPORT_IGES
100
AcDbLine
 62
7
  6
CONTINUOUS
 10
41.5799020291
 20
-30.8741449119
 11
41.6319845677
 21
-31.0337193796
  0
LINE
  5
678
100
AcDbEntity
  8
IMPORT_IGES
100
AcDbLine
 62
7
  6
CONTINUOUS
 10
41.4757345677
 20
-29.597549189
 11
41.5278194905
 21
-29.7571236381
  0
LINE
  5
679
100
AcDbEntity
  8
IMPORT_IGES
100
AcDbLine
 62
7
  6
CONTINUOUS
 10
43.4028194905
 20
-29.597549189
 11
43.4549020291
 21
-29.7571236381
  0
LINE
  5
67A
100
AcDbEntity
  8
IMPORT_IGES
100
AcDbLine
 62
7
  6
CONTINUOUS
 10
40.0174020291
 20
-30.7677619272
 11
39.9653194905
 21
-30.5549959579
  0
LINE
  5
67B
100
AcDbEntity
  8
IMPORT_IGES
100
AcDbLine
 62
7
  6
CONTINUOUS
 10
34.2361520291
 20
-30.5018044749
 11
34.1840682984
 21
-30.1826555767
  0
LINE
  5
67C
100
AcDbEntity
  8
IMPORT_IGES
100
AcDbLine
 62
7
  6
CONTINUOUS
 10
33.4549020291
 20
-30.3954215088
 11
33.4549020291
 21
-29.9698895702
  0
LINE
  5
67D
100
AcDbEntity
  8
IMPORT_IGES
100
AcDbLine
 62
7
  6
CONTINUOUS
 10
33.7674020291
 20
-29.650740672
 11
33.7674020291
 21
-30.4486129918
  0
LINE
  5
67E
100
AcDbEntity
  8
IMPORT_IGES
100
AcDbLine
 62
7
  6
CONTINUOUS
 10
34.4444857598
 20
-30.1826555767
 11
34.4444857598
 21
-30.2890385428
  0
LINE
  5
67F
100
AcDbEntity
  8
IMPORT_IGES
100
AcDbLine
 62
7
  6
CONTINUOUS
 10
34.4965682984
 20
-29.9698895702
 11
34.4965682984
 21
-29.9166980871
  0
LINE
  5
680
100
AcDbEntity
  8
IMPORT_IGES
100
AcDbLine
 62
7
  6
CONTINUOUS
 10
35.5903194905
 20
-29.8635066041
 11
35.5903194905
 21
-29.9698895702
  0
LINE
  5
681
100
AcDbEntity
  8
IMPORT_IGES
100
AcDbLine
 62
7
  6
CONTINUOUS
 10
35.7174020291
 20
21.7662806204
 11
35.7174020291
 21
17.5662806204
  0
LINE
  5
682
100
AcDbEntity
  8
IMPORT_IGES
100
AcDbLine
 62
7
  6
CONTINUOUS
 10
35.8507345677
 20
-29.9698895702
 11
35.8507345677
 21
-30.1826555767
  0
LINE
  5
683
100
AcDbEntity
  8
IMPORT_IGES
100
AcDbLine
 62
7
  6
CONTINUOUS
 10
36.2674020291
 20
-31.0337193796
 11
36.2674020291
 21
-29.3315917739
  0
LINE
  5
684
100
AcDbEntity
  8
IMPORT_IGES
100
AcDbLine
 62
7
  6
CONTINUOUS
 10
36.5278194905
 20
-29.3315917739
 11
36.5278194905
 21
-29.650740672
  0
LINE
  5
685
100
AcDbEntity
  8
IMPORT_IGES
100
AcDbLine
 62
7
  6
CONTINUOUS
 10
36.5278194905
 20
-29.9698895702
 11
36.5278194905
 21
-31.0337193796
  0
LINE
  5
686
100
AcDbEntity
  8
IMPORT_IGES
100
AcDbLine
 62
7
  6
CONTINUOUS
 10
37.2049020291
 20
-29.3315917739
 11
37.2049020291
 21
-29.597549189
  0
LINE
  5
687
100
AcDbEntity
  8
IMPORT_IGES
100
AcDbLine
 62
7
  6
CONTINUOUS
 10
37.6215694905
 20
-31.0337193796
 11
37.6215694905
 21
-29.3315917739
  0
LINE
  5
688
100
AcDbEntity
  8
IMPORT_IGES
100
AcDbLine
 62
7
  6
CONTINUOUS
 10
31.7361520291
 20
-29.3847832569
 11
31.7882357598
 21
-29.1188256928
  0
LINE
  5
689
100
AcDbEntity
  8
IMPORT_IGES
100
AcDbLine
 62
7
  6
CONTINUOUS
 10
21.4236520291
 20
-30.7145704442
 11
21.3715688944
 21
-30.8209534289
  0
LINE
  5
68A
100
AcDbEntity
  8
IMPORT_IGES
100
AcDbLine
 62
7
  6
CONTINUOUS
 10
22.1528188944
 20
-29.8635066041
 11
22.2569851637
 21
-29.650740672
  0
LINE
  5
68B
100
AcDbEntity
  8
IMPORT_IGES
100
AcDbLine
 62
7
  6
CONTINUOUS
 10
22.4653188944
 20
-29.8103151211
 11
22.4132351637
 21
-29.9166980871
  0
LINE
  5
68C
100
AcDbEntity
  8
IMPORT_IGES
100
AcDbLine
 62
7
  6
CONTINUOUS
 10
20.4340688944
 20
-29.7039321551
 11
20.3299020291
 21
-29.8635066041
  0
LINE
  5
68D
100
AcDbEntity
  8
IMPORT_IGES
100
AcDbLine
 62
7
  6
CONTINUOUS
 10
21.3194851637
 20
-30.6081874782
 11
21.4236520291
 21
-30.4486129919
  0
LINE
  5
68E
100
AcDbEntity
  8
IMPORT_IGES
100
AcDbLine
 62
7
  6
CONTINUOUS
 10
17.9861520291
 20
-29.544357706
 11
18.0903185964
 21
-29.4379747399
  0
LINE
  5
68F
100
AcDbEntity
  8
IMPORT_IGES
100
AcDbLine
 62
7
  6
CONTINUOUS
 10
18.0382354617
 20
-30.1826555767
 11
18.1424020291
 21
-30.0762725362
  0
LINE
  5
690
100
AcDbEntity
  8
IMPORT_IGES
100
AcDbLine
 62
7
  6
CONTINUOUS
 10
18.3507354617
 20
-30.2358470598
 11
18.2465685964
 21
-30.3422300258
  0
LINE
  5
691
100
AcDbEntity
  8
IMPORT_IGES
100
AcDbLine
 62
7
  6
CONTINUOUS
 10
19.0278185964
 20
-30.7145704442
 11
19.1840685964
 21
-30.5549959579
  0
LINE
  5
692
100
AcDbEntity
  8
IMPORT_IGES
100
AcDbLine
 62
7
  6
CONTINUOUS
 10
20.1215688944
 20
-29.650740672
 11
20.2778188944
 21
-29.491166223
  0
LINE
  5
693
100
AcDbEntity
  8
IMPORT_IGES
100
AcDbLine
 62
7
  6
CONTINUOUS
 10
20.2778188944
 20
-29.491166223
 11
20.4340688944
 21
-29.3847832569
  0
LINE
  5
694
100
AcDbEntity
  8
IMPORT_IGES
100
AcDbLine
 62
7
  6
CONTINUOUS
 10
19.1840685964
 20
-30.8741449119
 11
19.0278185964
 21
-30.9805278919
  0
LINE
  5
695
100
AcDbEntity
  8
IMPORT_IGES
100
AcDbLine
 62
7
  6
CONTINUOUS
 10
5.4174020291
 20
-37.4334217684
 11
4.688166132
 21
-37.8544463099
  0
LINE
  5
696
100
AcDbEntity
  8
IMPORT_IGES
100
AcDbLine
 62
7
  6
CONTINUOUS
 10
18.0903185964
 20
-29.4379747399
 11
18.1944854617
 21
-29.3847832569
  0
LINE
  5
697
100
AcDbEntity
  8
IMPORT_IGES
100
AcDbLine
 62
7
  6
CONTINUOUS
 10
18.3507354617
 20
-29.597549189
 11
18.2465685964
 21
-29.650740672
  0
LINE
  5
698
100
AcDbEntity
  8
IMPORT_IGES
100
AcDbLine
 62
7
  6
CONTINUOUS
 10
18.1424020291
 20
-30.0762725362
 11
18.3507354617
 21
-29.9698895702
  0
LINE
  5
699
100
AcDbEntity
  8
IMPORT_IGES
100
AcDbLine
 62
7
  6
CONTINUOUS
 10
18.4549020291
 20
-30.1826555767
 11
18.3507354617
 21
-30.2358470598
  0
LINE
  5
69A
100
AcDbEntity
  8
IMPORT_IGES
100
AcDbLine
 62
7
  6
CONTINUOUS
 10
20.6424020291
 20
-29.597549189
 11
20.4340688944
 21
-29.7039321551
  0
LINE
  5
69B
100
AcDbEntity
  8
IMPORT_IGES
100
AcDbLine
 62
7
  6
CONTINUOUS
 10
18.7674020291
 20
-30.8209534289
 11
19.0278185964
 21
-30.7145704442
  0
LINE
  5
69C
100
AcDbEntity
  8
IMPORT_IGES
100
AcDbLine
 62
7
  6
CONTINUOUS
 10
22.5174020291
 20
-29.4379747399
 11
22.6736520291
 21
-29.3847832569
  0
LINE
  5
69D
100
AcDbEntity
  8
IMPORT_IGES
100
AcDbLine
 62
7
  6
CONTINUOUS
 10
-35.1147256243
 20
31.8087806204
 11
-35.4066405415
 21
31.7679474428
  0
LINE
  5
69E
100
AcDbEntity
  8
IMPORT_IGES
100
AcDbLine
 62
7
  6
CONTINUOUS
 10
-35.1147256243
 20
33.6054474429
 11
-35.4066405415
 21
33.564613798
  0
LINE
  5
69F
100
AcDbEntity
  8
IMPORT_IGES
100
AcDbLine
 62
7
  6
CONTINUOUS
 10
-35.4900447869
 20
35.9329469755
 11
-35.281534115
 21
35.9329469755
  0
LINE
  5
6A0
100
AcDbEntity
  8
IMPORT_IGES
100
AcDbLine
 62
7
  6
CONTINUOUS
 10
-34.5725979709
 20
36.2596142653
 11
-36.5325979709
 21
36.2596142653
  0
LINE
  5
6A1
100
AcDbEntity
  8
IMPORT_IGES
100
AcDbLine
 62
7
  6
CONTINUOUS
 10
-36.2823852348
 20
36.5046142653
 11
-35.740257523
 21
36.5046142653
  0
LINE
  5
6A2
100
AcDbEntity
  8
IMPORT_IGES
100
AcDbLine
 62
7
  6
CONTINUOUS
 10
-35.4900447869
 20
36.5046142653
 11
-34.5725979709
 21
36.5046142653
  0
LINE
  5
6A3
100
AcDbEntity
  8
IMPORT_IGES
100
AcDbLine
 62
7
  6
CONTINUOUS
 10
-26.2010121164
 20
37.0797881033
 11
-25.3710121164
 21
37.0797881033
  0
LINE
  5
6A4
100
AcDbEntity
  8
IMPORT_IGES
100
AcDbLine
 62
7
  6
CONTINUOUS
 10
-28.5360121164
 20
37.3547881033
 11
-27.7060121164
 21
37.3547881033
  0
LINE
  5
6A5
100
AcDbEntity
  8
IMPORT_IGES
100
AcDbLine
 62
7
  6
CONTINUOUS
 10
-23.8660121164
 20
37.3547881033
 11
-23.0360121164
 21
37.3547881033
  0
LINE
  5
6A6
100
AcDbEntity
  8
IMPORT_IGES
100
AcDbLine
 62
7
  6
CONTINUOUS
 10
-35.740257523
 20
37.5662806204
 11
-35.4900447869
 21
37.5662806204
  0
LINE
  5
6A7
100
AcDbEntity
  8
IMPORT_IGES
100
AcDbLine
 62
7
  6
CONTINUOUS
 10
-36.5325979709
 20
37.7296142653
 11
-36.2823852348
 21
37.7296142653
  0
LINE
  5
6A8
100
AcDbEntity
  8
IMPORT_IGES
100
AcDbLine
 62
7
  6
CONTINUOUS
 10
-34.5725979709
 20
38.0562806204
 11
-36.5325979709
 21
38.0562806204
  0
LINE
  5
6A9
100
AcDbEntity
  8
IMPORT_IGES
100
AcDbLine
 62
7
  6
CONTINUOUS
 10
-35.4483426642
 20
38.3012806204
 11
-34.5725979709
 21
38.3012806204
  0
LINE
  5
6AA
100
AcDbEntity
  8
IMPORT_IGES
100
AcDbLine
 62
7
  6
CONTINUOUS
 10
-35.6985554003
 20
38.3012806204
 11
-36.3240873575
 21
38.3012806204
  0
LINE
  5
6AB
100
AcDbEntity
  8
IMPORT_IGES
100
AcDbLine
 62
7
  6
CONTINUOUS
 10
51.0174020291
 20
38.9662806204
 11
49.0174020291
 21
38.9662806204
  0
LINE
  5
6AC
100
AcDbEntity
  8
IMPORT_IGES
100
AcDbLine
 62
7
  6
CONTINUOUS
 10
-49.5825979709
 20
38.9662806204
 11
-51.5825979709
 21
38.9662806204
  0
LINE
  5
6AD
100
AcDbEntity
  8
IMPORT_IGES
100
AcDbLine
 62
7
  6
CONTINUOUS
 10
-52.0403392834
 20
39.2662806204
 11
-51.8825979709
 21
39.2662806204
  0
LINE
  5
6AE
100
AcDbEntity
  8
IMPORT_IGES
100
AcDbLine
 62
7
  6
CONTINUOUS
 10
51.3174020291
 20
39.2662806204
 11
51.4751433415
 21
39.2662806204
  0
LINE
  5
6AF
100
AcDbEntity
  8
IMPORT_IGES
100
AcDbLine
 62
7
  6
CONTINUOUS
 10
-36.0738746214
 20
39.3221142653
 11
-35.9487681365
 21
39.3221142653
  0
LINE
  5
6B0
100
AcDbEntity
  8
IMPORT_IGES
100
AcDbLine
 62
7
  6
CONTINUOUS
 10
-36.0738746214
 20
39.5671142653
 11
-35.9070660138
 21
39.5671142653
  0
LINE
  5
6B1
100
AcDbEntity
  8
IMPORT_IGES
100
AcDbLine
 62
7
  6
CONTINUOUS
 10
41.5278194905
 20
-30.6081874782
 11
41.5799020291
 21
-30.8741449119
  0
LINE
  5
6B2
100
AcDbEntity
  8
IMPORT_IGES
100
AcDbLine
 62
7
  6
CONTINUOUS
 10
43.2465694905
 20
-30.0230810532
 11
43.1944845677
 21
-29.7571236381
  0
LINE
  5
6B3
100
AcDbEntity
  8
IMPORT_IGES
100
AcDbLine
 62
7
  6
CONTINUOUS
 10
43.4549020291
 20
-29.7571236381
 11
43.5069845677
 21
-30.0230810532
  0
LINE
  5
6B4
100
AcDbEntity
  8
IMPORT_IGES
100
AcDbLine
 62
7
  6
CONTINUOUS
 10
37.8819845677
 20
-29.3315917739
 11
37.8819845677
 21
-29.491166223
  0
LINE
  5
6B5
100
AcDbEntity
  8
IMPORT_IGES
100
AcDbLine
 62
7
  6
CONTINUOUS
 10
37.8819845677
 20
-29.7039321551
 11
37.8819845677
 21
-31.0337193796
  0
LINE
  5
6B6
100
AcDbEntity
  8
IMPORT_IGES
100
AcDbLine
 62
7
  6
CONTINUOUS
 10
38.4549020291
 20
-31.0337193796
 11
38.4549020291
 21
-29.7571236381
  0
LINE
  5
6B7
100
AcDbEntity
  8
IMPORT_IGES
100
AcDbLine
 62
7
  6
CONTINUOUS
 10
38.7153194905
 20
-29.7571236381
 11
38.7153194905
 21
-31.0337193796
  0
LINE
  5
6B8
100
AcDbEntity
  8
IMPORT_IGES
100
AcDbLine
 62
7
  6
CONTINUOUS
 10
39.2882345677
 20
-31.0337193796
 11
39.2882345677
 21
-29.7571236381
  0
LINE
  5
6B9
100
AcDbEntity
  8
IMPORT_IGES
100
AcDbLine
 62
7
  6
CONTINUOUS
 10
39.5486520291
 20
-29.7571236381
 11
39.5486520291
 21
-31.0337193796
  0
LINE
  5
6BA
100
AcDbEntity
  8
IMPORT_IGES
100
AcDbLine
 62
7
  6
CONTINUOUS
 10
39.7174020291
 20
19.0662806204
 11
39.7174020291
 21
21.7662806204
  0
LINE
  5
6BB
100
AcDbEntity
  8
IMPORT_IGES
100
AcDbLine
 62
7
  6
CONTINUOUS
 10
39.9653194905
 20
-30.5549959579
 11
39.9653194905
 21
-30.3954215088
  0
LINE
  5
6BC
100
AcDbEntity
  8
IMPORT_IGES
100
AcDbLine
 62
7
  6
CONTINUOUS
 10
39.9653194905
 20
-29.7571236381
 11
39.9653194905
 21
-29.650740672
  0
LINE
  5
6BD
100
AcDbEntity
  8
IMPORT_IGES
100
AcDbLine
 62
7
  6
CONTINUOUS
 10
40.2257345677
 20
-30.6081874782
 11
40.2257345677
 21
-30.5018044749
  0
LINE
  5
6BE
100
AcDbEntity
  8
IMPORT_IGES
100
AcDbLine
 62
7
  6
CONTINUOUS
 10
41.2674020291
 20
-29.9166980871
 11
41.2674020291
 21
-29.7571236381
  0
LINE
  5
6BF
100
AcDbEntity
  8
IMPORT_IGES
100
AcDbLine
 62
7
  6
CONTINUOUS
 10
41.2674020291
 20
-30.1294640937
 11
41.2674020291
 21
-30.4486129919
  0
LINE
  5
6C0
100
AcDbEntity
  8
IMPORT_IGES
100
AcDbLine
 62
7
  6
CONTINUOUS
 10
41.5278194905
 20
-29.7571236381
 11
41.5278194905
 21
-30.6081874782
  0
LINE
  5
6C1
100
AcDbEntity
  8
IMPORT_IGES
100
AcDbLine
 62
7
  6
CONTINUOUS
 10
42.0486520291
 20
-31.0337193796
 11
42.0486520291
 21
-29.3315917739
  0
LINE
  5
6C2
100
AcDbEntity
  8
IMPORT_IGES
100
AcDbLine
 62
7
  6
CONTINUOUS
 10
42.3090694905
 20
-29.3315917739
 11
42.3090694905
 21
-29.597549189
  0
LINE
  5
6C3
100
AcDbEntity
  8
IMPORT_IGES
100
AcDbLine
 62
7
  6
CONTINUOUS
 10
42.3090694905
 20
-29.8103151211
 11
42.3090694905
 21
-31.0337193796
  0
LINE
  5
6C4
100
AcDbEntity
  8
IMPORT_IGES
100
AcDbLine
 62
7
  6
CONTINUOUS
 10
34.1840682984
 20
-30.1826555767
 11
34.2361520291
 21
-29.8635066041
  0
LINE
  5
6C5
100
AcDbEntity
  8
IMPORT_IGES
100
AcDbLine
 62
7
  6
CONTINUOUS
 10
32.1007357598
 20
-29.1720173248
 11
32.0486520291
 21
-29.3847832569
  0
LINE
  5
6C6
100
AcDbEntity
  8
IMPORT_IGES
100
AcDbLine
 62
7
  6
CONTINUOUS
 10
33.7674020291
 20
-30.4486129918
 11
33.7153182984
 21
-30.6613789612
  0
LINE
  5
6C7
100
AcDbEntity
  8
IMPORT_IGES
100
AcDbLine
 62
7
  6
CONTINUOUS
 10
33.4028182984
 20
-30.5549959579
 11
33.4549020291
 21
-30.3954215088
  0
LINE
  5
6C8
100
AcDbEntity
  8
IMPORT_IGES
100
AcDbLine
 62
7
  6
CONTINUOUS
 10
31.7882357598
 20
-29.1188256928
 11
31.8924020291
 21
-28.9060597607
  0
LINE
  5
6C9
100
AcDbEntity
  8
IMPORT_IGES
100
AcDbLine
 62
7
  6
CONTINUOUS
 10
22.2569851637
 20
-29.650740672
 11
22.3611520291
 21
-29.544357706
  0
LINE
  5
6CA
100
AcDbEntity
  8
IMPORT_IGES
100
AcDbLine
 62
7
  6
CONTINUOUS
 10
21.3715688944
 20
-30.8209534289
 11
21.2674020291
 21
-30.9273364042
  0
LINE
  5
6CB
100
AcDbEntity
  8
IMPORT_IGES
100
AcDbLine
 62
7
  6
CONTINUOUS
 10
22.6215688944
 20
-29.650740672
 11
22.4653188944
 21
-29.8103151211
  0
LINE
  5
6CC
100
AcDbEntity
  8
IMPORT_IGES
100
AcDbLine
 62
7
  6
CONTINUOUS
 10
23.7153188944
 20
-30.7145704442
 11
23.5590688944
 21
-30.8741449119
  0
LINE
  5
6CD
100
AcDbEntity
  8
IMPORT_IGES
100
AcDbLine
 62
7
  6
CONTINUOUS
 10
27.6215682984
 20
-29.597549189
 11
27.7257357598
 21
-29.491166223
  0
LINE
  5
6CE
100
AcDbEntity
  8
IMPORT_IGES
100
AcDbLine
 62
7
  6
CONTINUOUS
 10
27.7257357598
 20
-29.7039321551
 11
27.6215682984
 21
-29.8103151211
  0
LINE
  5
6CF
100
AcDbEntity
  8
IMPORT_IGES
100
AcDbLine
 62
7
  6
CONTINUOUS
 10
22.3611520291
 20
-29.544357706
 11
22.5174020291
 21
-29.4379747399
  0
LINE
  5
6D0
100
AcDbEntity
  8
IMPORT_IGES
100
AcDbLine
 62
7
  6
CONTINUOUS
 10
21.1632351637
 20
-30.7145704442
 11
21.3194851637
 21
-30.6081874782
  0
LINE
  5
6D1
100
AcDbEntity
  8
IMPORT_IGES
100
AcDbLine
 62
7
  6
CONTINUOUS
 10
23.2986520291
 20
-30.7677619272
 11
23.4549020291
 21
-30.6613789612
  0
LINE
  5
6D2
100
AcDbEntity
  8
IMPORT_IGES
100
AcDbLine
 62
7
  6
CONTINUOUS
 10
27.7257357598
 20
-29.491166223
 11
27.8819857598
 21
-29.3847832569
  0
LINE
  5
6D3
100
AcDbEntity
  8
IMPORT_IGES
100
AcDbLine
 62
7
  6
CONTINUOUS
 10
27.8819857598
 20
-29.597549189
 11
27.7257357598
 21
-29.7039321551
  0
LINE
  5
6D4
100
AcDbEntity
  8
IMPORT_IGES
100
AcDbLine
 62
7
  6
CONTINUOUS
 10
22.7257351637
 20
-29.597549189
 11
22.6215688944
 21
-29.650740672
  0
LINE
  5
6D5
100
AcDbEntity
  8
IMPORT_IGES
100
AcDbLine
 62
7
  6
CONTINUOUS
 10
21.2674020291
 20
-30.9273364042
 11
21.1632351637
 21
-30.9805278919
  0
LINE
  5
6D6
100
AcDbEntity
  8
IMPORT_IGES
100
AcDbLine
 62
7
  6
CONTINUOUS
 10
23.5590688944
 20
-30.8741449119
 11
23.3507351637
 21
-30.9805278919
  0
LINE
  5
6D7
100
AcDbEntity
  8
IMPORT_IGES
100
AcDbLine
 62
7
  6
CONTINUOUS
 10
32.1007357598
 20
-28.6932938286
 11
32.3090682984
 21
-28.5869108626
  0
LINE
  5
6D8
100
AcDbEntity
  8
IMPORT_IGES
100
AcDbLine
 62
7
  6
CONTINUOUS
 10
34.6007357598
 20
-29.4379747399
 11
34.7569857598
 21
-29.3847832569
  0
LINE
  5
6D9
100
AcDbEntity
  8
IMPORT_IGES
100
AcDbLine
 62
7
  6
CONTINUOUS
 10
36.7882345677
 20
-29.4379747399
 11
36.9444845677
 21
-29.3847832569
  0
LINE
  5
6DA
100
AcDbEntity
  8
IMPORT_IGES
100
AcDbLine
 62
7
  6
CONTINUOUS
 10
37.9861520291
 20
-29.3847832569
 11
38.1424020291
 21
-29.3315917739
  0
LINE
  5
6DB
100
AcDbEntity
  8
IMPORT_IGES
100
AcDbLine
 62
7
  6
CONTINUOUS
 10
38.1424020291
 20
-29.544357706
 11
37.9861520291
 21
-29.597549189
  0
LINE
  5
6DC
100
AcDbEntity
  8
IMPORT_IGES
100
AcDbLine
 62
7
  6
CONTINUOUS
 10
38.8194845677
 20
-29.3847832569
 11
38.9757345677
 21
-29.3315917739
  0
LINE
  5
6DD
100
AcDbEntity
  8
IMPORT_IGES
100
AcDbLine
 62
7
  6
CONTINUOUS
 10
51.3174020291
 20
40.9662806204
 11
51.5174020291
 21
40.9662806204
  0
LINE
  5
6DE
100
AcDbEntity
  8
IMPORT_IGES
100
AcDbLine
 62
7
  6
CONTINUOUS
 10
-51.8825979709
 20
40.9662806204
 11
-52.0825979709
 21
40.9662806204
  0
LINE
  5
6DF
100
AcDbEntity
  8
IMPORT_IGES
100
AcDbLine
 62
7
  6
CONTINUOUS
 10
51.5174020291
 20
41.1662806204
 11
51.3174020291
 21
41.1662806204
  0
LINE
  5
6E0
100
AcDbEntity
  8
IMPORT_IGES
100
AcDbLine
 62
7
  6
CONTINUOUS
 10
-51.8825979709
 20
41.1662806204
 11
-52.0825979709
 21
41.1662806204
  0
LINE
  5
6E1
100
AcDbEntity
  8
IMPORT_IGES
100
AcDbLine
 62
7
  6
CONTINUOUS
 10
51.3174020291
 20
44.6662806204
 11
50.6674020291
 21
44.6662806204
  0
LINE
  5
6E2
100
AcDbEntity
  8
IMPORT_IGES
100
AcDbLine
 62
7
  6
CONTINUOUS
 10
50.0674020291
 20
44.6662806204
 11
48.7174020291
 21
44.6662806204
  0
LINE
  5
6E3
100
AcDbEntity
  8
IMPORT_IGES
100
AcDbLine
 62
7
  6
CONTINUOUS
 10
-49.2825979709
 20
44.6662806204
 11
-50.6325979709
 21
44.6662806204
  0
LINE
  5
6E4
100
AcDbEntity
  8
IMPORT_IGES
100
AcDbLine
 62
7
  6
CONTINUOUS
 10
-51.2325979709
 20
44.6662806204
 11
-51.8825979709
 21
44.6662806204
  0
LINE
  5
6E5
100
AcDbEntity
  8
IMPORT_IGES
100
AcDbLine
 62
7
  6
CONTINUOUS
 10
-51.5825979709
 20
44.7662806204
 11
-51.3325979709
 21
44.7662806204
  0
LINE
  5
6E6
100
AcDbEntity
  8
IMPORT_IGES
100
AcDbLine
 62
7
  6
CONTINUOUS
 10
-50.5345053827
 20
44.7662806204
 11
-49.5825979709
 21
44.7662806204
  0
LINE
  5
6E7
100
AcDbEntity
  8
IMPORT_IGES
100
AcDbLine
 62
7
  6
CONTINUOUS
 10
49.0174020291
 20
44.7662806204
 11
49.9674020291
 21
44.7662806204
  0
LINE
  5
6E8
100
AcDbEntity
  8
IMPORT_IGES
100
AcDbLine
 62
7
  6
CONTINUOUS
 10
50.7662382077
 20
44.7662806204
 11
51.0174020291
 21
44.7662806204
  0
LINE
  5
6E9
100
AcDbEntity
  8
IMPORT_IGES
100
AcDbLine
 62
7
  6
CONTINUOUS
 10
42.7174020291
 20
46.4662806204
 11
42.7174020291
 21
45.4662806204
  0
LINE
  5
6EA
100
AcDbEntity
  8
IMPORT_IGES
100
AcDbLine
 62
253
  6
CONTINUOUS
 10
43.2174020291
 20
46.9662806204
 11
43.2174020291
 21
44.9662806204
  0
LINE
  5
6EB
100
AcDbEntity
  8
IMPORT_IGES
100
AcDbLine
 62
7
  6
CONTINUOUS
 10
43.2465694905
 20
-31.0337193796
 11
43.2465694905
 21
-30.0230810532
  0
LINE
  5
6EC
100
AcDbEntity
  8
IMPORT_IGES
100
AcDbLine
 62
7
  6
CONTINUOUS
 10
43.5069845677
 20
-30.0230810532
 11
43.5069845677
 21
-31.0337193796
  0
LINE
  5
6ED
100
AcDbEntity
  8
IMPORT_IGES
100
AcDbLine
 62
7
  6
CONTINUOUS
 10
35.8507345677
 20
-30.5018044749
 11
35.7986520291
 21
-30.7145704442
  0
LINE
  5
6EE
100
AcDbEntity
  8
IMPORT_IGES
100
AcDbLine
 62
7
  6
CONTINUOUS
 10
35.5382345677
 20
-30.6613789612
 11
35.5903194905
 21
-30.5018044749
  0
LINE
  5
6EF
100
AcDbEntity
  8
IMPORT_IGES
100
AcDbLine
 62
7
  6
CONTINUOUS
 10
34.2361520291
 20
-29.8635066041
 11
34.3403182984
 21
-29.650740672
  0
LINE
  5
6F0
100
AcDbEntity
  8
IMPORT_IGES
100
AcDbLine
 62
7
  6
CONTINUOUS
 10
34.5486520291
 20
-29.8103151211
 11
34.4965682984
 21
-29.9166980871
  0
LINE
  5
6F1
100
AcDbEntity
  8
IMPORT_IGES
100
AcDbLine
 62
7
  6
CONTINUOUS
 10
32.2049020291
 20
-29.0124427268
 11
32.1007357598
 21
-29.1720173248
  0
LINE
  5
6F2
100
AcDbEntity
  8
IMPORT_IGES
100
AcDbLine
 62
7
  6
CONTINUOUS
 10
31.8924020291
 20
-28.9060597607
 11
32.1007357598
 21
-28.6932938286
  0
LINE
  5
6F3
100
AcDbEntity
  8
IMPORT_IGES
100
AcDbLine
 62
7
  6
CONTINUOUS
 10
34.3403182984
 20
-29.650740672
 11
34.4444857598
 21
-29.544357706
  0
LINE
  5
6F4
100
AcDbEntity
  8
IMPORT_IGES
100
AcDbLine
 62
7
  6
CONTINUOUS
 10
34.7049020291
 20
-29.650740672
 11
34.5486520291
 21
-29.8103151211
  0
LINE
  5
6F5
100
AcDbEntity
  8
IMPORT_IGES
100
AcDbLine
 62
7
  6
CONTINUOUS
 10
33.7153182984
 20
-30.6613789612
 11
33.5069857598
 21
-30.8741449119
  0
LINE
  5
6F6
100
AcDbEntity
  8
IMPORT_IGES
100
AcDbLine
 62
7
  6
CONTINUOUS
 10
32.3611520291
 20
-28.9060597607
 11
32.2049020291
 21
-29.0124427268
  0
LINE
  5
6F7
100
AcDbEntity
  8
IMPORT_IGES
100
AcDbLine
 62
7
  6
CONTINUOUS
 10
34.4444857598
 20
-29.544357706
 11
34.6007357598
 21
-29.4379747399
  0
LINE
  5
6F8
100
AcDbEntity
  8
IMPORT_IGES
100
AcDbLine
 62
7
  6
CONTINUOUS
 10
33.2465682984
 20
-30.6613789612
 11
33.4028182984
 21
-30.5549959579
  0
LINE
  5
6F9
100
AcDbEntity
  8
IMPORT_IGES
100
AcDbLine
 62
7
  6
CONTINUOUS
 10
36.6319845677
 20
-29.544357706
 11
36.7882345677
 21
-29.4379747399
  0
LINE
  5
6FA
100
AcDbEntity
  8
IMPORT_IGES
100
AcDbLine
 62
7
  6
CONTINUOUS
 10
35.3819845677
 20
-30.7677619272
 11
35.5382345677
 21
-30.6613789612
  0
LINE
  5
6FB
100
AcDbEntity
  8
IMPORT_IGES
100
AcDbLine
 62
7
  6
CONTINUOUS
 10
34.8090682984
 20
-29.597549189
 11
34.7049020291
 21
-29.650740672
  0
LINE
  5
6FC
100
AcDbEntity
  8
IMPORT_IGES
100
AcDbLine
 62
7
  6
CONTINUOUS
 10
33.5069857598
 20
-30.8741449119
 11
33.2986520291
 21
-30.9805278919
  0
LINE
  5
6FD
100
AcDbEntity
  8
IMPORT_IGES
100
AcDbLine
 62
7
  6
CONTINUOUS
 10
36.8924020291
 20
-29.650740672
 11
36.6840694905
 21
-29.7571236381
  0
LINE
  5
6FE
100
AcDbEntity
  8
IMPORT_IGES
100
AcDbLine
 62
7
  6
CONTINUOUS
 10
35.6424020291
 20
-30.8741449119
 11
35.4340694905
 21
-30.9805278919
  0
LINE
  5
6FF
100
AcDbEntity
  8
IMPORT_IGES
100
AcDbLine
 62
7
  6
CONTINUOUS
 10
38.9236520291
 20
-29.544357706
 11
38.8194845677
 21
-29.597549189
  0
LINE
  5
700
100
AcDbEntity
  8
IMPORT_IGES
100
AcDbLine
 62
7
  6
CONTINUOUS
 10
40.1215694905
 20
-29.4379747399
 11
40.2257345677
 21
-29.3847832569
  0
LINE
  5
701
100
AcDbEntity
  8
IMPORT_IGES
100
AcDbLine
 62
7
  6
CONTINUOUS
 10
40.3819845677
 20
-29.597549189
 11
40.2778194905
 21
-29.650740672
  0
LINE
  5
702
100
AcDbEntity
  8
IMPORT_IGES
100
AcDbLine
 62
7
  6
CONTINUOUS
 10
40.1736520291
 20
-30.0762725362
 11
40.3819845677
 21
-29.9698895702
  0
LINE
  5
703
100
AcDbEntity
  8
IMPORT_IGES
100
AcDbLine
 62
7
  6
CONTINUOUS
 10
40.4861520291
 20
-30.1826555767
 11
40.3819845677
 21
-30.2358470598
  0
LINE
  5
704
100
AcDbEntity
  8
IMPORT_IGES
100
AcDbLine
 62
7
  6
CONTINUOUS
 10
40.7986520291
 20
-30.8209534289
 11
41.0590694905
 21
-30.7145704442
  0
LWPOLYLINE
  5
705
100
AcDbEntity
  8
IMPORT_IGES
100
AcDbPolyline
 62
253
  6
CONTINUOUS
 90
13
 70
0
 10
52.0174020291
 20
46.1054537216
 10
51.9527970236
 20
46.104870395
 10
51.8895164076
 20
46.1031390873
 10
51.8285944642
 20
46.1003017172
 10
51.7712978336
 20
46.0964406905
 10
51.7181905227
 20
46.0916185456
 10
51.6693536253
 20
46.0858266912
 10
51.6255103479
 20
46.079082809
 10
51.587974152
 20
46.071510624
 10
51.5577610638
 20
46.0632564172
 10
51.5355959826
 20
46.0544679677
 10
51.5220000536
 20
46.0452825856
 10
51.5174020291
 20
46.0358671956
  0
LWPOLYLINE
  5
706
100
AcDbEntity
  8
IMPORT_IGES
100
AcDbPolyline
 62
253
  6
CONTINUOUS
 90
13
 70
0
 10
-53.7825979709
 20
46.1054537216
 10
-53.8472029764
 20
46.104870395
 10
-53.9104835924
 20
46.1031390873
 10
-53.9714055358
 20
46.1003017172
 10
-54.0287021664
 20
46.0964406905
 10
-54.0818094773
 20
46.0916185456
 10
-54.1306463747
 20
46.0858266912
 10
-54.1744905173
 20
46.0790826571
 10
-54.2120272752
 20
46.0715102909
 10
-54.2422389362
 20
46.0632564172
 10
-54.264401783
 20
46.0544690887
 10
-54.2779971185
 20
46.0452854671
 10
-54.2825979709
 20
46.0358671437
  0
LINE
  5
707
100
AcDbEntity
  8
IMPORT_IGES
100
AcDbLine
 62
253
  6
CONTINUOUS
 10
43.2174020291
 20
44.9662806204
 11
-43.7825979709
 21
44.9662806204
  0
LINE
  5
708
100
AcDbEntity
  8
IMPORT_IGES
100
AcDbLine
 62
7
  6
CONTINUOUS
 10
42.7174020291
 20
45.4662806204
 11
-43.2825979709
 21
45.4662806204
  0
LINE
  5
709
100
AcDbEntity
  8
IMPORT_IGES
100
AcDbLine
 62
253
  6
CONTINUOUS
 10
-53.7825979709
 20
46.1054537214
 11
-52.5825979709
 21
46.1054537214
  0
LINE
  5
70A
100
AcDbEntity
  8
IMPORT_IGES
100
AcDbLine
 62
253
  6
CONTINUOUS
 10
52.0174020291
 20
46.1054537214
 11
53.2174020291
 21
46.1054537215
  0
LINE
  5
70B
100
AcDbEntity
  8
IMPORT_IGES
100
AcDbLine
 62
253
  6
CONTINUOUS
 10
51.5174020291
 20
46.4662806204
 11
-52.0825979709
 21
46.4662806204
  0
LINE
  5
70C
100
AcDbEntity
  8
IMPORT_IGES
100
AcDbLine
 62
7
  6
CONTINUOUS
 10
-53.7825979709
 20
46.9662806204
 11
53.2174020291
 21
46.9662806204
  0
LWPOLYLINE
  5
70D
100
AcDbEntity
  8
IMPORT_IGES
100
AcDbPolyline
 62
253
  6
CONTINUOUS
 90
13
 70
0
 10
-52.5825979709
 20
46.1054537214
 10
-52.5179929654
 20
46.1048703948
 10
-52.4547123494
 20
46.1031390871
 10
-52.393790406
 20
46.100301717
 10
-52.3364937753
 20
46.0964406903
 10
-52.2833864645
 20
46.0916185454
 10
-52.2345495671
 20
46.085826691
 10
-52.1907054245
 20
46.0790826558
 10
-52.1531686666
 20
46.0715102885
 10
-52.1229570057
 20
46.063256417
 10
-52.100794159
 20
46.054469095
 10
-52.0871988235
 20
46.0452854834
 10
-52.0825979709
 20
46.0358671732
  0
LWPOLYLINE
  5
70E
100
AcDbEntity
  8
IMPORT_IGES
100
AcDbPolyline
 62
253
  6
CONTINUOUS
 90
13
 70
0
 10
53.2174020291
 20
46.1054537215
 10
53.2820070346
 20
46.104870395
 10
53.3452876506
 20
46.1031390874
 10
53.406209594
 20
46.1003017173
 10
53.4635062247
 20
46.0964406905
 10
53.5166135355
 20
46.0916185456
 10
53.5654504329
 20
46.0858266912
 10
53.6092945755
 20
46.079082656
 10
53.6468313334
 20
46.0715102888
 10
53.6770429943
 20
46.0632564173
 10
53.699205841
 20
46.0544690953
 10
53.7128011765
 20
46.0452854837
 10
53.7174020291
 20
46.0358671724
  0
LINE
  5
70F
100
AcDbEntity
  8
IMPORT_IGES
100
AcDbLine
 62
7
  6
CONTINUOUS
 10
48.5174020291
 20
39.4662806204
 11
48.5174020291
 21
44.2662806204
  0
LINE
  5
710
100
AcDbEntity
  8
IMPORT_IGES
100
AcDbLine
 62
7
  6
CONTINUOUS
 10
49.5174020291
 20
44.7610736281
 11
49.5174020291
 21
44.6662806204
  0
LINE
  5
711
100
AcDbEntity
  8
IMPORT_IGES
100
AcDbLine
 62
7
  6
CONTINUOUS
 10
49.7174020291
 20
21.7662806204
 11
49.7174020291
 21
19.0662806204
  0
LINE
  5
712
100
AcDbEntity
  8
IMPORT_IGES
100
AcDbLine
 62
7
  6
CONTINUOUS
 10
49.7174020291
 20
-16.3337193796
 11
49.7174020291
 21
-17.5337193796
  0
LINE
  5
713
100
AcDbEntity
  8
IMPORT_IGES
100
AcDbLine
 62
7
  6
CONTINUOUS
 10
51.2174020291
 20
44.6662806204
 11
51.2174020291
 21
44.7240219329
  0
LINE
  5
714
100
AcDbEntity
  8
IMPORT_IGES
100
AcDbLine
 62
7
  6
CONTINUOUS
 10
51.3174020291
 20
39.0662806204
 11
51.3174020291
 21
44.6662806204
  0
LINE
  5
715
100
AcDbEntity
  8
IMPORT_IGES
100
AcDbLine
 62
7
  6
CONTINUOUS
 10
51.5174020291
 20
46.4662806163
 11
51.5174020291
 21
21.2662806204
  0
LINE
  5
716
100
AcDbEntity
  8
IMPORT_IGES
100
AcDbLine
 62
7
  6
CONTINUOUS
 10
51.5174020291
 20
-19.0337193796
 11
51.5174020291
 21
-42.5337193633
  0
LINE
  5
717
100
AcDbEntity
  8
IMPORT_IGES
100
AcDbLine
 62
7
  6
CONTINUOUS
 10
40.2778194905
 20
-30.3422300258
 11
40.2257345677
 21
-30.5018044749
  0
LINE
  5
718
100
AcDbEntity
  8
IMPORT_IGES
100
AcDbLine
 62
7
  6
CONTINUOUS
 10
38.7674020291
 20
-29.650740672
 11
38.7153194905
 21
-29.7571236381
  0
LINE
  5
719
100
AcDbEntity
  8
IMPORT_IGES
100
AcDbLine
 62
7
  6
CONTINUOUS
 10
39.9653194905
 20
-29.650740672
 11
40.0174020291
 21
-29.544357706
  0
LINE
  5
71A
100
AcDbEntity
  8
IMPORT_IGES
100
AcDbLine
 62
7
  6
CONTINUOUS
 10
40.2778194905
 20
-29.650740672
 11
40.2257345677
 21
-29.7571236381
  0
LINE
  5
71B
100
AcDbEntity
  8
IMPORT_IGES
100
AcDbLine
 62
7
  6
CONTINUOUS
 10
39.9653194905
 20
-30.3954215088
 11
40.0694845677
 21
-30.1826555767
  0
LINE
  5
71C
100
AcDbEntity
  8
IMPORT_IGES
100
AcDbLine
 62
7
  6
CONTINUOUS
 10
41.2153194905
 20
-30.5549959579
 11
41.2674020291
 21
-30.4486129919
  0
LINE
  5
71D
100
AcDbEntity
  8
IMPORT_IGES
100
AcDbLine
 62
7
  6
CONTINUOUS
 10
41.2674020291
 20
-30.7677619272
 11
41.2153194905
 21
-30.8741449119
  0
LINE
  5
71E
100
AcDbEntity
  8
IMPORT_IGES
100
AcDbLine
 62
7
  6
CONTINUOUS
 10
36.6840694905
 20
-29.7571236381
 11
36.5278194905
 21
-29.9698895702
  0
LINE
  5
71F
100
AcDbEntity
  8
IMPORT_IGES
100
AcDbLine
 62
7
  6
CONTINUOUS
 10
36.5278194905
 20
-29.650740672
 11
36.6319845677
 21
-29.544357706
  0
LINE
  5
720
100
AcDbEntity
  8
IMPORT_IGES
100
AcDbLine
 62
7
  6
CONTINUOUS
 10
35.7986520291
 20
-30.7145704442
 11
35.6424020291
 21
-30.8741449119
  0
LINE
  5
721
100
AcDbEntity
  8
IMPORT_IGES
100
AcDbLine
 62
7
  6
CONTINUOUS
 10
37.8819845677
 20
-29.491166223
 11
37.9861520291
 21
-29.3847832569
  0
LINE
  5
722
100
AcDbEntity
  8
IMPORT_IGES
100
AcDbLine
 62
7
  6
CONTINUOUS
 10
37.9861520291
 20
-29.597549189
 11
37.8819845677
 21
-29.7039321551
  0
LINE
  5
723
100
AcDbEntity
  8
IMPORT_IGES
100
AcDbLine
 62
7
  6
CONTINUOUS
 10
38.6632345677
 20
-29.544357706
 11
38.8194845677
 21
-29.3847832569
  0
LINE
  5
724
100
AcDbEntity
  8
IMPORT_IGES
100
AcDbLine
 62
7
  6
CONTINUOUS
 10
38.8194845677
 20
-29.597549189
 11
38.7674020291
 21
-29.650740672
  0
LINE
  5
725
100
AcDbEntity
  8
IMPORT_IGES
100
AcDbLine
 62
7
  6
CONTINUOUS
 10
40.0174020291
 20
-29.544357706
 11
40.1215694905
 21
-29.4379747399
  0
LINE
  5
726
100
AcDbEntity
  8
IMPORT_IGES
100
AcDbLine
 62
7
  6
CONTINUOUS
 10
40.0694845677
 20
-30.1826555767
 11
40.1736520291
 21
-30.0762725362
  0
LINE
  5
727
100
AcDbEntity
  8
IMPORT_IGES
100
AcDbLine
 62
7
  6
CONTINUOUS
 10
40.3819845677
 20
-30.2358470598
 11
40.2778194905
 21
-30.3422300258
  0
LINE
  5
728
100
AcDbEntity
  8
IMPORT_IGES
100
AcDbLine
 62
7
  6
CONTINUOUS
 10
51.9767985528
 20
-18.5746529552
 11
52.0174020291
 21
-18.5337193796
  0
LINE
  5
729
100
AcDbEntity
  8
IMPORT_IGES
100
AcDbLine
 62
7
  6
CONTINUOUS
 10
51.5240857061
 20
-19.0270357026
 11
51.9767985528
 21
-18.5746529552
  0
LWPOLYLINE
  5
72A
100
AcDbEntity
  8
IMPORT_IGES
100
AcDbPolyline
 62
7
  6
CONTINUOUS
 90
3
 70
0
 10
51.5174020291
 20
-19.0337193796
 10
51.5181310208
 20
-19.0330471342
 10
51.5240857061
 20
-19.0270357026
  0
LINE
  5
72B
100
AcDbEntity
  8
IMPORT_IGES
100
AcDbLine
 62
7
  6
CONTINUOUS
 10
42.4132345677
 20
-29.491166223
 11
42.5694845677
 21
-29.3847832569
  0
LINE
  5
72C
100
AcDbEntity
  8
IMPORT_IGES
100
AcDbLine
 62
7
  6
CONTINUOUS
 10
42.5694845677
 20
-29.597549189
 11
42.4132345677
 21
-29.7039321551
  0
LINE
  5
72D
100
AcDbEntity
  8
IMPORT_IGES
100
AcDbLine
 62
7
  6
CONTINUOUS
 10
41.2153194905
 20
-30.8741449119
 11
41.0590694905
 21
-30.9805278919
  0
LINE
  5
72E
100
AcDbEntity
  8
IMPORT_IGES
100
AcDbLine
 62
253
  6
CONTINUOUS
 10
52.0174020291
 20
-18.5337193796
 11
52.0174020291
 21
-43.0337193796
  0
LINE
  5
72F
100
AcDbEntity
  8
IMPORT_IGES
100
AcDbLine
 62
253
  6
CONTINUOUS
 10
52.0174020291
 20
22.0662806204
 11
52.0174020291
 21
46.9662806204
  0
LINE
  5
730
100
AcDbEntity
  8
IMPORT_IGES
100
AcDbLine
 62
253
  6
CONTINUOUS
 10
53.2174020291
 20
-43.0337193796
 11
53.2174020291
 21
46.9662806204
  0
LINE
  5
731
100
AcDbEntity
  8
IMPORT_IGES
100
AcDbLine
 62
7
  6
CONTINUOUS
 10
53.7174020291
 20
-42.5337193769
 11
53.7174020291
 21
46.4662806204
  0
LINE
  5
732
100
AcDbEntity
  8
IMPORT_IGES
100
AcDbLine
 62
7
  6
CONTINUOUS
 10
44.2361520291
 20
-31.8847831824
 11
44.6528194905
 21
-30.8209534289
  0
LINE
  5
733
100
AcDbEntity
  8
IMPORT_IGES
100
AcDbLine
 62
7
  6
CONTINUOUS
 10
45.5903194905
 20
-29.3315917739
 11
44.5486520291
 21
-31.8847831824
  0
LINE
  5
734
100
AcDbEntity
  8
IMPORT_IGES
100
AcDbLine
 62
7
  6
CONTINUOUS
 10
44.8090694905
 20
-30.4486129919
 11
45.2778194905
 21
-29.3315917739
  0
LINE
  5
735
100
AcDbEntity
  8
IMPORT_IGES
100
AcDbLine
 62
7
  6
CONTINUOUS
 10
41.0590694905
 20
-30.7145704442
 11
41.2153194905
 21
-30.5549959579
  0
LINE
  5
736
100
AcDbEntity
  8
IMPORT_IGES
100
AcDbLine
 62
7
  6
CONTINUOUS
 10
42.3090694905
 20
-29.597549189
 11
42.4132345677
 21
-29.491166223
  0
LINE
  5
737
100
AcDbEntity
  8
IMPORT_IGES
100
AcDbLine
 62
7
  6
CONTINUOUS
 10
42.4132345677
 20
-29.7039321551
 11
42.3090694905
 21
-29.8103151211
  0
LINE
  5
738
100
AcDbEntity
  8
IMPORT_IGES
100
AcDbLine
 62
7
  6
CONTINUOUS
 10
43.1764684534
 20
45.0068840967
 11
43.2174020291
 21
44.9662806204
  0
LINE
  5
739
100
AcDbEntity
  8
IMPORT_IGES
100
AcDbLine
 62
7
  6
CONTINUOUS
 10
42.7240857061
 20
45.4595969434
 11
43.1764684534
 21
45.0068840967
  0
LWPOLYLINE
  5
73A
100
AcDbEntity
  8
IMPORT_IGES
100
AcDbPolyline
 62
7
  6
CONTINUOUS
 90
3
 70
0
 10
42.7174020291
 20
45.4662806204
 10
42.7180742745
 20
45.4655516286
 10
42.7240857061
 20
45.4595969434
  0
ARC
  5
73B
100
AcDbEntity
  8
IMPORT_IGES
100
AcDbCircle
 62
7
  6
CONTINUOUS
 10
-3.2825979709
 20
-37.5337193796
 40
2.0
100
AcDbArc
 50
180.0000000001
 51
269.9999999999
  0
ARC
  5
73C
100
AcDbEntity
  8
IMPORT_IGES
100
AcDbCircle
 62
7
  6
CONTINUOUS
 10
-10.0825979709
 20
-41.0337193796
 40
0.5
100
AcDbArc
 50
270.0
 51
360.0
  0
ARC
  5
73D
100
AcDbEntity
  8
IMPORT_IGES
100
AcDbCircle
 62
7
  6
CONTINUOUS
 10
-52.5825979709
 20
-42.5337193796
 40
0.5
100
AcDbArc
 50
270.0000000001
 51
359.999998121
  0
ARC
  5
73E
100
AcDbEntity
  8
IMPORT_IGES
100
AcDbCircle
 62
7
  6
CONTINUOUS
 10
-53.7825979709
 20
-16.8337193796
 40
0.5
100
AcDbArc
 50
90.0000000001
 51
179.9999953091
  0
ARC
  5
73F
100
AcDbEntity
  8
IMPORT_IGES
100
AcDbCircle
 62
7
  6
CONTINUOUS
 10
-53.7825979709
 20
-42.5337193796
 40
0.5
100
AcDbArc
 50
179.999999814
 51
269.9999999999
  0
ARC
  5
740
100
AcDbEntity
  8
IMPORT_IGES
100
AcDbCircle
 62
7
  6
CONTINUOUS
 10
-25.7860121164
 20
32.6797881033
 40
2.75
100
AcDbArc
 50
180.0000000001
 51
359.9999999999
  0
ARC
  5
741
100
AcDbEntity
  8
IMPORT_IGES
100
AcDbCircle
 62
7
  6
CONTINUOUS
 10
-25.7860121164
 20
37.3547881033
 40
2.75
100
AcDbArc
 50
180.0000000001
 51
359.9999999999
  0
ARC
  5
742
100
AcDbEntity
  8
IMPORT_IGES
100
AcDbCircle
 62
7
  6
CONTINUOUS
 10
-25.7860121164
 20
32.6797881033
 40
1.925
100
AcDbArc
 50
180.0
 51
360.0
  0
ARC
  5
743
100
AcDbEntity
  8
IMPORT_IGES
100
AcDbCircle
 62
7
  6
CONTINUOUS
 10
-25.7860121164
 20
37.3547881033
 40
1.92
100
AcDbArc
 50
180.0000000002
 51
257.5172404962
  0
ARC
  5
744
100
AcDbEntity
  8
IMPORT_IGES
100
AcDbCircle
 62
7
  6
CONTINUOUS
 10
-25.7860121164
 20
37.3547881033
 40
1.92
100
AcDbArc
 50
282.4827595039
 51
359.9999999998
  0
ARC
  5
745
100
AcDbEntity
  8
IMPORT_IGES
100
AcDbCircle
 62
7
  6
CONTINUOUS
 10
-40.4901344778
 20
30.8576626757
 40
1.4752938615
100
AcDbArc
 50
236.3099324741
 51
360.0
  0
ARC
  5
746
100
AcDbEntity
  8
IMPORT_IGES
100
AcDbCircle
 62
7
  6
CONTINUOUS
 10
-44.4195467549
 20
33.4772708604
 40
1.4752938615
100
AcDbArc
 50
123.690067526
 51
236.309932474
  0
ARC
  5
747
100
AcDbEntity
  8
IMPORT_IGES
100
AcDbCircle
 62
7
  6
CONTINUOUS
 10
-40.4901344778
 20
36.0968790451
 40
1.4752938615
100
AcDbArc
 50
0.0
 51
123.6900675259
  0
ARC
  5
748
100
AcDbEntity
  8
IMPORT_IGES
100
AcDbCircle
 62
7
  6
CONTINUOUS
 10
-40.4901344778
 20
30.8576626757
 40
0.8052938615
100
AcDbArc
 50
236.3099324745
 51
360.0
  0
ARC
  5
749
100
AcDbEntity
  8
IMPORT_IGES
100
AcDbCircle
 62
7
  6
CONTINUOUS
 10
-44.4195467549
 20
33.4772708604
 40
0.8052938615
100
AcDbArc
 50
123.6900675268
 51
236.3099324751
  0
ARC
  5
74A
100
AcDbEntity
  8
IMPORT_IGES
100
AcDbCircle
 62
7
  6
CONTINUOUS
 10
-40.4901344778
 20
36.0968790451
 40
0.8052938615
100
AcDbArc
 50
0.0
 51
123.6900675265
  0
ARC
  5
74B
100
AcDbEntity
  8
IMPORT_IGES
100
AcDbCircle
 62
7
  6
CONTINUOUS
 10
-51.5825979709
 20
39.4662806204
 40
0.5
100
AcDbArc
 50
180.0000000001
 51
269.9999999999
  0
ARC
  5
74C
100
AcDbEntity
  8
IMPORT_IGES
100
AcDbCircle
 62
7
  6
CONTINUOUS
 10
-49.5825979709
 20
39.4662806204
 40
0.5
100
AcDbArc
 50
270.0000000001
 51
359.9999999999
  0
ARC
  5
74D
100
AcDbEntity
  8
IMPORT_IGES
100
AcDbCircle
 62
7
  6
CONTINUOUS
 10
-49.5825979709
 20
44.2662806204
 40
0.5
100
AcDbArc
 50
0.0000000001
 51
89.9999999999
  0
ARC
  5
74E
100
AcDbEntity
  8
IMPORT_IGES
100
AcDbCircle
 62
7
  6
CONTINUOUS
 10
-50.9325979709
 20
45.0662806204
 40
0.5
100
AcDbArc
 50
216.8698976457
 51
323.1301023543
  0
ARC
  5
74F
100
AcDbEntity
  8
IMPORT_IGES
100
AcDbCircle
 62
7
  6
CONTINUOUS
 10
-51.5825979709
 20
44.2662806204
 40
0.5
100
AcDbArc
 50
90.0000000001
 51
179.9999999999
  0
ARC
  5
750
100
AcDbEntity
  8
IMPORT_IGES
100
AcDbCircle
 62
7
  6
CONTINUOUS
 10
-43.7825979709
 20
46.4662806204
 40
0.5
100
AcDbArc
 50
0.0000000001
 51
89.9999999999
  0
ARC
  5
751
100
AcDbEntity
  8
IMPORT_IGES
100
AcDbCircle
 62
7
  6
CONTINUOUS
 10
-36.7825979709
 20
17.5662806204
 40
0.5
100
AcDbArc
 50
270.0000000001
 51
359.9999999999
  0
ARC
  5
752
100
AcDbEntity
  8
IMPORT_IGES
100
AcDbCircle
 62
7
  6
CONTINUOUS
 10
-52.5825979709
 20
46.4662806204
 40
0.5
100
AcDbArc
 50
0.0000015555
 51
90.0000000006
  0
ARC
  5
753
100
AcDbEntity
  8
IMPORT_IGES
100
AcDbCircle
 62
7
  6
CONTINUOUS
 10
-52.3825979709
 20
40.1162806204
 40
0.5
100
AcDbArc
 50
306.8698976457
 51
53.1301023543
  0
ARC
  5
754
100
AcDbEntity
  8
IMPORT_IGES
100
AcDbCircle
 62
7
  6
CONTINUOUS
 10
-53.7825979709
 20
17.5662806204
 40
0.5
100
AcDbArc
 50
180.0000000001
 51
269.9999999999
  0
ARC
  5
755
100
AcDbEntity
  8
IMPORT_IGES
100
AcDbCircle
 62
7
  6
CONTINUOUS
 10
-53.7825979709
 20
46.4662806204
 40
0.5
100
AcDbArc
 50
90.0
 51
180.0000018435
  0
ARC
  5
756
100
AcDbEntity
  8
IMPORT_IGES
100
AcDbCircle
 62
7
  6
CONTINUOUS
 10
2.7174020291
 20
-37.5337193796
 40
2.0
100
AcDbArc
 50
270.0000000001
 51
359.9999999999
  0
ARC
  5
757
100
AcDbEntity
  8
IMPORT_IGES
100
AcDbCircle
 62
7
  6
CONTINUOUS
 10
-0.2825979709
 20
-28.8637193796
 40
1.0
100
AcDbArc
 50
1.7399358185
 51
8.8555016391
  0
ARC
  5
758
100
AcDbEntity
  8
IMPORT_IGES
100
AcDbCircle
 62
7
  6
CONTINUOUS
 10
-0.2825979709
 20
-28.8637193796
 40
1.0
100
AcDbArc
 50
39.4192105048
 51
149.980959325
  0
ARC
  5
759
100
AcDbEntity
  8
IMPORT_IGES
100
AcDbCircle
 62
7
  6
CONTINUOUS
 10
-0.2825979709
 20
-21.3637193796
 40
1.0
100
AcDbArc
 50
210.017361172
 51
252.5693917262
  0
ARC
  5
75A
100
AcDbEntity
  8
IMPORT_IGES
100
AcDbCircle
 62
7
  6
CONTINUOUS
 10
-0.2825979709
 20
-21.3637193796
 40
1.0
100
AcDbArc
 50
296.4851185779
 51
339.4077995146
  0
ARC
  5
75B
100
AcDbEntity
  8
IMPORT_IGES
100
AcDbCircle
 62
7
  6
CONTINUOUS
 10
9.5174020291
 20
-41.0337193796
 40
0.5
100
AcDbArc
 50
180.0000000001
 51
270.0
  0
ARC
  5
75C
100
AcDbEntity
  8
IMPORT_IGES
100
AcDbCircle
 62
7
  6
CONTINUOUS
 10
52.0174020291
 20
-42.5337193796
 40
0.5
100
AcDbArc
 50
180.0000015693
 51
269.9999999996
  0
ARC
  5
75D
100
AcDbEntity
  8
IMPORT_IGES
100
AcDbCircle
 62
7
  6
CONTINUOUS
 10
53.2174020291
 20
-16.8337193796
 40
0.5
100
AcDbArc
 50
0.0
 51
89.9999999999
  0
ARC
  5
75E
100
AcDbEntity
  8
IMPORT_IGES
100
AcDbCircle
 62
7
  6
CONTINUOUS
 10
53.2174020291
 20
-42.5337193796
 40
0.5
100
AcDbArc
 50
270.0000000001
 51
359.999998121
  0
ARC
  5
75F
100
AcDbEntity
  8
IMPORT_IGES
100
AcDbCircle
 62
7
  6
CONTINUOUS
 10
51.0174020291
 20
44.2662806204
 40
0.5
100
AcDbArc
 50
0.0000000001
 51
89.9999999999
  0
ARC
  5
760
100
AcDbEntity
  8
IMPORT_IGES
100
AcDbCircle
 62
7
  6
CONTINUOUS
 10
50.3674020291
 20
45.0662806204
 40
0.5
100
AcDbArc
 50
216.8698976457
 51
323.1301023543
  0
ARC
  5
761
100
AcDbEntity
  8
IMPORT_IGES
100
AcDbCircle
 62
7
  6
CONTINUOUS
 10
49.0174020291
 20
44.2662806204
 40
0.5
100
AcDbArc
 50
90.0000000001
 51
179.9999999999
  0
ARC
  5
762
100
AcDbEntity
  8
IMPORT_IGES
100
AcDbCircle
 62
7
  6
CONTINUOUS
 10
49.0174020291
 20
39.4662806204
 40
0.5
100
AcDbArc
 50
180.0000000001
 51
269.9999999999
  0
ARC
  5
763
100
AcDbEntity
  8
IMPORT_IGES
100
AcDbCircle
 62
7
  6
CONTINUOUS
 10
51.0174020291
 20
39.4662806204
 40
0.5
100
AcDbArc
 50
270.0000000001
 51
359.9999999999
  0
ARC
  5
764
100
AcDbEntity
  8
IMPORT_IGES
100
AcDbCircle
 62
7
  6
CONTINUOUS
 10
53.2174020291
 20
17.5662806204
 40
0.5
100
AcDbArc
 50
270.0000000003
 51
359.9999999997
  0
ARC
  5
765
100
AcDbEntity
  8
IMPORT_IGES
100
AcDbCircle
 62
7
  6
CONTINUOUS
 10
36.2174020291
 20
17.5662806204
 40
0.5
100
AcDbArc
 50
180.0000000001
 51
269.9999999999
  0
ARC
  5
766
100
AcDbEntity
  8
IMPORT_IGES
100
AcDbCircle
 62
7
  6
CONTINUOUS
 10
51.8174020291
 20
40.1162806204
 40
0.5
100
AcDbArc
 50
126.8698976457
 51
233.1301023543
  0
ARC
  5
767
100
AcDbEntity
  8
IMPORT_IGES
100
AcDbCircle
 62
7
  6
CONTINUOUS
 10
53.2174020291
 20
46.4662806204
 40
0.5
100
AcDbArc
 50
359.9999998258
 51
89.9999999995
  0
ARC
  5
768
100
AcDbEntity
  8
IMPORT_IGES
100
AcDbCircle
 62
7
  6
CONTINUOUS
 10
43.2174020291
 20
46.4662806204
 40
0.5
100
AcDbArc
 50
90.0000000001
 51
179.9999999999
  0
ARC
  5
769
100
AcDbEntity
  8
IMPORT_IGES
100
AcDbCircle
 62
7
  6
CONTINUOUS
 10
52.0174020291
 20
46.4662806204
 40
0.5
100
AcDbArc
 50
90.0
 51
180.0000018434
  0
ELLIPSE
  5
76A
100
AcDbEntity
  8
IMPORT_IGES
100
AcDbEllipse
 62
7
  6
CONTINUOUS
 10
9.5174020291
 20
-37.722096903
 30
0.0
 11
0.5
 21
0.0
 31
0.0
 40
0.5773502692
 41
1.5707963268
 42
3.1415926536
  0
ELLIPSE
  5
76B
100
AcDbEntity
  8
IMPORT_IGES
100
AcDbEllipse
 62
7
  6
CONTINUOUS
 10
-10.0825979709
 20
-37.722096903
 30
0.0
 11
0.5
 21
-0.0
 31
0.0
 40
0.5773502692
 41
-0.0
 42
1.5707963268
  0
ELLIPSE
  5
76C
100
AcDbEntity
  8
IMPORT_IGES
100
AcDbEllipse
 62
7
  6
CONTINUOUS
 10
52.0174020291
 20
18.4736323533
 30
0.0
 11
-0.0
 21
3.5926482672
 31
0.0
 40
0.139173101
 41
0.0
 42
0.4115643424
  0
ENDSEC
  0
SECTION
  2
OBJECTS
  0
DICTIONARY
  5
C
100
AcDbDictionary
280
0
281
1
  3
ACAD_GROUP
350
D
  3
ACAD_MLINESTYLE
350
17
  3
ACAD_LAYOUT
350
1A
  3
ACAD_PLOTSETTINGS
350
19
  3
ACAD_PLOTSTYLENAME
350
E
  0
DICTIONARY
  5
D
102
{ACAD_REACTORS
330
C
102
}
100
AcDbDictionary
280
0
281
1
  0
ACDBDICTIONARYWDFLT
  5
E
102
{ACAD_REACTORS
330
C
102
}
100
AcDbDictionary
281
1
  3
Normal
350
F
100
AcDbDictionaryWithDefault
340
F
  0
DICTIONARY
  5
17
102
{ACAD_REACTORS
330
C
102
}
100
AcDbDictionary
280
0
281
1
  3
Standard
350
18
  0
DICTIONARY
  5
19
102
{ACAD_REACTORS
330
C
102
}
100
AcDbDictionary
281
1
  0
DICTIONARY
  5
1A
102
{ACAD_REACTORS
330
C
102
}
100
AcDbDictionary
281
1
  3
Model
350
76D
  3
Layout1
350
76E
  0
ACDBPLACEHOLDER
  5
F
102
{ACAD_REACTORS
330
E
102
}
  0
MLINESTYLE
  5
18
102
{ACAD_REACTORS
330
17
102
}
100
AcDbMlineStyle
  2
STANDARD
 70
0
  3

 62
256
 51
90.0
 52
90.0
 71
2
 49
0.5
 62
256
  6
BYLAYER
 49
-0.5
 62
256
  6
BYLAYER
  0
LAYOUT
  5
76D
102
{ACAD_REACTORS
330
1A
102
}
100
AcDbPlotSettings
  1

  2
none_device
  4
ISO_A4_(297.00_x_210.00_MM)
  6

 40
0.0
 41
0.0
 42
0.0
 43
0.0
 44
297.0
 45
210.0
 46
0.0
 47
0.0
 48
0.0
 49
0.0
140
0.0
141
0.0
142
1.0
143
1.0
 70
1024
 72
1
 73
0
 74
0
  7

 75
0
147
1.0
148
0.0
149
0.0
100
AcDbLayout
  1
Model
 70
0
 71
0
 10
0.0
 20
0.0
 11
297.0
 21
210.0
 12
0.0
 22
0.0
 32
0.0
 14
0.0
 24
0.0
 34
0.0
 15
0.0
 25
0.0
 35
0.0
146
0.0
 13
0.0
 23
0.0
 33
0.0
 16
1.0
 26
0.0
 36
0.0
 17
0.0
 27
1.0
 37
0.0
 76
0
330
241
345
0
346
0
  0
LAYOUT
  5
76E
102
{ACAD_REACTORS
330
1A
102
}
100
AcDbPlotSettings
  1

  2
none_device
  4
ISO_A4_(297.00_x_210.00_MM)
  6

 40
0.0
 41
0.0
 42
0.0
 43
0.0
 44
297.0
 45
210.0
 46
0.0
 47
0.0
 48
0.0
 49
0.0
140
0.0
141
0.0
142
1.0
143
1.0
 70
0
 72
1
 73
0
 74
0
  7

 75
0
147
1.0
148
0.0
149
0.0
100
AcDbLayout
  1
Layout1
 70
0
 71
1
 10
0.0
 20
0.0
 11
297.0
 21
210.0
 12
0.0
 22
0.0
 32
0.0
 14
0.0
 24
0.0
 34
0.0
 15
0.0
 25
0.0
 35
0.0
146
0.0
 13
0.0
 23
0.0
 33
0.0
 16
1.0
 26
0.0
 36
0.0
 17
0.0
 27
1.0
 37
0.0
 76
0
330
242
345
0
346
0
  0
ENDSEC
  0
EOF
