  0
SECTION
  2
HEADER
  9
$ACADVER
  1
AC1024
  9
$DWGCODEPAGE
  3
ANSI_1252
  9
$EXTMAX
 10
297.0
 20
210.0
 30
0.0
  9
$EXTMIN
 10
0.0
 20
0.0
 30
0.0
  9
$LIMMIN
 10
0.0
 20
0.0
  9
$LIMMAX
 10
297.0
 20
210.0
  9
$VIEWCTR
 10
148.5
 20
105.0
  9
$VIEWSIZE
 40
210.0
  9
$CLAYER
  8
0
  9
$LTSCALE
 40
16.335
  9
$CELTYPE
  6
BYLAYER
  9
$DIMSCALE
 40
1.0
  9
$DIMASZ
 40
3.0
  9
$DIMEXO
 40
0.5
  9
$DIMDLI
 40
11.286
  9
$DIMEXE
 40
1.5
  9
$DIMCEN
 40
2.673
  9
$DIMLFAC
 40
1.0
  9
$DIMBLK
  1
_FILLED
  9
$DIMALT
 70
0
  9
$DIMALTF
 40
0.0393700787
  9
$DIMTXT
 40
3.0
  9
$DIMTOL
 70
1
  9
$DIMLIM
 70
0
  9
$DIMTFAC
 40
1.0
  9
$DIMTP
 40
0.01
  9
$DIMTM
 40
0.01
  9
$DIMGAP
 40
0.625
  9
$DIMDSEP
 70
44
  9
$AUNITS
 70
0
  9
$PDMODE
 70
3
  9
$PDSIZE
 40
3.0
  9
$HANDSEED
  5
26A
  9
$TILEMODE
 70
1
  9
$MEASUREMENT
 70
1
  9
$INSUNITS
 70
4
  0
ENDSEC
  0
SECTION
  2
CLASSES
  0
CLASS
  1
ACDBDICTIONARYWDFLT
  2
AcDbDictionaryWithDefault
  3
AutoCAD 2000
 90
0
 91
1
280
0
281
0
  0
CLASS
  1
ACDBPLACEHOLDER
  2
AcDbPlaceHolder
  3
AutoCAD 2000
 90
0
 91
1
280
0
281
0
  0
CLASS
  1
LAYOUT
  2
AcDbLayout
  3
AutoCAD 2000
 90
0
 91
0
280
0
281
0
  0
ENDSEC
  0
SECTION
  2
TABLES
  0
TABLE
  2
VPORT
  5
8
100
AcDbSymbolTable
 70
2
  0
VPORT
  5
1F4
100
AcDbSymbolTableRecord
100
AcDbViewportTableRecord
  2
*ACTIVE
 70
0
 10
0.0
 20
0.0
 11
1.0
 21
1.0
 12
148.5
 22
105.0
 13
0.0
 23
0.0
 14
1.0
 24
1.0
 15
0.0
 25
0.0
 16
0.0
 26
0.0
 36
1.0
 17
0.0
 27
0.0
 37
0.0
 40
210.0
 41
1.4142857143
 42
50.0
 43
0.0
 44
0.0
 50
0.0
 51
0.0
 71
0
 72
100
 73
1
 74
1
 75
0
 76
0
 77
0
 78
0
  0
ENDTAB
  0
TABLE
  2
LTYPE
  5
5
100
AcDbSymbolTable
 70
6
  0
LTYPE
  5
14
100
AcDbSymbolTableRecord
100
AcDbLinetypeTableRecord
  2
BYBLOCK
 70
0
  3

 72
65
 73
0
 40
0.0
  0
LTYPE
  5
15
100
AcDbSymbolTableRecord
100
AcDbLinetypeTableRecord
  2
BYLAYER
 70
0
  3

 72
65
 73
0
 40
0.0
  0
LTYPE
  5
16
100
AcDbSymbolTableRecord
100
AcDbLinetypeTableRecord
  2
CONTINUOUS
 70
64
  3
Solid line
 72
65
 73
0
 40
0.0
  0
LTYPE
  5
1F5
100
AcDbSymbolTableRecord
100
AcDbLinetypeTableRecord
  2
CENTER
 70
64
  3
____ _ ____ _ ____ _ ____ _ ____ _ ____ _ ____
 72
65
 73
4
 40
0.6
 49
0.375
 74
0
 49
-0.075
 74
0
 49
0.075
 74
0
 49
-0.075
 74
0
  0
LTYPE
  5
1F6
100
AcDbSymbolTableRecord
100
AcDbLinetypeTableRecord
  2
HIDDEN
 70
64
  3
- - - - - - - - - - - - - - - - - - - -
 72
65
 73
2
 40
0.2
 49
0.1
 74
0
 49
-0.1
 74
0
  0
LTYPE
  5
1F7
100
AcDbSymbolTableRecord
100
AcDbLinetypeTableRecord
  2
PHANTOM
 70
64
  3
_____ _ _ _____ _ _ _____ _ _ _____
 72
65
 73
6
 40
0.8
 49
0.45
 74
0
 49
-0.05
 74
0
 49
0.1
 74
0
 49
-0.05
 74
0
 49
0.1
 74
0
 49
-0.05
 74
0
  0
LTYPE
  5
1F8
100
AcDbSymbolTableRecord
100
AcDbLinetypeTableRecord
  2
DOT
 70
64
  3
. . . . . . . . . . . . . . . . . . . .
 72
65
 73
2
 40
0.2
 49
0.1
 74
0
 49
-0.1
 74
0
  0
LTYPE
  5
1F9
100
AcDbSymbolTableRecord
100
AcDbLinetypeTableRecord
  2
DASHED
 70
64
  3
- - - - - - - - - - - - - - - - - - - -
 72
65
 73
2
 40
0.2
 49
0.1
 74
0
 49
-0.1
 74
0
  0
ENDTAB
  0
TABLE
  2
LAYER
  5
2
100
AcDbSymbolTable
 70
36
  0
LAYER
  5
10
100
AcDbSymbolTableRecord
100
AcDbLayerTableRecord
  2
0
 70
0
 62
7
  6
CONTINUOUS
370
-3
390
F
  0
LAYER
  5
1FA
100
AcDbSymbolTableRecord
100
AcDbLayerTableRecord
  2
DEFAULT_1
 70
0
 62
7
  6
CENTER
370
-3
390
F
  0
LAYER
  5
1FB
100
AcDbSymbolTableRecord
100
AcDbLayerTableRecord
  2
DEFAULT_2
 70
0
 62
7
  6
HIDDEN
370
-3
390
F
  0
LAYER
  5
1FC
100
AcDbSymbolTableRecord
100
AcDbLayerTableRecord
  2
DEFAULT_3
 70
0
 62
7
  6
PHANTOM
370
-3
390
F
  0
LAYER
  5
1FD
100
AcDbSymbolTableRecord
100
AcDbLayerTableRecord
  2
ASSI
 70
0
 62
7
  6
CONTINUOUS
370
-3
390
F
  0
LAYER
  5
1FE
100
AcDbSymbolTableRecord
100
AcDbLayerTableRecord
  2
COORDINATE
 70
0
 62
7
  6
CONTINUOUS
370
-3
390
F
  0
LAYER
  5
1FF
100
AcDbSymbolTableRecord
100
AcDbLayerTableRecord
  2
COPY_PUBLISH
 70
0
 62
7
  6
CONTINUOUS
370
-3
390
F
  0
LAYER
  5
200
100
AcDbSymbolTableRecord
100
AcDbLayerTableRecord
  2
COSMETIC
 70
0
 62
7
  6
CONTINUOUS
370
-3
390
F
  0
LAYER
  5
201
100
AcDbSymbolTableRecord
100
AcDbLayerTableRecord
  2
COSMETICI
 70
0
 62
7
  6
CONTINUOUS
370
-3
390
F
  0
LAYER
  5
202
100
AcDbSymbolTableRecord
100
AcDbLayerTableRecord
  2
CURVE
 70
0
 62
7
  6
CONTINUOUS
370
-3
390
F
  0
LAYER
  5
203
100
AcDbSymbolTableRecord
100
AcDbLayerTableRecord
  2
DRAFT
 70
0
 62
7
  6
CONTINUOUS
370
-3
390
F
  0
LAYER
  5
204
100
AcDbSymbolTableRecord
100
AcDbLayerTableRecord
  2
IMPORT_IGES
 70
0
 62
7
  6
CONTINUOUS
370
-3
390
F
  0
LAYER
  5
205
100
AcDbSymbolTableRecord
100
AcDbLayerTableRecord
  2
INTF_11
 70
0
 62
7
  6
CONTINUOUS
370
-3
390
F
  0
LAYER
  5
206
100
AcDbSymbolTableRecord
100
AcDbLayerTableRecord
  2
NOTE
 70
0
 62
7
  6
CONTINUOUS
370
-3
390
F
  0
LAYER
  5
207
100
AcDbSymbolTableRecord
100
AcDbLayerTableRecord
  2
PIANI
 70
0
 62
7
  6
CONTINUOUS
370
-3
390
F
  0
LAYER
  5
208
100
AcDbSymbolTableRecord
100
AcDbLayerTableRecord
  2
PUNTI
 70
0
 62
7
  6
CONTINUOUS
370
-3
390
F
  0
LAYER
  5
209
100
AcDbSymbolTableRecord
100
AcDbLayerTableRecord
  2
RACCORDO
 70
0
 62
7
  6
CONTINUOUS
370
-3
390
F
  0
LAYER
  5
20A
100
AcDbSymbolTableRecord
100
AcDbLayerTableRecord
  2
SIMBOLI
 70
0
 62
7
  6
CONTINUOUS
370
-3
390
F
  0
LAYER
  5
20B
100
AcDbSymbolTableRecord
100
AcDbLayerTableRecord
  2
SMUSSO
 70
0
 62
7
  6
CONTINUOUS
370
-3
390
F
  0
LAYER
  5
20C
100
AcDbSymbolTableRecord
100
AcDbLayerTableRecord
  2
SNAPLINE
 70
0
 62
7
  6
CONTINUOUS
370
-3
390
F
  0
LAYER
  5
20D
100
AcDbSymbolTableRecord
100
AcDbLayerTableRecord
  2
SUPERFICI
 70
0
 62
7
  6
CONTINUOUS
370
-3
390
F
  0
LAYER
  5
20E
100
AcDbSymbolTableRecord
100
AcDbLayerTableRecord
  2
TRASH
 70
0
 62
7
  6
CONTINUOUS
370
-3
390
F
  0
ENDTAB
  0
TABLE
  2
STYLE
  5
3
100
AcDbSymbolTable
 70
1
  0
STYLE
  5
11
100
AcDbSymbolTableRecord
100
AcDbTextStyleTableRecord
  2
STANDARD
 70
0
 40
0.0
 41
0.8
 50
0.0
 71
0
 42
0.2
  3
txt
  4

  0
STYLE
  5
20F
100
AcDbSymbolTableRecord
100
AcDbTextStyleTableRecord
  2
TEXTSTYLE_1
 70
0
 40
0.0
 41
0.8
 50
0.0
 71
0
 42
0.2
  3
gdt
  4

  0
ENDTAB
  0
TABLE
  2
VIEW
  5
6
100
AcDbSymbolTable
 70
0
  0
ENDTAB
  0
TABLE
  2
UCS
  5
7
100
AcDbSymbolTable
 70
0
  0
ENDTAB
  0
TABLE
  2
APPID
  5
9
100
AcDbSymbolTable
 70
1
  0
APPID
  5
210
100
AcDbSymbolTableRecord
100
AcDbRegAppTableRecord
  2
ACAD
 70
0
  0
ENDTAB
  0
TABLE
  2
BLOCK_RECORD
  5
1
100
AcDbSymbolTable
 70
0
  0
BLOCK_RECORD
  5
211
100
AcDbSymbolTableRecord
100
AcDbBlockTableRecord
  2
*Model_Space
  0
BLOCK_RECORD
  5
212
100
AcDbSymbolTableRecord
100
AcDbBlockTableRecord
  2
*Paper_Space
  0
BLOCK_RECORD
  5
213
100
AcDbSymbolTableRecord
100
AcDbBlockTableRecord
  2
_FILLED
  0
ENDTAB
  0
TABLE
  2
DIMSTYLE
  5
A
100
AcDbSymbolTable
 70
1
100
AcDbDimStyleTable
 71
0
  0
DIMSTYLE
105
214
100
AcDbSymbolTableRecord
100
AcDbDimStyleTableRecord
  2
STANDARD
 70
0
  3

  4

 40
1.0
 41
3.0
 42
0.5
 43
0.38
 44
1.5
 45
0.0
 46
0.0
 47
0.01
 48
0.01
140
3.0
141
0.09
142
0.0
143
25.4
144
1.0
145
0.0
146
1.0
147
0.625
 71
1.0
 72
0.0
 73
0
 74
0
 75
0
 76
0
 77
1
 78
8
 79
2
170
0
171
1
172
0
173
0
174
0
175
0
176
0
177
0
178
0
270
2
179
2
271
2
272
2
273
2
274
2
275
0
280
0
281
0
282
0
283
1
284
8
285
0
286
0
287
3
288
0
340
11
278
44
341
213
342
213
343
213
344
213
  0
ENDTAB
  0
ENDSEC
  0
SECTION
  2
BLOCKS
  0
BLOCK
  5
20
100
AcDbEntity
  8
0
100
AcDbBlockBegin
  2
*Model_Space
 70
0
 10
0.0
 20
0.0
 30
0.0
  3
*Model_Space
  1

  0
ENDBLK
  5
21
100
AcDbEntity
  8
0
100
AcDbBlockEnd
  0
BLOCK
  5
1C
100
AcDbEntity
  8
0
100
AcDbBlockBegin
  2
*Paper_Space
 70
0
 10
0.0
 20
0.0
 30
0.0
  3
*Paper_Space
  1

  0
ENDBLK
  5
1D
100
AcDbEntity
  8
0
100
AcDbBlockEnd
  0
BLOCK
  5
215
100
AcDbEntity
  8
0
100
AcDbBlockBegin
  2
_FILLED
 70
64
 10
0.0
 20
0.0
  3
_FILLED
  1

  0
SOLID
  5
216
100
AcDbEntity
  8
0
  6
BYBLOCK
 62
0
100
AcDbTrace
 10
0.0
 20
0.0
 11
-1.0
 21
0.3166666667
 12
-1.0
 22
-0.3166666667
 13
-1.0
 23
-0.3166666667
  0
ENDBLK
  5
217
100
AcDbEntity
  8
0
  6
BYBLOCK
 62
0
100
AcDbBlockEnd
  0
ENDSEC
  0
SECTION
  2
ENTITIES
  0
LINE
  5
218
100
AcDbEntity
  8
0
100
AcDbLine
 62
7
  6
CONTINUOUS
 10
-26.65
 20
5.425
 11
-26.65
 21
-5.475
  0
LINE
  5
219
100
AcDbEntity
  8
0
100
AcDbLine
 62
250
  6
CONTINUOUS
 10
-26.15
 20
-5.975
 11
-26.15
 21
5.925
  0
LINE
  5
21A
100
AcDbEntity
  8
0
100
AcDbLine
 62
7
  6
CONTINUOUS
 10
-15.5317213624
 20
-6.8011786097
 11
-15.65
 21
-0.025
  0
LINE
  5
21B
100
AcDbEntity
  8
0
100
AcDbLine
 62
7
  6
CONTINUOUS
 10
-15.65
 20
-0.025
 11
-15.5317213624
 21
6.7511786097
  0
LINE
  5
21C
100
AcDbEntity
  8
0
100
AcDbLine
 62
250
  6
CONTINUOUS
 10
-14.290794942
 20
-6.8011786097
 11
-14.4090735796
 21
-0.025
  0
LINE
  5
21D
100
AcDbEntity
  8
0
100
AcDbLine
 62
7
  6
CONTINUOUS
 10
-14.5
 20
8.225
 11
-14.5
 21
8.275
  0
LINE
  5
21E
100
AcDbEntity
  8
0
100
AcDbLine
 62
250
  6
CONTINUOUS
 10
-14.4090735796
 20
-0.025
 11
-14.290794942
 21
6.7511786097
  0
LINE
  5
21F
100
AcDbEntity
  8
0
100
AcDbLine
 62
7
  6
CONTINUOUS
 10
-14.0319498197
 20
-8.275
 11
14.0319498197
 21
-8.275
  0
LINE
  5
220
100
AcDbEntity
  8
0
100
AcDbLine
 62
250
  6
CONTINUOUS
 10
-7.1146473745
 20
-0.025
 11
-7.0913357413
 21
-6.8011786097
  0
LINE
  5
221
100
AcDbEntity
  8
0
100
AcDbLine
 62
250
  6
CONTINUOUS
 10
-6.3558784045
 20
-0.025
 11
-6.3325667714
 21
-6.8011786097
  0
LINE
  5
222
100
AcDbEntity
  8
0
100
AcDbLine
 62
7
  6
CONTINUOUS
 10
-7.0
 20
8.225
 11
-7.0
 21
8.275
  0
LINE
  5
223
100
AcDbEntity
  8
0
100
AcDbLine
 62
250
  6
CONTINUOUS
 10
-6.3325667714
 20
-6.8011786097
 11
-6.3325667714
 21
-8.275
  0
LINE
  5
224
100
AcDbEntity
  8
0
100
AcDbLine
 62
250
  6
CONTINUOUS
 10
-6.3325667714
 20
6.7511786097
 11
-6.3325667714
 21
8.225
  0
LINE
  5
225
100
AcDbEntity
  8
0
100
AcDbLine
 62
250
  6
CONTINUOUS
 10
-7.0913357413
 20
6.7511786097
 11
-7.1146473745
 21
-0.025
  0
LINE
  5
226
100
AcDbEntity
  8
0
100
AcDbLine
 62
250
  6
CONTINUOUS
 10
-6.3325667714
 20
6.7511786097
 11
-6.3558784045
 21
-0.025
  0
LINE
  5
227
100
AcDbEntity
  8
0
100
AcDbLine
 62
250
  6
CONTINUOUS
 10
-14.290794942
 20
-6.8011786097
 11
-7.0913357413
 21
-6.8011786097
  0
LINE
  5
228
100
AcDbEntity
  8
0
100
AcDbLine
 62
250
  6
CONTINUOUS
 10
-6.3325667714
 20
-6.8011786097
 11
6.3325667714
 21
-6.8011786097
  0
LINE
  5
229
100
AcDbEntity
  8
0
100
AcDbLine
 62
250
  6
CONTINUOUS
 10
7.0913357413
 20
-6.8011786097
 11
14.290794942
 21
-6.8011786097
  0
LINE
  5
22A
100
AcDbEntity
  8
0
100
AcDbLine
 62
7
  6
CONTINUOUS
 10
-26.15
 20
-5.975
 11
-15.5461423637
 21
-5.975
  0
LINE
  5
22B
100
AcDbEntity
  8
0
100
AcDbLine
 62
7
  6
CONTINUOUS
 10
15.5461423637
 20
-5.975
 11
26.15
 21
-5.975
  0
LINE
  5
22C
100
AcDbEntity
  8
0
100
AcDbLine
 62
7
  6
CONTINUOUS
 10
14.4090735796
 20
-0.025
 11
7.1146473745
 21
-0.025
  0
LINE
  5
22D
100
AcDbEntity
  8
0
100
AcDbLine
 62
7
  6
CONTINUOUS
 10
-6.3558784045
 20
-0.025
 11
-5.0
 21
-0.025
  0
LINE
  5
22E
100
AcDbEntity
  8
0
100
AcDbLine
 62
7
  6
CONTINUOUS
 10
-4.2
 20
-0.025
 11
-1.175
 21
-0.025
  0
LINE
  5
22F
100
AcDbEntity
  8
0
100
AcDbLine
 62
7
  6
CONTINUOUS
 10
1.175
 20
-0.025
 11
4.2
 21
-0.025
  0
LINE
  5
230
100
AcDbEntity
  8
0
100
AcDbLine
 62
7
  6
CONTINUOUS
 10
5.0
 20
-0.025
 11
6.3558784045
 21
-0.025
  0
LINE
  5
231
100
AcDbEntity
  8
0
100
AcDbLine
 62
7
  6
CONTINUOUS
 10
-7.1146473745
 20
-0.025
 11
-14.4090735796
 21
-0.025
  0
LINE
  5
232
100
AcDbEntity
  8
0
100
AcDbLine
 62
250
  6
CONTINUOUS
 10
6.3558784045
 20
-0.025
 11
6.3325667714
 21
6.7511786097
  0
LINE
  5
233
100
AcDbEntity
  8
0
100
AcDbLine
 62
250
  6
CONTINUOUS
 10
7.1146473745
 20
-0.025
 11
7.0913357413
 21
6.7511786097
  0
LINE
  5
234
100
AcDbEntity
  8
0
100
AcDbLine
 62
250
  6
CONTINUOUS
 10
6.3325667714
 20
-6.8011786097
 11
6.3325667714
 21
-8.275
  0
LINE
  5
235
100
AcDbEntity
  8
0
100
AcDbLine
 62
250
  6
CONTINUOUS
 10
6.3325667714
 20
6.7511786097
 11
6.3325667714
 21
8.225
  0
LINE
  5
236
100
AcDbEntity
  8
0
100
AcDbLine
 62
7
  6
CONTINUOUS
 10
7.0
 20
8.225
 11
7.0
 21
8.275
  0
LINE
  5
237
100
AcDbEntity
  8
0
100
AcDbLine
 62
250
  6
CONTINUOUS
 10
6.3325667714
 20
-6.8011786097
 11
6.3558784045
 21
-0.025
  0
LINE
  5
238
100
AcDbEntity
  8
0
100
AcDbLine
 62
250
  6
CONTINUOUS
 10
7.0913357413
 20
-6.8011786097
 11
7.1146473745
 21
-0.025
  0
LINE
  5
239
100
AcDbEntity
  8
0
100
AcDbLine
 62
7
  6
CONTINUOUS
 10
-26.15
 20
5.925
 11
-15.5461423637
 21
5.925
  0
LINE
  5
23A
100
AcDbEntity
  8
0
100
AcDbLine
 62
7
  6
CONTINUOUS
 10
15.5461423637
 20
5.925
 11
26.15
 21
5.925
  0
LINE
  5
23B
100
AcDbEntity
  8
0
100
AcDbLine
 62
250
  6
CONTINUOUS
 10
14.290794942
 20
6.7511786097
 11
7.0913357413
 21
6.7511786097
  0
LINE
  5
23C
100
AcDbEntity
  8
0
100
AcDbLine
 62
250
  6
CONTINUOUS
 10
6.3325667714
 20
6.7511786097
 11
-6.3325667714
 21
6.7511786097
  0
LINE
  5
23D
100
AcDbEntity
  8
0
100
AcDbLine
 62
250
  6
CONTINUOUS
 10
-7.0913357413
 20
6.7511786097
 11
-14.290794942
 21
6.7511786097
  0
LINE
  5
23E
100
AcDbEntity
  8
0
100
AcDbLine
 62
7
  6
CONTINUOUS
 10
14.5
 20
8.225
 11
-14.5
 21
8.225
  0
LINE
  5
23F
100
AcDbEntity
  8
0
100
AcDbLine
 62
7
  6
CONTINUOUS
 10
14.5
 20
8.275
 11
-14.5
 21
8.275
  0
LINE
  5
240
100
AcDbEntity
  8
0
100
AcDbLine
 62
250
  6
CONTINUOUS
 10
14.290794942
 20
6.7511786097
 11
14.4090735796
 21
-0.025
  0
LINE
  5
241
100
AcDbEntity
  8
0
100
AcDbLine
 62
7
  6
CONTINUOUS
 10
14.5
 20
8.225
 11
14.5
 21
8.275
  0
LINE
  5
242
100
AcDbEntity
  8
0
100
AcDbLine
 62
250
  6
CONTINUOUS
 10
14.4090735796
 20
-0.025
 11
14.290794942
 21
-6.8011786097
  0
LINE
  5
243
100
AcDbEntity
  8
0
100
AcDbLine
 62
7
  6
CONTINUOUS
 10
15.5317213624
 20
6.7511786097
 11
15.65
 21
-0.025
  0
LINE
  5
244
100
AcDbEntity
  8
0
100
AcDbLine
 62
7
  6
CONTINUOUS
 10
15.65
 20
-0.025
 11
15.5317213624
 21
-6.8011786097
  0
LINE
  5
245
100
AcDbEntity
  8
0
100
AcDbLine
 62
250
  6
CONTINUOUS
 10
26.15
 20
5.925
 11
26.15
 21
-5.975
  0
LINE
  5
246
100
AcDbEntity
  8
0
100
AcDbLine
 62
7
  6
CONTINUOUS
 10
26.65
 20
5.425
 11
26.65
 21
-5.475
  0
ARC
  5
247
100
AcDbEntity
  8
0
100
AcDbCircle
 62
250
  6
CONTINUOUS
 10
-6.7119512564
 20
-138.549983627
 40
145.3016575264
100
AcDbArc
 50
89.8503998174
 51
90.1496001826
  0
ARC
  5
248
100
AcDbEntity
  8
0
100
AcDbCircle
 62
7
  6
CONTINUOUS
 10
-14.0319498197
 20
-6.775
 40
1.5
100
AcDbArc
 50
181.0
 51
270.0
  0
ARC
  5
249
100
AcDbEntity
  8
0
100
AcDbCircle
 62
7
  6
CONTINUOUS
 10
-26.15
 20
-5.475
 40
0.5
100
AcDbArc
 50
180.0
 51
270.0
  0
ARC
  5
24A
100
AcDbEntity
  8
0
100
AcDbCircle
 62
250
  6
CONTINUOUS
 10
-6.7119512564
 20
132.9764962749
 40
139.7781897462
100
AcDbArc
 50
269.84448821
 51
270.15551179
  0
ARC
  5
24B
100
AcDbEntity
  8
0
100
AcDbCircle
 62
7
  6
CONTINUOUS
 10
-14.0319498197
 20
6.725
 40
1.5
100
AcDbArc
 50
90.0
 51
179.0
  0
ARC
  5
24C
100
AcDbEntity
  8
0
100
AcDbCircle
 62
7
  6
CONTINUOUS
 10
-26.15
 20
5.425
 40
0.5
100
AcDbArc
 50
90.0
 51
180.0
  0
ARC
  5
24D
100
AcDbEntity
  8
0
100
AcDbCircle
 62
250
  6
CONTINUOUS
 10
6.7119512564
 20
-133.0264962765
 40
139.7781897478
100
AcDbArc
 50
89.84448821
 51
90.15551179
  0
ARC
  5
24E
100
AcDbEntity
  8
0
100
AcDbCircle
 62
7
  6
CONTINUOUS
 10
14.0319498197
 20
-6.775
 40
1.5
100
AcDbArc
 50
270.0
 51
359.0
  0
ARC
  5
24F
100
AcDbEntity
  8
0
100
AcDbCircle
 62
7
  6
CONTINUOUS
 10
26.15
 20
-5.475
 40
0.5
100
AcDbArc
 50
270.0
 51
360.0
  0
ARC
  5
250
100
AcDbEntity
  8
0
100
AcDbCircle
 62
250
  6
CONTINUOUS
 10
6.7119512564
 20
138.499983627
 40
145.3016575264
100
AcDbArc
 50
269.8503998174
 51
270.1496001826
  0
CIRCLE
  5
251
100
AcDbEntity
  8
0
100
AcDbCircle
 62
7
  6
CONTINUOUS
 10
-0.0
 20
-0.025
 40
5.0
  0
CIRCLE
  5
252
100
AcDbEntity
  8
0
100
AcDbCircle
 62
7
  6
CONTINUOUS
 10
-0.0
 20
-0.025
 40
4.6
  0
CIRCLE
  5
253
100
AcDbEntity
  8
0
100
AcDbCircle
 62
7
  6
CONTINUOUS
 10
-0.0
 20
-0.025
 40
4.2
  0
ARC
  5
254
100
AcDbEntity
  8
0
100
AcDbCircle
 62
7
  6
CONTINUOUS
 10
14.0319498197
 20
6.725
 40
1.5
100
AcDbArc
 50
1.0
 51
90.0
  0
CIRCLE
  5
255
100
AcDbEntity
  8
0
100
AcDbCircle
 62
7
  6
CONTINUOUS
 10
-0.0
 20
-0.025
 40
1.175
  0
ARC
  5
256
100
AcDbEntity
  8
0
100
AcDbCircle
 62
7
  6
CONTINUOUS
 10
26.15
 20
5.425
 40
0.5
100
AcDbArc
 50
0.0
 51
90.0
  0
CIRCLE
  5
257
100
AcDbEntity
  8
0
100
AcDbCircle
 62
7
  6
CONTINUOUS
 10
-0.0
 20
-0.025
 40
0.5
  0
SPLINE
  5
258
100
AcDbEntity
  8
0
100
AcDbSpline
 62
250
  6
CONTINUOUS
 70
0
 71
3
 72
17
 73
13
 74
0
 42
0.0000001
 43
0.0000001
 44
0.0000000001
 40
0.0
 40
0.0
 40
0.0
 40
0.0
 40
0.1720136346
 40
0.3380610866
 40
0.4928954068
 40
0.6320775712
 40
0.75219407
 40
0.8516223638
 40
0.8939629683
 40
0.9320617497
 40
0.9669354258
 40
1.0
 40
1.0
 40
1.0
 40
1.0
 10
-7.0913357413
 20
-6.8011786097
 30
0.0
 10
-7.0906974141
 20
-6.8975557475
 30
0.0
 10
-7.0825567171
 20
-7.0869991114
 30
0.0
 10
-7.0499170888
 20
-7.3615124321
 30
0.0
 10
-6.9981671406
 20
-7.6143789085
 30
0.0
 10
-6.9293084491
 20
-7.8365045456
 30
0.0
 10
-6.8458973396
 20
-8.0199823761
 30
0.0
 10
-6.7621866471
 20
-8.1422141153
 30
0.0
 10
-6.6887996626
 20
-8.2118407678
 30
0.0
 10
-6.6346970426
 20
-8.24788144
 30
0.0
 10
-6.5790037533
 20
-8.2699428162
 30
0.0
 10
-6.5407850972
 20
-8.275
 30
0.0
 10
-6.5222590139
 20
-8.275
 30
0.0
  0
SPLINE
  5
259
100
AcDbEntity
  8
0
100
AcDbSpline
 62
250
  6
CONTINUOUS
 70
0
 71
3
 72
17
 73
13
 74
0
 42
0.0000001
 43
0.0000001
 44
0.0000000001
 40
0.0
 40
0.0
 40
0.0
 40
0.0
 40
0.1720136326
 40
0.3380610822
 40
0.4928954005
 40
0.6320775636
 40
0.7521940619
 40
0.8516223565
 40
0.8939629621
 40
0.9320617451
 40
0.9669354233
 40
1.0
 40
1.0
 40
1.0
 40
1.0
 10
-14.290794942
 20
-6.8011786097
 30
0.0
 10
-14.290156618
 20
-6.8975557472
 30
0.0
 10
-14.2820159266
 20
-7.0869991104
 30
0.0
 10
-14.2493763048
 20
-7.3615124307
 30
0.0
 10
-14.1976263609
 20
-7.6143789069
 30
0.0
 10
-14.1287676709
 20
-7.8365045444
 30
0.0
 10
-14.0453565601
 20
-8.0199823757
 30
0.0
 10
-13.9616458642
 20
-8.1422141152
 30
0.0
 10
-13.8882588759
 20
-8.2118407677
 30
0.0
 10
-13.834156252
 20
-8.24788144
 30
0.0
 10
-13.7784629584
 20
-8.2699428162
 30
0.0
 10
-13.7402442994
 20
-8.275
 30
0.0
 10
-13.7217182146
 20
-8.275
 30
0.0
  0
SPLINE
  5
25A
100
AcDbEntity
  8
0
100
AcDbSpline
 62
250
  6
CONTINUOUS
 70
0
 71
3
 72
17
 73
13
 74
0
 42
0.0000001
 43
0.0000001
 44
0.0000000001
 40
0.0
 40
0.0
 40
0.0
 40
0.0
 40
0.1720136309
 40
0.3380610788
 40
0.4928953945
 40
0.6320775553
 40
0.7521940522
 40
0.851622347
 40
0.8939629537
 40
0.9320617386
 40
0.9669354195
 40
1.0
 40
1.0
 40
1.0
 40
1.0
 10
-14.290794942
 20
6.7511786097
 30
0.0
 10
-14.2901566229
 20
6.8475557475
 30
0.0
 10
-14.2820159399
 20
7.0369991118
 30
0.0
 10
-14.2493763283
 20
7.3115124335
 30
0.0
 10
-14.1976263903
 20
7.5643789108
 30
0.0
 10
-14.1287677022
 20
7.7865045485
 30
0.0
 10
-14.0453565893
 20
7.9699823798
 30
0.0
 10
-13.9616458879
 20
8.0922141182
 30
0.0
 10
-13.8882588937
 20
8.1618407691
 30
0.0
 10
-13.8341562647
 20
8.197881441
 30
0.0
 10
-13.778462965
 20
8.2199428167
 30
0.0
 10
-13.7402443018
 20
8.225
 30
0.0
 10
-13.7217182146
 20
8.225
 30
0.0
  0
SPLINE
  5
25B
100
AcDbEntity
  8
0
100
AcDbSpline
 62
250
  6
CONTINUOUS
 70
0
 71
3
 72
17
 73
13
 74
0
 42
0.0000001
 43
0.0000001
 44
0.0000000001
 40
0.0
 40
0.0
 40
0.0
 40
0.0
 40
0.1720136326
 40
0.3380610822
 40
0.4928954005
 40
0.6320775636
 40
0.7521940619
 40
0.8516223565
 40
0.8939629621
 40
0.9320617451
 40
0.9669354233
 40
1.0
 40
1.0
 40
1.0
 40
1.0
 10
-7.0913357413
 20
6.7511786097
 30
0.0
 10
-7.0906974173
 20
6.8475557472
 30
0.0
 10
-7.0825567259
 20
7.0369991104
 30
0.0
 10
-7.0499171041
 20
7.3115124307
 30
0.0
 10
-6.9981671602
 20
7.5643789069
 30
0.0
 10
-6.9293084702
 20
7.7865045444
 30
0.0
 10
-6.8458973594
 20
7.9699823757
 30
0.0
 10
-6.7621866635
 20
8.0922141152
 30
0.0
 10
-6.6887996751
 20
8.1618407677
 30
0.0
 10
-6.6346970513
 20
8.19788144
 30
0.0
 10
-6.5790037577
 20
8.2199428162
 30
0.0
 10
-6.5407850987
 20
8.225
 30
0.0
 10
-6.5222590139
 20
8.225
 30
0.0
  0
SPLINE
  5
25C
100
AcDbEntity
  8
0
100
AcDbSpline
 62
250
  6
CONTINUOUS
 70
0
 71
3
 72
17
 73
13
 74
0
 42
0.0000001
 43
0.0000001
 44
0.0000000001
 40
0.0
 40
0.0
 40
0.0
 40
0.0
 40
0.1720136346
 40
0.3380610866
 40
0.4928954068
 40
0.6320775712
 40
0.75219407
 40
0.8516223638
 40
0.8939629683
 40
0.9320617497
 40
0.9669354258
 40
1.0
 40
1.0
 40
1.0
 40
1.0
 10
7.0913357413
 20
6.7511786097
 30
0.0
 10
7.0906974141
 20
6.8475557475
 30
0.0
 10
7.0825567171
 20
7.0369991114
 30
0.0
 10
7.0499170888
 20
7.3115124321
 30
0.0
 10
6.9981671406
 20
7.5643789085
 30
0.0
 10
6.9293084491
 20
7.7865045456
 30
0.0
 10
6.8458973396
 20
7.9699823761
 30
0.0
 10
6.7621866471
 20
8.0922141153
 30
0.0
 10
6.6887996626
 20
8.1618407678
 30
0.0
 10
6.6346970426
 20
8.19788144
 30
0.0
 10
6.5790037533
 20
8.2199428162
 30
0.0
 10
6.5407850972
 20
8.225
 30
0.0
 10
6.5222590139
 20
8.225
 30
0.0
  0
SPLINE
  5
25D
100
AcDbEntity
  8
0
100
AcDbSpline
 62
250
  6
CONTINUOUS
 70
0
 71
3
 72
17
 73
13
 74
0
 42
0.0000001
 43
0.0000001
 44
0.0000000001
 40
0.0
 40
0.0
 40
0.0
 40
0.0
 40
0.1720136326
 40
0.3380610822
 40
0.4928954005
 40
0.6320775636
 40
0.7521940619
 40
0.8516223565
 40
0.8939629621
 40
0.9320617451
 40
0.9669354233
 40
1.0
 40
1.0
 40
1.0
 40
1.0
 10
14.290794942
 20
6.7511786097
 30
0.0
 10
14.290156618
 20
6.8475557472
 30
0.0
 10
14.2820159266
 20
7.0369991104
 30
0.0
 10
14.2493763048
 20
7.3115124307
 30
0.0
 10
14.1976263609
 20
7.5643789069
 30
0.0
 10
14.1287676709
 20
7.7865045444
 30
0.0
 10
14.0453565601
 20
7.9699823757
 30
0.0
 10
13.9616458642
 20
8.0922141152
 30
0.0
 10
13.8882588759
 20
8.1618407677
 30
0.0
 10
13.834156252
 20
8.19788144
 30
0.0
 10
13.7784629584
 20
8.2199428162
 30
0.0
 10
13.7402442994
 20
8.225
 30
0.0
 10
13.7217182146
 20
8.225
 30
0.0
  0
LINE
  5
25E
100
AcDbEntity
  8
0
100
AcDbLine
 62
7
  6
CONTINUOUS
 10
14.4090735796
 20
-0.025
 11
15.65
 21
-0.025
  0
SPLINE
  5
25F
100
AcDbEntity
  8
0
100
AcDbSpline
 62
250
  6
CONTINUOUS
 70
0
 71
3
 72
23
 73
19
 74
0
 42
0.0000001
 43
0.0000001
 44
0.0000000001
 40
0.0
 40
0.0
 40
0.0
 40
0.0
 40
0.0012204791
 40
0.0045596741
 40
0.0100697887
 40
0.0177519845
 40
0.0276012522
 40
0.0396100917
 40
0.0700322835
 40
0.1088397651
 40
0.1558381916
 40
0.2107655189
 40
0.2733244745
 40
0.3431877782
 40
0.4199526733
 40
0.592498581
 40
0.7873336997
 40
1.0
 40
1.0
 40
1.0
 40
1.0
 10
15.5317213624
 20
6.7511786097
 30
0.0
 10
15.5317125736
 20
6.7516834826
 30
0.0
 10
15.528995025
 20
6.7519064583
 30
0.0
 10
15.525660525
 20
6.7526144176
 30
0.0
 10
15.5183896604
 20
6.7530128746
 30
0.0
 10
15.5090664594
 20
6.7535568138
 30
0.0
 10
15.4967771026
 20
6.7540011737
 30
0.0
 10
15.475192037
 20
6.7546320538
 30
0.0
 10
15.4415628783
 20
6.7552553112
 30
0.0
 10
15.3934891559
 20
6.7558249997
 30
0.0
 10
15.3352611025
 20
6.7562296869
 30
0.0
 10
15.267210342
 20
6.7564725272
 30
0.0
 10
15.1896976644
 20
6.7565475377
 30
0.0
 10
15.1031506851
 20
6.7564538981
 30
0.0
 10
14.9710990237
 20
6.7560887182
 30
0.0
 10
14.7873443769
 20
6.7551777979
 30
0.0
 10
14.547366898
 20
6.7534916873
 30
0.0
 10
14.3787774834
 20
6.7520171615
 30
0.0
 10
14.290794942
 20
6.7511786097
 30
0.0
  0
SPLINE
  5
260
100
AcDbEntity
  8
0
100
AcDbSpline
 62
250
  6
CONTINUOUS
 70
0
 71
3
 72
23
 73
19
 74
0
 42
0.0000001
 43
0.0000001
 44
0.0000000001
 40
0.0
 40
0.0
 40
0.0
 40
0.0
 40
0.2126521579
 40
0.4074476835
 40
0.5799763496
 40
0.6567444593
 40
0.7266098873
 40
0.7891758813
 40
0.8441183226
 40
0.8911269843
 40
0.929946859
 40
0.960380051
 40
0.9723914948
 40
0.9822428772
 40
0.9899270268
 40
0.9954387625
 40
0.9987790749
 40
1.0
 40
1.0
 40
1.0
 40
1.0
 10
14.290794942
 20
-6.8011786097
 30
0.0
 10
14.3787716344
 20
-6.8020169135
 30
0.0
 10
14.54733882
 20
-6.8034909289
 30
0.0
 10
14.7872869276
 20
-6.8051778459
 30
0.0
 10
14.9710193923
 20
-6.8060883524
 30
0.0
 10
15.1030661286
 20
-6.8064537097
 30
0.0
 10
15.1896182288
 20
-6.8065475405
 30
0.0
 10
15.2671409503
 20
-6.8064726496
 30
0.0
 10
15.3352051118
 20
-6.8062300912
 30
0.0
 10
15.3934487798
 20
-6.8058251284
 30
0.0
 10
15.4415364126
 20
-6.805255442
 30
0.0
 10
15.475176341
 20
-6.80463244
 30
0.0
 10
15.4967679061
 20
-6.8040015836
 30
0.0
 10
15.5090600376
 20
-6.8035572309
 30
0.0
 10
15.5183855532
 20
-6.8030132082
 30
0.0
 10
15.5256584749
 20
-6.8026147687
 30
0.0
 10
15.5289940449
 20
-6.8019065283
 30
0.0
 10
15.5317125324
 20
-6.8016836664
 30
0.0
 10
15.5317213624
 20
-6.8011786097
 30
0.0
  0
LINE
  5
261
100
AcDbEntity
  8
0
100
AcDbLine
 62
7
  6
CONTINUOUS
 10
7.1146473745
 20
-0.025
 11
6.3558784045
 21
-0.025
  0
LINE
  5
262
100
AcDbEntity
  8
0
100
AcDbLine
 62
7
  6
CONTINUOUS
 10
-7.1146473745
 20
-0.025
 11
-6.3558784045
 21
-0.025
  0
SPLINE
  5
263
100
AcDbEntity
  8
0
100
AcDbSpline
 62
250
  6
CONTINUOUS
 70
0
 71
3
 72
17
 73
13
 74
0
 42
0.0000001
 43
0.0000001
 44
0.0000000001
 40
0.0
 40
0.0
 40
0.0
 40
0.0
 40
0.1720136309
 40
0.3380610788
 40
0.4928953945
 40
0.6320775553
 40
0.7521940522
 40
0.851622347
 40
0.8939629537
 40
0.9320617386
 40
0.9669354195
 40
1.0
 40
1.0
 40
1.0
 40
1.0
 10
14.290794942
 20
-6.8011786097
 30
0.0
 10
14.2901566229
 20
-6.8975557475
 30
0.0
 10
14.2820159399
 20
-7.0869991118
 30
0.0
 10
14.2493763283
 20
-7.3615124335
 30
0.0
 10
14.1976263903
 20
-7.6143789108
 30
0.0
 10
14.1287677022
 20
-7.8365045485
 30
0.0
 10
14.0453565893
 20
-8.0199823798
 30
0.0
 10
13.9616458879
 20
-8.1422141182
 30
0.0
 10
13.8882588937
 20
-8.2118407691
 30
0.0
 10
13.8341562647
 20
-8.247881441
 30
0.0
 10
13.778462965
 20
-8.2699428167
 30
0.0
 10
13.7402443018
 20
-8.275
 30
0.0
 10
13.7217182146
 20
-8.275
 30
0.0
  0
LINE
  5
264
100
AcDbEntity
  8
0
100
AcDbLine
 62
7
  6
CONTINUOUS
 10
-14.4090735796
 20
-0.025
 11
-15.65
 21
-0.025
  0
SPLINE
  5
265
100
AcDbEntity
  8
0
100
AcDbSpline
 62
250
  6
CONTINUOUS
 70
0
 71
3
 72
23
 73
19
 74
0
 42
0.0000001
 43
0.0000001
 44
0.0000000001
 40
0.0
 40
0.0
 40
0.0
 40
0.0
 40
0.0012204791
 40
0.0045596741
 40
0.0100697887
 40
0.0177519845
 40
0.0276012522
 40
0.0396100917
 40
0.0700322835
 40
0.1088397651
 40
0.1558381916
 40
0.2107655189
 40
0.2733244745
 40
0.3431877782
 40
0.4199526733
 40
0.592498581
 40
0.7873336997
 40
1.0
 40
1.0
 40
1.0
 40
1.0
 10
-15.5317213624
 20
-6.8011786097
 30
0.0
 10
-15.5317125736
 20
-6.8016834826
 30
0.0
 10
-15.528995025
 20
-6.8019064583
 30
0.0
 10
-15.525660525
 20
-6.8026144176
 30
0.0
 10
-15.5183896604
 20
-6.8030128746
 30
0.0
 10
-15.5090664594
 20
-6.8035568138
 30
0.0
 10
-15.4967771026
 20
-6.8040011737
 30
0.0
 10
-15.475192037
 20
-6.8046320538
 30
0.0
 10
-15.4415628783
 20
-6.8052553112
 30
0.0
 10
-15.3934891559
 20
-6.8058249997
 30
0.0
 10
-15.3352611025
 20
-6.8062296869
 30
0.0
 10
-15.267210342
 20
-6.8064725272
 30
0.0
 10
-15.1896976644
 20
-6.8065475377
 30
0.0
 10
-15.1031506851
 20
-6.8064538981
 30
0.0
 10
-14.9710990237
 20
-6.8060887182
 30
0.0
 10
-14.7873443769
 20
-6.8051777979
 30
0.0
 10
-14.547366898
 20
-6.8034916873
 30
0.0
 10
-14.3787774834
 20
-6.8020171615
 30
0.0
 10
-14.290794942
 20
-6.8011786097
 30
0.0
  0
SPLINE
  5
266
100
AcDbEntity
  8
0
100
AcDbSpline
 62
250
  6
CONTINUOUS
 70
0
 71
3
 72
23
 73
19
 74
0
 42
0.0000001
 43
0.0000001
 44
0.0000000001
 40
0.0
 40
0.0
 40
0.0
 40
0.0
 40
0.2126521579
 40
0.4074476835
 40
0.5799763496
 40
0.6567444593
 40
0.7266098873
 40
0.7891758813
 40
0.8441183226
 40
0.8911269843
 40
0.929946859
 40
0.960380051
 40
0.9723914948
 40
0.9822428772
 40
0.9899270268
 40
0.9954387625
 40
0.9987790749
 40
1.0
 40
1.0
 40
1.0
 40
1.0
 10
-14.290794942
 20
6.7511786097
 30
0.0
 10
-14.3787716344
 20
6.7520169135
 30
0.0
 10
-14.54733882
 20
6.7534909289
 30
0.0
 10
-14.7872869276
 20
6.7551778459
 30
0.0
 10
-14.9710193923
 20
6.7560883524
 30
0.0
 10
-15.1030661286
 20
6.7564537097
 30
0.0
 10
-15.1896182288
 20
6.7565475405
 30
0.0
 10
-15.2671409503
 20
6.7564726496
 30
0.0
 10
-15.3352051118
 20
6.7562300912
 30
0.0
 10
-15.3934487798
 20
6.7558251284
 30
0.0
 10
-15.4415364126
 20
6.755255442
 30
0.0
 10
-15.475176341
 20
6.75463244
 30
0.0
 10
-15.4967679061
 20
6.7540015836
 30
0.0
 10
-15.5090600376
 20
6.7535572309
 30
0.0
 10
-15.5183855532
 20
6.7530132082
 30
0.0
 10
-15.5256584749
 20
6.7526147687
 30
0.0
 10
-15.5289940449
 20
6.7519065283
 30
0.0
 10
-15.5317125324
 20
6.7516836664
 30
0.0
 10
-15.5317213624
 20
6.7511786097
 30
0.0
  0
SPLINE
  5
267
100
AcDbEntity
  8
0
100
AcDbSpline
 62
250
  6
CONTINUOUS
 70
0
 71
3
 72
17
 73
13
 74
0
 42
0.0000001
 43
0.0000001
 44
0.0000000001
 40
0.0
 40
0.0
 40
0.0
 40
0.0
 40
0.1720136326
 40
0.3380610822
 40
0.4928954005
 40
0.6320775636
 40
0.7521940619
 40
0.8516223565
 40
0.8939629621
 40
0.9320617451
 40
0.9669354233
 40
1.0
 40
1.0
 40
1.0
 40
1.0
 10
7.0913357413
 20
-6.8011786097
 30
0.0
 10
7.0906974173
 20
-6.8975557472
 30
0.0
 10
7.0825567259
 20
-7.0869991104
 30
0.0
 10
7.0499171041
 20
-7.3615124307
 30
0.0
 10
6.9981671602
 20
-7.6143789069
 30
0.0
 10
6.9293084702
 20
-7.8365045444
 30
0.0
 10
6.8458973594
 20
-8.0199823757
 30
0.0
 10
6.7621866635
 20
-8.1422141152
 30
0.0
 10
6.6887996751
 20
-8.2118407677
 30
0.0
 10
6.6346970513
 20
-8.24788144
 30
0.0
 10
6.5790037577
 20
-8.2699428162
 30
0.0
 10
6.5407850987
 20
-8.275
 30
0.0
 10
6.5222590139
 20
-8.275
 30
0.0
  0
ENDSEC
  0
SECTION
  2
OBJECTS
  0
DICTIONARY
  5
C
100
AcDbDictionary
280
0
281
1
  3
ACAD_GROUP
350
D
  3
ACAD_MLINESTYLE
350
17
  3
ACAD_LAYOUT
350
1A
  3
ACAD_PLOTSETTINGS
350
19
  3
ACAD_PLOTSTYLENAME
350
E
  0
DICTIONARY
  5
D
102
{ACAD_REACTORS
330
C
102
}
100
AcDbDictionary
280
0
281
1
  0
ACDBDICTIONARYWDFLT
  5
E
102
{ACAD_REACTORS
330
C
102
}
100
AcDbDictionary
281
1
  3
Normal
350
F
100
AcDbDictionaryWithDefault
340
F
  0
DICTIONARY
  5
17
102
{ACAD_REACTORS
330
C
102
}
100
AcDbDictionary
280
0
281
1
  3
Standard
350
18
  0
DICTIONARY
  5
19
102
{ACAD_REACTORS
330
C
102
}
100
AcDbDictionary
281
1
  0
DICTIONARY
  5
1A
102
{ACAD_REACTORS
330
C
102
}
100
AcDbDictionary
281
1
  3
Model
350
268
  3
Layout1
350
269
  0
ACDBPLACEHOLDER
  5
F
102
{ACAD_REACTORS
330
E
102
}
  0
MLINESTYLE
  5
18
102
{ACAD_REACTORS
330
17
102
}
100
AcDbMlineStyle
  2
STANDARD
 70
0
  3

 62
256
 51
90.0
 52
90.0
 71
2
 49
0.5
 62
256
  6
BYLAYER
 49
-0.5
 62
256
  6
BYLAYER
  0
LAYOUT
  5
268
102
{ACAD_REACTORS
330
1A
102
}
100
AcDbPlotSettings
  1

  2
none_device
  4
ISO_A4_(297.00_x_210.00_MM)
  6

 40
0.0
 41
0.0
 42
0.0
 43
0.0
 44
297.0
 45
210.0
 46
0.0
 47
0.0
 48
0.0
 49
0.0
140
0.0
141
0.0
142
1.0
143
1.0
 70
1024
 72
1
 73
0
 74
0
  7

 75
0
147
1.0
148
0.0
149
0.0
100
AcDbLayout
  1
Model
 70
0
 71
0
 10
0.0
 20
0.0
 11
297.0
 21
210.0
 12
0.0
 22
0.0
 32
0.0
 14
0.0
 24
0.0
 34
0.0
 15
0.0
 25
0.0
 35
0.0
146
0.0
 13
0.0
 23
0.0
 33
0.0
 16
1.0
 26
0.0
 36
0.0
 17
0.0
 27
1.0
 37
0.0
 76
0
330
211
345
0
346
0
  0
LAYOUT
  5
269
102
{ACAD_REACTORS
330
1A
102
}
100
AcDbPlotSettings
  1

  2
none_device
  4
ISO_A4_(297.00_x_210.00_MM)
  6

 40
0.0
 41
0.0
 42
0.0
 43
0.0
 44
297.0
 45
210.0
 46
0.0
 47
0.0
 48
0.0
 49
0.0
140
0.0
141
0.0
142
1.0
143
1.0
 70
0
 72
1
 73
0
 74
0
  7

 75
0
147
1.0
148
0.0
149
0.0
100
AcDbLayout
  1
Layout1
 70
0
 71
1
 10
0.0
 20
0.0
 11
297.0
 21
210.0
 12
0.0
 22
0.0
 32
0.0
 14
0.0
 24
0.0
 34
0.0
 15
0.0
 25
0.0
 35
0.0
146
0.0
 13
0.0
 23
0.0
 33
0.0
 16
1.0
 26
0.0
 36
0.0
 17
0.0
 27
1.0
 37
0.0
 76
0
330
212
345
0
346
0
  0
ENDSEC
  0
EOF
