  0
SECTION
  2
HEADER
  9
$ACADVER
  1
AC1021
  9
$DWGCODEPAGE
  3
ANSI_1252
  9
$EXTMAX
 10
297.0
 20
210.0
 30
0.0
  9
$EXTMIN
 10
0.0
 20
0.0
 30
0.0
  9
$LIMMIN
 10
0.0
 20
0.0
  9
$LIMMAX
 10
297.0
 20
210.0
  9
$VIEWCTR
 10
148.5
 20
105.0
  9
$VIEWSIZE
 40
210.0
  9
$CLAYER
  8
0
  9
$LTSCALE
 40
16.335
  9
$CELTYPE
  6
BYLAYER
  9
$DIMSCALE
 40
1.0
  9
$DIMASZ
 40
3.0
  9
$DIMEXO
 40
0.5
  9
$DIMDLI
 40
11.286
  9
$DIMEXE
 40
1.5
  9
$DIMCEN
 40
2.673
  9
$DIMLFAC
 40
1.0
  9
$DIMBLK
  1
_FILLED
  9
$DIMALT
 70
0
  9
$DIMALTF
 40
0.0393700787
  9
$DIMTXT
 40
3.0
  9
$DIMTOL
 70
1
  9
$DIMLIM
 70
0
  9
$DIMTFAC
 40
1.0
  9
$DIMTP
 40
0.01
  9
$DIMTM
 40
0.01
  9
$DIMGAP
 40
0.625
  9
$DIMDSEP
 70
44
  9
$AUNITS
 70
0
  9
$PDMODE
 70
3
  9
$PDSIZE
 40
3.0
  9
$HANDSEED
  5
69C
  9
$TILEMODE
 70
1
  9
$MEASUREMENT
 70
1
  9
$INSUNITS
 70
4
  0
ENDSEC
  0
SECTION
  2
CLASSES
  0
CLASS
  1
ACDBDICTIONARYWDFLT
  2
AcDbDictionaryWithDefault
  3
AutoCAD 2000
 90
0
 91
1
280
0
281
0
  0
CLASS
  1
ACDBPLACEHOLDER
  2
AcDbPlaceHolder
  3
AutoCAD 2000
 90
0
 91
1
280
0
281
0
  0
CLASS
  1
LAYOUT
  2
AcDbLayout
  3
AutoCAD 2000
 90
0
 91
0
280
0
281
0
  0
ENDSEC
  0
SECTION
  2
TABLES
  0
TABLE
  2
VPORT
  5
8
100
AcDbSymbolTable
 70
2
  0
VPORT
  5
1F4
100
AcDbSymbolTableRecord
100
AcDbViewportTableRecord
  2
*ACTIVE
 70
0
 10
0.0
 20
0.0
 11
1.0
 21
1.0
 12
148.5
 22
105.0
 13
0.0
 23
0.0
 14
1.0
 24
1.0
 15
0.0
 25
0.0
 16
0.0
 26
0.0
 36
1.0
 17
0.0
 27
0.0
 37
0.0
 40
210.0
 41
1.4142857143
 42
50.0
 43
0.0
 44
0.0
 50
0.0
 51
0.0
 71
0
 72
100
 73
1
 74
1
 75
0
 76
0
 77
0
 78
0
  0
ENDTAB
  0
TABLE
  2
LTYPE
  5
5
100
AcDbSymbolTable
 70
6
  0
LTYPE
  5
14
100
AcDbSymbolTableRecord
100
AcDbLinetypeTableRecord
  2
BYBLOCK
 70
0
  3

 72
65
 73
0
 40
0.0
  0
LTYPE
  5
15
100
AcDbSymbolTableRecord
100
AcDbLinetypeTableRecord
  2
BYLAYER
 70
0
  3

 72
65
 73
0
 40
0.0
  0
LTYPE
  5
16
100
AcDbSymbolTableRecord
100
AcDbLinetypeTableRecord
  2
CONTINUOUS
 70
64
  3
Solid line
 72
65
 73
0
 40
0.0
  0
LTYPE
  5
1F5
100
AcDbSymbolTableRecord
100
AcDbLinetypeTableRecord
  2
CENTER
 70
64
  3
____ _ ____ _ ____ _ ____ _ ____ _ ____ _ ____
 72
65
 73
4
 40
0.6
 49
0.375
 74
0
 49
-0.075
 74
0
 49
0.075
 74
0
 49
-0.075
 74
0
  0
LTYPE
  5
1F6
100
AcDbSymbolTableRecord
100
AcDbLinetypeTableRecord
  2
HIDDEN
 70
64
  3
- - - - - - - - - - - - - - - - - - - -
 72
65
 73
2
 40
0.2
 49
0.1
 74
0
 49
-0.1
 74
0
  0
LTYPE
  5
1F7
100
AcDbSymbolTableRecord
100
AcDbLinetypeTableRecord
  2
PHANTOM
 70
64
  3
_____ _ _ _____ _ _ _____ _ _ _____
 72
65
 73
6
 40
0.8
 49
0.45
 74
0
 49
-0.05
 74
0
 49
0.1
 74
0
 49
-0.05
 74
0
 49
0.1
 74
0
 49
-0.05
 74
0
  0
LTYPE
  5
1F8
100
AcDbSymbolTableRecord
100
AcDbLinetypeTableRecord
  2
DOT
 70
64
  3
. . . . . . . . . . . . . . . . . . . .
 72
65
 73
2
 40
0.2
 49
0.1
 74
0
 49
-0.1
 74
0
  0
LTYPE
  5
1F9
100
AcDbSymbolTableRecord
100
AcDbLinetypeTableRecord
  2
DASHED
 70
64
  3
- - - - - - - - - - - - - - - - - - - -
 72
65
 73
2
 40
0.2
 49
0.1
 74
0
 49
-0.1
 74
0
  0
ENDTAB
  0
TABLE
  2
LAYER
  5
2
100
AcDbSymbolTable
 70
36
  0
LAYER
  5
10
100
AcDbSymbolTableRecord
100
AcDbLayerTableRecord
  2
0
 70
0
 62
7
  6
CONTINUOUS
370
-3
390
F
  0
LAYER
  5
1FA
100
AcDbSymbolTableRecord
100
AcDbLayerTableRecord
  2
DEFAULT_1
 70
0
 62
7
  6
CENTER
370
-3
390
F
  0
LAYER
  5
1FB
100
AcDbSymbolTableRecord
100
AcDbLayerTableRecord
  2
DEFAULT_2
 70
0
 62
7
  6
HIDDEN
370
-3
390
F
  0
LAYER
  5
1FC
100
AcDbSymbolTableRecord
100
AcDbLayerTableRecord
  2
DEFAULT_3
 70
0
 62
7
  6
PHANTOM
370
-3
390
F
  0
LAYER
  5
1FD
100
AcDbSymbolTableRecord
100
AcDbLayerTableRecord
  2
APS_2_54-SS12_5-16-G
 70
0
 62
7
  6
CONTINUOUS
370
-3
390
F
  0
LAYER
  5
1FE
100
AcDbSymbolTableRecord
100
AcDbLayerTableRecord
  2
APS_2_54-SS12_5-2-G
 70
0
 62
7
  6
CONTINUOUS
370
-3
390
F
  0
LAYER
  5
1FF
100
AcDbSymbolTableRecord
100
AcDbLayerTableRecord
  2
ASSI
 70
0
 62
7
  6
CONTINUOUS
370
-3
390
F
  0
LAYER
  5
200
100
AcDbSymbolTableRecord
100
AcDbLayerTableRecord
  2
COORDINATE
 70
0
 62
7
  6
CONTINUOUS
370
-3
390
F
  0
LAYER
  5
201
100
AcDbSymbolTableRecord
100
AcDbLayerTableRecord
  2
COPY_PUBLISH
 70
0
 62
7
  6
CONTINUOUS
370
-3
390
F
  0
LAYER
  5
202
100
AcDbSymbolTableRecord
100
AcDbLayerTableRecord
  2
COSMETICI
 70
0
 62
7
  6
CONTINUOUS
370
-3
390
F
  0
LAYER
  5
203
100
AcDbSymbolTableRecord
100
AcDbLayerTableRecord
  2
CS_26-04-2012
 70
0
 62
7
  6
CONTINUOUS
370
-3
390
F
  0
LAYER
  5
204
100
AcDbSymbolTableRecord
100
AcDbLayerTableRecord
  2
CS_DISPLAY_30-03-2012
 70
0
 62
7
  6
CONTINUOUS
370
-3
390
F
  0
LAYER
  5
205
100
AcDbSymbolTableRecord
100
AcDbLayerTableRecord
  2
CURVE
 70
0
 62
7
  6
CONTINUOUS
370
-3
390
F
  0
LAYER
  5
206
100
AcDbSymbolTableRecord
100
AcDbLayerTableRecord
  2
DRAFT
 70
0
 62
7
  6
CONTINUOUS
370
-3
390
F
  0
LAYER
  5
207
100
AcDbSymbolTableRecord
100
AcDbLayerTableRecord
  2
FILLET1
 70
0
 62
7
  6
CONTINUOUS
370
-3
390
F
  0
LAYER
  5
208
100
AcDbSymbolTableRecord
100
AcDbLayerTableRecord
  2
IMPORTED1
 70
0
 62
7
  6
CONTINUOUS
370
-3
390
F
  0
LAYER
  5
209
100
AcDbSymbolTableRecord
100
AcDbLayerTableRecord
  2
IMPORTED2
 70
0
 62
7
  6
CONTINUOUS
370
-3
390
F
  0
LAYER
  5
20A
100
AcDbSymbolTableRecord
100
AcDbLayerTableRecord
  2
IMPORT_IGES
 70
0
 62
7
  6
CONTINUOUS
370
-3
390
F
  0
LAYER
  5
20B
100
AcDbSymbolTableRecord
100
AcDbLayerTableRecord
  2
INTF_1
 70
0
 62
7
  6
CONTINUOUS
370
-3
390
F
  0
LAYER
  5
20C
100
AcDbSymbolTableRecord
100
AcDbLayerTableRecord
  2
INTF_11
 70
0
 62
7
  6
CONTINUOUS
370
-3
390
F
  0
LAYER
  5
20D
100
AcDbSymbolTableRecord
100
AcDbLayerTableRecord
  2
INTF_12
 70
0
 62
7
  6
CONTINUOUS
370
-3
390
F
  0
LAYER
  5
20E
100
AcDbSymbolTableRecord
100
AcDbLayerTableRecord
  2
INTF_13
 70
0
 62
7
  6
CONTINUOUS
370
-3
390
F
  0
LAYER
  5
20F
100
AcDbSymbolTableRecord
100
AcDbLayerTableRecord
  2
INTF_2
 70
0
 62
7
  6
CONTINUOUS
370
-3
390
F
  0
LAYER
  5
210
100
AcDbSymbolTableRecord
100
AcDbLayerTableRecord
  2
INTF_6
 70
0
 62
7
  6
CONTINUOUS
370
-3
390
F
  0
LAYER
  5
211
100
AcDbSymbolTableRecord
100
AcDbLayerTableRecord
  2
INTF_BLANK
 70
0
 62
7
  6
CONTINUOUS
370
-3
390
F
  0
LAYER
  5
212
100
AcDbSymbolTableRecord
100
AcDbLayerTableRecord
  2
INTF_CYAN
 70
0
 62
7
  6
CONTINUOUS
370
-3
390
F
  0
LAYER
  5
213
100
AcDbSymbolTableRecord
100
AcDbLayerTableRecord
  2
INTF_YELLOW
 70
0
 62
7
  6
CONTINUOUS
370
-3
390
F
  0
LAYER
  5
214
100
AcDbSymbolTableRecord
100
AcDbLayerTableRecord
  2
LPATTERN1_10_
 70
0
 62
7
  6
CONTINUOUS
370
-3
390
F
  0
LAYER
  5
215
100
AcDbSymbolTableRecord
100
AcDbLayerTableRecord
  2
LPATTERN1_11_
 70
0
 62
7
  6
CONTINUOUS
370
-3
390
F
  0
LAYER
  5
216
100
AcDbSymbolTableRecord
100
AcDbLayerTableRecord
  2
LPATTERN1_12_
 70
0
 62
7
  6
CONTINUOUS
370
-3
390
F
  0
LAYER
  5
217
100
AcDbSymbolTableRecord
100
AcDbLayerTableRecord
  2
LPATTERN1_13_
 70
0
 62
7
  6
CONTINUOUS
370
-3
390
F
  0
LAYER
  5
218
100
AcDbSymbolTableRecord
100
AcDbLayerTableRecord
  2
LPATTERN1_14_
 70
0
 62
7
  6
CONTINUOUS
370
-3
390
F
  0
LAYER
  5
219
100
AcDbSymbolTableRecord
100
AcDbLayerTableRecord
  2
LPATTERN1_15_
 70
0
 62
7
  6
CONTINUOUS
370
-3
390
F
  0
LAYER
  5
21A
100
AcDbSymbolTableRecord
100
AcDbLayerTableRecord
  2
LPATTERN1_1_
 70
0
 62
7
  6
CONTINUOUS
370
-3
390
F
  0
LAYER
  5
21B
100
AcDbSymbolTableRecord
100
AcDbLayerTableRecord
  2
LPATTERN1_2_
 70
0
 62
7
  6
CONTINUOUS
370
-3
390
F
  0
LAYER
  5
21C
100
AcDbSymbolTableRecord
100
AcDbLayerTableRecord
  2
LPATTERN1_3_
 70
0
 62
7
  6
CONTINUOUS
370
-3
390
F
  0
LAYER
  5
21D
100
AcDbSymbolTableRecord
100
AcDbLayerTableRecord
  2
LPATTERN1_4_
 70
0
 62
7
  6
CONTINUOUS
370
-3
390
F
  0
LAYER
  5
21E
100
AcDbSymbolTableRecord
100
AcDbLayerTableRecord
  2
LPATTERN1_5_
 70
0
 62
7
  6
CONTINUOUS
370
-3
390
F
  0
LAYER
  5
21F
100
AcDbSymbolTableRecord
100
AcDbLayerTableRecord
  2
LPATTERN1_6_
 70
0
 62
7
  6
CONTINUOUS
370
-3
390
F
  0
LAYER
  5
220
100
AcDbSymbolTableRecord
100
AcDbLayerTableRecord
  2
LPATTERN1_7_
 70
0
 62
7
  6
CONTINUOUS
370
-3
390
F
  0
LAYER
  5
221
100
AcDbSymbolTableRecord
100
AcDbLayerTableRecord
  2
LPATTERN1_8_
 70
0
 62
7
  6
CONTINUOUS
370
-3
390
F
  0
LAYER
  5
222
100
AcDbSymbolTableRecord
100
AcDbLayerTableRecord
  2
LPATTERN1_9_
 70
0
 62
7
  6
CONTINUOUS
370
-3
390
F
  0
LAYER
  5
223
100
AcDbSymbolTableRecord
100
AcDbLayerTableRecord
  2
MOLLA_H_6_2
 70
0
 62
7
  6
CONTINUOUS
370
-3
390
F
  0
LAYER
  5
224
100
AcDbSymbolTableRecord
100
AcDbLayerTableRecord
  2
MORSETTIERA_MSB05041
 70
0
 62
7
  6
CONTINUOUS
370
-3
390
F
  0
LAYER
  5
225
100
AcDbSymbolTableRecord
100
AcDbLayerTableRecord
  2
NONE
 70
0
 62
7
  6
CONTINUOUS
370
-3
390
F
  0
LAYER
  5
226
100
AcDbSymbolTableRecord
100
AcDbLayerTableRecord
  2
NONE_1
 70
0
 62
7
  6
CONTINUOUS
370
-3
390
F
  0
LAYER
  5
227
100
AcDbSymbolTableRecord
100
AcDbLayerTableRecord
  2
NONE_10
 70
0
 62
7
  6
CONTINUOUS
370
-3
390
F
  0
LAYER
  5
228
100
AcDbSymbolTableRecord
100
AcDbLayerTableRecord
  2
NONE_11
 70
0
 62
7
  6
CONTINUOUS
370
-3
390
F
  0
LAYER
  5
229
100
AcDbSymbolTableRecord
100
AcDbLayerTableRecord
  2
NONE_12
 70
0
 62
7
  6
CONTINUOUS
370
-3
390
F
  0
LAYER
  5
22A
100
AcDbSymbolTableRecord
100
AcDbLayerTableRecord
  2
NONE_13
 70
0
 62
7
  6
CONTINUOUS
370
-3
390
F
  0
LAYER
  5
22B
100
AcDbSymbolTableRecord
100
AcDbLayerTableRecord
  2
NONE_14
 70
0
 62
7
  6
CONTINUOUS
370
-3
390
F
  0
LAYER
  5
22C
100
AcDbSymbolTableRecord
100
AcDbLayerTableRecord
  2
NONE_15
 70
0
 62
7
  6
CONTINUOUS
370
-3
390
F
  0
LAYER
  5
22D
100
AcDbSymbolTableRecord
100
AcDbLayerTableRecord
  2
NONE_2
 70
0
 62
7
  6
CONTINUOUS
370
-3
390
F
  0
LAYER
  5
22E
100
AcDbSymbolTableRecord
100
AcDbLayerTableRecord
  2
NONE_3
 70
0
 62
7
  6
CONTINUOUS
370
-3
390
F
  0
LAYER
  5
22F
100
AcDbSymbolTableRecord
100
AcDbLayerTableRecord
  2
NONE_4
 70
0
 62
7
  6
CONTINUOUS
370
-3
390
F
  0
LAYER
  5
230
100
AcDbSymbolTableRecord
100
AcDbLayerTableRecord
  2
NONE_5
 70
0
 62
7
  6
CONTINUOUS
370
-3
390
F
  0
LAYER
  5
231
100
AcDbSymbolTableRecord
100
AcDbLayerTableRecord
  2
NONE_6
 70
0
 62
7
  6
CONTINUOUS
370
-3
390
F
  0
LAYER
  5
232
100
AcDbSymbolTableRecord
100
AcDbLayerTableRecord
  2
NONE_7
 70
0
 62
7
  6
CONTINUOUS
370
-3
390
F
  0
LAYER
  5
233
100
AcDbSymbolTableRecord
100
AcDbLayerTableRecord
  2
NONE_8
 70
0
 62
7
  6
CONTINUOUS
370
-3
390
F
  0
LAYER
  5
234
100
AcDbSymbolTableRecord
100
AcDbLayerTableRecord
  2
NONE_9
 70
0
 62
7
  6
CONTINUOUS
370
-3
390
F
  0
LAYER
  5
235
100
AcDbSymbolTableRecord
100
AcDbLayerTableRecord
  2
NOTE
 70
0
 62
7
  6
CONTINUOUS
370
-3
390
F
  0
LAYER
  5
236
100
AcDbSymbolTableRecord
100
AcDbLayerTableRecord
  2
PIANI
 70
0
 62
7
  6
CONTINUOUS
370
-3
390
F
  0
LAYER
  5
237
100
AcDbSymbolTableRecord
100
AcDbLayerTableRecord
  2
PIANI_RIFERIMENTO
 70
0
 62
7
  6
CONTINUOUS
370
-3
390
F
  0
LAYER
  5
238
100
AcDbSymbolTableRecord
100
AcDbLayerTableRecord
  2
PUNTI
 70
0
 62
7
  6
CONTINUOUS
370
-3
390
F
  0
LAYER
  5
239
100
AcDbSymbolTableRecord
100
AcDbLayerTableRecord
  2
RACCORDO
 70
0
 62
7
  6
CONTINUOUS
370
-3
390
F
  0
LAYER
  5
23A
100
AcDbSymbolTableRecord
100
AcDbLayerTableRecord
  2
RGB__255__255__255__
 70
0
 62
7
  6
CONTINUOUS
370
-3
390
F
  0
LAYER
  5
23B
100
AcDbSymbolTableRecord
100
AcDbLayerTableRecord
  2
RGB____0____0____0__
 70
0
 62
7
  6
CONTINUOUS
370
-3
390
F
  0
LAYER
  5
23C
100
AcDbSymbolTableRecord
100
AcDbLayerTableRecord
  2
SIMBOLI
 70
0
 62
7
  6
CONTINUOUS
370
-3
390
F
  0
LAYER
  5
23D
100
AcDbSymbolTableRecord
100
AcDbLayerTableRecord
  2
SMUSSO
 70
0
 62
7
  6
CONTINUOUS
370
-3
390
F
  0
LAYER
  5
23E
100
AcDbSymbolTableRecord
100
AcDbLayerTableRecord
  2
SUPERFICI
 70
0
 62
7
  6
CONTINUOUS
370
-3
390
F
  0
LAYER
  5
23F
100
AcDbSymbolTableRecord
100
AcDbLayerTableRecord
  2
TRASH
 70
0
 62
7
  6
CONTINUOUS
370
-3
390
F
  0
LAYER
  5
240
100
AcDbSymbolTableRecord
100
AcDbLayerTableRecord
  2
WHITE
 70
0
 62
7
  6
CONTINUOUS
370
-3
390
F
  0
LAYER
  5
241
100
AcDbSymbolTableRecord
100
AcDbLayerTableRecord
  2
___SHELL
 70
0
 62
7
  6
CONTINUOUS
370
-3
390
F
  0
ENDTAB
  0
TABLE
  2
STYLE
  5
3
100
AcDbSymbolTable
 70
1
  0
STYLE
  5
11
100
AcDbSymbolTableRecord
100
AcDbTextStyleTableRecord
  2
STANDARD
 70
0
 40
0.0
 41
0.8
 50
0.0
 71
0
 42
0.2
  3
txt
  4

  0
STYLE
  5
242
100
AcDbSymbolTableRecord
100
AcDbTextStyleTableRecord
  2
TEXTSTYLE_1
 70
0
 40
0.0
 41
0.8
 50
0.0
 71
0
 42
0.2
  3
gdt
  4

  0
ENDTAB
  0
TABLE
  2
VIEW
  5
6
100
AcDbSymbolTable
 70
0
  0
ENDTAB
  0
TABLE
  2
UCS
  5
7
100
AcDbSymbolTable
 70
0
  0
ENDTAB
  0
TABLE
  2
APPID
  5
9
100
AcDbSymbolTable
 70
1
  0
APPID
  5
243
100
AcDbSymbolTableRecord
100
AcDbRegAppTableRecord
  2
ACAD
 70
0
  0
ENDTAB
  0
TABLE
  2
BLOCK_RECORD
  5
1
100
AcDbSymbolTable
 70
0
  0
BLOCK_RECORD
  5
244
100
AcDbSymbolTableRecord
100
AcDbBlockTableRecord
  2
*Model_Space
  0
BLOCK_RECORD
  5
245
100
AcDbSymbolTableRecord
100
AcDbBlockTableRecord
  2
*Paper_Space
  0
ENDTAB
  0
TABLE
  2
DIMSTYLE
  5
A
100
AcDbSymbolTable
 70
1
100
AcDbDimStyleTable
 71
0
  0
DIMSTYLE
105
246
100
AcDbSymbolTableRecord
100
AcDbDimStyleTableRecord
  2
STANDARD
 70
0
  3

  4

 40
1.0
 41
3.0
 42
0.5
 43
0.38
 44
1.5
 45
0.0
 46
0.0
 47
0.01
 48
0.01
140
3.0
141
0.09
142
0.0
143
25.4
144
1.0
145
0.0
146
1.0
147
0.625
 71
1.0
 72
0.0
 73
0
 74
0
 75
0
 76
0
 77
1
 78
8
170
0
171
2
172
0
173
0
174
0
175
0
176
0
177
0
178
0
270
2
271
2
272
2
273
2
274
2
275
0
280
0
281
0
282
0
283
1
284
8
285
0
286
0
287
3
288
0
340
11
278
44
  0
ENDTAB
  0
ENDSEC
  0
SECTION
  2
BLOCKS
  0
BLOCK
  5
20
100
AcDbEntity
  8
0
100
AcDbBlockBegin
  2
*Model_Space
 70
0
 10
0.0
 20
0.0
 30
0.0
  3
*Model_Space
  1

  0
ENDBLK
  5
21
100
AcDbEntity
  8
0
100
AcDbBlockEnd
  0
BLOCK
  5
1C
100
AcDbEntity
  8
0
100
AcDbBlockBegin
  2
*Paper_Space
 70
0
 10
0.0
 20
0.0
 30
0.0
  3
*Paper_Space
  1

  0
ENDBLK
  5
1D
100
AcDbEntity
  8
0
100
AcDbBlockEnd
  0
ENDSEC
  0
SECTION
  2
ENTITIES
  0
LINE
  5
247
100
AcDbEntity
  8
RACCORDO
100
AcDbLine
 62
7
  6
CONTINUOUS
 10
82.2979805522
 20
30.3387444611
 11
82.3924218372
 21
30.2937736866
  0
LINE
  5
248
100
AcDbEntity
  8
0
100
AcDbLine
 62
7
  6
CONTINUOUS
 10
82.2979805522
 20
30.3387444611
 11
82.3924218372
 21
30.2937736866
  0
LWPOLYLINE
  5
249
100
AcDbEntity
  8
RACCORDO
100
AcDbPolyline
 62
7
  6
CONTINUOUS
 90
5
 70
0
 10
82.3924218372
 20
30.2937736866
 10
82.4890600649
 20
30.2538103996
 10
82.5876486875
 20
30.2189536271
 10
82.6879176965
 20
30.1892977235
 10
82.789593179
 20
30.1649226053
  0
LWPOLYLINE
  5
24A
100
AcDbEntity
  8
0
100
AcDbPolyline
 62
7
  6
CONTINUOUS
 90
5
 70
0
 10
82.3924218372
 20
30.2937736866
 10
82.4890600649
 20
30.2538103996
 10
82.5876486875
 20
30.2189536271
 10
82.6879176965
 20
30.1892977235
 10
82.789593179
 20
30.1649226053
  0
LWPOLYLINE
  5
24B
100
AcDbEntity
  8
RACCORDO
100
AcDbPolyline
 62
7
  6
CONTINUOUS
 90
9
 70
0
 10
83.3900582462
 20
132.1798133233
 10
83.3977400712
 20
132.1940796592
 10
83.4056115857
 20
132.2095602501
 10
83.4136567374
 20
132.2261017235
 10
83.4218915787
 20
132.2435913985
 10
83.4299251297
 20
132.2618131603
 10
83.4376270639
 20
132.2805775807
 10
83.4451277078
 20
132.2997326606
 10
83.4524270614
 20
132.319100224
  0
LWPOLYLINE
  5
24C
100
AcDbEntity
  8
RACCORDO
100
AcDbPolyline
 62
7
  6
CONTINUOUS
 90
4
 70
0
 10
83.3660583479
 20
132.1376261851
 10
83.371078488
 20
132.1458754229
 10
83.3767274547
 20
132.1556663709
 10
83.3900582462
 20
132.1798133233
  0
LINE
  5
24D
100
AcDbEntity
  8
RACCORDO
100
AcDbLine
 62
7
  6
CONTINUOUS
 10
101.7431800327
 20
152.9899936678
 11
101.704698134
 21
152.9515117691
  0
LINE
  5
24E
100
AcDbEntity
  8
RACCORDO
100
AcDbLine
 62
7
  6
CONTINUOUS
 10
83.4652740973
 20
133.2213213948
 11
83.3674648072
 21
133.1235121046
  0
LINE
  5
24F
100
AcDbEntity
  8
RACCORDO
100
AcDbLine
 62
7
  6
CONTINUOUS
 10
82.789593179
 20
30.1649226053
 11
82.8910265748
 21
30.146148058
  0
LINE
  5
250
100
AcDbEntity
  8
0
100
AcDbLine
 62
7
  6
CONTINUOUS
 10
82.789593179
 20
30.1649226053
 11
82.8910265748
 21
30.146148058
  0
LWPOLYLINE
  5
251
100
AcDbEntity
  8
RACCORDO
100
AcDbPolyline
 62
7
  6
CONTINUOUS
 90
9
 70
0
 10
99.1461778354
 20
32.3067015938
 10
99.1319089985
 20
32.3143843626
 10
99.116443686
 20
32.3222479661
 10
99.0999630528
 20
32.3302647297
 10
99.082559511
 20
32.3384623281
 10
99.0643861889
 20
32.3464771146
 10
99.0456053587
 20
32.3541878737
 10
99.0263868193
 20
32.3617158209
 10
99.0069086708
 20
32.3690609562
  0
LWPOLYLINE
  5
252
100
AcDbEntity
  8
RACCORDO
100
AcDbPolyline
 62
7
  6
CONTINUOUS
 90
4
 70
0
 10
99.1883827097
 20
32.2826922427
 10
99.1801283118
 20
32.2877160999
 10
99.170332775
 20
32.2933674625
 10
99.1461778354
 20
32.3067015938
  0
LINE
  5
253
100
AcDbEntity
  8
RACCORDO
100
AcDbLine
 62
7
  6
CONTINUOUS
 10
98.1046875
 20
32.3819079922
 11
98.2024967902
 21
32.284098702
  0
LINE
  5
254
100
AcDbEntity
  8
RACCORDO
100
AcDbLine
 62
7
  6
CONTINUOUS
 10
83.4652740973
 20
52.0213213948
 11
83.3674648072
 21
52.119130685
  0
LWPOLYLINE
  5
255
100
AcDbEntity
  8
RACCORDO
100
AcDbPolyline
 62
7
  6
CONTINUOUS
 90
3
 70
0
 10
83.3767273002
 20
53.0869768972
 10
83.3710788068
 20
53.0967671311
 10
83.3660583479
 20
53.1050166045
  0
LWPOLYLINE
  5
256
100
AcDbEntity
  8
RACCORDO
100
AcDbPolyline
 62
7
  6
CONTINUOUS
 90
10
 70
0
 10
83.4524270614
 20
52.9235425656
 10
83.4450786474
 20
52.9430286914
 10
83.4375479028
 20
52.962253778
 10
83.4298348275
 20
52.981039591
 10
83.4218180735
 20
52.9992164203
 10
83.4136189889
 20
53.0166218476
 10
83.4056016176
 20
53.033102425
 10
83.397738534
 20
53.0485659033
 10
83.3900571638
 20
53.0628315058
 10
83.3767273002
 20
53.0869768972
  0
LWPOLYLINE
  5
257
100
AcDbEntity
  8
RACCORDO
100
AcDbPolyline
 62
7
  6
CONTINUOUS
 90
22
 70
0
 10
81.2046875
 20
32.1213213948
 10
81.2074219436
 20
32.0167815876
 10
81.215622173
 20
31.9124854685
 10
81.2292723768
 20
31.8087189358
 10
81.2483419812
 20
31.7057661148
 10
81.2727851576
 20
31.603911294
 10
81.3025404371
 20
31.5034380291
 10
81.3375353429
 20
31.4046155455
 10
81.3776772925
 20
31.3077260662
 10
81.4228481724
 20
31.2130647134
 10
81.4729246558
 20
31.1208934968
 10
81.5277708857
 20
31.0314656438
 10
81.5872218759
 20
30.9450491141
 10
81.6511097289
 20
30.8618830745
 10
81.7192588947
 20
30.7821914736
 10
81.7914695672
 20
30.706202153
 10
81.8675371883
 20
30.6341229897
 10
81.9472521672
 20
30.5661455591
 10
82.0303895978
 20
30.5024547958
 10
82.1167152475
 20
30.4432230208
 10
82.205992491
 20
30.3886057258
 10
82.2979805522
 20
30.3387444611
  0
LWPOLYLINE
  5
258
100
AcDbEntity
  8
0
100
AcDbPolyline
 62
7
  6
CONTINUOUS
 90
22
 70
0
 10
81.2046875
 20
32.1213213948
 10
81.2074219436
 20
32.0167815876
 10
81.215622173
 20
31.9124854685
 10
81.2292723768
 20
31.8087189358
 10
81.2483419812
 20
31.7057661148
 10
81.2727851576
 20
31.603911294
 10
81.3025404371
 20
31.5034380291
 10
81.3375353429
 20
31.4046155455
 10
81.3776772925
 20
31.3077260662
 10
81.4228481724
 20
31.2130647134
 10
81.4729246558
 20
31.1208934968
 10
81.5277708857
 20
31.0314656438
 10
81.5872218759
 20
30.9450491141
 10
81.6511097289
 20
30.8618830745
 10
81.7192588947
 20
30.7821914736
 10
81.7914695672
 20
30.706202153
 10
81.8675371883
 20
30.6341229897
 10
81.9472521672
 20
30.5661455591
 10
82.0303895978
 20
30.5024547958
 10
82.1167152475
 20
30.4432230208
 10
82.205992491
 20
30.3886057258
 10
82.2979805522
 20
30.3387444611
  0
LINE
  5
259
100
AcDbEntity
  8
DRAFT
100
AcDbLine
 62
7
  6
CONTINUOUS
 10
108.3221505404
 20
152.9689641755
 11
108.3605223504
 21
153.0073359855
  0
LWPOLYLINE
  5
25A
100
AcDbEntity
  8
RACCORDO
100
AcDbPolyline
 62
7
  6
CONTINUOUS
 90
3
 70
0
 10
204.4132564205
 20
30.1322549893
 10
204.3089700481
 20
30.1240570462
 10
204.2043828439
 20
30.1213213948
  0
LWPOLYLINE
  5
25B
100
AcDbEntity
  8
0
100
AcDbPolyline
 62
7
  6
CONTINUOUS
 90
3
 70
0
 10
204.4132564205
 20
30.1322549893
 10
204.3089700481
 20
30.1240570462
 10
204.2043828439
 20
30.1213213948
  0
LINE
  5
25C
100
AcDbEntity
  8
RACCORDO
100
AcDbLine
 62
7
  6
CONTINUOUS
 10
83.1004049519
 20
30.1240570462
 11
83.2276837405
 21
30.1213213948
  0
LINE
  5
25D
100
AcDbEntity
  8
0
100
AcDbLine
 62
7
  6
CONTINUOUS
 10
83.1004049519
 20
30.1240570462
 11
83.2276837405
 21
30.1213213948
  0
LINE
  5
25E
100
AcDbEntity
  8
RACCORDO
100
AcDbLine
 62
7
  6
CONTINUOUS
 10
82.9961185795
 20
30.1322549893
 11
83.0997085212
 21
30.1241117925
  0
LINE
  5
25F
100
AcDbEntity
  8
0
100
AcDbLine
 62
7
  6
CONTINUOUS
 10
82.9961185795
 20
30.1322549893
 11
83.0997085212
 21
30.1241117925
  0
LINE
  5
260
100
AcDbEntity
  8
RACCORDO
100
AcDbLine
 62
7
  6
CONTINUOUS
 10
82.8924179839
 20
30.1458905188
 11
82.9949287365
 21
30.1324114411
  0
LINE
  5
261
100
AcDbEntity
  8
0
100
AcDbLine
 62
7
  6
CONTINUOUS
 10
82.8924179839
 20
30.1458905188
 11
82.9949287365
 21
30.1324114411
  0
LINE
  5
262
100
AcDbEntity
  8
DRAFT
100
AcDbLine
 62
7
  6
CONTINUOUS
 10
119.2046875
 20
32.2213213948
 11
119.1691463576
 21
32.2390865517
  0
LINE
  5
263
100
AcDbEntity
  8
RACCORDO
100
AcDbLine
 62
7
  6
CONTINUOUS
 10
108.6486634139
 20
32.5587645978
 11
108.7115546949
 21
32.4958733168
  0
LWPOLYLINE
  5
264
100
AcDbEntity
  8
RACCORDO
100
AcDbPolyline
 62
253
  6
CONTINUOUS
 90
10
 70
0
 10
87.1167240714
 20
36.9232113844
 10
87.1155551141
 20
36.9347763516
 10
87.114523849
 20
36.9463536038
 10
87.1136303135
 20
36.9579415627
 10
87.1128746069
 20
36.969537287
 10
87.1122566177
 20
36.9811405619
 10
87.1117761824
 20
36.9927539072
 10
87.1114333751
 20
37.0043771191
 10
87.1112283486
 20
37.0160072619
 10
87.1111611731
 20
37.0276427631
  0
LWPOLYLINE
  5
265
100
AcDbEntity
  8
RACCORDO
100
AcDbPolyline
 62
253
  6
CONTINUOUS
 90
10
 70
0
 10
86.9063416887
 20
36.8709674926
 10
86.9045964867
 20
36.8883271691
 10
86.903056602
 20
36.9056992527
 10
86.9017220347
 20
36.9230837434
 10
86.9005928125
 20
36.9404809551
 10
86.8996689077
 20
36.9578905739
 10
86.8989502367
 20
36.9753116582
 10
86.8984367718
 20
36.9927438943
 10
86.8981285408
 20
37.0101875959
 10
86.8980255437
 20
37.0276427631
  0
LWPOLYLINE
  5
266
100
AcDbEntity
  8
RACCORDO
100
AcDbPolyline
 62
253
  6
CONTINUOUS
 90
25
 70
0
 10
87.196112284
 20
37.112593874
 10
87.1983108743
 20
37.0464706747
 10
87.2048106947
 20
36.9811359603
 10
87.2154853026
 20
36.9168615939
 10
87.2301425573
 20
36.8540909242
 10
87.2486524641
 20
36.7928712423
 10
87.271067101
 20
36.7328890292
 10
87.2974052867
 20
36.6741965885
 10
87.327500773
 20
36.6172523941
 10
87.3611956233
 20
36.5623697372
 10
87.3983398813
 20
36.5097874505
 10
87.4387858519
 20
36.4597096413
 10
87.482337494
 20
36.4123708444
 10
87.528732991
 20
36.368028148
 10
87.5778409091
 20
36.3267814405
 10
87.6296704635
 20
36.2886444119
 10
87.6839576819
 20
36.2538528574
 10
87.740567322
 20
36.2225333612
 10
87.799762144
 20
36.1946467218
 10
87.8615792405
 20
36.1703621499
 10
87.9255834518
 20
36.1500343006
 10
87.9913290382
 20
36.1339388072
 10
88.0584723009
 20
36.1222638044
 10
88.1267862541
 20
36.1151520694
 10
88.1959599791
 20
36.1127461788
  0
LWPOLYLINE
  5
267
100
AcDbEntity
  8
RACCORDO
100
AcDbPolyline
 62
7
  6
CONTINUOUS
 90
30
 70
0
 10
81.227440011
 20
32.1213213948
 10
81.2298814221
 20
32.0225361614
 10
81.2372298569
 20
31.9236883734
 10
81.2495124782
 20
31.8250241867
 10
81.2666756617
 20
31.7271330027
 10
81.2887561355
 20
31.6299193439
 10
81.3160495156
 20
31.5326405819
 10
81.3489445767
 20
31.4348819466
 10
81.3873631707
 20
31.337710937
 10
81.4308453069
 20
31.2425959475
 10
81.4791200913
 20
31.1501003951
 10
81.5322022354
 20
31.0601697132
 10
81.5898257089
 20
30.9732470189
 10
81.6517112545
 20
30.8896899493
 10
81.717763937
 20
30.8095677181
 10
81.7879798965
 20
30.7328841658
 10
81.8623216867
 20
30.6597329551
 10
81.940479234
 20
30.590469265
 10
82.0220250639
 20
30.5254700925
 10
82.1066108816
 20
30.4649693921
 10
82.1940978432
 20
30.4090245534
 10
82.2843426893
 20
30.3577101807
 10
82.3765929536
 20
30.3113984558
 10
82.4710804674
 20
30.2699189604
 10
82.5692511008
 20
30.2327843673
 10
82.6714959151
 20
30.2001939932
 10
82.7770643012
 20
30.1727343248
 10
82.8857556846
 20
30.1507596233
 10
82.9973092121
 20
30.134630538
 10
83.1114009403
 20
30.1247038454
  0
LWPOLYLINE
  5
268
100
AcDbEntity
  8
0
100
AcDbPolyline
 62
7
  6
CONTINUOUS
 90
30
 70
0
 10
81.227440011
 20
32.1213213948
 10
81.2298814221
 20
32.0225361614
 10
81.2372298569
 20
31.9236883734
 10
81.2495124782
 20
31.8250241867
 10
81.2666756617
 20
31.7271330027
 10
81.2887561355
 20
31.6299193439
 10
81.3160495156
 20
31.5326405819
 10
81.3489445767
 20
31.4348819466
 10
81.3873631707
 20
31.337710937
 10
81.4308453069
 20
31.2425959475
 10
81.4791200913
 20
31.1501003951
 10
81.5322022354
 20
31.0601697132
 10
81.5898257089
 20
30.9732470189
 10
81.6517112545
 20
30.8896899493
 10
81.717763937
 20
30.8095677181
 10
81.7879798965
 20
30.7328841658
 10
81.8623216867
 20
30.6597329551
 10
81.940479234
 20
30.590469265
 10
82.0220250639
 20
30.5254700925
 10
82.1066108816
 20
30.4649693921
 10
82.1940978432
 20
30.4090245534
 10
82.2843426893
 20
30.3577101807
 10
82.3765929536
 20
30.3113984558
 10
82.4710804674
 20
30.2699189604
 10
82.5692511008
 20
30.2327843673
 10
82.6714959151
 20
30.2001939932
 10
82.7770643012
 20
30.1727343248
 10
82.8857556846
 20
30.1507596233
 10
82.9973092121
 20
30.134630538
 10
83.1114009403
 20
30.1247038454
  0
LWPOLYLINE
  5
269
100
AcDbEntity
  8
RACCORDO
100
AcDbPolyline
 62
253
  6
CONTINUOUS
 90
31
 70
0
 10
81.42740955
 20
32.1213213948
 10
81.4295848994
 20
32.032040872
 10
81.4362068413
 20
31.9431517096
 10
81.4472753756
 20
31.8546539075
 10
81.4626640257
 20
31.7665999535
 10
81.4824992683
 20
31.6789373599
 10
81.5071605333
 20
31.5915086632
 10
81.5369101062
 20
31.5036494847
 10
81.5714857015
 20
31.4160242032
 10
81.6104798924
 20
31.3304684923
 10
81.6539239027
 20
31.2473178974
 10
81.7017865087
 20
31.1662368732
 10
81.7535666125
 20
31.0880544565
 10
81.8092066118
 20
31.0129149029
 10
81.8687641089
 20
30.9406739568
 10
81.9319108134
 20
30.8717278887
 10
81.9987912534
 20
30.805985276
 10
82.0692609008
 20
30.7435375413
 10
82.1425578801
 20
30.6850552227
 10
82.2186176276
 20
30.6306558352
 10
82.2975047071
 20
30.5802218637
 10
82.378650934
 20
30.5340713021
 10
82.4615667248
 20
30.4923079159
 10
82.546741663
 20
30.4548279395
 10
82.6350763147
 20
30.42163807
 10
82.7270766315
 20
30.3924176917
 10
82.8222366618
 20
30.3674874204
 10
82.9199391167
 20
30.3478158005
 10
83.0199782334
 20
30.3337256804
 10
83.1225597746
 20
30.3248942119
 10
83.2276837405
 20
30.3213213948
  0
LINE
  5
26A
100
AcDbEntity
  8
RACCORDO
100
AcDbLine
 62
7
  6
CONTINUOUS
 10
81.2046875
 20
32.1213213948
 11
81.2046875
 21
153.1216260045
  0
LINE
  5
26B
100
AcDbEntity
  8
0
100
AcDbLine
 62
7
  6
CONTINUOUS
 10
81.2046875
 20
32.1213213948
 11
81.2046875
 21
153.1216260045
  0
LINE
  5
26C
100
AcDbEntity
  8
RACCORDO
100
AcDbLine
 62
253
  6
CONTINUOUS
 10
81.227440011
 20
153.0988734935
 11
81.227440011
 21
32.1213213948
  0
LINE
  5
26D
100
AcDbEntity
  8
0
100
AcDbLine
 62
253
  6
CONTINUOUS
 10
81.227440011
 20
153.0988734935
 11
81.227440011
 21
32.1213213948
  0
LINE
  5
26E
100
AcDbEntity
  8
0
100
AcDbLine
 62
7
  6
CONTINUOUS
 10
81.36495957
 20
153.0988734935
 11
81.36495957
 21
32.1213213948
  0
LINE
  5
26F
100
AcDbEntity
  8
RACCORDO
100
AcDbLine
 62
253
  6
CONTINUOUS
 10
81.42740955
 20
153.0988734935
 11
81.42740955
 21
32.1213213948
  0
LINE
  5
270
100
AcDbEntity
  8
RACCORDO
100
AcDbLine
 62
7
  6
CONTINUOUS
 10
81.5046875
 20
32.1210624766
 11
81.5046875
 21
153.1215803131
  0
LINE
  5
271
100
AcDbEntity
  8
RACCORDO
100
AcDbLine
 62
253
  6
CONTINUOUS
 10
83.2271354013
 20
154.8985993448
 11
83.2271354013
 21
155.0985688838
  0
LINE
  5
272
100
AcDbEntity
  8
0
100
AcDbLine
 62
253
  6
CONTINUOUS
 10
83.2271354011
 20
154.9610493248
 11
83.2271354013
 21
155.0985688838
  0
LINE
  5
273
100
AcDbEntity
  8
RACCORDO
100
AcDbLine
 62
253
  6
CONTINUOUS
 10
83.2276837405
 20
30.3213213948
 11
83.2276837405
 21
30.1213213948
  0
LINE
  5
274
100
AcDbEntity
  8
0
100
AcDbLine
 62
253
  6
CONTINUOUS
 10
83.2276837405
 20
30.2588714148
 11
83.2276837405
 21
30.1213213948
  0
LINE
  5
275
100
AcDbEntity
  8
DRAFT
100
AcDbLine
 62
7
  6
CONTINUOUS
 10
83.3046875
 20
32.2213213948
 11
83.3046875
 21
52.1558140423
  0
LINE
  5
276
100
AcDbEntity
  8
DRAFT
100
AcDbLine
 62
7
  6
CONTINUOUS
 10
83.3046875
 20
53.0868287473
 11
83.3046875
 21
132.1558140423
  0
LINE
  5
277
100
AcDbEntity
  8
DRAFT
100
AcDbLine
 62
7
  6
CONTINUOUS
 10
83.3046875
 20
133.0868287473
 11
83.3046875
 21
153.0213213948
  0
LINE
  5
278
100
AcDbEntity
  8
RACCORDO
100
AcDbLine
 62
7
  6
CONTINUOUS
 10
83.3640347208
 20
92.9235425656
 11
83.3640347208
 21
92.319100224
  0
LINE
  5
279
100
AcDbEntity
  8
DRAFT
100
AcDbLine
 62
7
  6
CONTINUOUS
 10
83.4652740973
 20
32.3819079922
 11
83.4652740973
 21
52.0213213948
  0
LINE
  5
27A
100
AcDbEntity
  8
DRAFT
100
AcDbLine
 62
7
  6
CONTINUOUS
 10
83.4652740973
 20
53.2213213948
 11
83.4652740973
 21
92.0213213948
  0
LINE
  5
27B
100
AcDbEntity
  8
DRAFT
100
AcDbLine
 62
7
  6
CONTINUOUS
 10
83.4652740973
 20
93.2213213948
 11
83.4652740973
 21
132.0213213948
  0
LINE
  5
27C
100
AcDbEntity
  8
DRAFT
100
AcDbLine
 62
7
  6
CONTINUOUS
 10
83.4652740973
 20
133.2213213948
 11
83.4652740973
 21
152.8607347975
  0
LINE
  5
27D
100
AcDbEntity
  8
RACCORDO
100
AcDbLine
 62
7
  6
CONTINUOUS
 10
83.5546875
 20
34.1702858008
 11
83.5546875
 21
151.0723569889
  0
LWPOLYLINE
  5
27E
100
AcDbEntity
  8
0
100
AcDbPolyline
 62
7
  6
CONTINUOUS
 90
34
 70
0
 10
81.36495957
 20
153.0988734935
 10
81.3670925379
 20
153.1876458205
 10
81.373392658
 20
153.2758599893
 10
81.3838599303
 20
153.3635159999
 10
81.3985316174
 20
153.4508131108
 10
81.4173704567
 20
153.5375520635
 10
81.4402646606
 20
153.6231350824
 10
81.4672568986
 20
153.7075742094
 10
81.4983045012
 20
153.7908574026
 10
81.5331676722
 20
153.8723507599
 10
81.5718448282
 20
153.9519895283
 10
81.6143375527
 20
154.0298384609
 10
81.6604107996
 20
154.1054579153
 10
81.7101314479
 20
154.1788947932
 10
81.7634326188
 20
154.2501021929
 10
81.8198786295
 20
154.3184997675
 10
81.8794365052
 20
154.384006176
 10
81.9421392209
 20
154.4467027592
 10
82.0076500191
 20
154.5062531934
 10
82.0760505129
 20
154.5626904245
 10
82.1472590892
 20
154.6159815064
 10
82.2206941515
 20
154.6656912767
 10
82.2963076467
 20
154.7117525251
 10
82.3741476279
 20
154.7542324619
 10
82.4537766577
 20
154.7928975558
 10
82.5352607552
 20
154.8277496512
 10
82.6185339012
 20
154.8587869038
 10
82.7029606013
 20
154.8857702494
 10
82.7885267665
 20
154.9086574378
 10
82.8752464858
 20
154.9274907193
 10
82.9625265316
 20
154.9421577801
 10
83.0501691615
 20
154.9526211823
 10
83.138372118
 20
154.9589183639
 10
83.2271354011
 20
154.9610493248
  0
LWPOLYLINE
  5
27F
100
AcDbEntity
  8
RACCORDO
100
AcDbPolyline
 62
7
  6
CONTINUOUS
 90
28
 70
0
 10
83.554770477
 20
151.0893644588
 10
83.5584687293
 20
151.1865906385
 10
83.5677204408
 20
151.2836165702
 10
83.582523102
 20
151.3801218771
 10
83.6028751304
 20
151.475897297
 10
83.6287293508
 20
151.5705061599
 10
83.6599325247
 20
151.6633020776
 10
83.6962748542
 20
151.753797282
 10
83.7376686104
 20
151.8419035636
 10
83.7841098205
 20
151.9275817193
 10
83.8355728332
 20
152.0106989234
 10
83.8918169764
 20
152.0907996785
 10
83.9524940471
 20
152.1673789098
 10
84.0172442913
 20
152.2400511425
 10
84.085954487
 20
152.3087615209
 10
84.1586264821
 20
152.3735119033
 10
84.2352054248
 20
152.4341890887
 10
84.3153058217
 20
152.4904333235
 10
84.3984225511
 20
152.5418963928
 10
84.4840999701
 20
152.5883375752
 10
84.5722053765
 20
152.6297313262
 10
84.6626999528
 20
152.6660738398
 10
84.7554955138
 20
152.6972773447
 10
84.8501043087
 20
152.7231319953
 10
84.9458803647
 20
152.7434845776
 10
85.0423871653
 20
152.7582878142
 10
85.1394153182
 20
152.7675399707
 10
85.236644436
 20
152.7712384179
  0
LWPOLYLINE
  5
280
100
AcDbEntity
  8
RACCORDO
100
AcDbPolyline
 62
253
  6
CONTINUOUS
 90
28
 70
0
 10
86.9063416887
 20
148.371675297
 10
86.9097594854
 20
148.4362147012
 10
86.9163748503
 20
148.499073256
 10
86.9261295004
 20
148.5601576973
 10
86.9389709283
 20
148.6191425341
 10
86.9548174566
 20
148.6761728648
 10
86.9736015045
 20
148.7318639451
 10
86.9953323054
 20
148.7863999541
 10
87.0199430568
 20
148.8394177776
 10
87.0472755979
 20
148.8907142972
 10
87.0772431256
 20
148.9401644568
 10
87.1098215164
 20
148.9877245579
 10
87.1449323942
 20
149.0333195346
 10
87.1825324752
 20
149.0769025355
 10
87.22253835
 20
149.1183568575
 10
87.2648013513
 20
149.1575101059
 10
87.3090508962
 20
149.1941871444
 10
87.3553990423
 20
149.2284290057
 10
87.4042777562
 20
149.2603678129
 10
87.4556742494
 20
149.2900291652
 10
87.5094623759
 20
149.3171940784
 10
87.5659095865
 20
149.3415866875
 10
87.6250951938
 20
149.3631909496
 10
87.686763214
 20
149.381801003
 10
87.7506535545
 20
149.3968692046
 10
87.8165968201
 20
149.4081748508
 10
87.8845295256
 20
149.4157965684
 10
87.9543335978
 20
149.4196672061
  0
LWPOLYLINE
  5
281
100
AcDbEntity
  8
RACCORDO
100
AcDbPolyline
 62
253
  6
CONTINUOUS
 90
28
 70
0
 10
87.1167240714
 20
148.3194314052
 10
87.1235851605
 20
148.3707944158
 10
87.132951567
 20
148.4210195614
 10
87.1446879785
 20
148.4699955653
 10
87.158590071
 20
148.5174098595
 10
87.1745641295
 20
148.5633958015
 10
87.1927307543
 20
148.6084968345
 10
87.2131368628
 20
148.6528129091
 10
87.2356462776
 20
148.6960304174
 10
87.2601890763
 20
148.738045869
 10
87.286675221
 20
148.7787338675
 10
87.3150520341
 20
148.8180378023
 10
87.3453107105
 20
148.8559547139
 10
87.3774065132
 20
148.8924184771
 10
87.4112464235
 20
148.9273122023
 10
87.4467552574
 20
148.9605523488
 10
87.4837086972
 20
148.991941416
 10
87.5221543963
 20
149.0215309464
 10
87.5624685914
 20
149.0495523516
 10
87.6046780667
 20
149.0759119207
 10
87.6486541889
 20
149.1004181501
 10
87.6945959034
 20
149.1230521051
 10
87.742568189
 20
149.1436850024
 10
87.7923734469
 20
149.1620693185
 10
87.8438094373
 20
149.1779849959
 10
87.8967254561
 20
149.1912583872
 10
87.9510292163
 20
149.2017436287
 10
88.0065774896
 20
149.2092848234
  0
LINE
  5
282
100
AcDbEntity
  8
DRAFT
100
AcDbLine
 62
7
  6
CONTINUOUS
 10
98.1929541733
 20
152.8607347975
 11
98.202961314
 21
152.8967928482
  0
LINE
  5
283
100
AcDbEntity
  8
DRAFT
100
AcDbLine
 62
7
  6
CONTINUOUS
 10
98.202961314
 20
152.8967928482
 11
98.2131151432
 21
152.93263991
  0
LINE
  5
284
100
AcDbEntity
  8
DRAFT
100
AcDbLine
 62
7
  6
CONTINUOUS
 10
98.2131151432
 20
152.93263991
 11
98.2234189873
 21
152.9682748566
  0
LWPOLYLINE
  5
285
100
AcDbEntity
  8
DRAFT
100
AcDbPolyline
 62
7
  6
CONTINUOUS
 90
3
 70
0
 10
98.2234189873
 20
152.9682748566
 10
98.2338861517
 20
153.0036931828
 10
98.2391801475
 20
153.0213213948
  0
LWPOLYLINE
  5
286
100
AcDbEntity
  8
RACCORDO
100
AcDbPolyline
 62
253
  6
CONTINUOUS
 90
10
 70
0
 10
199.4027975104
 20
36.0333579662
 10
199.3912325432
 20
36.0321890089
 10
199.379655291
 20
36.0311577438
 10
199.3680673322
 20
36.0302642083
 10
199.3564716078
 20
36.0295085018
 10
199.3448683329
 20
36.0288905126
 10
199.3332549876
 20
36.0284100773
 10
199.3216317758
 20
36.0280672699
 10
199.3100016329
 20
36.0278622434
 10
199.2983661318
 20
36.0277950679
  0
LWPOLYLINE
  5
287
100
AcDbEntity
  8
RACCORDO
100
AcDbPolyline
 62
253
  6
CONTINUOUS
 90
10
 70
0
 10
199.4550414022
 20
35.8229755835
 10
199.4376817257
 20
35.8212303815
 10
199.4203096421
 20
35.8196904968
 10
199.4029251514
 20
35.8183559295
 10
199.3855279397
 20
35.8172267073
 10
199.3681183209
 20
35.8163028025
 10
199.3506972366
 20
35.8155841315
 10
199.3332650005
 20
35.8150706666
 10
199.3158212989
 20
35.8147624356
 10
199.2983661318
 20
35.8146594385
  0
LINE
  5
288
100
AcDbEntity
  8
RACCORDO
100
AcDbLine
 62
7
  6
CONTINUOUS
 10
139.9069942141
 20
30.4944679465
 11
139.9269951645
 21
30.4955756512
  0
LINE
  5
289
100
AcDbEntity
  8
RACCORDO
100
AcDbLine
 62
7
  6
CONTINUOUS
 10
139.9269951645
 20
30.4955756512
 11
139.9707788332
 21
30.4977946631
  0
LWPOLYLINE
  5
28A
100
AcDbEntity
  8
RACCORDO
100
AcDbPolyline
 62
253
  6
CONTINUOUS
 90
10
 70
0
 10
140.3505338604
 20
30.7765023638
 10
140.280940024
 20
30.7734508806
 10
140.2190589996
 20
30.7703290787
 10
140.1651543977
 20
30.7671631527
 10
140.1193244658
 20
30.7639510128
 10
140.0816942553
 20
30.7606947487
 10
140.0524232278
 20
30.7574268247
 10
140.031513329
 20
30.7541580621
 10
140.0188938754
 20
30.7508776395
 10
140.0145102567
 20
30.7475855569
  0
LINE
  5
28B
100
AcDbEntity
  8
RACCORDO
100
AcDbLine
 62
7
  6
CONTINUOUS
 10
139.9707788332
 20
30.4977946631
 11
140.0204674869
 21
30.5000500894
  0
LINE
  5
28C
100
AcDbEntity
  8
RACCORDO
100
AcDbLine
 62
7
  6
CONTINUOUS
 10
140.0204674869
 20
30.5000500894
 11
140.0913096136
 21
30.5029116539
  0
LINE
  5
28D
100
AcDbEntity
  8
RACCORDO
100
AcDbLine
 62
253
  6
CONTINUOUS
 10
140.5119020203
 20
30.7823873358
 11
140.3505338604
 21
30.7765023638
  0
LINE
  5
28E
100
AcDbEntity
  8
RACCORDO
100
AcDbLine
 62
7
  6
CONTINUOUS
 10
140.0913096136
 20
30.5029116539
 11
140.1900403051
 21
30.5063985693
  0
LWPOLYLINE
  5
28F
100
AcDbEntity
  8
RACCORDO
100
AcDbPolyline
 62
253
  6
CONTINUOUS
 90
25
 70
0
 10
199.2134150209
 20
36.1127461788
 10
199.2795382201
 20
36.1149447692
 10
199.3448729345
 20
36.1214445895
 10
199.4091473009
 20
36.1321191974
 10
199.4719179706
 20
36.1467764521
 10
199.5331376526
 20
36.1652863589
 10
199.5931198656
 20
36.1877009958
 10
199.6518123063
 20
36.2140391815
 10
199.7087565007
 20
36.2441346679
 10
199.7636391576
 20
36.2778295182
 10
199.8162214443
 20
36.3149737762
 10
199.8662992535
 20
36.3554197467
 10
199.9136380504
 20
36.3989713888
 10
199.9579807468
 20
36.4453668858
 10
199.9992274543
 20
36.4944748039
 10
200.0373644829
 20
36.5463043584
 10
200.0721560375
 20
36.6005915767
 10
200.1034755336
 20
36.6572012169
 10
200.1313621731
 20
36.7163960388
 10
200.155646745
 20
36.7782131353
 10
200.1759745942
 20
36.8422173466
 10
200.1920700877
 20
36.9079629331
 10
200.2037450904
 20
36.9751061957
 10
200.2108568254
 20
37.0434201489
 10
200.213262716
 20
37.112593874
  0
LINE
  5
290
100
AcDbEntity
  8
RACCORDO
100
AcDbLine
 62
7
  6
CONTINUOUS
 10
140.1900403051
 20
30.5063985693
 11
140.3259176161
 21
30.5105218144
  0
LINE
  5
291
100
AcDbEntity
  8
RACCORDO
100
AcDbLine
 62
253
  6
CONTINUOUS
 10
140.7019438693
 20
30.7879444783
 11
140.5119020203
 21
30.7823873358
  0
LWPOLYLINE
  5
292
100
AcDbEntity
  8
RACCORDO
100
AcDbPolyline
 62
7
  6
CONTINUOUS
 90
31
 70
0
 10
204.1816912595
 20
30.1213213948
 10
204.280705706
 20
30.12377326
 10
204.3797440145
 20
30.1311493668
 10
204.4785591419
 20
30.1434713154
 10
204.576556929
 20
30.160678876
 10
204.673837601
 20
30.1828036525
 10
204.7711574594
 20
30.2101400135
 10
204.8689310469
 20
30.2430731378
 10
204.9660927637
 20
30.2815213408
 10
205.0611902291
 20
30.325027973
 10
205.1536628729
 20
30.3733221549
 10
205.2435636741
 20
30.426416743
 10
205.3304574396
 20
30.4840499312
 10
205.4139885996
 20
30.5459442118
 10
205.4940858567
 20
30.6120036037
 10
205.5707461794
 20
30.6822256325
 10
205.6438773281
 20
30.7565749668
 10
205.7131221312
 20
30.8347402624
 10
205.7780997525
 20
30.9162898767
 10
205.8385790175
 20
31.0008786755
 10
205.8945002797
 20
31.0883643803
 10
205.9457806416
 20
31.178587603
 10
205.9920455865
 20
31.2707827693
 10
206.0334751981
 20
31.3651916916
 10
206.0705664252
 20
31.4632788129
 10
206.103120974
 20
31.5654370699
 10
206.1305523925
 20
31.6709149762
 10
206.1525093552
 20
31.7795282763
 10
206.1686295861
 20
31.8910224225
 10
206.1785529022
 20
32.0050690149
 10
206.181934989
 20
32.1213213948
  0
LWPOLYLINE
  5
293
100
AcDbEntity
  8
0
100
AcDbPolyline
 62
7
  6
CONTINUOUS
 90
31
 70
0
 10
204.1816912595
 20
30.1213213948
 10
204.280705706
 20
30.12377326
 10
204.3797440145
 20
30.1311493668
 10
204.4785591419
 20
30.1434713154
 10
204.576556929
 20
30.160678876
 10
204.673837601
 20
30.1828036525
 10
204.7711574594
 20
30.2101400135
 10
204.8689310469
 20
30.2430731378
 10
204.9660927637
 20
30.2815213408
 10
205.0611902291
 20
30.325027973
 10
205.1536628729
 20
30.3733221549
 10
205.2435636741
 20
30.426416743
 10
205.3304574396
 20
30.4840499312
 10
205.4139885996
 20
30.5459442118
 10
205.4940858567
 20
30.6120036037
 10
205.5707461794
 20
30.6822256325
 10
205.6438773281
 20
30.7565749668
 10
205.7131221312
 20
30.8347402624
 10
205.7780997525
 20
30.9162898767
 10
205.8385790175
 20
31.0008786755
 10
205.8945002797
 20
31.0883643803
 10
205.9457806416
 20
31.178587603
 10
205.9920455865
 20
31.2707827693
 10
206.0334751981
 20
31.3651916916
 10
206.0705664252
 20
31.4632788129
 10
206.103120974
 20
31.5654370699
 10
206.1305523925
 20
31.6709149762
 10
206.1525093552
 20
31.7795282763
 10
206.1686295861
 20
31.8910224225
 10
206.1785529022
 20
32.0050690149
 10
206.181934989
 20
32.1213213948
  0
LWPOLYLINE
  5
294
100
AcDbEntity
  8
RACCORDO
100
AcDbPolyline
 62
253
  6
CONTINUOUS
 90
31
 70
0
 10
204.1816912595
 20
30.3213213948
 10
204.2711813064
 20
30.3235144933
 10
204.3602443839
 20
30.3301594694
 10
204.4488804918
 20
30.3412563234
 10
204.537032828
 20
30.3566817056
 10
204.6247581947
 20
30.3765589655
 10
204.7122269988
 20
30.4012581516
 10
204.8001027281
 20
30.4310387887
 10
204.8877218948
 20
30.465641352
 10
204.9732644423
 20
30.5046573152
 10
205.0563974573
 20
30.5481165113
 10
205.137453853
 20
30.5959891073
 10
205.2156123135
 20
30.6477770776
 10
205.2907309604
 20
30.7034232536
 10
205.3629516719
 20
30.762984804
 10
205.4318787665
 20
30.8261352087
 10
205.4976049409
 20
30.8930207964
 10
205.5600374983
 20
30.9634952384
 10
205.6185026665
 20
31.0367930286
 10
205.6728832721
 20
31.1128536648
 10
205.7232964884
 20
31.1917376493
 10
205.7694200635
 20
31.2728609821
 10
205.8111448383
 20
31.3557235044
 10
205.8485799718
 20
31.4408253751
 10
205.8817306895
 20
31.5290830711
 10
205.9109212245
 20
31.6210025714
 10
205.9358273435
 20
31.716077897
 10
205.955481573
 20
31.8137075881
 10
205.9695614216
 20
31.9136911582
 10
205.9783893806
 20
32.0162290937
 10
205.98196545
 20
32.1213213948
  0
LINE
  5
295
100
AcDbEntity
  8
RACCORDO
100
AcDbLine
 62
7
  6
CONTINUOUS
 10
140.3259176161
 20
30.5105218144
 11
140.5112701382
 21
30.5152709633
  0
LINE
  5
296
100
AcDbEntity
  8
RACCORDO
100
AcDbLine
 62
253
  6
CONTINUOUS
 10
140.9190439144
 20
30.7931414522
 11
140.7019438693
 21
30.7879444783
  0
LINE
  5
297
100
AcDbEntity
  8
RACCORDO
100
AcDbLine
 62
7
  6
CONTINUOUS
 10
140.5112701382
 20
30.5152709633
 11
140.7901330505
 21
30.5211137739
  0
LINE
  5
298
100
AcDbEntity
  8
RACCORDO
100
AcDbLine
 62
253
  6
CONTINUOUS
 10
141.2913539751
 20
30.8001502783
 11
140.9190439144
 21
30.7931414522
  0
LINE
  5
299
100
AcDbEntity
  8
RACCORDO
100
AcDbLine
 62
7
  6
CONTINUOUS
 10
140.7901330505
 20
30.5211137739
 11
141.1947014043
 21
30.5277137334
  0
LINE
  5
29A
100
AcDbEntity
  8
RACCORDO
100
AcDbLine
 62
253
  6
CONTINUOUS
 10
141.8626027517
 20
30.8078086383
 11
141.2913539751
 21
30.8001502783
  0
LINE
  5
29B
100
AcDbEntity
  8
RACCORDO
100
AcDbLine
 62
7
  6
CONTINUOUS
 10
141.1947014043
 20
30.5277137334
 11
141.7677361579
 21
30.5344819923
  0
LINE
  5
29C
100
AcDbEntity
  8
RACCORDO
100
AcDbLine
 62
253
  6
CONTINUOUS
 10
142.6672629279
 20
30.8142994097
 11
141.8626027517
 21
30.8078086383
  0
LINE
  5
29D
100
AcDbEntity
  8
RACCORDO
100
AcDbLine
 62
7
  6
CONTINUOUS
 10
141.7677361579
 20
30.5344819923
 11
142.560004952
 21
30.5403225511
  0
LINE
  5
29E
100
AcDbEntity
  8
RACCORDO
100
AcDbLine
 62
7
  6
CONTINUOUS
 10
142.560004952
 20
30.5403225511
 11
143.4375442092
 21
30.5430990456
  0
LINE
  5
29F
100
AcDbEntity
  8
RACCORDO
100
AcDbLine
 62
253
  6
CONTINUOUS
 10
143.5302602464
 20
30.8170300123
 11
142.6672629279
 21
30.8142994097
  0
LINE
  5
2A0
100
AcDbEntity
  8
RACCORDO
100
AcDbLine
 62
7
  6
CONTINUOUS
 10
83.2049921561
 20
30.1213213948
 11
204.2043828439
 21
30.1213213948
  0
LINE
  5
2A1
100
AcDbEntity
  8
0
100
AcDbLine
 62
7
  6
CONTINUOUS
 10
83.2049921561
 20
30.1213213948
 11
204.2043828439
 21
30.1213213948
  0
LINE
  5
2A2
100
AcDbEntity
  8
0
100
AcDbLine
 62
7
  6
CONTINUOUS
 10
83.2276837405
 20
30.2588714148
 11
204.1816912596
 21
30.2588714148
  0
LINE
  5
2A3
100
AcDbEntity
  8
RACCORDO
100
AcDbLine
 62
253
  6
CONTINUOUS
 10
83.2276837405
 20
30.3213213948
 11
204.1816912595
 21
30.3213213948
  0
LINE
  5
2A4
100
AcDbEntity
  8
RACCORDO
100
AcDbLine
 62
7
  6
CONTINUOUS
 10
204.2049464182
 20
30.4213213948
 11
147.6983125085
 21
30.4213213948
  0
LINE
  5
2A5
100
AcDbEntity
  8
RACCORDO
100
AcDbLine
 62
7
  6
CONTINUOUS
 10
139.7110624915
 20
30.4213213948
 11
83.2044285818
 21
30.4213213948
  0
LINE
  5
2A6
100
AcDbEntity
  8
DRAFT
100
AcDbLine
 62
7
  6
CONTINUOUS
 10
179.2046875
 20
31.2213213948
 11
168.2046875
 21
31.2213213948
  0
LINE
  5
2A7
100
AcDbEntity
  8
DRAFT
100
AcDbLine
 62
7
  6
CONTINUOUS
 10
119.2046875
 20
31.2213213948
 11
108.2046875
 21
31.2213213948
  0
LINE
  5
2A8
100
AcDbEntity
  8
RACCORDO
100
AcDbLine
 62
253
  6
CONTINUOUS
 10
81.2046875
 20
32.1213213948
 11
81.42740955
 21
32.1213213948
  0
LINE
  5
2A9
100
AcDbEntity
  8
0
100
AcDbLine
 62
253
  6
CONTINUOUS
 10
81.2046875
 20
32.1213213948
 11
81.36495957
 21
32.1213213948
  0
LINE
  5
2AA
100
AcDbEntity
  8
RACCORDO
100
AcDbLine
 62
253
  6
CONTINUOUS
 10
205.98196545
 20
32.1213213948
 11
206.2046875
 21
32.1213213948
  0
LINE
  5
2AB
100
AcDbEntity
  8
0
100
AcDbLine
 62
253
  6
CONTINUOUS
 10
206.04441543
 20
32.1213213948
 11
206.2046875
 21
32.1213213948
  0
LINE
  5
2AC
100
AcDbEntity
  8
DRAFT
100
AcDbLine
 62
7
  6
CONTINUOUS
 10
204.1046875
 20
32.2213213948
 11
189.1701948525
 21
32.2213213948
  0
LINE
  5
2AD
100
AcDbEntity
  8
DRAFT
100
AcDbLine
 62
7
  6
CONTINUOUS
 10
188.2391801475
 20
32.2213213948
 11
179.2046875
 21
32.2213213948
  0
LINE
  5
2AE
100
AcDbEntity
  8
DRAFT
100
AcDbLine
 62
7
  6
CONTINUOUS
 10
168.2046875
 20
32.2213213948
 11
149.0046875
 21
32.2213213948
  0
LINE
  5
2AF
100
AcDbEntity
  8
DRAFT
100
AcDbLine
 62
7
  6
CONTINUOUS
 10
138.4046875
 20
32.2213213948
 11
119.2046875
 21
32.2213213948
  0
LINE
  5
2B0
100
AcDbEntity
  8
DRAFT
100
AcDbLine
 62
7
  6
CONTINUOUS
 10
108.2046875
 20
32.2213213948
 11
99.1701948525
 21
32.2213213948
  0
LINE
  5
2B1
100
AcDbEntity
  8
DRAFT
100
AcDbLine
 62
7
  6
CONTINUOUS
 10
98.2391801475
 20
32.2213213948
 11
83.3046875
 21
32.2213213948
  0
LINE
  5
2B2
100
AcDbEntity
  8
DRAFT
100
AcDbLine
 62
7
  6
CONTINUOUS
 10
179.1691463576
 20
32.2390865517
 11
168.2402286424
 21
32.2390865517
  0
LINE
  5
2B3
100
AcDbEntity
  8
DRAFT
100
AcDbLine
 62
7
  6
CONTINUOUS
 10
119.1691463576
 20
32.2390865517
 11
108.2402286424
 21
32.2390865517
  0
LINE
  5
2B4
100
AcDbEntity
  8
RACCORDO
100
AcDbLine
 62
7
  6
CONTINUOUS
 10
132.0069086708
 20
32.2806686156
 11
131.4024663292
 21
32.2806686156
  0
LINE
  5
2B5
100
AcDbEntity
  8
RACCORDO
100
AcDbLine
 62
7
  6
CONTINUOUS
 10
155.4024663292
 20
32.2806686156
 11
156.0069086708
 21
32.2806686156
  0
LINE
  5
2B6
100
AcDbEntity
  8
RACCORDO
100
AcDbLine
 62
7
  6
CONTINUOUS
 10
178.6980801418
 20
32.2876708569
 11
168.7112948582
 21
32.2876708569
  0
LINE
  5
2B7
100
AcDbEntity
  8
RACCORDO
100
AcDbLine
 62
7
  6
CONTINUOUS
 10
118.6980801418
 20
32.2876708569
 11
108.7112948582
 21
32.2876708569
  0
LINE
  5
2B8
100
AcDbEntity
  8
DRAFT
100
AcDbLine
 62
7
  6
CONTINUOUS
 10
150.4889779416
 20
32.3661984337
 11
149.1495645389
 21
32.3661984337
  0
LINE
  5
2B9
100
AcDbEntity
  8
DRAFT
100
AcDbLine
 62
7
  6
CONTINUOUS
 10
138.2598104611
 20
32.3661984337
 11
136.9203970584
 21
32.3661984337
  0
LINE
  5
2BA
100
AcDbEntity
  8
DRAFT
100
AcDbLine
 62
7
  6
CONTINUOUS
 10
203.9441009027
 20
32.3819079922
 11
189.3046875
 21
32.3819079922
  0
LINE
  5
2BB
100
AcDbEntity
  8
DRAFT
100
AcDbLine
 62
7
  6
CONTINUOUS
 10
188.1046875
 20
32.3819079922
 11
178.6972872812
 21
32.3819079922
  0
LINE
  5
2BC
100
AcDbEntity
  8
DRAFT
100
AcDbLine
 62
7
  6
CONTINUOUS
 10
168.7120877188
 20
32.3819079922
 11
156.3046875
 21
32.3819079922
  0
LINE
  5
2BD
100
AcDbEntity
  8
DRAFT
100
AcDbLine
 62
7
  6
CONTINUOUS
 10
155.1046875
 20
32.3819079922
 11
150.5046875
 21
32.3819079922
  0
LINE
  5
2BE
100
AcDbEntity
  8
DRAFT
100
AcDbLine
 62
7
  6
CONTINUOUS
 10
136.9046875
 20
32.3819079922
 11
132.3046875
 21
32.3819079922
  0
LINE
  5
2BF
100
AcDbEntity
  8
DRAFT
100
AcDbLine
 62
7
  6
CONTINUOUS
 10
131.1046875
 20
32.3819079922
 11
118.6972872812
 21
32.3819079922
  0
LINE
  5
2C0
100
AcDbEntity
  8
DRAFT
100
AcDbLine
 62
7
  6
CONTINUOUS
 10
108.7120877188
 20
32.3819079922
 11
99.3046875
 21
32.3819079922
  0
LINE
  5
2C1
100
AcDbEntity
  8
DRAFT
100
AcDbLine
 62
7
  6
CONTINUOUS
 10
98.1046875
 20
32.3819079922
 11
83.4652740973
 21
32.3819079922
  0
LINE
  5
2C2
100
AcDbEntity
  8
RACCORDO
100
AcDbLine
 62
7
  6
CONTINUOUS
 10
202.1557230941
 20
32.4713213948
 11
179.6453402792
 21
32.4713213948
  0
LINE
  5
2C3
100
AcDbEntity
  8
RACCORDO
100
AcDbLine
 62
7
  6
CONTINUOUS
 10
167.7640347208
 20
32.4713213948
 11
149.5045047481
 21
32.4713213948
  0
LINE
  5
2C4
100
AcDbEntity
  8
RACCORDO
100
AcDbLine
 62
7
  6
CONTINUOUS
 10
137.9048702519
 20
32.4713213948
 11
119.6453402792
 21
32.4713213948
  0
LINE
  5
2C5
100
AcDbEntity
  8
RACCORDO
100
AcDbLine
 62
7
  6
CONTINUOUS
 10
107.7640347208
 20
32.4713213948
 11
85.2536519059
 21
32.4713213948
  0
LINE
  5
2C6
100
AcDbEntity
  8
DRAFT
100
AcDbLine
 62
7
  6
CONTINUOUS
 10
178.6978203051
 20
32.4958733168
 11
168.7115546949
 21
32.4958733168
  0
LINE
  5
2C7
100
AcDbEntity
  8
DRAFT
100
AcDbLine
 62
7
  6
CONTINUOUS
 10
118.6978203051
 20
32.4958733168
 11
108.7115546949
 21
32.4958733168
  0
LINE
  5
2C8
100
AcDbEntity
  8
RACCORDO
100
AcDbLine
 62
253
  6
CONTINUOUS
 10
118.7607115861
 20
32.5587645978
 11
108.6486634139
 21
32.5587645978
  0
LINE
  5
2C9
100
AcDbEntity
  8
DRAFT
100
AcDbLine
 62
7
  6
CONTINUOUS
 10
178.7651578088
 20
32.5632108204
 11
168.6442171912
 21
32.5632108204
  0
LINE
  5
2CA
100
AcDbEntity
  8
RACCORDO
100
AcDbLine
 62
253
  6
CONTINUOUS
 10
118.7677084458
 20
32.7719002272
 11
108.6416665542
 21
32.7719002272
  0
LINE
  5
2CB
100
AcDbEntity
  8
RACCORDO
100
AcDbLine
 62
7
  6
CONTINUOUS
 10
147.5969875912
 20
32.9213213948
 11
139.8123874088
 21
32.9213213948
  0
LINE
  5
2CC
100
AcDbEntity
  8
RACCORDO
100
AcDbLine
 62
7
  6
CONTINUOUS
 10
143.4375442092
 20
30.5430990456
 11
144.3172071464
 21
30.542428194
  0
LINE
  5
2CD
100
AcDbEntity
  8
RACCORDO
100
AcDbLine
 62
253
  6
CONTINUOUS
 10
144.4030384983
 20
30.8158497016
 11
143.5302602464
 21
30.8170300123
  0
LINE
  5
2CE
100
AcDbEntity
  8
RACCORDO
100
AcDbLine
 62
7
  6
CONTINUOUS
 10
144.3172071464
 20
30.542428194
 11
145.1706525402
 21
30.5383759851
  0
LINE
  5
2CF
100
AcDbEntity
  8
RACCORDO
100
AcDbLine
 62
253
  6
CONTINUOUS
 10
145.2365704408
 20
30.8108238006
 11
144.4030384983
 21
30.8158497016
  0
LINE
  5
2D0
100
AcDbEntity
  8
RACCORDO
100
AcDbLine
 62
7
  6
CONTINUOUS
 10
145.1706525402
 20
30.5383759851
 11
145.8650201818
 21
30.5321411292
  0
LINE
  5
2D1
100
AcDbEntity
  8
RACCORDO
100
AcDbLine
 62
253
  6
CONTINUOUS
 10
145.843482157
 20
30.8042186164
 11
145.2365704408
 21
30.8108238006
  0
LINE
  5
2D2
100
AcDbEntity
  8
RACCORDO
100
AcDbLine
 62
7
  6
CONTINUOUS
 10
145.8650201818
 20
30.5321411292
 11
146.3853880365
 21
30.5251512094
  0
LINE
  5
2D3
100
AcDbEntity
  8
RACCORDO
100
AcDbLine
 62
253
  6
CONTINUOUS
 10
146.2491971318
 20
30.7979054331
 11
145.843482157
 21
30.8042186164
  0
LINE
  5
2D4
100
AcDbEntity
  8
RACCORDO
100
AcDbLine
 62
7
  6
CONTINUOUS
 10
146.3853880365
 20
30.5251512094
 11
146.7381592699
 21
30.5187797603
  0
LINE
  5
2D5
100
AcDbEntity
  8
RACCORDO
100
AcDbLine
 62
253
  6
CONTINUOUS
 10
146.6032939798
 20
30.7905670368
 11
146.2491971318
 21
30.7979054331
  0
LWPOLYLINE
  5
2D6
100
AcDbEntity
  8
0
100
AcDbPolyline
 62
7
  6
CONTINUOUS
 90
34
 70
0
 10
83.2276837405
 20
30.2588714148
 10
83.1388930451
 20
30.2610051648
 10
83.0506606087
 20
30.2673067062
 10
82.9629864315
 20
30.2777760391
 10
82.8756712797
 20
30.2924505491
 10
82.7889143869
 20
30.3112928505
 10
82.7033134543
 20
30.3341907868
 10
82.6188564724
 20
30.3611869564
 10
82.5355554507
 20
30.3922387608
 10
82.4540441183
 20
30.4271062476
 10
82.3743871962
 20
30.4657877843
 10
82.2965199635
 20
30.5082850034
 10
82.2208819862
 20
30.55436285
 10
82.1474263322
 20
30.6040881473
 10
82.0761999336
 20
30.6573940721
 10
82.0077831522
 20
30.7138451003
 10
81.9422572943
 20
30.773408212
 10
81.8795410535
 20
30.8361164271
 10
81.8199708727
 20
30.9016332807
 10
81.7635137478
 20
30.9700403188
 10
81.7102026829
 20
31.0412559954
 10
81.6604731319
 20
31.1146992078
 10
81.6143921819
 20
31.1903220051
 10
81.5718927458
 20
31.268172338
 10
81.5332090165
 20
31.3478129564
 10
81.4983390944
 20
31.4293100149
 10
81.467284879
 20
31.5125973588
 10
81.4402862616
 20
31.5970392734
 10
81.4173855143
 20
31.6826217764
 10
81.3985403651
 20
31.7693588501
 10
81.3838638885
 20
31.8566567257
 10
81.3733937763
 20
31.9443174802
 10
81.3670923368
 20
32.0325390366
 10
81.36495957
 20
32.1213213948
  0
LINE
  5
2D7
100
AcDbEntity
  8
RACCORDO
100
AcDbLine
 62
7
  6
CONTINUOUS
 10
146.7381592699
 20
30.5187797603
 11
146.9670017371
 21
30.5136031373
  0
LINE
  5
2D8
100
AcDbEntity
  8
RACCORDO
100
AcDbLine
 62
253
  6
CONTINUOUS
 10
146.807010976
 20
30.7851777196
 11
146.6032939798
 21
30.7905670368
  0
LINE
  5
2D9
100
AcDbEntity
  8
RACCORDO
100
AcDbLine
 62
7
  6
CONTINUOUS
 10
146.9670017371
 20
30.5136031373
 11
147.1241098506
 21
30.5093556824
  0
LINE
  5
2DA
100
AcDbEntity
  8
RACCORDO
100
AcDbLine
 62
7
  6
CONTINUOUS
 10
147.1241098506
 20
30.5093556824
 11
147.2431873996
 21
30.5056004137
  0
LWPOLYLINE
  5
2DB
100
AcDbEntity
  8
RACCORDO
100
AcDbPolyline
 62
7
  6
CONTINUOUS
 90
28
 70
0
 10
85.236644436
 20
32.4714043718
 10
85.139480872
 20
32.4750984516
 10
85.0423820587
 20
32.4843555883
 10
84.9456713208
 20
32.4991964087
 10
84.8495050451
 20
32.5196563269
 10
84.754388523
 20
32.5457029509
 10
84.6611488758
 20
32.5771415423
 10
84.5702342929
 20
32.6137712147
 10
84.4817778365
 20
32.6554814423
 10
84.3960930242
 20
32.7020996851
 10
84.3135101421
 20
32.7533954132
 10
84.2342049696
 20
32.8092004881
 10
84.1582581
 20
32.8694406222
 10
84.0858768152
 20
32.9339549101
 10
84.0173344104
 20
33.0024965227
 10
83.95281912
 20
33.0748772601
 10
83.8925777598
 20
33.1508239265
 10
83.8367713344
 20
33.2301292019
 10
83.7854743035
 20
33.3127122915
 10
83.7388548935
 20
33.3983972515
 10
83.6971435429
 20
33.4868539414
 10
83.6605127017
 20
33.5777691001
 10
83.6290729437
 20
33.6710096841
 10
83.6030252125
 20
33.7661275015
 10
83.582564257
 20
33.8622956793
 10
83.5677225547
 20
33.9590090089
 10
83.5584648058
 20
34.0561110086
 10
83.554770477
 20
34.1532783309
  0
LINE
  5
2DC
100
AcDbEntity
  8
RACCORDO
100
AcDbLine
 62
7
  6
CONTINUOUS
 10
147.2431873996
 20
30.5056004137
 11
147.3319969324
 21
30.502376351
  0
LINE
  5
2DD
100
AcDbEntity
  8
RACCORDO
100
AcDbLine
 62
7
  6
CONTINUOUS
 10
147.3319969324
 20
30.502376351
 11
147.3968948371
 21
30.4997032669
  0
LINE
  5
2DE
100
AcDbEntity
  8
RACCORDO
100
AcDbLine
 62
7
  6
CONTINUOUS
 10
147.3968948371
 20
30.4997032669
 11
147.4429706759
 21
30.4975838561
  0
LWPOLYLINE
  5
2DF
100
AcDbEntity
  8
RACCORDO
100
AcDbPolyline
 62
253
  6
CONTINUOUS
 90
28
 70
0
 10
87.9543335978
 20
35.8229755835
 10
87.8897941938
 20
35.8263933801
 10
87.8269356384
 20
35.833008745
 10
87.7658511959
 20
35.8427633956
 10
87.7068663569
 20
35.8556048241
 10
87.6498360232
 20
35.8714513536
 10
87.59414494
 20
35.8902354029
 10
87.5396089283
 20
35.9119662056
 10
87.4865911022
 20
35.9365769591
 10
87.4352945803
 20
35.9639095025
 10
87.3858444186
 20
35.9938770329
 10
87.3382843157
 20
36.0264554266
 10
87.2926893375
 20
36.0615663075
 10
87.2491063353
 20
36.0991663919
 10
87.2076520125
 20
36.1391722701
 10
87.1684987634
 20
36.1814352753
 10
87.1318217241
 20
36.225684825
 10
87.0975798621
 20
36.2720329762
 10
87.0656410554
 20
36.3209116941
 10
87.0359797049
 20
36.3723081901
 10
87.0088147943
 20
36.4260963181
 10
86.9844221885
 20
36.4825435283
 10
86.9628179305
 20
36.5417291326
 10
86.9442078814
 20
36.6033971476
 10
86.9291396837
 20
36.6672874811
 10
86.9178340405
 20
36.7332307379
 10
86.9102123251
 20
36.8011634328
 10
86.9063416887
 20
36.8709674926
  0
LINE
  5
2E0
100
AcDbEntity
  8
RACCORDO
100
AcDbLine
 62
7
  6
CONTINUOUS
 10
147.4429706759
 20
30.4975838561
 11
147.4838955956
 21
30.4954940304
  0
LINE
  5
2E1
100
AcDbEntity
  8
RACCORDO
100
AcDbLine
 62
7
  6
CONTINUOUS
 10
147.4838955956
 20
30.4954940304
 11
147.5023805402
 21
30.4944681534
  0
LWPOLYLINE
  5
2E2
100
AcDbEntity
  8
RACCORDO
100
AcDbPolyline
 62
253
  6
CONTINUOUS
 90
28
 70
0
 10
88.0065774896
 20
36.0333579662
 10
87.9552144793
 20
36.0402190553
 10
87.9049893332
 20
36.0495854619
 10
87.8560133282
 20
36.0613218737
 10
87.8085990321
 20
36.0752239668
 10
87.7626130878
 20
36.0911980264
 10
87.7175120524
 20
36.1093646525
 10
87.6731959757
 20
36.1297707626
 10
87.6299784652
 20
36.1522801792
 10
87.5879630116
 20
36.1768229799
 10
87.5472750113
 20
36.2033091268
 10
87.507971075
 20
36.2316859422
 10
87.470054162
 20
36.2619446212
 10
87.4335903977
 20
36.2940404266
 10
87.3986966716
 20
36.3278803397
 10
87.3654565242
 20
36.3633891766
 10
87.334067456
 20
36.4003426202
 10
87.3044779248
 20
36.4387883233
 10
87.2764565198
 20
36.4791025217
 10
87.2500969519
 20
36.5213119992
 10
87.2255907245
 20
36.5652881224
 10
87.2029567721
 20
36.6112298364
 10
87.1823238781
 20
36.6592021195
 10
87.1639395657
 20
36.709007373
 10
87.1480238918
 20
36.7604433577
 10
87.1347505036
 20
36.8133593693
 10
87.1242652645
 20
36.8676631211
 10
87.1167240714
 20
36.9232113844
  0
LINE
  5
2E3
100
AcDbEntity
  8
RACCORDO
100
AcDbLine
 62
7
  6
CONTINUOUS
 10
98.2391801475
 20
32.2213213948
 11
98.2310345769
 21
32.2485159125
  0
LWPOLYLINE
  5
2E4
100
AcDbEntity
  8
RACCORDO
100
AcDbPolyline
 62
7
  6
CONTINUOUS
 90
3
 70
0
 10
98.2310345769
 20
32.2485159125
 10
98.2229886053
 20
32.2758407858
 10
98.2209922903
 20
32.2826922427
  0
LWPOLYLINE
  5
2E5
100
AcDbEntity
  8
RACCORDO
100
AcDbPolyline
 62
253
  6
CONTINUOUS
 90
25
 70
0
 10
87.6960361316
 20
37.112593874
 10
87.6972484883
 20
37.0793136283
 10
87.7004728491
 20
37.0466871057
 10
87.7057092141
 20
37.0147143061
 10
87.7129883615
 20
36.983363867
 10
87.722279513
 20
36.9526671509
 10
87.7334903335
 20
36.9227182453
 10
87.7466554678
 20
36.8934176301
 10
87.7617402712
 20
36.8648648252
 10
87.7785484742
 20
36.8374524785
 10
87.797103952
 20
36.8112049502
 10
87.8173828295
 20
36.7860978799
 10
87.839117212
 20
36.7624508346
 10
87.8622813639
 20
36.7403063315
 10
87.8869010208
 20
36.7196218534
 10
87.9127854945
 20
36.7005894161
 10
87.9398949842
 20
36.6832070731
 10
87.9682692908
 20
36.6674767709
 10
87.9978371284
 20
36.6535963645
 10
88.0287305039
 20
36.6415165248
 10
88.0608174105
 20
36.6312865809
 10
88.0936305419
 20
36.6232523749
 10
88.1270141295
 20
36.6175291875
 10
88.1611239419
 20
36.614001738
 10
88.1959599791
 20
36.6126700264
  0
LINE
  5
2E6
100
AcDbEntity
  8
RACCORDO
100
AcDbLine
 62
253
  6
CONTINUOUS
 10
86.8980255437
 20
37.0276427631
 11
86.8980255437
 21
148.2150000266
  0
LINE
  5
2E7
100
AcDbEntity
  8
RACCORDO
100
AcDbLine
 62
253
  6
CONTINUOUS
 10
87.1111611731
 20
37.0276427631
 11
87.1111611731
 21
148.2150000266
  0
LINE
  5
2E8
100
AcDbEntity
  8
RACCORDO
100
AcDbLine
 62
253
  6
CONTINUOUS
 10
87.196112284
 20
148.1300489157
 11
87.196112284
 21
37.112593874
  0
LINE
  5
2E9
100
AcDbEntity
  8
RACCORDO
100
AcDbLine
 62
253
  6
CONTINUOUS
 10
87.6960361316
 20
148.1300489157
 11
87.6960361316
 21
37.112593874
  0
LINE
  5
2EA
100
AcDbEntity
  8
RACCORDO
100
AcDbLine
 62
253
  6
CONTINUOUS
 10
88.1110088682
 20
36.0277950679
 11
88.1110088682
 21
35.8146594385
  0
LINE
  5
2EB
100
AcDbEntity
  8
RACCORDO
100
AcDbLine
 62
253
  6
CONTINUOUS
 10
88.1110088682
 20
149.2148477217
 11
88.1110088682
 21
149.4279833511
  0
LINE
  5
2EC
100
AcDbEntity
  8
RACCORDO
100
AcDbLine
 62
253
  6
CONTINUOUS
 10
88.1959599791
 20
36.6126700264
 11
88.1959599791
 21
36.1127461788
  0
LINE
  5
2ED
100
AcDbEntity
  8
RACCORDO
100
AcDbLine
 62
253
  6
CONTINUOUS
 10
88.1959599791
 20
148.6299727633
 11
88.1959599791
 21
149.1298966108
  0
LWPOLYLINE
  5
2EE
100
AcDbEntity
  8
RACCORDO
100
AcDbPolyline
 62
253
  6
CONTINUOUS
 90
10
 70
0
 10
87.1111611731
 20
148.2150000266
 10
87.1112283486
 20
148.2266355277
 10
87.1114333751
 20
148.2382656706
 10
87.1117761824
 20
148.2498888824
 10
87.1122566177
 20
148.2615022277
 10
87.1128746069
 20
148.2731055026
 10
87.1136303135
 20
148.284701227
 10
87.114523849
 20
148.2962891858
 10
87.1155551141
 20
148.307866438
 10
87.1167240714
 20
148.3194314052
  0
LWPOLYLINE
  5
2EF
100
AcDbEntity
  8
RACCORDO
100
AcDbPolyline
 62
253
  6
CONTINUOUS
 90
10
 70
0
 10
86.8980255437
 20
148.2150000266
 10
86.8981285408
 20
148.2324551937
 10
86.8984367718
 20
148.2498988953
 10
86.8989502367
 20
148.2673311314
 10
86.8996689077
 20
148.2847522157
 10
86.9005928125
 20
148.3021618345
 10
86.9017220347
 20
148.3195590462
 10
86.903056602
 20
148.3369435369
 10
86.9045964867
 20
148.3543156205
 10
86.9063416887
 20
148.371675297
  0
LINE
  5
2F0
100
AcDbEntity
  8
RACCORDO
100
AcDbLine
 62
7
  6
CONTINUOUS
 10
83.3046875
 20
133.0868287473
 11
83.3318820177
 21
133.0949743179
  0
LWPOLYLINE
  5
2F1
100
AcDbEntity
  8
RACCORDO
100
AcDbPolyline
 62
7
  6
CONTINUOUS
 90
3
 70
0
 10
83.3318820177
 20
133.0949743179
 10
83.3592068909
 20
133.1030202896
 10
83.3660583479
 20
133.1050166045
  0
LWPOLYLINE
  5
2F2
100
AcDbEntity
  8
RACCORDO
100
AcDbPolyline
 62
7
  6
CONTINUOUS
 90
13
 70
0
 10
149.3162554502
 20
34.977509742
 10
149.3299831326
 20
34.9790779912
 10
149.3450767854
 20
34.9821342227
 10
149.361502604
 20
34.9867492753
 10
149.3792038748
 20
34.9930458026
 10
149.3981335239
 20
35.0010429418
 10
149.4182602961
 20
35.0106611138
 10
149.4394598123
 20
35.0219750711
 10
149.4616848858
 20
35.0350543017
 10
149.4850215547
 20
35.0498386904
 10
149.509425163
 20
35.0663822952
 10
149.5347008156
 20
35.0848244583
 10
149.5606930953
 20
35.1052540592
  0
LWPOLYLINE
  5
2F3
100
AcDbEntity
  8
RACCORDO
100
AcDbPolyline
 62
7
  6
CONTINUOUS
 90
28
 70
0
 10
139.8123874088
 20
34.718493378
 10
139.7286951557
 20
34.7109707766
 10
139.6460007825
 20
34.6988887497
 10
139.5643042892
 20
34.6822472972
 10
139.4833356673
 20
34.6609646893
 10
139.4033649253
 20
34.6351226558
 10
139.3252020883
 20
34.6049663864
 10
139.2488857856
 20
34.5704569891
 10
139.1743773879
 20
34.531633356
 10
139.1023710315
 20
34.4888573531
 10
139.0328900704
 20
34.4420921448
 10
138.9659111505
 20
34.3913745666
 10
138.9020583469
 20
34.337176992
 10
138.8413607826
 20
34.2794669665
 10
138.7837893346
 20
34.2182769444
 10
138.7298807084
 20
34.1541766626
 10
138.679669006
 20
34.0871389321
 10
138.6331201255
 20
34.0171909418
 10
138.5906684674
 20
33.9449839952
 10
138.552352152
 20
33.8704967031
 10
138.518133059
 20
33.7937504546
 10
138.4883312285
 20
33.7154607208
 10
138.4629879826
 20
33.6356137775
 10
138.4420619992
 20
33.5542233489
 10
138.4257493519
 20
33.4720460778
 10
138.4141153985
 20
33.3893341784
 10
138.4070947812
 20
33.3058354365
 10
138.4046875
 20
33.2215498521
  0
LWPOLYLINE
  5
2F4
100
AcDbEntity
  8
RACCORDO
100
AcDbPolyline
 62
7
  6
CONTINUOUS
 90
10
 70
0
 10
139.8124738349
 20
34.7184991731
 10
139.8226725152
 20
34.7190898761
 10
139.8328693025
 20
34.7196094467
 10
139.8430637175
 20
34.7200580046
 10
139.8532439913
 20
34.7204331289
 10
139.8634209343
 20
34.7207376707
 10
139.8736279645
 20
34.7209788455
 10
139.8838759241
 20
34.7211582373
 10
139.8941530516
 20
34.7212727063
 10
139.9044588707
 20
34.7213215668
  0
LWPOLYLINE
  5
2F5
100
AcDbEntity
  8
RACCORDO
100
AcDbPolyline
 62
253
  6
CONTINUOUS
 90
25
 70
0
 10
199.2134150209
 20
36.6126700264
 10
199.2466952665
 20
36.6138823831
 10
199.2793217891
 20
36.6171067439
 10
199.3112945887
 20
36.6223431089
 10
199.3426450278
 20
36.6296222563
 10
199.3733417439
 20
36.6389134078
 10
199.4032906495
 20
36.6501242283
 10
199.4325912648
 20
36.6632893627
 10
199.4611440696
 20
36.678374166
 10
199.4885564163
 20
36.695182369
 10
199.5148039447
 20
36.7137378469
 10
199.539911015
 20
36.7340167244
 10
199.5635580602
 20
36.7557511068
 10
199.5857025633
 20
36.7789152587
 10
199.6063870414
 20
36.8035349156
 10
199.6254194787
 20
36.8294193893
 10
199.6428018217
 20
36.856528879
 10
199.6585321239
 20
36.8849031856
 10
199.6724125303
 20
36.9144710233
 10
199.68449237
 20
36.9453643988
 10
199.6947223139
 20
36.9774513053
 10
199.70275652
 20
37.0102644367
 10
199.7084797074
 20
37.0436480243
 10
199.7120071569
 20
37.0777578367
 10
199.7133388684
 20
37.112593874
  0
LINE
  5
2F6
100
AcDbEntity
  8
RACCORDO
100
AcDbLine
 62
7
  6
CONTINUOUS
 10
146.7245755018
 20
34.7154528816
 11
146.8963099041
 21
34.717743312
  0
LINE
  5
2F7
100
AcDbEntity
  8
RACCORDO
100
AcDbLine
 62
7
  6
CONTINUOUS
 10
146.8963099041
 20
34.717743312
 11
147.1543149549
 21
34.7199648138
  0
LINE
  5
2F8
100
AcDbEntity
  8
RACCORDO
100
AcDbLine
 62
7
  6
CONTINUOUS
 10
147.1543149549
 20
34.7199648138
 11
147.5048584828
 21
34.7212639204
  0
LINE
  5
2F9
100
AcDbEntity
  8
RACCORDO
100
AcDbLine
 62
7
  6
CONTINUOUS
 10
140.1779048124
 20
34.7213213948
 11
141.2314701876
 21
34.7213213948
  0
LINE
  5
2FA
100
AcDbEntity
  8
RACCORDO
100
AcDbLine
 62
7
  6
CONTINUOUS
 10
146.1779048124
 20
34.7213213948
 11
147.2314701876
 21
34.7213213948
  0
LINE
  5
2FB
100
AcDbEntity
  8
RACCORDO
100
AcDbLine
 62
7
  6
CONTINUOUS
 10
147.6497929962
 20
34.8661984337
 11
147.2712235639
 21
34.8661984337
  0
LINE
  5
2FC
100
AcDbEntity
  8
DRAFT
100
AcDbLine
 62
7
  6
CONTINUOUS
 10
146.1381514361
 20
34.8661984337
 11
141.2712235639
 21
34.8661984337
  0
LINE
  5
2FD
100
AcDbEntity
  8
RACCORDO
100
AcDbLine
 62
7
  6
CONTINUOUS
 10
140.1381514361
 20
34.8661984337
 11
139.7595820038
 21
34.8661984337
  0
LINE
  5
2FE
100
AcDbEntity
  8
DRAFT
100
AcDbLine
 62
7
  6
CONTINUOUS
 10
149.2046875
 20
34.9213213948
 11
138.2046875
 21
34.9213213948
  0
LINE
  5
2FF
100
AcDbEntity
  8
RACCORDO
100
AcDbLine
 62
253
  6
CONTINUOUS
 10
149.3162554502
 20
34.977509742
 11
138.0931195498
 21
34.977509742
  0
LINE
  5
300
100
AcDbEntity
  8
RACCORDO
100
AcDbLine
 62
253
  6
CONTINUOUS
 10
137.8486819047
 20
35.1052540592
 11
149.5606930953
 21
35.1052540592
  0
LINE
  5
301
100
AcDbEntity
  8
RACCORDO
100
AcDbLine
 62
7
  6
CONTINUOUS
 10
107.8002162116
 20
35.4316383169
 11
108.6091587884
 21
35.4316383169
  0
LINE
  5
302
100
AcDbEntity
  8
RACCORDO
100
AcDbLine
 62
7
  6
CONTINUOUS
 10
178.8002162116
 20
35.4316383169
 11
179.6091587884
 21
35.4316383169
  0
LINE
  5
303
100
AcDbEntity
  8
RACCORDO
100
AcDbLine
 62
253
  6
CONTINUOUS
 10
107.8019502533
 20
35.5735150859
 11
108.6074247467
 21
35.5735150859
  0
LINE
  5
304
100
AcDbEntity
  8
RACCORDO
100
AcDbLine
 62
253
  6
CONTINUOUS
 10
178.8019502533
 20
35.5735150859
 11
179.6074247467
 21
35.5735150859
  0
LINE
  5
305
100
AcDbEntity
  8
RACCORDO
100
AcDbLine
 62
253
  6
CONTINUOUS
 10
199.2983661318
 20
35.8146594385
 11
179.6044774399
 21
35.8146594385
  0
LINE
  5
306
100
AcDbEntity
  8
RACCORDO
100
AcDbLine
 62
253
  6
CONTINUOUS
 10
178.8048975601
 20
35.8146594385
 11
168.6044774399
 21
35.8146594385
  0
LINE
  5
307
100
AcDbEntity
  8
RACCORDO
100
AcDbLine
 62
253
  6
CONTINUOUS
 10
167.8048975601
 20
35.8146594385
 11
119.6044774399
 21
35.8146594385
  0
LINE
  5
308
100
AcDbEntity
  8
RACCORDO
100
AcDbLine
 62
253
  6
CONTINUOUS
 10
118.8048975601
 20
35.8146594385
 11
108.6044774399
 21
35.8146594385
  0
LINE
  5
309
100
AcDbEntity
  8
RACCORDO
100
AcDbLine
 62
253
  6
CONTINUOUS
 10
107.8048975601
 20
35.8146594385
 11
88.1110088682
 21
35.8146594385
  0
LINE
  5
30A
100
AcDbEntity
  8
RACCORDO
100
AcDbLine
 62
7
  6
CONTINUOUS
 10
179.5999571104
 20
36.0046496544
 11
178.8094178896
 21
36.0046496544
  0
LINE
  5
30B
100
AcDbEntity
  8
RACCORDO
100
AcDbLine
 62
7
  6
CONTINUOUS
 10
168.5999571104
 20
36.0046496544
 11
167.8094178896
 21
36.0046496544
  0
LINE
  5
30C
100
AcDbEntity
  8
RACCORDO
100
AcDbLine
 62
7
  6
CONTINUOUS
 10
119.5999571104
 20
36.0046496544
 11
118.8094178896
 21
36.0046496544
  0
LINE
  5
30D
100
AcDbEntity
  8
RACCORDO
100
AcDbLine
 62
7
  6
CONTINUOUS
 10
108.5999571104
 20
36.0046496544
 11
107.8094178896
 21
36.0046496544
  0
LINE
  5
30E
100
AcDbEntity
  8
RACCORDO
100
AcDbLine
 62
253
  6
CONTINUOUS
 10
88.1110088682
 20
36.0277950679
 11
199.2983661318
 21
36.0277950679
  0
LINE
  5
30F
100
AcDbEntity
  8
RACCORDO
100
AcDbLine
 62
253
  6
CONTINUOUS
 10
88.1959599791
 20
36.1127461788
 11
199.2134150209
 21
36.1127461788
  0
LINE
  5
310
100
AcDbEntity
  8
RACCORDO
100
AcDbLine
 62
253
  6
CONTINUOUS
 10
88.1959599791
 20
36.6126700264
 11
199.2134150209
 21
36.6126700264
  0
LINE
  5
311
100
AcDbEntity
  8
RACCORDO
100
AcDbLine
 62
253
  6
CONTINUOUS
 10
87.1111611731
 20
37.0276427631
 11
86.8980255437
 21
37.0276427631
  0
LINE
  5
312
100
AcDbEntity
  8
RACCORDO
100
AcDbLine
 62
253
  6
CONTINUOUS
 10
200.2982138269
 20
37.0276427631
 11
200.5113494563
 21
37.0276427631
  0
LINE
  5
313
100
AcDbEntity
  8
RACCORDO
100
AcDbLine
 62
253
  6
CONTINUOUS
 10
87.6960361316
 20
37.112593874
 11
87.196112284
 21
37.112593874
  0
LINE
  5
314
100
AcDbEntity
  8
RACCORDO
100
AcDbLine
 62
253
  6
CONTINUOUS
 10
199.7133388684
 20
37.112593874
 11
200.213262716
 21
37.112593874
  0
LWPOLYLINE
  5
315
100
AcDbEntity
  8
RACCORDO
100
AcDbPolyline
 62
7
  6
CONTINUOUS
 90
10
 70
0
 10
147.5049161293
 20
34.7213215668
 10
147.5152219484
 20
34.7212727063
 10
147.5254990759
 20
34.7211582373
 10
147.5357470355
 20
34.7209788455
 10
147.5459540657
 20
34.7207376707
 10
147.5561310087
 20
34.7204331289
 10
147.5663112825
 20
34.7200580046
 10
147.5765056975
 20
34.7196094467
 10
147.5867024848
 20
34.7190898761
 10
147.5969011651
 20
34.7184991731
  0
LINE
  5
316
100
AcDbEntity
  8
RACCORDO
100
AcDbLine
 62
7
  6
CONTINUOUS
 10
139.9045165172
 20
34.7212639204
 11
140.2550600451
 21
34.7199648138
  0
LWPOLYLINE
  5
317
100
AcDbEntity
  8
RACCORDO
100
AcDbPolyline
 62
253
  6
CONTINUOUS
 90
10
 70
0
 10
88.1110088682
 20
36.0277950679
 10
88.0993733671
 20
36.0278622434
 10
88.0877432242
 20
36.0280672699
 10
88.0761200124
 20
36.0284100773
 10
88.0645066671
 20
36.0288905126
 10
88.0529033922
 20
36.0295085018
 10
88.0413076678
 20
36.0302642083
 10
88.029719709
 20
36.0311577438
 10
88.0181424568
 20
36.0321890089
 10
88.0065774896
 20
36.0333579662
  0
LWPOLYLINE
  5
318
100
AcDbEntity
  8
RACCORDO
100
AcDbPolyline
 62
253
  6
CONTINUOUS
 90
10
 70
0
 10
88.1110088682
 20
35.8146594385
 10
88.0935537011
 20
35.8147624356
 10
88.0761099995
 20
35.8150706666
 10
88.0586777634
 20
35.8155841315
 10
88.0412566791
 20
35.8163028025
 10
88.0238470603
 20
35.8172267073
 10
88.0064498486
 20
35.8183559295
 10
87.9890653579
 20
35.8196904968
 10
87.9716932743
 20
35.8212303815
 10
87.9543335978
 20
35.8229755835
  0
LINE
  5
319
100
AcDbEntity
  8
RACCORDO
100
AcDbLine
 62
7
  6
CONTINUOUS
 10
140.2550600451
 20
34.7199648138
 11
140.5130650959
 21
34.717743312
  0
LINE
  5
31A
100
AcDbEntity
  8
RACCORDO
100
AcDbLine
 62
7
  6
CONTINUOUS
 10
140.5130650959
 20
34.717743312
 11
140.6847994982
 21
34.7154528816
  0
LINE
  5
31B
100
AcDbEntity
  8
RACCORDO
100
AcDbLine
 62
7
  6
CONTINUOUS
 10
83.3660583479
 20
52.1376261851
 11
83.3387010977
 21
52.1456478864
  0
LWPOLYLINE
  5
31C
100
AcDbEntity
  8
RACCORDO
100
AcDbPolyline
 62
7
  6
CONTINUOUS
 90
3
 70
0
 10
83.3387010977
 20
52.1456478864
 10
83.3114738639
 20
52.1537681796
 10
83.3046875
 20
52.1558140423
  0
LINE
  5
31D
100
AcDbEntity
  8
RACCORDO
100
AcDbLine
 62
7
  6
CONTINUOUS
 10
136.7431800327
 20
152.9899936678
 11
136.704698134
 21
152.9515117691
  0
LWPOLYLINE
  5
31E
100
AcDbEntity
  8
RACCORDO
100
AcDbPolyline
 62
253
  6
CONTINUOUS
 90
12
 70
0
 10
147.3948647433
 20
30.747585557
 10
147.3904236531
 20
30.7508996331
 10
147.3776761526
 20
30.7541941392
 10
147.3566275897
 20
30.7574690752
 10
147.3272892041
 20
30.7607329643
 10
147.2897111346
 20
30.7639772834
 10
147.244012553
 20
30.7671764627
 10
147.1903175129
 20
30.7703291917
 10
147.1287397492
 20
30.7734367809
 10
147.0594429634
 20
30.7764775921
 10
146.9826164298
 20
30.7794503503
 10
146.807010976
 20
30.7851777196
  0
LWPOLYLINE
  5
31F
100
AcDbEntity
  8
RACCORDO
100
AcDbPolyline
 62
7
  6
CONTINUOUS
 90
13
 70
0
 10
137.8486819047
 20
35.1052540592
 10
137.8746741844
 20
35.0848244582
 10
137.899949837
 20
35.0663822952
 10
137.9243534454
 20
35.0498386904
 10
137.9476901143
 20
35.0350543016
 10
137.9699151878
 20
35.0219750711
 10
137.991114704
 20
35.0106611138
 10
138.0112414762
 20
35.0010429417
 10
138.0301711252
 20
34.9930458026
 10
138.047872396
 20
34.9867492753
 10
138.0642982146
 20
34.9821342227
 10
138.0793918674
 20
34.9790779912
 10
138.0931195498
 20
34.977509742
  0
LINE
  5
320
100
AcDbEntity
  8
RACCORDO
100
AcDbLine
 62
7
  6
CONTINUOUS
 10
131.1046875
 20
32.3819079922
 11
131.2024967902
 21
32.284098702
  0
LINE
  5
321
100
AcDbEntity
  8
DRAFT
100
AcDbLine
 62
7
  6
CONTINUOUS
 10
136.9046875
 20
32.3819079922
 11
136.9203970584
 21
32.3661984337
  0
LINE
  5
322
100
AcDbEntity
  8
DRAFT
100
AcDbLine
 62
7
  6
CONTINUOUS
 10
138.4046875
 20
32.2213213948
 11
138.2598104611
 21
32.3661984337
  0
LINE
  5
323
100
AcDbEntity
  8
DRAFT
100
AcDbLine
 62
7
  6
CONTINUOUS
 10
98.1046875
 20
32.3819079922
 11
98.1046875
 21
32.4713213948
  0
LINE
  5
324
100
AcDbEntity
  8
RACCORDO
100
AcDbLine
 62
253
  6
CONTINUOUS
 10
98.2024967902
 20
32.284098702
 11
98.2024967902
 21
32.4713213948
  0
LINE
  5
325
100
AcDbEntity
  8
RACCORDO
100
AcDbLine
 62
253
  6
CONTINUOUS
 10
98.4024663292
 20
32.3690609562
 11
98.4024663292
 21
32.4713213948
  0
LINE
  5
326
100
AcDbEntity
  8
RACCORDO
100
AcDbLine
 62
253
  6
CONTINUOUS
 10
99.0069086708
 20
32.4713213948
 11
99.0069086708
 21
32.3690609562
  0
LINE
  5
327
100
AcDbEntity
  8
DRAFT
100
AcDbLine
 62
7
  6
CONTINUOUS
 10
99.1046875
 20
85.1213213948
 11
99.1046875
 21
90.1213213948
  0
LINE
  5
328
100
AcDbEntity
  8
RACCORDO
100
AcDbLine
 62
253
  6
CONTINUOUS
 10
99.1294976538
 20
90.1213213948
 11
99.1294976538
 21
85.1213213948
  0
LINE
  5
329
100
AcDbEntity
  8
RACCORDO
100
AcDbLine
 62
253
  6
CONTINUOUS
 10
99.2068782098
 20
32.4713213948
 11
99.2068782098
 21
32.284098702
  0
LINE
  5
32A
100
AcDbEntity
  8
RACCORDO
100
AcDbLine
 62
7
  6
CONTINUOUS
 10
99.3046875
 20
32.3819079922
 11
99.3046875
 21
32.4713213948
  0
LINE
  5
32B
100
AcDbEntity
  8
RACCORDO
100
AcDbLine
 62
253
  6
CONTINUOUS
 10
99.4293149019
 20
90.1213213948
 11
99.4293149019
 21
85.1213213948
  0
LINE
  5
32C
100
AcDbEntity
  8
DRAFT
100
AcDbLine
 62
7
  6
CONTINUOUS
 10
100.1046875
 20
90.1213213948
 11
100.1046875
 21
85.1213213948
  0
LINE
  5
32D
100
AcDbEntity
  8
DRAFT
100
AcDbLine
 62
7
  6
CONTINUOUS
 10
101.2046875
 20
152.8607347975
 11
101.2046875
 21
152.7713213948
  0
LINE
  5
32E
100
AcDbEntity
  8
DRAFT
100
AcDbLine
 62
7
  6
CONTINUOUS
 10
101.3046875
 20
84.6213213948
 11
101.3046875
 21
91.817944865
  0
LINE
  5
32F
100
AcDbEntity
  8
RACCORDO
100
AcDbLine
 62
253
  6
CONTINUOUS
 10
101.7431800327
 20
152.9899936678
 11
101.7431800327
 21
152.7713213948
  0
LINE
  5
330
100
AcDbEntity
  8
DRAFT
100
AcDbLine
 62
7
  6
CONTINUOUS
 10
101.8046875
 20
84.6213213948
 11
101.8046875
 21
83.3242573007
  0
LINE
  5
331
100
AcDbEntity
  8
DRAFT
100
AcDbLine
 62
7
  6
CONTINUOUS
 10
101.8745077597
 20
87.2138332389
 11
101.8745077597
 21
91.920435346
  0
LINE
  5
332
100
AcDbEntity
  8
RACCORDO
100
AcDbLine
 62
7
  6
CONTINUOUS
 10
101.9670196038
 20
85.8646204881
 11
101.9670196038
 21
86.0403544054
  0
LINE
  5
333
100
AcDbEntity
  8
RACCORDO
100
AcDbLine
 62
253
  6
CONTINUOUS
 10
102.017730682
 20
91.917508298
 11
102.017730682
 21
83.3251344916
  0
LINE
  5
334
100
AcDbEntity
  8
RACCORDO
100
AcDbLine
 62
253
  6
CONTINUOUS
 10
102.0431343413
 20
152.9951387974
 11
102.0431343413
 21
152.7713213948
  0
LINE
  5
335
100
AcDbEntity
  8
RACCORDO
100
AcDbLine
 62
253
  6
CONTINUOUS
 10
102.3176849905
 20
91.8732106364
 11
102.3176849905
 21
83.3694321533
  0
LINE
  5
336
100
AcDbEntity
  8
RACCORDO
100
AcDbLine
 62
253
  6
CONTINUOUS
 10
102.3662406587
 20
152.7713213948
 11
102.3662406587
 21
152.9951387974
  0
LINE
  5
337
100
AcDbEntity
  8
RACCORDO
100
AcDbLine
 62
253
  6
CONTINUOUS
 10
102.5916900095
 20
91.784394503
 11
102.5916900095
 21
83.4582482867
  0
LINE
  5
338
100
AcDbEntity
  8
RACCORDO
100
AcDbLine
 62
253
  6
CONTINUOUS
 10
102.6661949673
 20
152.7713213948
 11
102.6661949673
 21
152.9899936678
  0
LINE
  5
339
100
AcDbEntity
  8
RACCORDO
100
AcDbLine
 62
253
  6
CONTINUOUS
 10
102.891644318
 20
91.626499909
 11
102.891644318
 21
83.6161428807
  0
LINE
  5
33A
100
AcDbEntity
  8
RACCORDO
100
AcDbLine
 62
7
  6
CONTINUOUS
 10
102.9423553962
 20
85.8646204881
 11
102.9423553962
 21
86.0403544054
  0
LINE
  5
33B
100
AcDbEntity
  8
DRAFT
100
AcDbLine
 62
7
  6
CONTINUOUS
 10
102.9909904959
 20
88.0684619307
 11
102.9909904959
 21
87.1699564945
  0
LINE
  5
33C
100
AcDbEntity
  8
DRAFT
100
AcDbLine
 62
7
  6
CONTINUOUS
 10
103.0174121754
 20
88.1213213948
 11
103.0174121754
 21
91.5352048982
  0
LINE
  5
33D
100
AcDbEntity
  8
RACCORDO
100
AcDbLine
 62
7
  6
CONTINUOUS
 10
103.1046875
 20
84.6213213948
 11
103.1046875
 21
83.7807125357
  0
LINE
  5
33E
100
AcDbEntity
  8
RACCORDO
100
AcDbLine
 62
7
  6
CONTINUOUS
 10
83.4652740973
 20
93.2213213948
 11
83.3674648072
 21
93.1235121046
  0
LINE
  5
33F
100
AcDbEntity
  8
DRAFT
100
AcDbLine
 62
7
  6
CONTINUOUS
 10
143.3221505404
 20
152.9689641755
 11
143.3605223504
 21
153.0073359855
  0
LINE
  5
340
100
AcDbEntity
  8
RACCORDO
100
AcDbLine
 62
7
  6
CONTINUOUS
 10
203.9441009027
 20
52.0213213948
 11
203.8546875
 21
52.0213213948
  0
LINE
  5
341
100
AcDbEntity
  8
RACCORDO
100
AcDbLine
 62
7
  6
CONTINUOUS
 10
83.5546875
 20
52.0213213948
 11
83.4652740973
 21
52.0213213948
  0
LINE
  5
342
100
AcDbEntity
  8
RACCORDO
100
AcDbLine
 62
253
  6
CONTINUOUS
 10
204.0419101928
 20
52.119130685
 11
203.8546875
 21
52.119130685
  0
LINE
  5
343
100
AcDbEntity
  8
RACCORDO
100
AcDbLine
 62
253
  6
CONTINUOUS
 10
83.5546875
 20
52.119130685
 11
83.3674648072
 21
52.119130685
  0
LINE
  5
344
100
AcDbEntity
  8
RACCORDO
100
AcDbLine
 62
253
  6
CONTINUOUS
 10
138.2598104611
 20
33.366426891
 11
138.4046875
 21
33.2215498521
  0
LINE
  5
345
100
AcDbEntity
  8
RACCORDO
100
AcDbLine
 62
7
  6
CONTINUOUS
 10
138.1560139707
 20
34.9699949241
 11
138.2046875
 21
34.9213213948
  0
LINE
  5
346
100
AcDbEntity
  8
RACCORDO
100
AcDbLine
 62
253
  6
CONTINUOUS
 10
139.7595820038
 20
34.8661984337
 11
139.9045165172
 21
34.7212639204
  0
LINE
  5
347
100
AcDbEntity
  8
RACCORDO
100
AcDbLine
 62
7
  6
CONTINUOUS
 10
83.4652740973
 20
92.0213213948
 11
83.3674648072
 21
92.119130685
  0
LWPOLYLINE
  5
348
100
AcDbEntity
  8
RACCORDO
100
AcDbPolyline
 62
7
  6
CONTINUOUS
 90
10
 70
0
 10
83.4524270614
 20
132.9235425656
 10
83.4451278746
 20
132.9429097259
 10
83.4376273325
 20
132.9620645691
 10
83.4299254351
 20
132.9808289192
 10
83.4218918248
 20
132.9990508383
 10
83.4136568592
 20
133.0165408051
 10
83.4056116111
 20
133.0330824888
 10
83.3977400672
 20
133.0485631388
 10
83.3900582409
 20
133.0628294765
 10
83.376727449
 20
133.0869764272
  0
LINE
  5
349
100
AcDbEntity
  8
RACCORDO
100
AcDbLine
 62
7
  6
CONTINUOUS
 10
108.6416665542
 20
32.7719002272
 11
108.6044774399
 21
35.8146594385
  0
LINE
  5
34A
100
AcDbEntity
  8
DRAFT
100
AcDbLine
 62
7
  6
CONTINUOUS
 10
108.7125284455
 20
32.2876766264
 11
108.7115546949
 21
32.4958733168
  0
LINE
  5
34B
100
AcDbEntity
  8
DRAFT
100
AcDbLine
 62
7
  6
CONTINUOUS
 10
103.7046875
 20
85.1213213948
 11
103.7046875
 21
90.1213213948
  0
LINE
  5
34C
100
AcDbEntity
  8
RACCORDO
100
AcDbLine
 62
253
  6
CONTINUOUS
 10
104.3800600981
 20
85.1213213948
 11
104.3800600981
 21
90.1213213948
  0
LINE
  5
34D
100
AcDbEntity
  8
RACCORDO
100
AcDbLine
 62
253
  6
CONTINUOUS
 10
104.6798773462
 20
85.1213213948
 11
104.6798773462
 21
90.1213213948
  0
LINE
  5
34E
100
AcDbEntity
  8
DRAFT
100
AcDbLine
 62
7
  6
CONTINUOUS
 10
104.7046875
 20
90.1213213948
 11
104.7046875
 21
85.1213213948
  0
LINE
  5
34F
100
AcDbEntity
  8
DRAFT
100
AcDbLine
 62
7
  6
CONTINUOUS
 10
108.2046875
 20
32.2213213948
 11
108.2046875
 21
31.2213213948
  0
LINE
  5
350
100
AcDbEntity
  8
RACCORDO
100
AcDbLine
 62
7
  6
CONTINUOUS
 10
108.3605223504
 20
153.0073359855
 11
108.3601619277
 21
152.7713213948
  0
LINE
  5
351
100
AcDbEntity
  8
RACCORDO
100
AcDbLine
 62
7
  6
CONTINUOUS
 10
107.7640347208
 20
32.4713213948
 11
107.8048975601
 21
35.8146594385
  0
LINE
  5
352
100
AcDbEntity
  8
RACCORDO
100
AcDbLine
 62
7
  6
CONTINUOUS
 10
149.7431800327
 20
152.9899936678
 11
149.7221505404
 21
152.9689641755
  0
LINE
  5
353
100
AcDbEntity
  8
RACCORDO
100
AcDbLine
 62
7
  6
CONTINUOUS
 10
138.7046875
 20
137.6213213948
 11
138.7347466688
 21
137.6513805636
  0
LINE
  5
354
100
AcDbEntity
  8
RACCORDO
100
AcDbLine
 62
253
  6
CONTINUOUS
 10
203.9569479386
 20
52.319100224
 11
203.8546875
 21
52.319100224
  0
LINE
  5
355
100
AcDbEntity
  8
RACCORDO
100
AcDbLine
 62
253
  6
CONTINUOUS
 10
83.5546875
 20
52.319100224
 11
83.4524270614
 21
52.319100224
  0
LINE
  5
356
100
AcDbEntity
  8
RACCORDO
100
AcDbLine
 62
253
  6
CONTINUOUS
 10
83.4524270614
 20
52.9235425656
 11
83.5546875
 21
52.9235425656
  0
LINE
  5
357
100
AcDbEntity
  8
RACCORDO
100
AcDbLine
 62
253
  6
CONTINUOUS
 10
203.8546875
 20
52.9235425656
 11
203.9569479386
 21
52.9235425656
  0
LINE
  5
358
100
AcDbEntity
  8
RACCORDO
100
AcDbLine
 62
253
  6
CONTINUOUS
 10
83.3674648072
 20
53.1235121046
 11
83.5546875
 21
53.1235121046
  0
LINE
  5
359
100
AcDbEntity
  8
RACCORDO
100
AcDbLine
 62
253
  6
CONTINUOUS
 10
203.8546875
 20
53.1235121046
 11
204.0419101928
 21
53.1235121046
  0
LINE
  5
35A
100
AcDbEntity
  8
RACCORDO
100
AcDbLine
 62
7
  6
CONTINUOUS
 10
203.9441009027
 20
53.2213213948
 11
203.8546875
 21
53.2213213948
  0
LINE
  5
35B
100
AcDbEntity
  8
RACCORDO
100
AcDbLine
 62
7
  6
CONTINUOUS
 10
83.5546875
 20
53.2213213948
 11
83.4652740973
 21
53.2213213948
  0
LINE
  5
35C
100
AcDbEntity
  8
DRAFT
100
AcDbLine
 62
7
  6
CONTINUOUS
 10
176.2046875
 20
54.8213213948
 11
171.2046875
 21
54.8213213948
  0
LINE
  5
35D
100
AcDbEntity
  8
DRAFT
100
AcDbLine
 62
7
  6
CONTINUOUS
 10
116.2046875
 20
54.8213213948
 11
111.2046875
 21
54.8213213948
  0
LINE
  5
35E
100
AcDbEntity
  8
RACCORDO
100
AcDbLine
 62
253
  6
CONTINUOUS
 10
111.2046875
 20
54.8461315486
 11
116.2046875
 21
54.8461315486
  0
LINE
  5
35F
100
AcDbEntity
  8
RACCORDO
100
AcDbLine
 62
253
  6
CONTINUOUS
 10
171.2046875
 20
54.8461315486
 11
176.2046875
 21
54.8461315486
  0
LINE
  5
360
100
AcDbEntity
  8
RACCORDO
100
AcDbLine
 62
253
  6
CONTINUOUS
 10
111.2046875
 20
55.1459487968
 11
116.2046875
 21
55.1459487968
  0
LINE
  5
361
100
AcDbEntity
  8
RACCORDO
100
AcDbLine
 62
253
  6
CONTINUOUS
 10
171.2046875
 20
55.1459487968
 11
176.2046875
 21
55.1459487968
  0
LINE
  5
362
100
AcDbEntity
  8
DRAFT
100
AcDbLine
 62
7
  6
CONTINUOUS
 10
111.2046875
 20
55.8213213948
 11
116.2046875
 21
55.8213213948
  0
LINE
  5
363
100
AcDbEntity
  8
DRAFT
100
AcDbLine
 62
7
  6
CONTINUOUS
 10
171.2046875
 20
55.8213213948
 11
176.2046875
 21
55.8213213948
  0
LINE
  5
364
100
AcDbEntity
  8
DRAFT
100
AcDbLine
 62
7
  6
CONTINUOUS
 10
179.2046875
 20
32.2213213948
 11
179.1691463576
 21
32.2390865517
  0
LINE
  5
365
100
AcDbEntity
  8
RACCORDO
100
AcDbLine
 62
253
  6
CONTINUOUS
 10
118.7001983168
 20
32.2878561732
 11
118.6970174412
 21
32.3242137482
  0
LINE
  5
366
100
AcDbEntity
  8
RACCORDO
100
AcDbLine
 62
7
  6
CONTINUOUS
 10
119.044545604
 20
32.3372437968
 11
119.0483487512
 21
32.2937736255
  0
LINE
  5
367
100
AcDbEntity
  8
RACCORDO
100
AcDbLine
 62
7
  6
CONTINUOUS
 10
109.0488526496
 20
153.0073359855
 11
109.0492130723
 21
152.7713213948
  0
LINE
  5
368
100
AcDbEntity
  8
DRAFT
100
AcDbLine
 62
7
  6
CONTINUOUS
 10
110.9046875
 20
85.1213213948
 11
110.9046875
 21
90.1213213948
  0
LINE
  5
369
100
AcDbEntity
  8
RACCORDO
100
AcDbLine
 62
253
  6
CONTINUOUS
 10
110.9294976538
 20
90.1213213948
 11
110.9294976538
 21
85.1213213948
  0
LINE
  5
36A
100
AcDbEntity
  8
RACCORDO
100
AcDbLine
 62
253
  6
CONTINUOUS
 10
111.2046875
 20
54.8213213948
 11
111.2046875
 21
55.1459487968
  0
LINE
  5
36B
100
AcDbEntity
  8
RACCORDO
100
AcDbLine
 62
253
  6
CONTINUOUS
 10
111.2046875
 20
60.0966939929
 11
111.2046875
 21
60.4213213948
  0
LINE
  5
36C
100
AcDbEntity
  8
RACCORDO
100
AcDbLine
 62
253
  6
CONTINUOUS
 10
111.2046875
 20
124.8213213948
 11
111.2046875
 21
125.1459487968
  0
LINE
  5
36D
100
AcDbEntity
  8
RACCORDO
100
AcDbLine
 62
253
  6
CONTINUOUS
 10
111.2046875
 20
130.0966939929
 11
111.2046875
 21
130.4213213948
  0
LINE
  5
36E
100
AcDbEntity
  8
RACCORDO
100
AcDbLine
 62
253
  6
CONTINUOUS
 10
111.2293149019
 20
90.1213213948
 11
111.2293149019
 21
85.1213213948
  0
LINE
  5
36F
100
AcDbEntity
  8
DRAFT
100
AcDbLine
 62
7
  6
CONTINUOUS
 10
111.9046875
 20
90.1213213948
 11
111.9046875
 21
85.1213213948
  0
LINE
  5
370
100
AcDbEntity
  8
RACCORDO
100
AcDbLine
 62
7
  6
CONTINUOUS
 10
114.7046875
 20
152.9899022779
 11
114.7046875
 21
152.7713213948
  0
LINE
  5
371
100
AcDbEntity
  8
RACCORDO
100
AcDbLine
 62
253
  6
CONTINUOUS
 10
115.0046875
 20
152.9951387974
 11
115.0046875
 21
152.7713213948
  0
LINE
  5
372
100
AcDbEntity
  8
DRAFT
100
AcDbLine
 62
7
  6
CONTINUOUS
 10
108.2402286424
 20
32.2390865517
 11
108.2046875
 21
31.2213213948
  0
LINE
  5
373
100
AcDbEntity
  8
RACCORDO
100
AcDbLine
 62
7
  6
CONTINUOUS
 10
108.3610262488
 20
32.2937736255
 11
108.364829396
 21
32.3372437968
  0
LINE
  5
374
100
AcDbEntity
  8
RACCORDO
100
AcDbLine
 62
253
  6
CONTINUOUS
 10
108.7091766832
 20
32.2878561732
 11
108.7123575588
 21
32.3242137482
  0
LINE
  5
375
100
AcDbEntity
  8
DRAFT
100
AcDbLine
 62
7
  6
CONTINUOUS
 10
102.9909904959
 20
88.0684619307
 11
103.0174121754
 21
88.1213213948
  0
LWPOLYLINE
  5
376
100
AcDbEntity
  8
RACCORDO
100
AcDbPolyline
 62
7
  6
CONTINUOUS
 90
9
 70
0
 10
83.390067699
 20
52.1798310594
 10
83.3977504678
 20
52.1940998963
 10
83.4056140712
 20
52.2095652088
 10
83.4136308349
 20
52.2260458421
 10
83.4218284333
 20
52.2434493838
 10
83.4298432198
 20
52.2616227059
 10
83.4375539789
 20
52.2804035361
 10
83.4450819261
 20
52.2996220755
 10
83.4524270614
 20
52.319100224
  0
LWPOLYLINE
  5
377
100
AcDbEntity
  8
RACCORDO
100
AcDbPolyline
 62
7
  6
CONTINUOUS
 90
4
 70
0
 10
83.3660583479
 20
52.1376261851
 10
83.3710822051
 20
52.1458805831
 10
83.3767335677
 20
52.1556761199
 10
83.390067699
 20
52.1798310594
  0
LINE
  5
378
100
AcDbEntity
  8
RACCORDO
100
AcDbLine
 62
7
  6
CONTINUOUS
 10
141.7046875
 20
136.8213213948
 11
141.6746283312
 21
136.791262226
  0
LINE
  5
379
100
AcDbEntity
  8
RACCORDO
100
AcDbLine
 62
7
  6
CONTINUOUS
 10
145.7046875
 20
137.6213213948
 11
145.7347466688
 21
137.6513805636
  0
LINE
  5
37A
100
AcDbEntity
  8
DRAFT
100
AcDbLine
 62
7
  6
CONTINUOUS
 10
176.2046875
 20
59.4213213948
 11
171.2046875
 21
59.4213213948
  0
LINE
  5
37B
100
AcDbEntity
  8
DRAFT
100
AcDbLine
 62
7
  6
CONTINUOUS
 10
116.2046875
 20
59.4213213948
 11
111.2046875
 21
59.4213213948
  0
LINE
  5
37C
100
AcDbEntity
  8
RACCORDO
100
AcDbLine
 62
253
  6
CONTINUOUS
 10
176.2046875
 20
60.0966939929
 11
171.2046875
 21
60.0966939929
  0
LINE
  5
37D
100
AcDbEntity
  8
RACCORDO
100
AcDbLine
 62
253
  6
CONTINUOUS
 10
116.2046875
 20
60.0966939929
 11
111.2046875
 21
60.0966939929
  0
LINE
  5
37E
100
AcDbEntity
  8
RACCORDO
100
AcDbLine
 62
253
  6
CONTINUOUS
 10
176.2046875
 20
60.396511241
 11
171.2046875
 21
60.396511241
  0
LINE
  5
37F
100
AcDbEntity
  8
RACCORDO
100
AcDbLine
 62
253
  6
CONTINUOUS
 10
116.2046875
 20
60.396511241
 11
111.2046875
 21
60.396511241
  0
LINE
  5
380
100
AcDbEntity
  8
DRAFT
100
AcDbLine
 62
7
  6
CONTINUOUS
 10
111.2046875
 20
60.4213213948
 11
116.2046875
 21
60.4213213948
  0
LINE
  5
381
100
AcDbEntity
  8
DRAFT
100
AcDbLine
 62
7
  6
CONTINUOUS
 10
171.2046875
 20
60.4213213948
 11
176.2046875
 21
60.4213213948
  0
LWPOLYLINE
  5
382
100
AcDbEntity
  8
RACCORDO
100
AcDbPolyline
 62
7
  6
CONTINUOUS
 90
9
 70
0
 10
189.1461955715
 20
32.3066921411
 10
189.1319292357
 20
32.314373966
 10
189.1164486447
 20
32.3222454805
 10
189.0999071713
 20
32.3302906322
 10
189.0824174963
 20
32.3385254735
 10
189.0641957345
 20
32.3465590245
 10
189.0454313141
 20
32.3542609587
 10
189.0262762343
 20
32.3617616026
 10
189.0069086708
 20
32.3690609562
  0
LINE
  5
383
100
AcDbEntity
  8
RACCORDO
100
AcDbLine
 62
7
  6
CONTINUOUS
 10
155.1046875
 20
32.3819079922
 11
155.2024967902
 21
32.284098702
  0
LINE
  5
384
100
AcDbEntity
  8
RACCORDO
100
AcDbLine
 62
7
  6
CONTINUOUS
 10
103.1046875
 20
84.6213213948
 11
102.9612208714
 21
84.7647880234
  0
LINE
  5
385
100
AcDbEntity
  8
RACCORDO
100
AcDbLine
 62
7
  6
CONTINUOUS
 10
101.9481541286
 20
87.1401868701
 11
101.8745077597
 21
87.2138332389
  0
LWPOLYLINE
  5
386
100
AcDbEntity
  8
RACCORDO
100
AcDbPolyline
 62
7
  6
CONTINUOUS
 90
3
 70
0
 10
83.376727449
 20
133.0869764272
 10
83.3710784834
 20
133.0967673726
 10
83.3660583479
 20
133.1050166045
  0
LINE
  5
387
100
AcDbEntity
  8
DRAFT
100
AcDbLine
 62
7
  6
CONTINUOUS
 10
119.1691463576
 20
32.2390865517
 11
119.2046875
 21
31.2213213948
  0
LINE
  5
388
100
AcDbEntity
  8
RACCORDO
100
AcDbLine
 62
7
  6
CONTINUOUS
 10
119.6453402792
 20
32.4713213948
 11
119.6044774399
 21
35.8146594385
  0
LINE
  5
389
100
AcDbEntity
  8
RACCORDO
100
AcDbLine
 62
253
  6
CONTINUOUS
 10
115.3662406587
 20
152.7713213948
 11
115.3662406587
 21
152.9951387974
  0
LINE
  5
38A
100
AcDbEntity
  8
DRAFT
100
AcDbLine
 62
7
  6
CONTINUOUS
 10
115.5046875
 20
85.1213213948
 11
115.5046875
 21
90.1213213948
  0
LINE
  5
38B
100
AcDbEntity
  8
RACCORDO
100
AcDbLine
 62
253
  6
CONTINUOUS
 10
115.6661949673
 20
152.7713213948
 11
115.6661949673
 21
152.9899936678
  0
LINE
  5
38C
100
AcDbEntity
  8
RACCORDO
100
AcDbLine
 62
253
  6
CONTINUOUS
 10
116.1800600981
 20
85.1213213948
 11
116.1800600981
 21
90.1213213948
  0
LINE
  5
38D
100
AcDbEntity
  8
DRAFT
100
AcDbLine
 62
7
  6
CONTINUOUS
 10
116.2046875
 20
152.8607347975
 11
116.2046875
 21
152.7713213948
  0
LINE
  5
38E
100
AcDbEntity
  8
RACCORDO
100
AcDbLine
 62
253
  6
CONTINUOUS
 10
116.2046875
 20
54.8213213948
 11
116.2046875
 21
55.1459487968
  0
LINE
  5
38F
100
AcDbEntity
  8
RACCORDO
100
AcDbLine
 62
253
  6
CONTINUOUS
 10
116.2046875
 20
60.0966939929
 11
116.2046875
 21
60.4213213948
  0
LINE
  5
390
100
AcDbEntity
  8
RACCORDO
100
AcDbLine
 62
253
  6
CONTINUOUS
 10
116.2046875
 20
124.8213213948
 11
116.2046875
 21
125.1459487968
  0
LINE
  5
391
100
AcDbEntity
  8
RACCORDO
100
AcDbLine
 62
253
  6
CONTINUOUS
 10
116.2046875
 20
130.0966939929
 11
116.2046875
 21
130.4213213948
  0
LINE
  5
392
100
AcDbEntity
  8
RACCORDO
100
AcDbLine
 62
253
  6
CONTINUOUS
 10
116.4798773462
 20
85.1213213948
 11
116.4798773462
 21
90.1213213948
  0
LINE
  5
393
100
AcDbEntity
  8
DRAFT
100
AcDbLine
 62
7
  6
CONTINUOUS
 10
116.5046875
 20
90.1213213948
 11
116.5046875
 21
85.1213213948
  0
LINE
  5
394
100
AcDbEntity
  8
DRAFT
100
AcDbLine
 62
7
  6
CONTINUOUS
 10
119.2046875
 20
32.2213213948
 11
119.2046875
 21
31.2213213948
  0
LINE
  5
395
100
AcDbEntity
  8
RACCORDO
100
AcDbLine
 62
7
  6
CONTINUOUS
 10
115.7046768514
 20
152.9515117691
 11
115.7045448877
 21
152.7713213948
  0
LINE
  5
396
100
AcDbEntity
  8
DRAFT
100
AcDbLine
 62
7
  6
CONTINUOUS
 10
118.6968465545
 20
32.2876766264
 11
118.6978203051
 21
32.4958733168
  0
LINE
  5
397
100
AcDbEntity
  8
RACCORDO
100
AcDbLine
 62
7
  6
CONTINUOUS
 10
118.7677084458
 20
32.7719002272
 11
118.8048975601
 21
35.8146594385
  0
LINE
  5
398
100
AcDbEntity
  8
RACCORDO
100
AcDbLine
 62
7
  6
CONTINUOUS
 10
99.1883827097
 20
32.2826922427
 11
99.1803610084
 21
32.2553349925
  0
LWPOLYLINE
  5
399
100
AcDbEntity
  8
RACCORDO
100
AcDbPolyline
 62
7
  6
CONTINUOUS
 90
3
 70
0
 10
99.1803610084
 20
32.2553349925
 10
99.1722407152
 20
32.2281077588
 10
99.1701948525
 20
32.2213213948
  0
LINE
  5
39A
100
AcDbEntity
  8
RACCORDO
100
AcDbLine
 62
7
  6
CONTINUOUS
 10
148.297849918
 20
136.2148482751
 11
148.2540468532
 21
136.1706807481
  0
LINE
  5
39B
100
AcDbEntity
  8
RACCORDO
100
AcDbLine
 62
7
  6
CONTINUOUS
 10
148.7487331327
 20
136.6654694721
 11
148.7274221921
 21
136.6440322825
  0
LINE
  5
39C
100
AcDbEntity
  8
RACCORDO
100
AcDbLine
 62
7
  6
CONTINUOUS
 10
148.7046875
 20
136.8213213948
 11
148.6746283312
 21
136.791262226
  0
LINE
  5
39D
100
AcDbEntity
  8
DRAFT
100
AcDbLine
 62
7
  6
CONTINUOUS
 10
149.8971625598
 20
137.8137964546
 11
149.7046875
 21
137.6213213948
  0
LINE
  5
39E
100
AcDbEntity
  8
RACCORDO
100
AcDbLine
 62
7
  6
CONTINUOUS
 10
148.7521442023
 20
136.6687780971
 11
148.9046875
 21
136.8213213948
  0
LINE
  5
39F
100
AcDbEntity
  8
RACCORDO
100
AcDbLine
 62
7
  6
CONTINUOUS
 10
102.9612208714
 20
87.1401868701
 11
102.9909904959
 21
87.1699564945
  0
LINE
  5
3A0
100
AcDbEntity
  8
RACCORDO
100
AcDbLine
 62
7
  6
CONTINUOUS
 10
101.8046875
 20
84.6213213948
 11
101.9481541286
 21
84.7647880234
  0
LINE
  5
3A1
100
AcDbEntity
  8
RACCORDO
100
AcDbLine
 62
7
  6
CONTINUOUS
 10
171.7431800327
 20
152.9899936678
 11
171.704698134
 21
152.9515117691
  0
LINE
  5
3A2
100
AcDbEntity
  8
RACCORDO
100
AcDbLine
 62
7
  6
CONTINUOUS
 10
148.7274221921
 20
136.6440322825
 11
148.297849918
 21
136.2148482751
  0
LINE
  5
3A3
100
AcDbEntity
  8
RACCORDO
100
AcDbLine
 62
7
  6
CONTINUOUS
 10
148.7521442023
 20
136.6687780971
 11
148.7487331327
 21
136.6654694721
  0
LWPOLYLINE
  5
3A4
100
AcDbEntity
  8
RACCORDO
100
AcDbPolyline
 62
7
  6
CONTINUOUS
 90
4
 70
0
 10
189.1883827097
 20
32.2826922427
 10
189.180133472
 20
32.2877123829
 10
189.1703425239
 20
32.2933613495
 10
189.1461955715
 20
32.3066921411
  0
LINE
  5
3A5
100
AcDbEntity
  8
DRAFT
100
AcDbLine
 62
7
  6
CONTINUOUS
 10
168.6442171912
 20
32.5632108204
 11
168.7115546949
 21
32.4958733168
  0
LINE
  5
3A6
100
AcDbEntity
  8
DRAFT
100
AcDbLine
 62
7
  6
CONTINUOUS
 10
99.1807425683
 20
152.9860110034
 11
99.1701948525
 21
153.0213213948
  0
LINE
  5
3A7
100
AcDbEntity
  8
DRAFT
100
AcDbLine
 62
7
  6
CONTINUOUS
 10
99.1911280726
 20
152.950484367
 11
99.1807425683
 21
152.9860110034
  0
LINE
  5
3A8
100
AcDbEntity
  8
DRAFT
100
AcDbLine
 62
7
  6
CONTINUOUS
 10
99.2013546917
 20
152.914742612
 11
99.1911280726
 21
152.950484367
  0
LWPOLYLINE
  5
3A9
100
AcDbEntity
  8
DRAFT
100
AcDbPolyline
 62
7
  6
CONTINUOUS
 90
3
 70
0
 10
99.2164208267
 20
152.8607347975
 10
99.211435731
 20
152.8787902434
 10
99.2013546917
 20
152.914742612
  0
LWPOLYLINE
  5
3AA
100
AcDbEntity
  8
RACCORDO
100
AcDbPolyline
 62
253
  6
CONTINUOUS
 90
13
 70
0
 10
87.1167240714
 20
36.9232113845
 10
87.1147404887
 20
36.9200782602
 10
87.1096899799
 20
36.9166409608
 10
87.1016038191
 20
36.9129207742
 10
87.090532083
 20
36.9089407394
 10
87.0765433377
 20
36.9047255059
 10
87.059724212
 20
36.900301181
 10
87.040178867
 20
36.8956951651
 10
87.0180283504
 20
36.8909359842
 10
86.9934098393
 20
36.8860531149
 10
86.9664757996
 20
36.8810767991
 10
86.9373930429
 20
36.8760378558
 10
86.9063416887
 20
36.8709674929
  0
LINE
  5
3AB
100
AcDbEntity
  8
DRAFT
100
AcDbLine
 62
7
  6
CONTINUOUS
 10
178.3221505404
 20
152.9689641755
 11
178.3605223504
 21
153.0073359855
  0
LWPOLYLINE
  5
3AC
100
AcDbEntity
  8
RACCORDO
100
AcDbPolyline
 62
253
  6
CONTINUOUS
 90
13
 70
0
 10
199.4027975102
 20
149.2092848234
 10
199.4059306858
 20
149.2112684184
 10
199.4093680311
 20
149.2163189626
 10
199.4130882566
 20
149.224405174
 10
199.4170683205
 20
149.235476968
 10
199.4212835724
 20
149.2494657704
 10
199.425707906
 20
149.2662849444
 10
199.4303139193
 20
149.2858303209
 10
199.435073085
 20
149.3079808458
 10
199.439955928
 20
149.3325993363
 10
199.4449322068
 20
149.3595333216
 10
199.4499711009
 20
149.3886159857
 10
199.455041402
 20
149.4196672061
  0
LINE
  5
3AD
100
AcDbEntity
  8
RACCORDO
100
AcDbLine
 62
7
  6
CONTINUOUS
 10
204.1046875
 20
132.1558140423
 11
204.0774929823
 21
132.1476684717
  0
LWPOLYLINE
  5
3AE
100
AcDbEntity
  8
RACCORDO
100
AcDbPolyline
 62
7
  6
CONTINUOUS
 90
3
 70
0
 10
204.0774929823
 20
132.1476684717
 10
204.0501681091
 20
132.1396225001
 10
204.0433166521
 20
132.1376261851
  0
LINE
  5
3AF
100
AcDbEntity
  8
RACCORDO
100
AcDbLine
 62
7
  6
CONTINUOUS
 10
204.0433166521
 20
53.1050166045
 11
204.0706739023
 21
53.0969949032
  0
LWPOLYLINE
  5
3B0
100
AcDbEntity
  8
RACCORDO
100
AcDbPolyline
 62
7
  6
CONTINUOUS
 90
3
 70
0
 10
204.0706739023
 20
53.0969949032
 10
204.0979011361
 20
53.08887461
 10
204.1046875
 20
53.0868287473
  0
LWPOLYLINE
  5
3B1
100
AcDbEntity
  8
RACCORDO
100
AcDbPolyline
 62
253
  6
CONTINUOUS
 90
13
 70
0
 10
199.4027975103
 20
36.0333579662
 10
199.4059306346
 20
36.0313743835
 10
199.409367934
 20
36.0263238747
 10
199.4130881207
 20
36.0182377139
 10
199.4170681554
 20
36.0071659778
 10
199.4212833889
 20
35.9931772325
 10
199.4257077138
 20
35.9763581068
 10
199.4303137297
 20
35.9568127619
 10
199.4350729106
 20
35.9346622452
 10
199.4399557799
 20
35.9100437341
 10
199.4449320957
 20
35.8831096944
 10
199.4499710391
 20
35.8540269377
 10
199.455041402
 20
35.8229755835
  0
LWPOLYLINE
  5
3B2
100
AcDbEntity
  8
RACCORDO
100
AcDbPolyline
 62
253
  6
CONTINUOUS
 90
13
 70
0
 10
87.1167240714
 20
148.319431405
 10
87.1147404764
 20
148.3225645806
 10
87.1096899322
 20
148.3260019259
 10
87.1016037208
 20
148.3297221514
 10
87.0905319268
 20
148.3337022153
 10
87.0765431244
 20
148.3379174672
 10
87.0597239504
 20
148.3423418008
 10
87.0401785739
 20
148.3469478141
 10
87.018028049
 20
148.3517069798
 10
86.9934095585
 20
148.3565898228
 10
86.9664755732
 20
148.3615661017
 10
86.9373929092
 20
148.3666049957
 10
86.9063416887
 20
148.3716752968
  0
LINE
  5
3B3
100
AcDbEntity
  8
RACCORDO
100
AcDbLine
 62
7
  6
CONTINUOUS
 10
140.1644264891
 20
34.7692612612
 11
140.1779048124
 21
34.7213213948
  0
LINE
  5
3B4
100
AcDbEntity
  8
RACCORDO
100
AcDbLine
 62
7
  6
CONTINUOUS
 10
140.1511802841
 20
34.8175555217
 11
140.1644264891
 21
34.7692612612
  0
LINE
  5
3B5
100
AcDbEntity
  8
RACCORDO
100
AcDbLine
 62
7
  6
CONTINUOUS
 10
140.1381514361
 20
34.8661984337
 11
140.1511802841
 21
34.8175555217
  0
LINE
  5
3B6
100
AcDbEntity
  8
RACCORDO
100
AcDbLine
 62
7
  6
CONTINUOUS
 10
131.1046875
 20
32.4713213948
 11
131.1046875
 21
32.3819079922
  0
LINE
  5
3B7
100
AcDbEntity
  8
RACCORDO
100
AcDbLine
 62
253
  6
CONTINUOUS
 10
131.2024967902
 20
32.284098702
 11
131.2024967902
 21
32.4713213948
  0
LINE
  5
3B8
100
AcDbEntity
  8
RACCORDO
100
AcDbLine
 62
253
  6
CONTINUOUS
 10
131.4024663292
 20
32.2806686156
 11
131.4024663292
 21
32.4713213948
  0
LINE
  5
3B9
100
AcDbEntity
  8
RACCORDO
100
AcDbLine
 62
253
  6
CONTINUOUS
 10
132.0069086708
 20
32.4713213948
 11
132.0069086708
 21
32.2806686156
  0
LINE
  5
3BA
100
AcDbEntity
  8
RACCORDO
100
AcDbLine
 62
253
  6
CONTINUOUS
 10
132.2068782098
 20
32.4713213948
 11
132.2068782098
 21
32.284098702
  0
LINE
  5
3BB
100
AcDbEntity
  8
RACCORDO
100
AcDbLine
 62
7
  6
CONTINUOUS
 10
132.3046875
 20
32.4713213948
 11
132.3046875
 21
32.3819079922
  0
LINE
  5
3BC
100
AcDbEntity
  8
RACCORDO
100
AcDbLine
 62
7
  6
CONTINUOUS
 10
83.4652740973
 20
53.2213213948
 11
83.3674648072
 21
53.1235121046
  0
LINE
  5
3BD
100
AcDbEntity
  8
RACCORDO
100
AcDbLine
 62
7
  6
CONTINUOUS
 10
184.7431800327
 20
152.9899936678
 11
184.7221505404
 21
152.9689641755
  0
LINE
  5
3BE
100
AcDbEntity
  8
DRAFT
100
AcDbLine
 62
7
  6
CONTINUOUS
 10
149.3551299606
 20
76.8713213948
 11
148.1417473373
 21
76.8713213948
  0
LINE
  5
3BF
100
AcDbEntity
  8
DRAFT
100
AcDbLine
 62
7
  6
CONTINUOUS
 10
139.2676276627
 20
76.8713213948
 11
138.0542450394
 21
76.8713213948
  0
LINE
  5
3C0
100
AcDbEntity
  8
DRAFT
100
AcDbLine
 62
7
  6
CONTINUOUS
 10
138.0542450394
 20
78.3713213948
 11
139.2676276627
 21
78.3713213948
  0
LINE
  5
3C1
100
AcDbEntity
  8
DRAFT
100
AcDbLine
 62
7
  6
CONTINUOUS
 10
148.1417473373
 20
78.3713213948
 11
149.3551299606
 21
78.3713213948
  0
LINE
  5
3C2
100
AcDbEntity
  8
RACCORDO
100
AcDbLine
 62
7
  6
CONTINUOUS
 10
83.4652740973
 20
132.0213213948
 11
83.3674648072
 21
132.119130685
  0
LINE
  5
3C3
100
AcDbEntity
  8
RACCORDO
100
AcDbLine
 62
7
  6
CONTINUOUS
 10
188.1046875
 20
32.3819079922
 11
188.2024967902
 21
32.284098702
  0
LINE
  5
3C4
100
AcDbEntity
  8
DRAFT
100
AcDbLine
 62
7
  6
CONTINUOUS
 10
146.1644264891
 20
34.7692612612
 11
146.1779048124
 21
34.7213213948
  0
LINE
  5
3C5
100
AcDbEntity
  8
DRAFT
100
AcDbLine
 62
7
  6
CONTINUOUS
 10
146.1511802841
 20
34.8175555217
 11
146.1644264891
 21
34.7692612612
  0
LINE
  5
3C6
100
AcDbEntity
  8
DRAFT
100
AcDbLine
 62
7
  6
CONTINUOUS
 10
146.1381514361
 20
34.8661984337
 11
146.1511802841
 21
34.8175555217
  0
LINE
  5
3C7
100
AcDbEntity
  8
RACCORDO
100
AcDbLine
 62
253
  6
CONTINUOUS
 10
137.8486819047
 20
35.1052540592
 11
137.9130835819
 21
32.4714310285
  0
LINE
  5
3C8
100
AcDbEntity
  8
RACCORDO
100
AcDbLine
 62
253
  6
CONTINUOUS
 10
138.1560139707
 20
34.9699949241
 11
138.2046875
 21
32.9794029395
  0
LINE
  5
3C9
100
AcDbEntity
  8
DRAFT
100
AcDbLine
 62
7
  6
CONTINUOUS
 10
136.2046875
 20
152.8607347975
 11
136.2046875
 21
152.7713213948
  0
LINE
  5
3CA
100
AcDbEntity
  8
RACCORDO
100
AcDbLine
 62
253
  6
CONTINUOUS
 10
136.7431800327
 20
152.9899936678
 11
136.7431800327
 21
152.7713213948
  0
LINE
  5
3CB
100
AcDbEntity
  8
RACCORDO
100
AcDbLine
 62
7
  6
CONTINUOUS
 10
136.9046875
 20
32.3819079922
 11
136.9046875
 21
32.4713213948
  0
LINE
  5
3CC
100
AcDbEntity
  8
RACCORDO
100
AcDbLine
 62
253
  6
CONTINUOUS
 10
137.0431343413
 20
152.9951387974
 11
137.0431343413
 21
152.7713213948
  0
LINE
  5
3CD
100
AcDbEntity
  8
RACCORDO
100
AcDbLine
 62
253
  6
CONTINUOUS
 10
137.3662406587
 20
152.7713213948
 11
137.3662406587
 21
152.9951387974
  0
LINE
  5
3CE
100
AcDbEntity
  8
DRAFT
100
AcDbLine
 62
7
  6
CONTINUOUS
 10
137.5122124402
 20
95.4288463351
 11
137.5122124402
 21
137.8137964546
  0
LINE
  5
3CF
100
AcDbEntity
  8
RACCORDO
100
AcDbLine
 62
253
  6
CONTINUOUS
 10
137.6661949673
 20
152.7713213948
 11
137.6661949673
 21
152.9899936678
  0
LINE
  5
3D0
100
AcDbEntity
  8
DRAFT
100
AcDbLine
 62
7
  6
CONTINUOUS
 10
137.7046875
 20
95.6213213948
 11
137.7046875
 21
137.6213213948
  0
LINE
  5
3D1
100
AcDbEntity
  8
IMPORT_IGES
100
AcDbLine
 62
7
  6
CONTINUOUS
 10
137.9246875
 20
110.8513213948
 11
137.9246875
 21
111.4913213948
  0
LINE
  5
3D2
100
AcDbEntity
  8
RACCORDO
100
AcDbLine
 62
7
  6
CONTINUOUS
 10
138.2046875
 20
32.9794029395
 11
138.2046875
 21
34.9213213948
  0
LINE
  5
3D3
100
AcDbEntity
  8
RACCORDO
100
AcDbLine
 62
7
  6
CONTINUOUS
 10
138.2598104611
 20
33.366426891
 11
138.2598104611
 21
32.3661984337
  0
LINE
  5
3D4
100
AcDbEntity
  8
RACCORDO
100
AcDbLine
 62
7
  6
CONTINUOUS
 10
138.4046875
 20
33.2215498521
 11
138.4046875
 21
32.2213213948
  0
LINE
  5
3D5
100
AcDbEntity
  8
DRAFT
100
AcDbLine
 62
7
  6
CONTINUOUS
 10
138.5046875
 20
136.8213213948
 11
138.5046875
 21
96.4213213948
  0
LINE
  5
3D6
100
AcDbEntity
  8
RACCORDO
100
AcDbLine
 62
253
  6
CONTINUOUS
 10
85.236644436
 20
32.4714043718
 11
87.9543335978
 21
35.8229755835
  0
LINE
  5
3D7
100
AcDbEntity
  8
RACCORDO
100
AcDbLine
 62
7
  6
CONTINUOUS
 10
139.111525082
 20
97.0277945146
 11
139.1553281468
 21
97.0719620416
  0
LINE
  5
3D8
100
AcDbEntity
  8
RACCORDO
100
AcDbLine
 62
7
  6
CONTINUOUS
 10
138.6606418673
 20
96.5771733175
 11
138.6819528079
 21
96.5986105072
  0
LINE
  5
3D9
100
AcDbEntity
  8
RACCORDO
100
AcDbLine
 62
7
  6
CONTINUOUS
 10
138.6572307977
 20
96.5738646925
 11
138.5046875
 21
96.4213213948
  0
LINE
  5
3DA
100
AcDbEntity
  8
DRAFT
100
AcDbLine
 62
7
  6
CONTINUOUS
 10
137.5122124402
 20
95.4288463351
 11
137.7046875
 21
95.6213213948
  0
LINE
  5
3DB
100
AcDbEntity
  8
RACCORDO
100
AcDbLine
 62
7
  6
CONTINUOUS
 10
138.7046875
 20
96.4213213948
 11
138.7347466688
 21
96.4513805636
  0
LINE
  5
3DC
100
AcDbEntity
  8
RACCORDO
100
AcDbLine
 62
7
  6
CONTINUOUS
 10
138.6819528079
 20
96.5986105072
 11
139.111525082
 21
97.0277945146
  0
LINE
  5
3DD
100
AcDbEntity
  8
RACCORDO
100
AcDbLine
 62
7
  6
CONTINUOUS
 10
138.6572307977
 20
96.5738646925
 11
138.6606418673
 21
96.5771733175
  0
LINE
  5
3DE
100
AcDbEntity
  8
RACCORDO
100
AcDbLine
 62
253
  6
CONTINUOUS
 10
200.5030333113
 20
148.371675297
 11
203.854604523
 21
151.0893644588
  0
LINE
  5
3DF
100
AcDbEntity
  8
DRAFT
100
AcDbLine
 62
7
  6
CONTINUOUS
 10
103.6333861232
 20
84.6213213948
 11
103.1046875
 21
84.6213213948
  0
LINE
  5
3E0
100
AcDbEntity
  8
DRAFT
100
AcDbLine
 62
7
  6
CONTINUOUS
 10
101.8046875
 20
84.6213213948
 11
101.3046875
 21
84.6213213948
  0
LINE
  5
3E1
100
AcDbEntity
  8
DRAFT
100
AcDbLine
 62
7
  6
CONTINUOUS
 10
183.7759888768
 20
84.6213213948
 11
184.3046875
 21
84.6213213948
  0
LINE
  5
3E2
100
AcDbEntity
  8
DRAFT
100
AcDbLine
 62
7
  6
CONTINUOUS
 10
185.6046875
 20
84.6213213948
 11
186.1046875
 21
84.6213213948
  0
LINE
  5
3E3
100
AcDbEntity
  8
RACCORDO
100
AcDbLine
 62
253
  6
CONTINUOUS
 10
99.1046875
 20
85.1213213948
 11
99.4293149019
 21
85.1213213948
  0
LINE
  5
3E4
100
AcDbEntity
  8
RACCORDO
100
AcDbLine
 62
253
  6
CONTINUOUS
 10
104.3800600981
 20
85.1213213948
 11
104.7046875
 21
85.1213213948
  0
LINE
  5
3E5
100
AcDbEntity
  8
RACCORDO
100
AcDbLine
 62
253
  6
CONTINUOUS
 10
110.9046875
 20
85.1213213948
 11
111.2293149019
 21
85.1213213948
  0
LINE
  5
3E6
100
AcDbEntity
  8
RACCORDO
100
AcDbLine
 62
253
  6
CONTINUOUS
 10
116.1800600981
 20
85.1213213948
 11
116.5046875
 21
85.1213213948
  0
LINE
  5
3E7
100
AcDbEntity
  8
RACCORDO
100
AcDbLine
 62
253
  6
CONTINUOUS
 10
170.9046875
 20
85.1213213948
 11
171.2293149019
 21
85.1213213948
  0
LINE
  5
3E8
100
AcDbEntity
  8
RACCORDO
100
AcDbLine
 62
253
  6
CONTINUOUS
 10
176.1800600981
 20
85.1213213948
 11
176.5046875
 21
85.1213213948
  0
LINE
  5
3E9
100
AcDbEntity
  8
RACCORDO
100
AcDbLine
 62
253
  6
CONTINUOUS
 10
182.7046875
 20
85.1213213948
 11
183.0293149019
 21
85.1213213948
  0
LINE
  5
3EA
100
AcDbEntity
  8
RACCORDO
100
AcDbLine
 62
253
  6
CONTINUOUS
 10
187.9800600981
 20
85.1213213948
 11
188.3046875
 21
85.1213213948
  0
LINE
  5
3EB
100
AcDbEntity
  8
RACCORDO
100
AcDbLine
 62
253
  6
CONTINUOUS
 10
203.854604523
 20
34.1532783309
 11
200.5030333113
 21
36.8709674926
  0
LINE
  5
3EC
100
AcDbEntity
  8
RACCORDO
100
AcDbLine
 62
253
  6
CONTINUOUS
 10
85.236644436
 20
152.7712384179
 11
87.9543335978
 21
149.4196672061
  0
LINE
  5
3ED
100
AcDbEntity
  8
RACCORDO
100
AcDbLine
 62
7
  6
CONTINUOUS
 10
147.3994461035
 20
30.6952203704
 11
147.2046875
 21
32.9213213948
  0
LINE
  5
3EE
100
AcDbEntity
  8
RACCORDO
100
AcDbLine
 62
7
  6
CONTINUOUS
 10
144.0488526496
 20
153.0073359855
 11
144.0492130723
 21
152.7713213948
  0
LINE
  5
3EF
100
AcDbEntity
  8
RACCORDO
100
AcDbLine
 62
253
  6
CONTINUOUS
 10
138.6572307977
 20
136.6687780971
 11
138.6572307977
 21
96.5738646925
  0
LINE
  5
3F0
100
AcDbEntity
  8
DRAFT
100
AcDbLine
 62
7
  6
CONTINUOUS
 10
138.7046875
 20
95.6213213948
 11
138.7046875
 21
96.4213213948
  0
LINE
  5
3F1
100
AcDbEntity
  8
DRAFT
100
AcDbLine
 62
7
  6
CONTINUOUS
 10
138.7046875
 20
136.8213213948
 11
138.7046875
 21
137.6213213948
  0
LINE
  5
3F2
100
AcDbEntity
  8
RACCORDO
100
AcDbLine
 62
253
  6
CONTINUOUS
 10
138.7347466688
 20
137.6513805636
 11
138.7347466688
 21
136.791262226
  0
LINE
  5
3F3
100
AcDbEntity
  8
RACCORDO
100
AcDbLine
 62
253
  6
CONTINUOUS
 10
138.7347466688
 20
96.4513805636
 11
138.7347466688
 21
95.591262226
  0
LINE
  5
3F4
100
AcDbEntity
  8
RACCORDO
100
AcDbLine
 62
253
  6
CONTINUOUS
 10
139.1553281468
 20
136.1706807481
 11
139.1553281468
 21
97.0719620416
  0
LINE
  5
3F5
100
AcDbEntity
  8
RACCORDO
100
AcDbLine
 62
253
  6
CONTINUOUS
 10
139.2328440178
 20
137.6913123256
 11
139.2328440178
 21
136.751330464
  0
LINE
  5
3F6
100
AcDbEntity
  8
RACCORDO
100
AcDbLine
 62
253
  6
CONTINUOUS
 10
139.2328440178
 20
96.4913123256
 11
139.2328440178
 21
95.551330464
  0
LINE
  5
3F7
100
AcDbEntity
  8
RACCORDO
100
AcDbLine
 62
253
  6
CONTINUOUS
 10
139.8123874088
 20
34.718493378
 11
139.8123874088
 21
32.9213213948
  0
LINE
  5
3F8
100
AcDbEntity
  8
RACCORDO
100
AcDbLine
 62
253
  6
CONTINUOUS
 10
140.6847994982
 20
34.7154528816
 11
140.6847994982
 21
32.9213213948
  0
LINE
  5
3F9
100
AcDbEntity
  8
RACCORDO
100
AcDbLine
 62
253
  6
CONTINUOUS
 10
141.1765309822
 20
95.551330464
 11
141.1765309822
 21
96.4913123256
  0
LINE
  5
3FA
100
AcDbEntity
  8
RACCORDO
100
AcDbLine
 62
253
  6
CONTINUOUS
 10
141.1765309822
 20
136.751330464
 11
141.1765309822
 21
137.6913123256
  0
LINE
  5
3FB
100
AcDbEntity
  8
RACCORDO
100
AcDbLine
 62
253
  6
CONTINUOUS
 10
141.6746283312
 20
95.591262226
 11
141.6746283312
 21
96.4513805636
  0
LINE
  5
3FC
100
AcDbEntity
  8
RACCORDO
100
AcDbLine
 62
253
  6
CONTINUOUS
 10
141.6746283312
 20
136.791262226
 11
141.6746283312
 21
137.6513805636
  0
LINE
  5
3FD
100
AcDbEntity
  8
DRAFT
100
AcDbLine
 62
7
  6
CONTINUOUS
 10
141.7046875
 20
137.6213213948
 11
141.7046875
 21
136.8213213948
  0
LINE
  5
3FE
100
AcDbEntity
  8
DRAFT
100
AcDbLine
 62
7
  6
CONTINUOUS
 10
141.7046875
 20
96.4213213948
 11
141.7046875
 21
95.6213213948
  0
LINE
  5
3FF
100
AcDbEntity
  8
DRAFT
100
AcDbLine
 62
7
  6
CONTINUOUS
 10
142.9546875
 20
71.9708789343
 11
142.9546875
 21
73.1842615575
  0
LINE
  5
400
100
AcDbEntity
  8
DRAFT
100
AcDbLine
 62
7
  6
CONTINUOUS
 10
142.9546875
 20
82.0583812321
 11
142.9546875
 21
83.2717638554
  0
LINE
  5
401
100
AcDbEntity
  8
DRAFT
100
AcDbLine
 62
7
  6
CONTINUOUS
 10
144.4546875
 20
83.2717638554
 11
144.4546875
 21
82.0583812321
  0
LINE
  5
402
100
AcDbEntity
  8
DRAFT
100
AcDbLine
 62
7
  6
CONTINUOUS
 10
144.4546875
 20
73.1842615575
 11
144.4546875
 21
71.9708789343
  0
LINE
  5
403
100
AcDbEntity
  8
RACCORDO
100
AcDbLine
 62
7
  6
CONTINUOUS
 10
143.3605223504
 20
153.0073359855
 11
143.3601619277
 21
152.7713213948
  0
LWPOLYLINE
  5
404
100
AcDbEntity
  8
RACCORDO
100
AcDbPolyline
 62
7
  6
CONTINUOUS
 90
28
 70
0
 10
138.2020426429
 20
32.7737835001
 10
138.201673346
 20
32.7632129311
 10
138.2009703268
 20
32.7522272979
 10
138.1998837302
 20
32.7408330259
 10
138.1983194658
 20
32.729020577
 10
138.1962201494
 20
32.7168231242
 10
138.1935910915
 20
32.7043135941
 10
138.1903645016
 20
32.6915249838
 10
138.1864408507
 20
32.6784667089
 10
138.1818092919
 20
32.6651758963
 10
138.1764051788
 20
32.651663409
 10
138.1701378359
 20
32.6379833704
 10
138.1629865896
 20
32.6242378669
 10
138.1549313335
 20
32.6105040816
 10
138.1458688247
 20
32.5967930889
 10
138.1356547216
 20
32.5831187044
 10
138.1241966526
 20
32.5694880564
 10
138.1114506869
 20
32.5560389253
 10
138.0973371326
 20
32.5430013528
 10
138.0817796105
 20
32.5304292564
 10
138.0647751705
 20
32.5184687301
 10
138.0463824578
 20
32.5074941576
 10
138.0265211008
 20
32.4975906792
 10
138.0053187328
 20
32.4889048568
 10
137.9832188463
 20
32.4818544554
 10
137.9604586851
 20
32.4766020524
 10
137.9370350928
 20
32.4731073504
 10
137.9130835819
 20
32.4714310285
  0
LINE
  5
405
100
AcDbEntity
  8
RACCORDO
100
AcDbLine
 62
7
  6
CONTINUOUS
 10
141.7046875
 20
95.6213213948
 11
141.6746283312
 21
95.591262226
  0
LINE
  5
406
100
AcDbEntity
  8
RACCORDO
100
AcDbLine
 62
253
  6
CONTINUOUS
 10
204.2049921097
 20
155.1213213948
 11
204.1822395987
 21
155.0985688838
  0
LINE
  5
407
100
AcDbEntity
  8
0
100
AcDbLine
 62
253
  6
CONTINUOUS
 10
204.2049921097
 20
155.1213213948
 11
204.1822395987
 21
155.0985688838
  0
LINE
  5
408
100
AcDbEntity
  8
RACCORDO
100
AcDbLine
 62
7
  6
CONTINUOUS
 10
145.7046875
 20
96.4213213948
 11
145.7347466688
 21
96.4513805636
  0
LINE
  5
409
100
AcDbEntity
  8
RACCORDO
100
AcDbLine
 62
253
  6
CONTINUOUS
 10
199.2983661318
 20
149.2148477217
 11
199.2134150209
 21
149.1298966108
  0
LINE
  5
40A
100
AcDbEntity
  8
RACCORDO
100
AcDbLine
 62
253
  6
CONTINUOUS
 10
87.1111611731
 20
37.0276427631
 11
87.196112284
 21
37.112593874
  0
LINE
  5
40B
100
AcDbEntity
  8
DRAFT
100
AcDbLine
 62
7
  6
CONTINUOUS
 10
83.4652740973
 20
32.3819079922
 11
83.3046875
 21
32.2213213948
  0
LINE
  5
40C
100
AcDbEntity
  8
DRAFT
100
AcDbLine
 62
7
  6
CONTINUOUS
 10
203.9441009027
 20
152.8607347975
 11
204.1046875
 21
153.0213213948
  0
LINE
  5
40D
100
AcDbEntity
  8
RACCORDO
100
AcDbLine
 62
253
  6
CONTINUOUS
 10
200.2982138269
 20
148.2150000266
 11
200.213262716
 21
148.1300489157
  0
LINE
  5
40E
100
AcDbEntity
  8
RACCORDO
100
AcDbLine
 62
253
  6
CONTINUOUS
 10
88.1110088682
 20
36.0277950679
 11
88.1959599791
 21
36.1127461788
  0
LINE
  5
40F
100
AcDbEntity
  8
DRAFT
100
AcDbLine
 62
7
  6
CONTINUOUS
 10
103.7046875
 20
88.0933847792
 11
102.9909904959
 21
88.0684619307
  0
LINE
  5
410
100
AcDbEntity
  8
DRAFT
100
AcDbLine
 62
7
  6
CONTINUOUS
 10
103.7046875
 20
87.1824141221
 11
102.9909904959
 21
87.1699564945
  0
LINE
  5
411
100
AcDbEntity
  8
DRAFT
100
AcDbLine
 62
7
  6
CONTINUOUS
 10
103.0174121754
 20
88.1213213948
 11
103.7046875
 21
88.1213213948
  0
LINE
  5
412
100
AcDbEntity
  8
DRAFT
100
AcDbLine
 62
7
  6
CONTINUOUS
 10
183.7046875
 20
88.1213213948
 11
184.3919628246
 21
88.1213213948
  0
LINE
  5
413
100
AcDbEntity
  8
RACCORDO
100
AcDbLine
 62
253
  6
CONTINUOUS
 10
99.1046875
 20
90.1213213948
 11
99.4293149019
 21
90.1213213948
  0
LINE
  5
414
100
AcDbEntity
  8
RACCORDO
100
AcDbLine
 62
253
  6
CONTINUOUS
 10
104.3800600981
 20
90.1213213948
 11
104.7046875
 21
90.1213213948
  0
LINE
  5
415
100
AcDbEntity
  8
RACCORDO
100
AcDbLine
 62
253
  6
CONTINUOUS
 10
110.9046875
 20
90.1213213948
 11
111.2293149019
 21
90.1213213948
  0
LINE
  5
416
100
AcDbEntity
  8
RACCORDO
100
AcDbLine
 62
253
  6
CONTINUOUS
 10
116.1800600981
 20
90.1213213948
 11
116.5046875
 21
90.1213213948
  0
LINE
  5
417
100
AcDbEntity
  8
RACCORDO
100
AcDbLine
 62
253
  6
CONTINUOUS
 10
170.9046875
 20
90.1213213948
 11
171.2293149019
 21
90.1213213948
  0
LINE
  5
418
100
AcDbEntity
  8
RACCORDO
100
AcDbLine
 62
253
  6
CONTINUOUS
 10
176.1800600981
 20
90.1213213948
 11
176.5046875
 21
90.1213213948
  0
LINE
  5
419
100
AcDbEntity
  8
RACCORDO
100
AcDbLine
 62
253
  6
CONTINUOUS
 10
182.7046875
 20
90.1213213948
 11
183.0293149019
 21
90.1213213948
  0
LINE
  5
41A
100
AcDbEntity
  8
RACCORDO
100
AcDbLine
 62
253
  6
CONTINUOUS
 10
187.9800600981
 20
90.1213213948
 11
188.3046875
 21
90.1213213948
  0
LINE
  5
41B
100
AcDbEntity
  8
IMPORT_IGES
100
AcDbLine
 62
7
  6
CONTINUOUS
 10
171.9228730651
 20
90.3713213948
 11
175.4865019349
 21
90.3713213948
  0
LINE
  5
41C
100
AcDbEntity
  8
DRAFT
100
AcDbLine
 62
7
  6
CONTINUOUS
 10
203.9441009027
 20
92.0213213948
 11
203.8546875
 21
92.0213213948
  0
LINE
  5
41D
100
AcDbEntity
  8
DRAFT
100
AcDbLine
 62
7
  6
CONTINUOUS
 10
83.5546875
 20
92.0213213948
 11
83.4652740973
 21
92.0213213948
  0
LINE
  5
41E
100
AcDbEntity
  8
RACCORDO
100
AcDbLine
 62
253
  6
CONTINUOUS
 10
204.0419101928
 20
92.119130685
 11
203.8546875
 21
92.119130685
  0
LINE
  5
41F
100
AcDbEntity
  8
RACCORDO
100
AcDbLine
 62
253
  6
CONTINUOUS
 10
83.5546875
 20
92.119130685
 11
83.3674648072
 21
92.119130685
  0
LINE
  5
420
100
AcDbEntity
  8
RACCORDO
100
AcDbLine
 62
253
  6
CONTINUOUS
 10
204.0453402792
 20
92.319100224
 11
203.8546875
 21
92.319100224
  0
LINE
  5
421
100
AcDbEntity
  8
RACCORDO
100
AcDbLine
 62
253
  6
CONTINUOUS
 10
83.5546875
 20
92.319100224
 11
83.3640347208
 21
92.319100224
  0
LINE
  5
422
100
AcDbEntity
  8
RACCORDO
100
AcDbLine
 62
253
  6
CONTINUOUS
 10
83.3640347208
 20
92.9235425656
 11
83.5546875
 21
92.9235425656
  0
LINE
  5
423
100
AcDbEntity
  8
RACCORDO
100
AcDbLine
 62
253
  6
CONTINUOUS
 10
203.8546875
 20
92.9235425656
 11
204.0453402792
 21
92.9235425656
  0
LINE
  5
424
100
AcDbEntity
  8
RACCORDO
100
AcDbLine
 62
253
  6
CONTINUOUS
 10
83.3674648072
 20
93.1235121046
 11
83.5546875
 21
93.1235121046
  0
LINE
  5
425
100
AcDbEntity
  8
RACCORDO
100
AcDbLine
 62
253
  6
CONTINUOUS
 10
203.8546875
 20
93.1235121046
 11
204.0419101928
 21
93.1235121046
  0
LINE
  5
426
100
AcDbEntity
  8
DRAFT
100
AcDbLine
 62
7
  6
CONTINUOUS
 10
203.9441009027
 20
93.2213213948
 11
203.8546875
 21
93.2213213948
  0
LINE
  5
427
100
AcDbEntity
  8
DRAFT
100
AcDbLine
 62
7
  6
CONTINUOUS
 10
83.5546875
 20
93.2213213948
 11
83.4652740973
 21
93.2213213948
  0
LINE
  5
428
100
AcDbEntity
  8
DRAFT
100
AcDbLine
 62
7
  6
CONTINUOUS
 10
184.4183845041
 20
87.1699564945
 11
183.7046875
 21
87.1824141221
  0
LINE
  5
429
100
AcDbEntity
  8
DRAFT
100
AcDbLine
 62
7
  6
CONTINUOUS
 10
183.7046875
 20
88.0933847792
 11
184.4183845041
 21
88.0684619307
  0
LINE
  5
42A
100
AcDbEntity
  8
RACCORDO
100
AcDbLine
 62
7
  6
CONTINUOUS
 10
138.7046875
 20
95.6213213948
 11
138.7347466688
 21
95.591262226
  0
LINE
  5
42B
100
AcDbEntity
  8
RACCORDO
100
AcDbLine
 62
253
  6
CONTINUOUS
 10
81.2046875
 20
153.1216260045
 11
81.227440011
 21
153.0988734935
  0
LINE
  5
42C
100
AcDbEntity
  8
0
100
AcDbLine
 62
253
  6
CONTINUOUS
 10
81.2046875
 20
153.1216260045
 11
81.227440011
 21
153.0988734935
  0
LINE
  5
42D
100
AcDbEntity
  8
RACCORDO
100
AcDbLine
 62
253
  6
CONTINUOUS
 10
199.2983661318
 20
36.0277950679
 11
199.2134150209
 21
36.1127461788
  0
LINE
  5
42E
100
AcDbEntity
  8
RACCORDO
100
AcDbLine
 62
253
  6
CONTINUOUS
 10
87.1111611731
 20
148.2150000266
 11
87.196112284
 21
148.1300489157
  0
LINE
  5
42F
100
AcDbEntity
  8
DRAFT
100
AcDbLine
 62
7
  6
CONTINUOUS
 10
83.4652740973
 20
152.8607347975
 11
83.3046875
 21
153.0213213948
  0
LINE
  5
430
100
AcDbEntity
  8
DRAFT
100
AcDbLine
 62
7
  6
CONTINUOUS
 10
203.9441009027
 20
32.3819079922
 11
204.1046875
 21
32.2213213948
  0
LINE
  5
431
100
AcDbEntity
  8
RACCORDO
100
AcDbLine
 62
253
  6
CONTINUOUS
 10
200.2982138269
 20
37.0276427631
 11
200.213262716
 21
37.112593874
  0
LINE
  5
432
100
AcDbEntity
  8
RACCORDO
100
AcDbLine
 62
253
  6
CONTINUOUS
 10
88.1110088682
 20
149.2148477217
 11
88.1959599791
 21
149.1298966108
  0
LWPOLYLINE
  5
433
100
AcDbEntity
  8
RACCORDO
100
AcDbPolyline
 62
7
  6
CONTINUOUS
 90
28
 70
0
 10
149.2073323571
 20
32.7737835001
 10
149.2076684107
 20
32.7632304077
 10
149.2083733112
 20
32.7522398262
 10
149.2094916823
 20
32.7408294335
 10
149.2110644719
 20
32.7290147341
 10
149.2131422438
 20
32.716826572
 10
149.2157844354
 20
32.7043113209
 10
149.2190318723
 20
32.6915227744
 10
149.2229329971
 20
32.6784780818
 10
149.2275650219
 20
32.6651777321
 10
149.2329840165
 20
32.6516636431
 10
149.2392346778
 20
32.6380020857
 10
149.2463854946
 20
32.6242431448
 10
149.2544520767
 20
32.6105098921
 10
149.2635038319
 20
32.5968263313
 10
149.273715248
 20
32.5831250674
 10
149.2851781456
 20
32.5694854894
 10
149.2979174688
 20
32.5560760495
 10
149.3120310891
 20
32.543007232
 10
149.3275918366
 20
32.5304130472
 10
149.3445919751
 20
32.5184992162
 10
149.3629857958
 20
32.5074978649
 10
149.382849908
 20
32.4975479997
 10
149.4040503015
 20
32.4888973727
 10
149.4261522989
 20
32.481855517
 10
149.4489179332
 20
32.4765568674
 10
149.4723430571
 20
32.473052047
 10
149.4962914181
 20
32.4714310285
  0
LWPOLYLINE
  5
434
100
AcDbEntity
  8
RACCORDO
100
AcDbPolyline
 62
7
  6
CONTINUOUS
 90
28
 70
0
 10
149.0046875
 20
33.2215498521
 10
149.0022802188
 20
33.3058354365
 10
148.9952596015
 20
33.3893341784
 10
148.9836256481
 20
33.4720460778
 10
148.9673130008
 20
33.5542233489
 10
148.9463870174
 20
33.6356137775
 10
148.9210437715
 20
33.7154607208
 10
148.891241941
 20
33.7937504546
 10
148.857022848
 20
33.8704967031
 10
148.8187065326
 20
33.9449839952
 10
148.7762548745
 20
34.0171909418
 10
148.729705994
 20
34.0871389321
 10
148.6794942916
 20
34.1541766626
 10
148.6255856654
 20
34.2182769444
 10
148.5680142174
 20
34.2794669665
 10
148.5073166531
 20
34.337176992
 10
148.4434638495
 20
34.3913745666
 10
148.3764849296
 20
34.4420921448
 10
148.3070039685
 20
34.4888573531
 10
148.2349976121
 20
34.531633356
 10
148.1604892144
 20
34.5704569891
 10
148.0841729117
 20
34.6049663864
 10
148.0060100747
 20
34.6351226558
 10
147.9260393327
 20
34.6609646893
 10
147.8450707108
 20
34.6822472972
 10
147.7633742175
 20
34.6988887497
 10
147.6806798443
 20
34.7109707766
 10
147.5969875912
 20
34.718493378
  0
LINE
  5
435
100
AcDbEntity
  8
DRAFT
100
AcDbLine
 62
7
  6
CONTINUOUS
 10
145.7046875
 20
95.6213213948
 11
145.7046875
 21
96.4213213948
  0
LINE
  5
436
100
AcDbEntity
  8
DRAFT
100
AcDbLine
 62
7
  6
CONTINUOUS
 10
145.7046875
 20
136.8213213948
 11
145.7046875
 21
137.6213213948
  0
LINE
  5
437
100
AcDbEntity
  8
RACCORDO
100
AcDbLine
 62
253
  6
CONTINUOUS
 10
145.7347466688
 20
137.6513805636
 11
145.7347466688
 21
136.791262226
  0
LINE
  5
438
100
AcDbEntity
  8
RACCORDO
100
AcDbLine
 62
253
  6
CONTINUOUS
 10
145.7347466688
 20
96.4513805636
 11
145.7347466688
 21
95.591262226
  0
LINE
  5
439
100
AcDbEntity
  8
RACCORDO
100
AcDbLine
 62
253
  6
CONTINUOUS
 10
146.2328440178
 20
137.6913123256
 11
146.2328440178
 21
136.751330464
  0
LINE
  5
43A
100
AcDbEntity
  8
RACCORDO
100
AcDbLine
 62
253
  6
CONTINUOUS
 10
146.2328440178
 20
96.4913123256
 11
146.2328440178
 21
95.551330464
  0
LINE
  5
43B
100
AcDbEntity
  8
RACCORDO
100
AcDbLine
 62
253
  6
CONTINUOUS
 10
146.7245755018
 20
32.9213213948
 11
146.7245755018
 21
34.7154528816
  0
LINE
  5
43C
100
AcDbEntity
  8
RACCORDO
100
AcDbLine
 62
253
  6
CONTINUOUS
 10
147.5969875912
 20
32.9213213948
 11
147.5969875912
 21
34.718493378
  0
LINE
  5
43D
100
AcDbEntity
  8
RACCORDO
100
AcDbLine
 62
253
  6
CONTINUOUS
 10
148.1765309822
 20
95.551330464
 11
148.1765309822
 21
96.4913123256
  0
LINE
  5
43E
100
AcDbEntity
  8
RACCORDO
100
AcDbLine
 62
253
  6
CONTINUOUS
 10
148.1765309822
 20
136.751330464
 11
148.1765309822
 21
137.6913123256
  0
LINE
  5
43F
100
AcDbEntity
  8
RACCORDO
100
AcDbLine
 62
253
  6
CONTINUOUS
 10
148.2540468532
 20
97.0719620416
 11
148.2540468532
 21
136.1706807481
  0
LINE
  5
440
100
AcDbEntity
  8
RACCORDO
100
AcDbLine
 62
253
  6
CONTINUOUS
 10
148.6746283312
 20
95.591262226
 11
148.6746283312
 21
96.4513805636
  0
LINE
  5
441
100
AcDbEntity
  8
RACCORDO
100
AcDbLine
 62
253
  6
CONTINUOUS
 10
148.6746283312
 20
136.791262226
 11
148.6746283312
 21
137.6513805636
  0
LINE
  5
442
100
AcDbEntity
  8
DRAFT
100
AcDbLine
 62
7
  6
CONTINUOUS
 10
148.7046875
 20
137.6213213948
 11
148.7046875
 21
136.8213213948
  0
LINE
  5
443
100
AcDbEntity
  8
DRAFT
100
AcDbLine
 62
7
  6
CONTINUOUS
 10
148.7046875
 20
96.4213213948
 11
148.7046875
 21
95.6213213948
  0
LINE
  5
444
100
AcDbEntity
  8
RACCORDO
100
AcDbLine
 62
253
  6
CONTINUOUS
 10
148.7521442023
 20
96.5738646925
 11
148.7521442023
 21
136.6687780971
  0
LINE
  5
445
100
AcDbEntity
  8
DRAFT
100
AcDbLine
 62
7
  6
CONTINUOUS
 10
148.9046875
 20
96.4213213948
 11
148.9046875
 21
136.8213213948
  0
LINE
  5
446
100
AcDbEntity
  8
RACCORDO
100
AcDbLine
 62
7
  6
CONTINUOUS
 10
149.0046875
 20
33.2215498521
 11
149.0046875
 21
32.2213213948
  0
LINE
  5
447
100
AcDbEntity
  8
RACCORDO
100
AcDbLine
 62
7
  6
CONTINUOUS
 10
149.1495645389
 20
33.366426891
 11
149.1495645389
 21
32.3661984337
  0
LINE
  5
448
100
AcDbEntity
  8
RACCORDO
100
AcDbLine
 62
7
  6
CONTINUOUS
 10
149.2046875
 20
34.9213213948
 11
149.2046875
 21
32.9794029395
  0
LINE
  5
449
100
AcDbEntity
  8
DRAFT
100
AcDbLine
 62
7
  6
CONTINUOUS
 10
149.7046875
 20
137.6213213948
 11
149.7046875
 21
95.6213213948
  0
LINE
  5
44A
100
AcDbEntity
  8
RACCORDO
100
AcDbLine
 62
253
  6
CONTINUOUS
 10
149.7431800327
 20
152.9899936678
 11
149.7431800327
 21
152.7713213948
  0
LINE
  5
44B
100
AcDbEntity
  8
DRAFT
100
AcDbLine
 62
7
  6
CONTINUOUS
 10
149.8971625598
 20
137.8137964546
 11
149.8971625598
 21
95.4288463351
  0
LINE
  5
44C
100
AcDbEntity
  8
RACCORDO
100
AcDbLine
 62
253
  6
CONTINUOUS
 10
150.0431343413
 20
152.9951387974
 11
150.0431343413
 21
152.7713213948
  0
LINE
  5
44D
100
AcDbEntity
  8
RACCORDO
100
AcDbLine
 62
253
  6
CONTINUOUS
 10
150.3662406587
 20
152.7713213948
 11
150.3662406587
 21
152.9951387974
  0
LINE
  5
44E
100
AcDbEntity
  8
RACCORDO
100
AcDbLine
 62
7
  6
CONTINUOUS
 10
140.0099288965
 20
30.6952203704
 11
140.2046875
 21
32.9213213948
  0
LINE
  5
44F
100
AcDbEntity
  8
RACCORDO
100
AcDbLine
 62
253
  6
CONTINUOUS
 10
206.2046875
 20
153.1216260045
 11
206.181934989
 21
153.0988734935
  0
LINE
  5
450
100
AcDbEntity
  8
0
100
AcDbLine
 62
253
  6
CONTINUOUS
 10
206.2046875
 20
153.1216260045
 11
206.181934989
 21
153.0988734935
  0
LINE
  5
451
100
AcDbEntity
  8
RACCORDO
100
AcDbLine
 62
7
  6
CONTINUOUS
 10
148.7046875
 20
95.6213213948
 11
148.6746283312
 21
95.591262226
  0
LINE
  5
452
100
AcDbEntity
  8
DRAFT
100
AcDbLine
 62
7
  6
CONTINUOUS
 10
149.8971625598
 20
95.4288463351
 11
137.5122124402
 21
95.4288463351
  0
LINE
  5
453
100
AcDbEntity
  8
RACCORDO
100
AcDbLine
 62
7
  6
CONTINUOUS
 10
148.1765309822
 20
95.551330464
 11
146.2328440178
 21
95.551330464
  0
LINE
  5
454
100
AcDbEntity
  8
RACCORDO
100
AcDbLine
 62
7
  6
CONTINUOUS
 10
141.1765309822
 20
95.551330464
 11
139.2328440178
 21
95.551330464
  0
LINE
  5
455
100
AcDbEntity
  8
DRAFT
100
AcDbLine
 62
7
  6
CONTINUOUS
 10
149.7046875
 20
95.6213213948
 11
148.7046875
 21
95.6213213948
  0
LINE
  5
456
100
AcDbEntity
  8
DRAFT
100
AcDbLine
 62
7
  6
CONTINUOUS
 10
145.7046875
 20
95.6213213948
 11
141.7046875
 21
95.6213213948
  0
LINE
  5
457
100
AcDbEntity
  8
DRAFT
100
AcDbLine
 62
7
  6
CONTINUOUS
 10
138.7046875
 20
95.6213213948
 11
137.7046875
 21
95.6213213948
  0
LINE
  5
458
100
AcDbEntity
  8
DRAFT
100
AcDbLine
 62
7
  6
CONTINUOUS
 10
138.5046875
 20
96.4213213948
 11
138.7046875
 21
96.4213213948
  0
LINE
  5
459
100
AcDbEntity
  8
DRAFT
100
AcDbLine
 62
7
  6
CONTINUOUS
 10
141.7046875
 20
96.4213213948
 11
145.7046875
 21
96.4213213948
  0
LINE
  5
45A
100
AcDbEntity
  8
DRAFT
100
AcDbLine
 62
7
  6
CONTINUOUS
 10
148.7046875
 20
96.4213213948
 11
148.9046875
 21
96.4213213948
  0
LINE
  5
45B
100
AcDbEntity
  8
RACCORDO
100
AcDbLine
 62
7
  6
CONTINUOUS
 10
148.1765309822
 20
96.4913123256
 11
146.2328440178
 21
96.4913123256
  0
LINE
  5
45C
100
AcDbEntity
  8
RACCORDO
100
AcDbLine
 62
7
  6
CONTINUOUS
 10
141.1765309822
 20
96.4913123256
 11
139.2328440178
 21
96.4913123256
  0
LINE
  5
45D
100
AcDbEntity
  8
RACCORDO
100
AcDbLine
 62
253
  6
CONTINUOUS
 10
138.6572307977
 20
96.5738646925
 11
148.7521442023
 21
96.5738646925
  0
LINE
  5
45E
100
AcDbEntity
  8
RACCORDO
100
AcDbLine
 62
253
  6
CONTINUOUS
 10
139.1553281468
 20
97.0719620416
 11
148.2540468532
 21
97.0719620416
  0
LINE
  5
45F
100
AcDbEntity
  8
RACCORDO
100
AcDbLine
 62
7
  6
CONTINUOUS
 10
148.2982143802
 20
97.0281589768
 11
148.2540468532
 21
97.0719620416
  0
LINE
  5
460
100
AcDbEntity
  8
RACCORDO
100
AcDbLine
 62
7
  6
CONTINUOUS
 10
148.7488355773
 20
96.5772757621
 11
148.7273983876
 21
96.5985867027
  0
LINE
  5
461
100
AcDbEntity
  8
RACCORDO
100
AcDbLine
 62
7
  6
CONTINUOUS
 10
141.7046875
 20
96.4213213948
 11
141.6746283312
 21
96.4513805636
  0
LINE
  5
462
100
AcDbEntity
  8
RACCORDO
100
AcDbLine
 62
253
  6
CONTINUOUS
 10
83.2043828903
 20
155.1213213948
 11
83.2271354013
 21
155.0985688838
  0
LINE
  5
463
100
AcDbEntity
  8
0
100
AcDbLine
 62
253
  6
CONTINUOUS
 10
83.2043828903
 20
155.1213213948
 11
83.2271354013
 21
155.0985688838
  0
LINE
  5
464
100
AcDbEntity
  8
RACCORDO
100
AcDbLine
 62
7
  6
CONTINUOUS
 10
145.7046875
 20
95.6213213948
 11
145.7347466688
 21
95.591262226
  0
LINE
  5
465
100
AcDbEntity
  8
RACCORDO
100
AcDbLine
 62
7
  6
CONTINUOUS
 10
148.7046875
 20
96.4213213948
 11
148.6746283312
 21
96.4513805636
  0
LINE
  5
466
100
AcDbEntity
  8
DRAFT
100
AcDbLine
 62
7
  6
CONTINUOUS
 10
149.8971625598
 20
95.4288463351
 11
149.7046875
 21
95.6213213948
  0
LINE
  5
467
100
AcDbEntity
  8
RACCORDO
100
AcDbLine
 62
7
  6
CONTINUOUS
 10
148.7521442023
 20
96.5738646925
 11
148.9046875
 21
96.4213213948
  0
LINE
  5
468
100
AcDbEntity
  8
RACCORDO
100
AcDbLine
 62
7
  6
CONTINUOUS
 10
148.7273983876
 20
96.5985867027
 11
148.2982143802
 21
97.0281589768
  0
LINE
  5
469
100
AcDbEntity
  8
RACCORDO
100
AcDbLine
 62
7
  6
CONTINUOUS
 10
148.7521442023
 20
96.5738646925
 11
148.7488355773
 21
96.5772757621
  0
LINE
  5
46A
100
AcDbEntity
  8
RACCORDO
100
AcDbLine
 62
7
  6
CONTINUOUS
 10
150.5046875
 20
32.3819079922
 11
150.5046875
 21
32.4713213948
  0
LINE
  5
46B
100
AcDbEntity
  8
RACCORDO
100
AcDbLine
 62
253
  6
CONTINUOUS
 10
150.6661949673
 20
152.7713213948
 11
150.6661949673
 21
152.9899936678
  0
LINE
  5
46C
100
AcDbEntity
  8
DRAFT
100
AcDbLine
 62
7
  6
CONTINUOUS
 10
151.2046875
 20
152.8607347975
 11
151.2046875
 21
152.7713213948
  0
LINE
  5
46D
100
AcDbEntity
  8
RACCORDO
100
AcDbLine
 62
7
  6
CONTINUOUS
 10
155.1046875
 20
32.3819079922
 11
155.1046875
 21
32.4713213948
  0
LINE
  5
46E
100
AcDbEntity
  8
RACCORDO
100
AcDbLine
 62
253
  6
CONTINUOUS
 10
155.2024967902
 20
32.284098702
 11
155.2024967902
 21
32.4713213948
  0
LINE
  5
46F
100
AcDbEntity
  8
RACCORDO
100
AcDbLine
 62
253
  6
CONTINUOUS
 10
155.4024663292
 20
32.2806686156
 11
155.4024663292
 21
32.4713213948
  0
LINE
  5
470
100
AcDbEntity
  8
RACCORDO
100
AcDbLine
 62
253
  6
CONTINUOUS
 10
156.0069086708
 20
32.4713213948
 11
156.0069086708
 21
32.2806686156
  0
LINE
  5
471
100
AcDbEntity
  8
RACCORDO
100
AcDbLine
 62
253
  6
CONTINUOUS
 10
156.2068782098
 20
32.4713213948
 11
156.2068782098
 21
32.284098702
  0
LINE
  5
472
100
AcDbEntity
  8
RACCORDO
100
AcDbLine
 62
7
  6
CONTINUOUS
 10
150.7046768514
 20
152.9515117691
 11
150.7045448877
 21
152.7713213948
  0
LINE
  5
473
100
AcDbEntity
  8
RACCORDO
100
AcDbLine
 62
253
  6
CONTINUOUS
 10
149.2046875
 20
32.9794029395
 11
149.2533610293
 21
34.9699949241
  0
LINE
  5
474
100
AcDbEntity
  8
RACCORDO
100
AcDbLine
 62
253
  6
CONTINUOUS
 10
149.4962914181
 20
32.4714310285
 11
149.5606930953
 21
35.1052540592
  0
LINE
  5
475
100
AcDbEntity
  8
DRAFT
100
AcDbLine
 62
7
  6
CONTINUOUS
 10
141.2712235639
 20
34.8661984337
 11
141.2669047653
 21
34.8499453906
  0
LINE
  5
476
100
AcDbEntity
  8
RACCORDO
100
AcDbLine
 62
253
  6
CONTINUOUS
 10
199.4550414022
 20
149.4196672061
 11
202.172730564
 21
152.7712384179
  0
LINE
  5
477
100
AcDbEntity
  8
RACCORDO
100
AcDbLine
 62
7
  6
CONTINUOUS
 10
99.3046875
 20
32.3819079922
 11
99.2068782098
 21
32.284098702
  0
LINE
  5
478
100
AcDbEntity
  8
RACCORDO
100
AcDbLine
 62
253
  6
CONTINUOUS
 10
83.554770477
 20
34.1532783309
 11
86.9063416887
 21
36.8709674926
  0
LINE
  5
479
100
AcDbEntity
  8
RACCORDO
100
AcDbLine
 62
253
  6
CONTINUOUS
 10
83.554770477
 20
151.0893644588
 11
86.9063416887
 21
148.371675297
  0
LINE
  5
47A
100
AcDbEntity
  8
RACCORDO
100
AcDbLine
 62
253
  6
CONTINUOUS
 10
202.172730564
 20
32.4714043718
 11
199.4550414022
 21
35.8229755835
  0
LINE
  5
47B
100
AcDbEntity
  8
RACCORDO
100
AcDbLine
 62
7
  6
CONTINUOUS
 10
156.3046875
 20
32.3819079922
 11
156.3046875
 21
32.4713213948
  0
LINE
  5
47C
100
AcDbEntity
  8
RACCORDO
100
AcDbLine
 62
7
  6
CONTINUOUS
 10
147.2712235639
 20
34.8661984337
 11
147.262561816
 21
34.8337310866
  0
LINE
  5
47D
100
AcDbEntity
  8
DRAFT
100
AcDbLine
 62
7
  6
CONTINUOUS
 10
141.2669047653
 20
34.8499453906
 11
141.2538040117
 21
34.8014184831
  0
LINE
  5
47E
100
AcDbEntity
  8
DRAFT
100
AcDbLine
 62
7
  6
CONTINUOUS
 10
141.2538040117
 20
34.8014184831
 11
141.2404815274
 21
34.7532419287
  0
LINE
  5
47F
100
AcDbEntity
  8
DRAFT
100
AcDbLine
 62
7
  6
CONTINUOUS
 10
141.2404815274
 20
34.7532419287
 11
141.2314701876
 21
34.7213213948
  0
LWPOLYLINE
  5
480
100
AcDbEntity
  8
RACCORDO
100
AcDbPolyline
 62
253
  6
CONTINUOUS
 90
13
 70
0
 10
200.2926509286
 20
148.3194314051
 10
200.2946345113
 20
148.3225645294
 10
200.2996850201
 20
148.3260018288
 10
200.3077711809
 20
148.3297220155
 10
200.318842917
 20
148.3337020503
 10
200.3328316623
 20
148.3379172837
 10
200.349650788
 20
148.3423416086
 10
200.369196133
 20
148.3469476245
 10
200.3913466496
 20
148.3517068055
 10
200.4159651607
 20
148.3565896747
 10
200.4428992004
 20
148.3615659906
 10
200.4719819571
 20
148.3666049339
 10
200.5030333113
 20
148.3716752968
  0
LINE
  5
481
100
AcDbEntity
  8
RACCORDO
100
AcDbLine
 62
7
  6
CONTINUOUS
 10
203.9441009027
 20
132.0213213948
 11
204.0419101928
 21
132.119130685
  0
LWPOLYLINE
  5
482
100
AcDbEntity
  8
RACCORDO
100
AcDbPolyline
 62
253
  6
CONTINUOUS
 90
13
 70
0
 10
88.0065774898
 20
36.0333579662
 10
88.0034443142
 20
36.0313743712
 10
88.0000069689
 20
36.026323827
 10
87.9962867434
 20
36.0182376157
 10
87.9923066795
 20
36.0071658217
 10
87.9880914276
 20
35.9931770192
 10
87.983667094
 20
35.9763578452
 10
87.9790610807
 20
35.9568124688
 10
87.974301915
 20
35.9346619438
 10
87.969419072
 20
35.9100434533
 10
87.9644427932
 20
35.883109468
 10
87.9594038991
 20
35.854026804
 10
87.954333598
 20
35.8229755835
  0
LINE
  5
483
100
AcDbEntity
  8
IMPORT_IGES
100
AcDbLine
 62
7
  6
CONTINUOUS
 10
137.7046875
 20
108.6713213948
 11
138.5046875
 21
108.6713213948
  0
LINE
  5
484
100
AcDbEntity
  8
IMPORT_IGES
100
AcDbLine
 62
7
  6
CONTINUOUS
 10
148.9046875
 20
108.6713213948
 11
149.7046875
 21
108.6713213948
  0
LINE
  5
485
100
AcDbEntity
  8
IMPORT_IGES
100
AcDbLine
 62
7
  6
CONTINUOUS
 10
137.7046875
 20
110.8513213948
 11
137.9246875
 21
110.8513213948
  0
LWPOLYLINE
  5
486
100
AcDbEntity
  8
RACCORDO
100
AcDbPolyline
 62
253
  6
CONTINUOUS
 90
13
 70
0
 10
88.0065774897
 20
149.2092848234
 10
88.0034443654
 20
149.2112684061
 10
88.000007066
 20
149.2163189149
 10
87.9962868793
 20
149.2244050757
 10
87.9923068446
 20
149.2354768119
 10
87.9880916111
 20
149.2494655571
 10
87.9836672862
 20
149.2662846829
 10
87.9790612703
 20
149.2858300278
 10
87.9743020894
 20
149.3079805444
 10
87.9694192201
 20
149.3325990555
 10
87.9644429043
 20
149.3595330953
 10
87.9594039609
 20
149.3886158519
 10
87.954333598
 20
149.4196672062
  0
LINE
  5
487
100
AcDbEntity
  8
RACCORDO
100
AcDbLine
 62
7
  6
CONTINUOUS
 10
102.6661949673
 20
152.9899936678
 11
102.6872244596
 21
152.9689641755
  0
LINE
  5
488
100
AcDbEntity
  8
RACCORDO
100
AcDbLine
 62
7
  6
CONTINUOUS
 10
203.9441009027
 20
53.2213213948
 11
204.0419101928
 21
53.1235121046
  0
LINE
  5
489
100
AcDbEntity
  8
DRAFT
100
AcDbLine
 62
7
  6
CONTINUOUS
 10
109.0872244596
 20
152.9689641755
 11
109.0488526496
 21
153.0073359855
  0
LWPOLYLINE
  5
48A
100
AcDbEntity
  8
RACCORDO
100
AcDbPolyline
 62
253
  6
CONTINUOUS
 90
13
 70
0
 10
200.2926509286
 20
36.9232113846
 10
200.2946345236
 20
36.920078209
 10
200.2996850678
 20
36.9166408637
 10
200.3077712792
 20
36.9129206383
 10
200.3188430732
 20
36.9089405743
 10
200.3328318756
 20
36.9047253224
 10
200.3496510496
 20
36.9003009889
 10
200.3691964261
 20
36.8956949756
 10
200.391346951
 20
36.8909358098
 10
200.4159654415
 20
36.8860529668
 10
200.4428994268
 20
36.881076688
 10
200.4719820908
 20
36.8760377939
 10
200.5030333113
 20
36.8709674928
  0
LINE
  5
48B
100
AcDbEntity
  8
RACCORDO
100
AcDbLine
 62
7
  6
CONTINUOUS
 10
168.6442171912
 20
32.5632108204
 11
168.6044774399
 21
35.8146594385
  0
LINE
  5
48C
100
AcDbEntity
  8
RACCORDO
100
AcDbLine
 62
7
  6
CONTINUOUS
 10
147.262561816
 20
34.8337310866
 11
147.2493891568
 21
34.7853201836
  0
LWPOLYLINE
  5
48D
100
AcDbEntity
  8
RACCORDO
100
AcDbPolyline
 62
7
  6
CONTINUOUS
 90
3
 70
0
 10
147.2493891568
 20
34.7853201836
 10
147.235988753
 20
34.7372619732
 10
147.2314701876
 20
34.7213213948
  0
LINE
  5
48E
100
AcDbEntity
  8
RACCORDO
100
AcDbLine
 62
7
  6
CONTINUOUS
 10
83.3046875
 20
53.0868287473
 11
83.3318820177
 21
53.0949743179
  0
LWPOLYLINE
  5
48F
100
AcDbEntity
  8
RACCORDO
100
AcDbPolyline
 62
7
  6
CONTINUOUS
 90
3
 70
0
 10
83.3318820177
 20
53.0949743179
 10
83.3592068909
 20
53.1030202896
 10
83.3660583479
 20
53.1050166045
  0
LINE
  5
490
100
AcDbEntity
  8
IMPORT_IGES
100
AcDbLine
 62
7
  6
CONTINUOUS
 10
137.7046875
 20
111.4913213948
 11
137.9246875
 21
111.4913213948
  0
LINE
  5
491
100
AcDbEntity
  8
RACCORDO
100
AcDbLine
 62
7
  6
CONTINUOUS
 10
83.3660583479
 20
132.1376261851
 11
83.3387010977
 21
132.1456478864
  0
LWPOLYLINE
  5
492
100
AcDbEntity
  8
RACCORDO
100
AcDbPolyline
 62
7
  6
CONTINUOUS
 90
3
 70
0
 10
83.3387010977
 20
132.1456478864
 10
83.3114738639
 20
132.1537681796
 10
83.3046875
 20
132.1558140423
  0
LINE
  5
493
100
AcDbEntity
  8
RACCORDO
100
AcDbLine
 62
7
  6
CONTINUOUS
 10
185.6046875
 20
84.6213213948
 11
185.4612208714
 21
84.7647880234
  0
LINE
  5
494
100
AcDbEntity
  8
RACCORDO
100
AcDbLine
 62
7
  6
CONTINUOUS
 10
115.6661949673
 20
152.9899936678
 11
115.7046289212
 21
152.9515117691
  0
LINE
  5
495
100
AcDbEntity
  8
RACCORDO
100
AcDbLine
 62
253
  6
CONTINUOUS
 10
178.7001983168
 20
32.2878561732
 11
178.6970174412
 21
32.3242137482
  0
LINE
  5
496
100
AcDbEntity
  8
RACCORDO
100
AcDbLine
 62
7
  6
CONTINUOUS
 10
179.044545604
 20
32.3372437968
 11
179.0483487512
 21
32.2937736255
  0
LINE
  5
497
100
AcDbEntity
  8
DRAFT
100
AcDbLine
 62
7
  6
CONTINUOUS
 10
168.7125284455
 20
32.2876766264
 11
168.7115546949
 21
32.4958733168
  0
LINE
  5
498
100
AcDbEntity
  8
DRAFT
100
AcDbLine
 62
7
  6
CONTINUOUS
 10
168.2046875
 20
32.2213213948
 11
168.2046875
 21
31.2213213948
  0
LINE
  5
499
100
AcDbEntity
  8
DRAFT
100
AcDbLine
 62
7
  6
CONTINUOUS
 10
170.9046875
 20
85.1213213948
 11
170.9046875
 21
90.1213213948
  0
LINE
  5
49A
100
AcDbEntity
  8
RACCORDO
100
AcDbLine
 62
253
  6
CONTINUOUS
 10
170.9294976538
 20
90.1213213948
 11
170.9294976538
 21
85.1213213948
  0
LINE
  5
49B
100
AcDbEntity
  8
DRAFT
100
AcDbLine
 62
7
  6
CONTINUOUS
 10
171.2046875
 20
152.8607347975
 11
171.2046875
 21
152.7713213948
  0
LINE
  5
49C
100
AcDbEntity
  8
RACCORDO
100
AcDbLine
 62
253
  6
CONTINUOUS
 10
171.2046875
 20
54.8213213948
 11
171.2046875
 21
55.1459487968
  0
LINE
  5
49D
100
AcDbEntity
  8
RACCORDO
100
AcDbLine
 62
253
  6
CONTINUOUS
 10
171.2046875
 20
60.0966939929
 11
171.2046875
 21
60.4213213948
  0
LINE
  5
49E
100
AcDbEntity
  8
RACCORDO
100
AcDbLine
 62
253
  6
CONTINUOUS
 10
171.2046875
 20
124.8213213948
 11
171.2046875
 21
125.1459487968
  0
LINE
  5
49F
100
AcDbEntity
  8
RACCORDO
100
AcDbLine
 62
253
  6
CONTINUOUS
 10
171.2046875
 20
130.0966939929
 11
171.2046875
 21
130.4213213948
  0
LINE
  5
4A0
100
AcDbEntity
  8
RACCORDO
100
AcDbLine
 62
253
  6
CONTINUOUS
 10
171.2293149019
 20
90.1213213948
 11
171.2293149019
 21
85.1213213948
  0
LINE
  5
4A1
100
AcDbEntity
  8
RACCORDO
100
AcDbLine
 62
253
  6
CONTINUOUS
 10
171.7431800327
 20
152.9899936678
 11
171.7431800327
 21
152.7713213948
  0
LINE
  5
4A2
100
AcDbEntity
  8
DRAFT
100
AcDbLine
 62
7
  6
CONTINUOUS
 10
171.9046875
 20
90.1213213948
 11
171.9046875
 21
85.1213213948
  0
LINE
  5
4A3
100
AcDbEntity
  8
RACCORDO
100
AcDbLine
 62
253
  6
CONTINUOUS
 10
172.0431343413
 20
152.9951387974
 11
172.0431343413
 21
152.7713213948
  0
LINE
  5
4A4
100
AcDbEntity
  8
RACCORDO
100
AcDbLine
 62
253
  6
CONTINUOUS
 10
172.3662406587
 20
152.7713213948
 11
172.3662406587
 21
152.9951387974
  0
LINE
  5
4A5
100
AcDbEntity
  8
RACCORDO
100
AcDbLine
 62
253
  6
CONTINUOUS
 10
172.6661949673
 20
152.7713213948
 11
172.6661949673
 21
152.9899936678
  0
LINE
  5
4A6
100
AcDbEntity
  8
RACCORDO
100
AcDbLine
 62
7
  6
CONTINUOUS
 10
167.7640347208
 20
32.4713213948
 11
167.8048975601
 21
35.8146594385
  0
LINE
  5
4A7
100
AcDbEntity
  8
DRAFT
100
AcDbLine
 62
7
  6
CONTINUOUS
 10
168.2402286424
 20
32.2390865517
 11
168.2046875
 21
31.2213213948
  0
LINE
  5
4A8
100
AcDbEntity
  8
RACCORDO
100
AcDbLine
 62
7
  6
CONTINUOUS
 10
168.3610262488
 20
32.2937736255
 11
168.364829396
 21
32.3372437968
  0
LINE
  5
4A9
100
AcDbEntity
  8
RACCORDO
100
AcDbLine
 62
253
  6
CONTINUOUS
 10
168.7091766832
 20
32.2878561732
 11
168.7123575588
 21
32.3242137482
  0
LINE
  5
4AA
100
AcDbEntity
  8
DRAFT
100
AcDbLine
 62
7
  6
CONTINUOUS
 10
188.1929541733
 20
152.8607347975
 11
188.202961314
 21
152.8967928482
  0
LINE
  5
4AB
100
AcDbEntity
  8
DRAFT
100
AcDbLine
 62
7
  6
CONTINUOUS
 10
188.202961314
 20
152.8967928482
 11
188.2131151432
 21
152.93263991
  0
LINE
  5
4AC
100
AcDbEntity
  8
DRAFT
100
AcDbLine
 62
7
  6
CONTINUOUS
 10
188.2131151432
 20
152.93263991
 11
188.2234189873
 21
152.9682748566
  0
LWPOLYLINE
  5
4AD
100
AcDbEntity
  8
DRAFT
100
AcDbPolyline
 62
7
  6
CONTINUOUS
 90
3
 70
0
 10
188.2234189873
 20
152.9682748566
 10
188.2338861517
 20
153.0036931828
 10
188.2391801475
 20
153.0213213948
  0
LINE
  5
4AE
100
AcDbEntity
  8
RACCORDO
100
AcDbLine
 62
7
  6
CONTINUOUS
 10
118.6978203051
 20
32.4958733168
 11
118.7607115861
 21
32.5587645978
  0
LWPOLYLINE
  5
4AF
100
AcDbEntity
  8
RACCORDO
100
AcDbPolyline
 62
7
  6
CONTINUOUS
 90
3
 70
0
 10
98.2390319976
 20
32.293361195
 10
98.2292417638
 20
32.2877127017
 10
98.2209922903
 20
32.2826922427
  0
LINE
  5
4B0
100
AcDbEntity
  8
RACCORDO
100
AcDbLine
 62
7
  6
CONTINUOUS
 10
139.1111606198
 20
136.2144838129
 11
139.1553281468
 21
136.1706807481
  0
LINE
  5
4B1
100
AcDbEntity
  8
RACCORDO
100
AcDbLine
 62
7
  6
CONTINUOUS
 10
138.6605394227
 20
136.6653670275
 11
138.6819766124
 21
136.6440560869
  0
LINE
  5
4B2
100
AcDbEntity
  8
RACCORDO
100
AcDbLine
 62
7
  6
CONTINUOUS
 10
184.4481541286
 20
87.1401868701
 11
184.4183845041
 21
87.1699564945
  0
LINE
  5
4B3
100
AcDbEntity
  8
DRAFT
100
AcDbLine
 62
7
  6
CONTINUOUS
 10
137.5122124402
 20
137.8137964546
 11
137.7046875
 21
137.6213213948
  0
LINE
  5
4B4
100
AcDbEntity
  8
RACCORDO
100
AcDbLine
 62
7
  6
CONTINUOUS
 10
138.6572307977
 20
136.6687780971
 11
138.5046875
 21
136.8213213948
  0
LINE
  5
4B5
100
AcDbEntity
  8
RACCORDO
100
AcDbLine
 62
7
  6
CONTINUOUS
 10
138.7046875
 20
136.8213213948
 11
138.7347466688
 21
136.791262226
  0
LINE
  5
4B6
100
AcDbEntity
  8
RACCORDO
100
AcDbLine
 62
7
  6
CONTINUOUS
 10
138.6819766124
 20
136.6440560869
 11
139.1111606198
 21
136.2144838129
  0
LINE
  5
4B7
100
AcDbEntity
  8
RACCORDO
100
AcDbLine
 62
7
  6
CONTINUOUS
 10
138.6572307977
 20
136.6687780971
 11
138.6605394227
 21
136.6653670275
  0
LINE
  5
4B8
100
AcDbEntity
  8
RACCORDO
100
AcDbLine
 62
7
  6
CONTINUOUS
 10
188.2391801475
 20
32.2213213948
 11
188.2310345769
 21
32.2485159125
  0
LWPOLYLINE
  5
4B9
100
AcDbEntity
  8
RACCORDO
100
AcDbPolyline
 62
7
  6
CONTINUOUS
 90
3
 70
0
 10
188.2310345769
 20
32.2485159125
 10
188.2229886053
 20
32.2758407858
 10
188.2209922903
 20
32.2826922427
  0
LINE
  5
4BA
100
AcDbEntity
  8
DRAFT
100
AcDbLine
 62
7
  6
CONTINUOUS
 10
179.1691463576
 20
32.2390865517
 11
179.2046875
 21
31.2213213948
  0
LINE
  5
4BB
100
AcDbEntity
  8
RACCORDO
100
AcDbLine
 62
7
  6
CONTINUOUS
 10
179.6453402792
 20
32.4713213948
 11
179.6044774399
 21
35.8146594385
  0
LINE
  5
4BC
100
AcDbEntity
  8
RACCORDO
100
AcDbLine
 62
7
  6
CONTINUOUS
 10
179.0488526496
 20
153.0073359855
 11
179.0492130723
 21
152.7713213948
  0
LINE
  5
4BD
100
AcDbEntity
  8
IMPORT_IGES
100
AcDbLine
 62
7
  6
CONTINUOUS
 10
175.2946875
 20
84.2791367674
 11
175.2946875
 21
88.1213213948
  0
LINE
  5
4BE
100
AcDbEntity
  8
DRAFT
100
AcDbLine
 62
7
  6
CONTINUOUS
 10
175.5046875
 20
85.1213213948
 11
175.5046875
 21
90.1213213948
  0
LINE
  5
4BF
100
AcDbEntity
  8
RACCORDO
100
AcDbLine
 62
253
  6
CONTINUOUS
 10
176.1800600981
 20
85.1213213948
 11
176.1800600981
 21
90.1213213948
  0
LINE
  5
4C0
100
AcDbEntity
  8
RACCORDO
100
AcDbLine
 62
253
  6
CONTINUOUS
 10
176.2046875
 20
54.8213213948
 11
176.2046875
 21
55.1459487968
  0
LINE
  5
4C1
100
AcDbEntity
  8
RACCORDO
100
AcDbLine
 62
253
  6
CONTINUOUS
 10
176.2046875
 20
60.0966939929
 11
176.2046875
 21
60.4213213948
  0
LINE
  5
4C2
100
AcDbEntity
  8
RACCORDO
100
AcDbLine
 62
253
  6
CONTINUOUS
 10
176.2046875
 20
124.8213213948
 11
176.2046875
 21
125.1459487968
  0
LINE
  5
4C3
100
AcDbEntity
  8
RACCORDO
100
AcDbLine
 62
253
  6
CONTINUOUS
 10
176.2046875
 20
130.0966939929
 11
176.2046875
 21
130.4213213948
  0
LINE
  5
4C4
100
AcDbEntity
  8
RACCORDO
100
AcDbLine
 62
253
  6
CONTINUOUS
 10
176.4798773462
 20
85.1213213948
 11
176.4798773462
 21
90.1213213948
  0
LINE
  5
4C5
100
AcDbEntity
  8
DRAFT
100
AcDbLine
 62
7
  6
CONTINUOUS
 10
176.5046875
 20
90.1213213948
 11
176.5046875
 21
85.1213213948
  0
LINE
  5
4C6
100
AcDbEntity
  8
DRAFT
100
AcDbLine
 62
7
  6
CONTINUOUS
 10
179.2046875
 20
32.2213213948
 11
179.2046875
 21
31.2213213948
  0
LINE
  5
4C7
100
AcDbEntity
  8
RACCORDO
100
AcDbLine
 62
7
  6
CONTINUOUS
 10
178.3605223504
 20
153.0073359855
 11
178.3601619277
 21
152.7713213948
  0
LINE
  5
4C8
100
AcDbEntity
  8
DRAFT
100
AcDbLine
 62
7
  6
CONTINUOUS
 10
178.6968465545
 20
32.2876766264
 11
178.6978203051
 21
32.4958733168
  0
LINE
  5
4C9
100
AcDbEntity
  8
RACCORDO
100
AcDbLine
 62
7
  6
CONTINUOUS
 10
178.7651578088
 20
32.5632108204
 11
178.8048975601
 21
35.8146594385
  0
LWPOLYLINE
  5
4CA
100
AcDbEntity
  8
RACCORDO
100
AcDbPolyline
 62
7
  6
CONTINUOUS
 90
9
 70
0
 10
204.019307301
 20
133.0628117302
 10
204.0116245322
 20
133.0485428934
 10
204.0037609288
 20
133.0330775808
 10
203.9957441651
 20
133.0165969476
 10
203.9875465667
 20
132.9991934058
 10
203.9795317802
 20
132.9810200838
 10
203.9718210211
 20
132.9622392535
 10
203.9642930739
 20
132.9430207141
 10
203.9569479386
 20
132.9235425656
  0
LWPOLYLINE
  5
4CB
100
AcDbEntity
  8
RACCORDO
100
AcDbPolyline
 62
7
  6
CONTINUOUS
 90
4
 70
0
 10
204.0433166521
 20
133.1050166045
 10
204.0382927949
 20
133.0967622066
 10
204.0326414323
 20
133.0869666698
 10
204.019307301
 20
133.0628117302
  0
LINE
  5
4CC
100
AcDbEntity
  8
RACCORDO
100
AcDbLine
 62
7
  6
CONTINUOUS
 10
185.4612208714
 20
87.1401868701
 11
185.5348672403
 21
87.2138332389
  0
LINE
  5
4CD
100
AcDbEntity
  8
RACCORDO
100
AcDbLine
 62
7
  6
CONTINUOUS
 10
184.3046875
 20
84.6213213948
 11
184.4481541286
 21
84.7647880234
  0
LINE
  5
4CE
100
AcDbEntity
  8
RACCORDO
100
AcDbLine
 62
7
  6
CONTINUOUS
 10
132.3046875
 20
32.3819079922
 11
132.2068782098
 21
32.284098702
  0
LINE
  5
4CF
100
AcDbEntity
  8
DRAFT
100
AcDbLine
 62
7
  6
CONTINUOUS
 10
176.2046875
 20
124.8213213948
 11
171.2046875
 21
124.8213213948
  0
LINE
  5
4D0
100
AcDbEntity
  8
DRAFT
100
AcDbLine
 62
7
  6
CONTINUOUS
 10
116.2046875
 20
124.8213213948
 11
111.2046875
 21
124.8213213948
  0
LINE
  5
4D1
100
AcDbEntity
  8
RACCORDO
100
AcDbLine
 62
253
  6
CONTINUOUS
 10
111.2046875
 20
124.8461315486
 11
116.2046875
 21
124.8461315486
  0
LINE
  5
4D2
100
AcDbEntity
  8
RACCORDO
100
AcDbLine
 62
253
  6
CONTINUOUS
 10
171.2046875
 20
124.8461315486
 11
176.2046875
 21
124.8461315486
  0
LINE
  5
4D3
100
AcDbEntity
  8
RACCORDO
100
AcDbLine
 62
253
  6
CONTINUOUS
 10
111.2046875
 20
125.1459487968
 11
116.2046875
 21
125.1459487968
  0
LINE
  5
4D4
100
AcDbEntity
  8
RACCORDO
100
AcDbLine
 62
253
  6
CONTINUOUS
 10
171.2046875
 20
125.1459487968
 11
176.2046875
 21
125.1459487968
  0
LINE
  5
4D5
100
AcDbEntity
  8
DRAFT
100
AcDbLine
 62
7
  6
CONTINUOUS
 10
111.2046875
 20
125.8213213948
 11
116.2046875
 21
125.8213213948
  0
LINE
  5
4D6
100
AcDbEntity
  8
DRAFT
100
AcDbLine
 62
7
  6
CONTINUOUS
 10
171.2046875
 20
125.8213213948
 11
176.2046875
 21
125.8213213948
  0
LINE
  5
4D7
100
AcDbEntity
  8
RACCORDO
100
AcDbLine
 62
7
  6
CONTINUOUS
 10
141.7046875
 20
137.6213213948
 11
141.6746283312
 21
137.6513805636
  0
LINE
  5
4D8
100
AcDbEntity
  8
RACCORDO
100
AcDbLine
 62
7
  6
CONTINUOUS
 10
145.7046875
 20
136.8213213948
 11
145.7347466688
 21
136.791262226
  0
LINE
  5
4D9
100
AcDbEntity
  8
RACCORDO
100
AcDbLine
 62
7
  6
CONTINUOUS
 10
148.7046875
 20
137.6213213948
 11
148.6746283312
 21
137.6513805636
  0
LWPOLYLINE
  5
4DA
100
AcDbEntity
  8
RACCORDO
100
AcDbPolyline
 62
7
  6
CONTINUOUS
 90
3
 70
0
 10
204.032647551
 20
52.1556663625
 10
204.0382965166
 20
52.145875417
 10
204.0433166521
 20
52.1376261851
  0
LINE
  5
4DB
100
AcDbEntity
  8
DRAFT
100
AcDbLine
 62
7
  6
CONTINUOUS
 10
184.3919628246
 20
88.1213213948
 11
184.4183845041
 21
88.0684619307
  0
LINE
  5
4DC
100
AcDbEntity
  8
DRAFT
100
AcDbLine
 62
7
  6
CONTINUOUS
 10
182.7046875
 20
85.1213213948
 11
182.7046875
 21
90.1213213948
  0
LINE
  5
4DD
100
AcDbEntity
  8
RACCORDO
100
AcDbLine
 62
253
  6
CONTINUOUS
 10
182.7294976538
 20
90.1213213948
 11
182.7294976538
 21
85.1213213948
  0
LINE
  5
4DE
100
AcDbEntity
  8
RACCORDO
100
AcDbLine
 62
253
  6
CONTINUOUS
 10
183.0293149019
 20
90.1213213948
 11
183.0293149019
 21
85.1213213948
  0
LINE
  5
4DF
100
AcDbEntity
  8
DRAFT
100
AcDbLine
 62
7
  6
CONTINUOUS
 10
183.7046875
 20
90.1213213948
 11
183.7046875
 21
85.1213213948
  0
LINE
  5
4E0
100
AcDbEntity
  8
RACCORDO
100
AcDbLine
 62
7
  6
CONTINUOUS
 10
184.3046875
 20
84.6213213948
 11
184.3046875
 21
83.7807125357
  0
LINE
  5
4E1
100
AcDbEntity
  8
DRAFT
100
AcDbLine
 62
7
  6
CONTINUOUS
 10
184.3919628246
 20
91.5352048982
 11
184.3919628246
 21
88.1213213948
  0
LINE
  5
4E2
100
AcDbEntity
  8
DRAFT
100
AcDbLine
 62
7
  6
CONTINUOUS
 10
184.4183845041
 20
88.0684619307
 11
184.4183845041
 21
87.1699564945
  0
LINE
  5
4E3
100
AcDbEntity
  8
RACCORDO
100
AcDbLine
 62
7
  6
CONTINUOUS
 10
184.4670196038
 20
85.8646204881
 11
184.4670196038
 21
86.0403544054
  0
LINE
  5
4E4
100
AcDbEntity
  8
RACCORDO
100
AcDbLine
 62
253
  6
CONTINUOUS
 10
184.517730682
 20
83.6161428807
 11
184.517730682
 21
91.626499909
  0
LINE
  5
4E5
100
AcDbEntity
  8
RACCORDO
100
AcDbLine
 62
253
  6
CONTINUOUS
 10
184.7431800327
 20
152.9899936678
 11
184.7431800327
 21
152.7713213948
  0
LINE
  5
4E6
100
AcDbEntity
  8
RACCORDO
100
AcDbLine
 62
253
  6
CONTINUOUS
 10
184.8176849905
 20
83.4582482867
 11
184.8176849905
 21
91.784394503
  0
LINE
  5
4E7
100
AcDbEntity
  8
RACCORDO
100
AcDbLine
 62
253
  6
CONTINUOUS
 10
185.0431343413
 20
152.9951387974
 11
185.0431343413
 21
152.7713213948
  0
LINE
  5
4E8
100
AcDbEntity
  8
RACCORDO
100
AcDbLine
 62
253
  6
CONTINUOUS
 10
185.0916900095
 20
83.3694321533
 11
185.0916900095
 21
91.8732106364
  0
LINE
  5
4E9
100
AcDbEntity
  8
RACCORDO
100
AcDbLine
 62
253
  6
CONTINUOUS
 10
185.3662406587
 20
152.7713213948
 11
185.3662406587
 21
152.9951387974
  0
LINE
  5
4EA
100
AcDbEntity
  8
RACCORDO
100
AcDbLine
 62
253
  6
CONTINUOUS
 10
185.391644318
 20
83.3251344916
 11
185.391644318
 21
91.917508298
  0
LINE
  5
4EB
100
AcDbEntity
  8
RACCORDO
100
AcDbLine
 62
7
  6
CONTINUOUS
 10
185.4423553962
 20
85.8646204881
 11
185.4423553962
 21
86.0403544054
  0
LINE
  5
4EC
100
AcDbEntity
  8
DRAFT
100
AcDbLine
 62
7
  6
CONTINUOUS
 10
185.5348672403
 20
87.2138332389
 11
185.5348672403
 21
91.920435346
  0
LINE
  5
4ED
100
AcDbEntity
  8
DRAFT
100
AcDbLine
 62
7
  6
CONTINUOUS
 10
185.6046875
 20
84.6213213948
 11
185.6046875
 21
83.3242573007
  0
LINE
  5
4EE
100
AcDbEntity
  8
RACCORDO
100
AcDbLine
 62
253
  6
CONTINUOUS
 10
185.6661949673
 20
152.7713213948
 11
185.6661949673
 21
152.9899936678
  0
LINE
  5
4EF
100
AcDbEntity
  8
RACCORDO
100
AcDbLine
 62
7
  6
CONTINUOUS
 10
185.7046768514
 20
152.9515117691
 11
185.7045448877
 21
152.7713213948
  0
LINE
  5
4F0
100
AcDbEntity
  8
DRAFT
100
AcDbLine
 62
7
  6
CONTINUOUS
 10
108.2046875
 20
32.2213213948
 11
108.2402286424
 21
32.2390865517
  0
LWPOLYLINE
  5
4F1
100
AcDbEntity
  8
RACCORDO
100
AcDbPolyline
 62
7
  6
CONTINUOUS
 90
10
 70
0
 10
98.4024663292
 20
32.3690609562
 10
98.3829802034
 20
32.3617125422
 10
98.3637551168
 20
32.3541817976
 10
98.3449693038
 20
32.3464687223
 10
98.3267924745
 20
32.3384519683
 10
98.3093870472
 20
32.3302528837
 10
98.2929064698
 20
32.3222355124
 10
98.2774429915
 20
32.3143724288
 10
98.263177389
 20
32.3066910586
 10
98.2390319976
 20
32.293361195
  0
LINE
  5
4F2
100
AcDbEntity
  8
DRAFT
100
AcDbLine
 62
7
  6
CONTINUOUS
 10
176.2046875
 20
129.4213213948
 11
171.2046875
 21
129.4213213948
  0
LINE
  5
4F3
100
AcDbEntity
  8
DRAFT
100
AcDbLine
 62
7
  6
CONTINUOUS
 10
116.2046875
 20
129.4213213948
 11
111.2046875
 21
129.4213213948
  0
LINE
  5
4F4
100
AcDbEntity
  8
RACCORDO
100
AcDbLine
 62
253
  6
CONTINUOUS
 10
176.2046875
 20
130.0966939929
 11
171.2046875
 21
130.0966939929
  0
LINE
  5
4F5
100
AcDbEntity
  8
RACCORDO
100
AcDbLine
 62
253
  6
CONTINUOUS
 10
116.2046875
 20
130.0966939929
 11
111.2046875
 21
130.0966939929
  0
LINE
  5
4F6
100
AcDbEntity
  8
RACCORDO
100
AcDbLine
 62
253
  6
CONTINUOUS
 10
176.2046875
 20
130.396511241
 11
171.2046875
 21
130.396511241
  0
LINE
  5
4F7
100
AcDbEntity
  8
RACCORDO
100
AcDbLine
 62
253
  6
CONTINUOUS
 10
116.2046875
 20
130.396511241
 11
111.2046875
 21
130.396511241
  0
LINE
  5
4F8
100
AcDbEntity
  8
DRAFT
100
AcDbLine
 62
7
  6
CONTINUOUS
 10
111.2046875
 20
130.4213213948
 11
116.2046875
 21
130.4213213948
  0
LINE
  5
4F9
100
AcDbEntity
  8
DRAFT
100
AcDbLine
 62
7
  6
CONTINUOUS
 10
171.2046875
 20
130.4213213948
 11
176.2046875
 21
130.4213213948
  0
LINE
  5
4FA
100
AcDbEntity
  8
RACCORDO
100
AcDbLine
 62
7
  6
CONTINUOUS
 10
203.9441009027
 20
132.0213213948
 11
203.8546875
 21
132.0213213948
  0
LINE
  5
4FB
100
AcDbEntity
  8
RACCORDO
100
AcDbLine
 62
7
  6
CONTINUOUS
 10
83.5546875
 20
132.0213213948
 11
83.4652740973
 21
132.0213213948
  0
LINE
  5
4FC
100
AcDbEntity
  8
RACCORDO
100
AcDbLine
 62
253
  6
CONTINUOUS
 10
204.0419101928
 20
132.119130685
 11
203.8546875
 21
132.119130685
  0
LINE
  5
4FD
100
AcDbEntity
  8
RACCORDO
100
AcDbLine
 62
253
  6
CONTINUOUS
 10
83.5546875
 20
132.119130685
 11
83.3674648072
 21
132.119130685
  0
LINE
  5
4FE
100
AcDbEntity
  8
RACCORDO
100
AcDbLine
 62
253
  6
CONTINUOUS
 10
203.9569479386
 20
132.319100224
 11
203.8546875
 21
132.319100224
  0
LINE
  5
4FF
100
AcDbEntity
  8
RACCORDO
100
AcDbLine
 62
253
  6
CONTINUOUS
 10
83.5546875
 20
132.319100224
 11
83.4524270614
 21
132.319100224
  0
LINE
  5
500
100
AcDbEntity
  8
RACCORDO
100
AcDbLine
 62
253
  6
CONTINUOUS
 10
83.4524270614
 20
132.9235425656
 11
83.5546875
 21
132.9235425656
  0
LINE
  5
501
100
AcDbEntity
  8
RACCORDO
100
AcDbLine
 62
253
  6
CONTINUOUS
 10
203.8546875
 20
132.9235425656
 11
203.9569479386
 21
132.9235425656
  0
LINE
  5
502
100
AcDbEntity
  8
RACCORDO
100
AcDbLine
 62
253
  6
CONTINUOUS
 10
83.3674648072
 20
133.1235121046
 11
83.5546875
 21
133.1235121046
  0
LINE
  5
503
100
AcDbEntity
  8
RACCORDO
100
AcDbLine
 62
253
  6
CONTINUOUS
 10
203.8546875
 20
133.1235121046
 11
204.0419101928
 21
133.1235121046
  0
LINE
  5
504
100
AcDbEntity
  8
RACCORDO
100
AcDbLine
 62
7
  6
CONTINUOUS
 10
203.9441009027
 20
133.2213213948
 11
203.8546875
 21
133.2213213948
  0
LINE
  5
505
100
AcDbEntity
  8
RACCORDO
100
AcDbLine
 62
7
  6
CONTINUOUS
 10
83.5546875
 20
133.2213213948
 11
83.4652740973
 21
133.2213213948
  0
LINE
  5
506
100
AcDbEntity
  8
RACCORDO
100
AcDbLine
 62
7
  6
CONTINUOUS
 10
137.6661949673
 20
152.9899936678
 11
137.6872244596
 21
152.9689641755
  0
LINE
  5
507
100
AcDbEntity
  8
DRAFT
100
AcDbLine
 62
7
  6
CONTINUOUS
 10
186.1046875
 20
84.6213213948
 11
186.1046875
 21
91.817944865
  0
LINE
  5
508
100
AcDbEntity
  8
DRAFT
100
AcDbLine
 62
7
  6
CONTINUOUS
 10
186.2046875
 20
152.8607347975
 11
186.2046875
 21
152.7713213948
  0
LINE
  5
509
100
AcDbEntity
  8
DRAFT
100
AcDbLine
 62
7
  6
CONTINUOUS
 10
187.3046875
 20
85.1213213948
 11
187.3046875
 21
90.1213213948
  0
LINE
  5
50A
100
AcDbEntity
  8
RACCORDO
100
AcDbLine
 62
253
  6
CONTINUOUS
 10
187.9800600981
 20
85.1213213948
 11
187.9800600981
 21
90.1213213948
  0
LINE
  5
50B
100
AcDbEntity
  8
RACCORDO
100
AcDbLine
 62
7
  6
CONTINUOUS
 10
188.1046875
 20
32.3819079922
 11
188.1046875
 21
32.4713213948
  0
LINE
  5
50C
100
AcDbEntity
  8
RACCORDO
100
AcDbLine
 62
253
  6
CONTINUOUS
 10
188.2024967902
 20
32.284098702
 11
188.2024967902
 21
32.4713213948
  0
LINE
  5
50D
100
AcDbEntity
  8
RACCORDO
100
AcDbLine
 62
253
  6
CONTINUOUS
 10
188.2798773462
 20
85.1213213948
 11
188.2798773462
 21
90.1213213948
  0
LINE
  5
50E
100
AcDbEntity
  8
DRAFT
100
AcDbLine
 62
7
  6
CONTINUOUS
 10
188.3046875
 20
90.1213213948
 11
188.3046875
 21
85.1213213948
  0
LINE
  5
50F
100
AcDbEntity
  8
RACCORDO
100
AcDbLine
 62
253
  6
CONTINUOUS
 10
188.4024663292
 20
32.3690609562
 11
188.4024663292
 21
32.4713213948
  0
LINE
  5
510
100
AcDbEntity
  8
RACCORDO
100
AcDbLine
 62
253
  6
CONTINUOUS
 10
189.0069086708
 20
32.4713213948
 11
189.0069086708
 21
32.3690609562
  0
LINE
  5
511
100
AcDbEntity
  8
RACCORDO
100
AcDbLine
 62
253
  6
CONTINUOUS
 10
189.2068782098
 20
32.4713213948
 11
189.2068782098
 21
32.284098702
  0
LINE
  5
512
100
AcDbEntity
  8
DRAFT
100
AcDbLine
 62
7
  6
CONTINUOUS
 10
189.3046875
 20
32.3819079922
 11
189.3046875
 21
32.4713213948
  0
LINE
  5
513
100
AcDbEntity
  8
RACCORDO
100
AcDbLine
 62
7
  6
CONTINUOUS
 10
203.9441009027
 20
92.0213213948
 11
204.0419101928
 21
92.119130685
  0
LINE
  5
514
100
AcDbEntity
  8
RACCORDO
100
AcDbLine
 62
253
  6
CONTINUOUS
 10
147.5048584828
 20
34.7212639204
 11
147.6497929962
 21
34.8661984337
  0
LINE
  5
515
100
AcDbEntity
  8
RACCORDO
100
AcDbLine
 62
7
  6
CONTINUOUS
 10
149.2046875
 20
34.9213213948
 11
149.2533610293
 21
34.9699949241
  0
LINE
  5
516
100
AcDbEntity
  8
RACCORDO
100
AcDbLine
 62
253
  6
CONTINUOUS
 10
149.0046875
 20
33.2215498521
 11
149.1495645389
 21
33.366426891
  0
LINE
  5
517
100
AcDbEntity
  8
DRAFT
100
AcDbLine
 62
7
  6
CONTINUOUS
 10
149.0046875
 20
32.2213213948
 11
149.1495645389
 21
32.3661984337
  0
LINE
  5
518
100
AcDbEntity
  8
DRAFT
100
AcDbLine
 62
7
  6
CONTINUOUS
 10
150.5046875
 20
32.3819079922
 11
150.4889779416
 21
32.3661984337
  0
LINE
  5
519
100
AcDbEntity
  8
RACCORDO
100
AcDbLine
 62
253
  6
CONTINUOUS
 10
148.2540468532
 20
136.1706807481
 11
139.1553281468
 21
136.1706807481
  0
LINE
  5
51A
100
AcDbEntity
  8
RACCORDO
100
AcDbLine
 62
253
  6
CONTINUOUS
 10
148.7521442023
 20
136.6687780971
 11
138.6572307977
 21
136.6687780971
  0
LINE
  5
51B
100
AcDbEntity
  8
RACCORDO
100
AcDbLine
 62
7
  6
CONTINUOUS
 10
148.1765309822
 20
136.751330464
 11
146.2328440178
 21
136.751330464
  0
LINE
  5
51C
100
AcDbEntity
  8
RACCORDO
100
AcDbLine
 62
7
  6
CONTINUOUS
 10
141.1765309822
 20
136.751330464
 11
139.2328440178
 21
136.751330464
  0
LINE
  5
51D
100
AcDbEntity
  8
DRAFT
100
AcDbLine
 62
7
  6
CONTINUOUS
 10
148.9046875
 20
136.8213213948
 11
148.7046875
 21
136.8213213948
  0
LINE
  5
51E
100
AcDbEntity
  8
DRAFT
100
AcDbLine
 62
7
  6
CONTINUOUS
 10
145.7046875
 20
136.8213213948
 11
141.7046875
 21
136.8213213948
  0
LINE
  5
51F
100
AcDbEntity
  8
DRAFT
100
AcDbLine
 62
7
  6
CONTINUOUS
 10
138.7046875
 20
136.8213213948
 11
138.5046875
 21
136.8213213948
  0
LINE
  5
520
100
AcDbEntity
  8
DRAFT
100
AcDbLine
 62
7
  6
CONTINUOUS
 10
137.7046875
 20
137.6213213948
 11
138.7046875
 21
137.6213213948
  0
LINE
  5
521
100
AcDbEntity
  8
DRAFT
100
AcDbLine
 62
7
  6
CONTINUOUS
 10
141.7046875
 20
137.6213213948
 11
145.7046875
 21
137.6213213948
  0
LINE
  5
522
100
AcDbEntity
  8
DRAFT
100
AcDbLine
 62
7
  6
CONTINUOUS
 10
148.7046875
 20
137.6213213948
 11
149.7046875
 21
137.6213213948
  0
LINE
  5
523
100
AcDbEntity
  8
RACCORDO
100
AcDbLine
 62
7
  6
CONTINUOUS
 10
148.1765309822
 20
137.6913123256
 11
146.2328440178
 21
137.6913123256
  0
LINE
  5
524
100
AcDbEntity
  8
RACCORDO
100
AcDbLine
 62
7
  6
CONTINUOUS
 10
141.1765309822
 20
137.6913123256
 11
139.2328440178
 21
137.6913123256
  0
LINE
  5
525
100
AcDbEntity
  8
DRAFT
100
AcDbLine
 62
7
  6
CONTINUOUS
 10
137.5122124402
 20
137.8137964546
 11
149.8971625598
 21
137.8137964546
  0
LINE
  5
526
100
AcDbEntity
  8
DRAFT
100
AcDbLine
 62
7
  6
CONTINUOUS
 10
144.0872244596
 20
152.9689641755
 11
144.0488526496
 21
153.0073359855
  0
LINE
  5
527
100
AcDbEntity
  8
RACCORDO
100
AcDbLine
 62
7
  6
CONTINUOUS
 10
203.9441009027
 20
93.2213213948
 11
204.0419101928
 21
93.1235121046
  0
LINE
  5
528
100
AcDbEntity
  8
RACCORDO
100
AcDbLine
 62
7
  6
CONTINUOUS
 10
150.6661949673
 20
152.9899936678
 11
150.7046289212
 21
152.9515117691
  0
LWPOLYLINE
  5
529
100
AcDbEntity
  8
RACCORDO
100
AcDbPolyline
 62
7
  6
CONTINUOUS
 90
10
 70
0
 10
203.9569479386
 20
52.319100224
 10
203.9642471254
 20
52.2997330637
 10
203.9717476675
 20
52.2805782206
 10
203.9794495649
 20
52.2618138704
 10
203.9874831752
 20
52.2435919513
 10
203.9957181408
 20
52.2261019846
 10
204.0037633889
 20
52.2095603008
 10
204.0116349328
 20
52.1940796508
 10
204.0193167591
 20
52.1798133132
 10
204.032647551
 20
52.1556663625
  0
LINE
  5
52A
100
AcDbEntity
  8
RACCORDO
100
AcDbLine
 62
7
  6
CONTINUOUS
 10
156.3046875
 20
32.3819079922
 11
156.2068782098
 21
32.284098702
  0
LWPOLYLINE
  5
52B
100
AcDbEntity
  8
RACCORDO
100
AcDbPolyline
 62
253
  6
CONTINUOUS
 90
25
 70
0
 10
199.7133388684
 20
148.1300489157
 10
199.7121265117
 20
148.1633291613
 10
199.7089021509
 20
148.1959556839
 10
199.7036657859
 20
148.2279284835
 10
199.6963866385
 20
148.2592789226
 10
199.687095487
 20
148.2899756387
 10
199.6758846665
 20
148.3199245443
 10
199.6627195322
 20
148.3492251596
 10
199.6476347288
 20
148.3777779644
 10
199.6308265258
 20
148.4051903111
 10
199.612271048
 20
148.4314378395
 10
199.5919921705
 20
148.4565449098
 10
199.570257788
 20
148.480191955
 10
199.5470936361
 20
148.5023364581
 10
199.5224739792
 20
148.5230209362
 10
199.4965895055
 20
148.5420533735
 10
199.4694800158
 20
148.5594357165
 10
199.4411057092
 20
148.5751660187
 10
199.4115378716
 20
148.5890464251
 10
199.3806444961
 20
148.6011262648
 10
199.3485575895
 20
148.6113562088
 10
199.3157444581
 20
148.6193904148
 10
199.2823608705
 20
148.6251136022
 10
199.2482510581
 20
148.6286410517
 10
199.2134150209
 20
148.6299727633
  0
LWPOLYLINE
  5
52C
100
AcDbEntity
  8
RACCORDO
100
AcDbPolyline
 62
253
  6
CONTINUOUS
 90
25
 70
0
 10
200.213262716
 20
148.1300489157
 10
200.2110641257
 20
148.1961721149
 10
200.2045643053
 20
148.2615068293
 10
200.1938896974
 20
148.3257811957
 10
200.1792324427
 20
148.3885518654
 10
200.1607225359
 20
148.4497715474
 10
200.138307899
 20
148.5097537604
 10
200.1119697133
 20
148.5684462011
 10
200.081874227
 20
148.6253903955
 10
200.0481793767
 20
148.6802730524
 10
200.0110351187
 20
148.7328553391
 10
199.9705891481
 20
148.7829331483
 10
199.927037506
 20
148.8302719453
 10
199.880642009
 20
148.8746146416
 10
199.8315340909
 20
148.9158613491
 10
199.7797045365
 20
148.9539983777
 10
199.7254173181
 20
148.9887899323
 10
199.668807678
 20
149.0201094284
 10
199.609612856
 20
149.0479960679
 10
199.5477957595
 20
149.0722806398
 10
199.4837915482
 20
149.092608489
 10
199.4180459618
 20
149.1087039825
 10
199.3509026991
 20
149.1203789852
 10
199.2825887459
 20
149.1274907202
 10
199.2134150209
 20
149.1298966108
  0
LINE
  5
52D
100
AcDbEntity
  8
RACCORDO
100
AcDbLine
 62
253
  6
CONTINUOUS
 10
199.2134150209
 20
36.6126700264
 11
199.2134150209
 21
36.1127461788
  0
LINE
  5
52E
100
AcDbEntity
  8
RACCORDO
100
AcDbLine
 62
253
  6
CONTINUOUS
 10
199.2134150209
 20
148.6299727633
 11
199.2134150209
 21
149.1298966108
  0
LINE
  5
52F
100
AcDbEntity
  8
RACCORDO
100
AcDbLine
 62
253
  6
CONTINUOUS
 10
199.2983661318
 20
36.0277950679
 11
199.298366132
 21
35.8146594387
  0
LINE
  5
530
100
AcDbEntity
  8
RACCORDO
100
AcDbLine
 62
253
  6
CONTINUOUS
 10
199.2983661318
 20
149.2148477217
 11
199.2983661318
 21
149.4279833511
  0
LINE
  5
531
100
AcDbEntity
  8
RACCORDO
100
AcDbLine
 62
253
  6
CONTINUOUS
 10
199.7133388684
 20
37.112593874
 11
199.7133388684
 21
148.1300489157
  0
LINE
  5
532
100
AcDbEntity
  8
RACCORDO
100
AcDbLine
 62
253
  6
CONTINUOUS
 10
200.213262716
 20
37.112593874
 11
200.213262716
 21
148.1300489157
  0
LINE
  5
533
100
AcDbEntity
  8
RACCORDO
100
AcDbLine
 62
253
  6
CONTINUOUS
 10
200.2982138269
 20
148.2150000266
 11
200.2982138269
 21
37.0276427631
  0
LINE
  5
534
100
AcDbEntity
  8
RACCORDO
100
AcDbLine
 62
253
  6
CONTINUOUS
 10
200.5113494563
 20
148.2150000266
 11
200.5113494563
 21
37.0276427631
  0
LWPOLYLINE
  5
535
100
AcDbEntity
  8
RACCORDO
100
AcDbPolyline
 62
253
  6
CONTINUOUS
 90
10
 70
0
 10
200.2982138269
 20
37.0276427631
 10
200.2981466514
 20
37.0160072619
 10
200.2979416249
 20
37.0043771191
 10
200.2975988176
 20
36.9927539072
 10
200.2971183823
 20
36.9811405619
 10
200.2965003931
 20
36.969537287
 10
200.2957446865
 20
36.9579415627
 10
200.294851151
 20
36.9463536038
 10
200.2938198859
 20
36.9347763516
 10
200.2926509286
 20
36.9232113844
  0
LWPOLYLINE
  5
536
100
AcDbEntity
  8
RACCORDO
100
AcDbPolyline
 62
253
  6
CONTINUOUS
 90
10
 70
0
 10
200.5113494563
 20
37.0276427631
 10
200.5112464592
 20
37.0101875959
 10
200.5109382282
 20
36.9927438943
 10
200.5104247633
 20
36.9753116582
 10
200.5097060923
 20
36.9578905739
 10
200.5087821875
 20
36.9404809551
 10
200.5076529653
 20
36.9230837434
 10
200.506318398
 20
36.9056992527
 10
200.5047785133
 20
36.8883271691
 10
200.5030333113
 20
36.8709674926
  0
LWPOLYLINE
  5
537
100
AcDbEntity
  8
RACCORDO
100
AcDbPolyline
 62
253
  6
CONTINUOUS
 90
28
 70
0
 10
200.5030333113
 20
36.8709674926
 10
200.4996155146
 20
36.8064280884
 10
200.4930001497
 20
36.7435695336
 10
200.4832454996
 20
36.6824850924
 10
200.4704040717
 20
36.6235002556
 10
200.4545575434
 20
36.5664699249
 10
200.4357734955
 20
36.5107788446
 10
200.4140426946
 20
36.4562428356
 10
200.3894319432
 20
36.403225012
 10
200.3620994021
 20
36.3519284924
 10
200.3321318744
 20
36.3024783328
 10
200.2995534836
 20
36.2549182317
 10
200.2644426058
 20
36.209323255
 10
200.2268425248
 20
36.1657402541
 10
200.18683665
 20
36.1242859321
 10
200.1445736487
 20
36.0851326837
 10
200.1003241038
 20
36.0484556453
 10
200.0539759577
 20
36.0142137839
 10
200.0050972438
 20
35.9822749768
 10
199.9537007506
 20
35.9526136245
 10
199.8999126241
 20
35.9254487112
 10
199.8434654135
 20
35.9010561021
 10
199.7842798062
 20
35.87945184
 10
199.722611786
 20
35.8608417866
 10
199.6587214455
 20
35.8457735851
 10
199.5927781799
 20
35.8344679389
 10
199.5248454744
 20
35.8268462212
 10
199.4550414022
 20
35.8229755835
  0
LINE
  5
538
100
AcDbEntity
  8
RACCORDO
100
AcDbLine
 62
7
  6
CONTINUOUS
 10
204.1046875
 20
52.1558140423
 11
204.0774929823
 21
52.1476684717
  0
LWPOLYLINE
  5
539
100
AcDbEntity
  8
RACCORDO
100
AcDbPolyline
 62
7
  6
CONTINUOUS
 90
3
 70
0
 10
204.0774929823
 20
52.1476684717
 10
204.0501681091
 20
52.1396225001
 10
204.0433166521
 20
52.1376261851
  0
LINE
  5
53A
100
AcDbEntity
  8
DRAFT
100
AcDbLine
 62
7
  6
CONTINUOUS
 10
171.704698134
 20
152.9515117691
 11
171.2046875
 21
152.8607347975
  0
LWPOLYLINE
  5
53B
100
AcDbEntity
  8
RACCORDO
100
AcDbPolyline
 62
253
  6
CONTINUOUS
 90
25
 70
0
 10
88.1959599791
 20
148.6299727633
 10
88.1626797335
 20
148.6287604065
 10
88.1300532109
 20
148.6255360457
 10
88.0980804113
 20
148.6202996808
 10
88.0667299722
 20
148.6130205333
 10
88.0360332561
 20
148.6037293818
 10
88.0060843505
 20
148.5925185613
 10
87.9767837352
 20
148.579353427
 10
87.9482309304
 20
148.5642686236
 10
87.9208185837
 20
148.5474604206
 10
87.8945710553
 20
148.5289049428
 10
87.869463985
 20
148.5086260653
 10
87.8458169398
 20
148.4868916828
 10
87.8236724367
 20
148.4637275309
 10
87.8029879586
 20
148.4391078741
 10
87.7839555213
 20
148.4132234004
 10
87.7665731783
 20
148.3861139106
 10
87.7508428761
 20
148.357739604
 10
87.7369624697
 20
148.3281717664
 10
87.72488263
 20
148.2972783909
 10
87.7146526861
 20
148.2651914843
 10
87.70661848
 20
148.2323783529
 10
87.7008952926
 20
148.1989947654
 10
87.6973678431
 20
148.1648849529
 10
87.6960361316
 20
148.1300489157
  0
LWPOLYLINE
  5
53C
100
AcDbEntity
  8
RACCORDO
100
AcDbPolyline
 62
253
  6
CONTINUOUS
 90
25
 70
0
 10
88.1959599791
 20
149.1298966108
 10
88.1298367799
 20
149.1276980205
 10
88.0645020655
 20
149.1211982001
 10
88.0002276991
 20
149.1105235922
 10
87.9374570294
 20
149.0958663375
 10
87.8762373474
 20
149.0773564307
 10
87.8162551344
 20
149.0549417938
 10
87.7575626937
 20
149.0286036081
 10
87.7006184993
 20
148.9985081218
 10
87.6457358424
 20
148.9648132715
 10
87.5931535557
 20
148.9276690135
 10
87.5430757465
 20
148.8872230429
 10
87.4957369496
 20
148.8436714009
 10
87.4513942532
 20
148.7972759038
 10
87.4101475457
 20
148.7481679857
 10
87.3720105171
 20
148.6963384313
 10
87.3372189625
 20
148.6420512129
 10
87.3058994664
 20
148.5854415728
 10
87.2780128269
 20
148.5262467508
 10
87.253728255
 20
148.4644296543
 10
87.2334004058
 20
148.400425443
 10
87.2173049123
 20
148.3346798566
 10
87.2056299096
 20
148.2675365939
 10
87.1985181746
 20
148.1992226407
 10
87.196112284
 20
148.1300489157
  0
LINE
  5
53D
100
AcDbEntity
  8
RACCORDO
100
AcDbLine
 62
253
  6
CONTINUOUS
 10
87.6960361316
 20
148.1300489157
 11
87.196112284
 21
148.1300489157
  0
LINE
  5
53E
100
AcDbEntity
  8
RACCORDO
100
AcDbLine
 62
253
  6
CONTINUOUS
 10
199.7133388684
 20
148.1300489157
 11
200.213262716
 21
148.1300489157
  0
LINE
  5
53F
100
AcDbEntity
  8
RACCORDO
100
AcDbLine
 62
253
  6
CONTINUOUS
 10
87.1111611731
 20
148.2150000266
 11
86.8980255437
 21
148.2150000266
  0
LINE
  5
540
100
AcDbEntity
  8
RACCORDO
100
AcDbLine
 62
253
  6
CONTINUOUS
 10
200.2982138269
 20
148.2150000266
 11
200.5113494563
 21
148.2150000266
  0
LINE
  5
541
100
AcDbEntity
  8
RACCORDO
100
AcDbLine
 62
253
  6
CONTINUOUS
 10
199.2134150209
 20
148.6299727633
 11
88.1959599791
 21
148.6299727633
  0
LINE
  5
542
100
AcDbEntity
  8
RACCORDO
100
AcDbLine
 62
253
  6
CONTINUOUS
 10
199.2134150209
 20
149.1298966108
 11
88.1959599791
 21
149.1298966108
  0
LINE
  5
543
100
AcDbEntity
  8
RACCORDO
100
AcDbLine
 62
253
  6
CONTINUOUS
 10
88.1110088682
 20
149.2148477217
 11
199.2983661318
 21
149.2148477217
  0
LINE
  5
544
100
AcDbEntity
  8
RACCORDO
100
AcDbLine
 62
253
  6
CONTINUOUS
 10
88.1110088682
 20
149.4279833511
 11
199.2983661318
 21
149.4279833511
  0
LWPOLYLINE
  5
545
100
AcDbEntity
  8
RACCORDO
100
AcDbPolyline
 62
253
  6
CONTINUOUS
 90
10
 70
0
 10
199.2983661318
 20
149.2148477217
 10
199.3100016329
 20
149.2147805463
 10
199.3216317758
 20
149.2145755197
 10
199.3332549876
 20
149.2142327124
 10
199.3448683329
 20
149.2137522771
 10
199.3564716078
 20
149.2131342879
 10
199.3680673322
 20
149.2123785813
 10
199.379655291
 20
149.2114850459
 10
199.3912325432
 20
149.2104537808
 10
199.4027975104
 20
149.2092848234
  0
LWPOLYLINE
  5
546
100
AcDbEntity
  8
RACCORDO
100
AcDbPolyline
 62
253
  6
CONTINUOUS
 90
10
 70
0
 10
199.2983661318
 20
149.4279833511
 10
199.3158212989
 20
149.427880354
 10
199.3332650005
 20
149.427572123
 10
199.3506972366
 20
149.4270586581
 10
199.3681183209
 20
149.4263399872
 10
199.3855279397
 20
149.4254160823
 10
199.4029251514
 20
149.4242868601
 10
199.4203096421
 20
149.4229522928
 10
199.4376817257
 20
149.4214124081
 10
199.4550414022
 20
149.4196672061
  0
LWPOLYLINE
  5
547
100
AcDbEntity
  8
RACCORDO
100
AcDbPolyline
 62
253
  6
CONTINUOUS
 90
28
 70
0
 10
199.4550414022
 20
149.4196672061
 10
199.5195808062
 20
149.4162494095
 10
199.5824393616
 20
149.4096340446
 10
199.6435238041
 20
149.3998793941
 10
199.7025086431
 20
149.3870379655
 10
199.7595389768
 20
149.3711914361
 10
199.81523006
 20
149.3524073867
 10
199.8697660717
 20
149.330676584
 10
199.9227838978
 20
149.3060658306
 10
199.9740804197
 20
149.2787332871
 10
200.0235305814
 20
149.2487657567
 10
200.0710906843
 20
149.216187363
 10
200.1166856625
 20
149.1810764821
 10
200.1602686647
 20
149.1434763978
 10
200.2017229875
 20
149.1034705195
 10
200.2408762366
 20
149.0612075143
 10
200.2775532759
 20
149.0169579647
 10
200.3117951379
 20
148.9706098135
 10
200.3437339446
 20
148.9217310955
 10
200.3733952951
 20
148.8703345996
 10
200.4005602057
 20
148.8165464715
 10
200.4249528115
 20
148.7600992614
 10
200.4465570695
 20
148.7009136571
 10
200.4651671186
 20
148.639245642
 10
200.4802353163
 20
148.5753553085
 10
200.4915409595
 20
148.5094120518
 10
200.4991626749
 20
148.4414793568
 10
200.5030333113
 20
148.371675297
  0
LINE
  5
548
100
AcDbEntity
  8
DRAFT
100
AcDbLine
 62
7
  6
CONTINUOUS
 10
116.2046875
 20
152.8607347975
 11
115.7046289212
 21
152.9515117691
  0
LINE
  5
549
100
AcDbEntity
  8
RACCORDO
100
AcDbLine
 62
7
  6
CONTINUOUS
 10
204.0433166521
 20
133.1050166045
 11
204.0706739023
 21
133.0969949032
  0
LWPOLYLINE
  5
54A
100
AcDbEntity
  8
RACCORDO
100
AcDbPolyline
 62
7
  6
CONTINUOUS
 90
3
 70
0
 10
204.0706739023
 20
133.0969949032
 10
204.0979011361
 20
133.08887461
 10
204.1046875
 20
133.0868287473
  0
LWPOLYLINE
  5
54B
100
AcDbEntity
  8
RACCORDO
100
AcDbPolyline
 62
253
  6
CONTINUOUS
 90
10
 70
0
 10
200.2926509286
 20
148.3194314052
 10
200.2938198859
 20
148.307866438
 10
200.294851151
 20
148.2962891858
 10
200.2957446865
 20
148.284701227
 10
200.2965003931
 20
148.2731055026
 10
200.2971183823
 20
148.2615022277
 10
200.2975988176
 20
148.2498888824
 10
200.2979416249
 20
148.2382656706
 10
200.2981466514
 20
148.2266355277
 10
200.2982138269
 20
148.2150000266
  0
LWPOLYLINE
  5
54C
100
AcDbEntity
  8
RACCORDO
100
AcDbPolyline
 62
253
  6
CONTINUOUS
 90
10
 70
0
 10
200.5030333113
 20
148.371675297
 10
200.5047785133
 20
148.3543156205
 10
200.506318398
 20
148.3369435369
 10
200.5076529653
 20
148.3195590462
 10
200.5087821875
 20
148.3021618345
 10
200.5097060923
 20
148.2847522157
 10
200.5104247633
 20
148.2673311314
 10
200.5109382282
 20
148.2498988953
 10
200.5112464592
 20
148.2324551937
 10
200.5113494563
 20
148.2150000266
  0
LWPOLYLINE
  5
54D
100
AcDbEntity
  8
RACCORDO
100
AcDbPolyline
 62
253
  6
CONTINUOUS
 90
31
 70
0
 10
206.181934989
 20
153.0988734935
 10
206.1794801712
 20
153.1978823548
 10
206.1721017406
 20
153.2969048718
 10
206.1597794973
 20
153.3956942026
 10
206.1425753115
 20
153.4936557852
 10
206.1204587337
 20
153.5908910613
 10
206.0931357746
 20
153.6881591045
 10
206.0602229033
 20
153.7858734625
 10
206.0218024237
 20
153.8829710525
 10
205.9783282836
 20
153.9780071557
 10
205.9300696823
 20
154.070423823
 10
205.8770145359
 20
154.1602720044
 10
205.8194243751
 20
154.2471166644
 10
205.7575757246
 20
154.3306032606
 10
205.6915647311
 20
154.4106599379
 10
205.6213957123
 20
154.4872817494
 10
205.5471060468
 20
154.5603750968
 10
205.4690051058
 20
154.6295855442
 10
205.3875200977
 20
154.694536177
 10
205.3029998533
 20
154.7549926443
 10
205.215581819
 20
154.8108986356
 10
205.125405815
 20
154.8621813982
 10
205.0332263897
 20
154.9084671978
 10
204.9388083141
 20
154.9499277257
 10
204.8406931274
 20
154.9870543306
 10
204.7384838539
 20
155.0196470938
 10
204.6329346322
 20
155.0471152207
 10
204.524247297
 20
155.0691014306
 10
204.4126829403
 20
155.085242662
 10
204.2985646408
 20
155.0951799347
 10
204.1822395987
 20
155.0985688838
  0
LWPOLYLINE
  5
54E
100
AcDbEntity
  8
0
100
AcDbPolyline
 62
253
  6
CONTINUOUS
 90
31
 70
0
 10
206.181934989
 20
153.0988734935
 10
206.1794801712
 20
153.1978823548
 10
206.1721017406
 20
153.2969048718
 10
206.1597794973
 20
153.3956942026
 10
206.1425753115
 20
153.4936557852
 10
206.1204587337
 20
153.5908910613
 10
206.0931357746
 20
153.6881591045
 10
206.0602229033
 20
153.7858734625
 10
206.0218024237
 20
153.8829710525
 10
205.9783282836
 20
153.9780071557
 10
205.9300696823
 20
154.070423823
 10
205.8770145359
 20
154.1602720044
 10
205.8194243751
 20
154.2471166644
 10
205.7575757246
 20
154.3306032606
 10
205.6915647311
 20
154.4106599379
 10
205.6213957123
 20
154.4872817494
 10
205.5471060468
 20
154.5603750968
 10
205.4690051058
 20
154.6295855442
 10
205.3875200977
 20
154.694536177
 10
205.3029998533
 20
154.7549926443
 10
205.215581819
 20
154.8108986356
 10
205.125405815
 20
154.8621813982
 10
205.0332263897
 20
154.9084671978
 10
204.9388083141
 20
154.9499277257
 10
204.8406931274
 20
154.9870543306
 10
204.7384838539
 20
155.0196470938
 10
204.6329346322
 20
155.0471152207
 10
204.524247297
 20
155.0691014306
 10
204.4126829403
 20
155.085242662
 10
204.2985646408
 20
155.0951799347
 10
204.1822395987
 20
155.0985688838
  0
LWPOLYLINE
  5
54F
100
AcDbEntity
  8
RACCORDO
100
AcDbPolyline
 62
253
  6
CONTINUOUS
 90
31
 70
0
 10
205.98196545
 20
153.0988734935
 10
205.9797702834
 20
153.1883579448
 10
205.9731261449
 20
153.2774066667
 10
205.9620330347
 20
153.3660196592
 10
205.9466134727
 20
153.4541389589
 10
205.9267449388
 20
153.5418225292
 10
205.9020598735
 20
153.6292442598
 10
205.8723001926
 20
153.7170661846
 10
205.8377239802
 20
153.8046262697
 10
205.7987379286
 20
153.8901123031
 10
205.7553118832
 20
153.9731937468
 10
205.7074759986
 20
154.0542011388
 10
205.6557274314
 20
154.1323138812
 10
205.6001226408
 20
154.2073906498
 10
205.5406051675
 20
154.2795727687
 10
205.4775027896
 20
154.3484636125
 10
205.4106711562
 20
154.4141542567
 10
205.3402546183
 20
154.4765536259
 10
205.2670140069
 20
154.5349918677
 10
205.1910149212
 20
154.5893511319
 10
205.1121917621
 20
154.6397492688
 10
205.0311085634
 20
154.6858699778
 10
204.9482578371
 20
154.7276096194
 10
204.8631470712
 20
154.7650718331
 10
204.774862764
 20
154.7982512364
 10
204.6828947093
 20
154.8274711661
 10
204.5877531133
 20
154.8524082854
 10
204.4900550926
 20
154.8720872022
 10
204.3900063527
 20
154.8861827856
 10
204.287401188
 20
154.8950201665
 10
204.1822395987
 20
154.8985993448
  0
LINE
  5
550
100
AcDbEntity
  8
RACCORDO
100
AcDbLine
 62
7
  6
CONTINUOUS
 10
203.8546875
 20
151.0723569889
 11
203.8546875
 21
34.1702858008
  0
LINE
  5
551
100
AcDbEntity
  8
DRAFT
100
AcDbLine
 62
7
  6
CONTINUOUS
 10
203.9441009027
 20
152.8607347975
 11
203.9441009027
 21
133.2213213948
  0
LINE
  5
552
100
AcDbEntity
  8
DRAFT
100
AcDbLine
 62
7
  6
CONTINUOUS
 10
203.9441009027
 20
132.0213213948
 11
203.9441009027
 21
93.2213213948
  0
LINE
  5
553
100
AcDbEntity
  8
DRAFT
100
AcDbLine
 62
7
  6
CONTINUOUS
 10
203.9441009027
 20
92.0213213948
 11
203.9441009027
 21
53.2213213948
  0
LINE
  5
554
100
AcDbEntity
  8
DRAFT
100
AcDbLine
 62
7
  6
CONTINUOUS
 10
203.9441009027
 20
52.0213213948
 11
203.9441009027
 21
32.3819079922
  0
LINE
  5
555
100
AcDbEntity
  8
RACCORDO
100
AcDbLine
 62
7
  6
CONTINUOUS
 10
204.0453402792
 20
92.9235425656
 11
204.0453402792
 21
92.319100224
  0
LINE
  5
556
100
AcDbEntity
  8
DRAFT
100
AcDbLine
 62
7
  6
CONTINUOUS
 10
204.1046875
 20
153.0213213948
 11
204.1046875
 21
133.0868287473
  0
LINE
  5
557
100
AcDbEntity
  8
DRAFT
100
AcDbLine
 62
7
  6
CONTINUOUS
 10
204.1046875
 20
132.1558140423
 11
204.1046875
 21
53.0868287473
  0
LINE
  5
558
100
AcDbEntity
  8
DRAFT
100
AcDbLine
 62
7
  6
CONTINUOUS
 10
204.1046875
 20
52.1558140423
 11
204.1046875
 21
32.2213213948
  0
LINE
  5
559
100
AcDbEntity
  8
RACCORDO
100
AcDbLine
 62
253
  6
CONTINUOUS
 10
204.1816912595
 20
30.3213213948
 11
204.1816912595
 21
30.1213213948
  0
LINE
  5
55A
100
AcDbEntity
  8
0
100
AcDbLine
 62
253
  6
CONTINUOUS
 10
204.1816912596
 20
30.2588714148
 11
204.1816912595
 21
30.1213213948
  0
LINE
  5
55B
100
AcDbEntity
  8
RACCORDO
100
AcDbLine
 62
253
  6
CONTINUOUS
 10
204.1822395987
 20
154.8985993448
 11
204.1822395987
 21
155.0985688838
  0
LINE
  5
55C
100
AcDbEntity
  8
0
100
AcDbLine
 62
253
  6
CONTINUOUS
 10
204.1822395987
 20
154.9610493248
 11
204.1822395987
 21
155.0985688838
  0
LINE
  5
55D
100
AcDbEntity
  8
RACCORDO
100
AcDbLine
 62
7
  6
CONTINUOUS
 10
205.9046875
 20
153.1215803131
 11
205.9046875
 21
32.1210624766
  0
LINE
  5
55E
100
AcDbEntity
  8
RACCORDO
100
AcDbLine
 62
253
  6
CONTINUOUS
 10
205.98196545
 20
32.1213213948
 11
205.98196545
 21
153.0988734935
  0
LINE
  5
55F
100
AcDbEntity
  8
0
100
AcDbLine
 62
7
  6
CONTINUOUS
 10
206.04441543
 20
32.1213213948
 11
206.04441543
 21
153.0988734937
  0
LINE
  5
560
100
AcDbEntity
  8
RACCORDO
100
AcDbLine
 62
253
  6
CONTINUOUS
 10
206.181934989
 20
32.1213213948
 11
206.181934989
 21
153.0988734935
  0
LINE
  5
561
100
AcDbEntity
  8
0
100
AcDbLine
 62
253
  6
CONTINUOUS
 10
206.181934989
 20
32.1213213948
 11
206.181934989
 21
153.0988734935
  0
LINE
  5
562
100
AcDbEntity
  8
RACCORDO
100
AcDbLine
 62
7
  6
CONTINUOUS
 10
206.2046875
 20
153.1216260045
 11
206.2046875
 21
32.1213213948
  0
LINE
  5
563
100
AcDbEntity
  8
0
100
AcDbLine
 62
7
  6
CONTINUOUS
 10
206.2046875
 20
153.1216260045
 11
206.2046875
 21
32.1213213948
  0
LWPOLYLINE
  5
564
100
AcDbEntity
  8
0
100
AcDbPolyline
 62
7
  6
CONTINUOUS
 90
34
 70
0
 10
206.04441543
 20
32.1213213948
 10
206.0422806577
 20
32.0325300355
 10
206.0359762827
 20
31.944297299
 10
206.0255023049
 20
31.8566231855
 10
206.0108212088
 20
31.7693082502
 10
205.9919705099
 20
31.6825519377
 10
205.9690627548
 20
31.5969525823
 10
205.9420552467
 20
31.5124982514
 10
205.9109906825
 20
31.4292008775
 10
205.8761096997
 20
31.3476945921
 10
205.8374139386
 20
31.2680442892
 10
205.7949017589
 20
31.1901850748
 10
205.7488088768
 20
31.1145563994
 10
205.6990685429
 20
31.0411114683
 10
205.6457475066
 20
30.9698970761
 10
205.589281733
 20
30.9014930571
 10
205.5297042597
 20
30.8359806846
 10
205.4669820491
 20
30.7732786852
 10
205.4014519539
 20
30.7137230728
 10
205.3330323984
 20
30.6572808521
 10
205.2618049583
 20
30.6039850183
 10
205.1883512123
 20
30.5542705711
 10
205.112719233
 20
30.5082046568
 10
205.0348609478
 20
30.4657201291
 10
204.9552137183
 20
30.4270505497
 10
204.8737115507
 20
30.3921940247
 10
204.7904204387
 20
30.361152448
 10
204.7059757258
 20
30.3341650628
 10
204.6203914618
 20
30.3112740555
 10
204.5336535969
 20
30.2924372396
 10
204.4463553248
 20
30.2777672993
 10
204.3586943769
 20
30.2673017957
 10
204.2704730218
 20
30.2610031675
 10
204.1816912596
 20
30.2588714148
  0
LWPOLYLINE
  5
565
100
AcDbEntity
  8
RACCORDO
100
AcDbPolyline
 62
7
  6
CONTINUOUS
 90
22
 70
0
 10
206.2046875
 20
32.1213213948
 10
206.2019530564
 20
32.0167815876
 10
206.193752827
 20
31.9124854685
 10
206.1801026232
 20
31.8087189358
 10
206.1610330188
 20
31.7057661148
 10
206.1365898424
 20
31.603911294
 10
206.1068345629
 20
31.5034380291
 10
206.0718396571
 20
31.4046155455
 10
206.0316977075
 20
31.3077260662
 10
205.9865268276
 20
31.2130647134
 10
205.9364503442
 20
31.1208934968
 10
205.8816041143
 20
31.0314656438
 10
205.8221531241
 20
30.9450491141
 10
205.7582652711
 20
30.8618830745
 10
205.6901161053
 20
30.7821914736
 10
205.6179054328
 20
30.706202153
 10
205.5418378117
 20
30.6341229897
 10
205.4621228328
 20
30.5661455591
 10
205.3789854022
 20
30.5024547958
 10
205.2926597525
 20
30.4432230208
 10
205.203382509
 20
30.3886057258
 10
205.1113944478
 20
30.3387444611
  0
LWPOLYLINE
  5
566
100
AcDbEntity
  8
0
100
AcDbPolyline
 62
7
  6
CONTINUOUS
 90
22
 70
0
 10
206.2046875
 20
32.1213213948
 10
206.2019530564
 20
32.0167815876
 10
206.193752827
 20
31.9124854685
 10
206.1801026232
 20
31.8087189358
 10
206.1610330188
 20
31.7057661148
 10
206.1365898424
 20
31.603911294
 10
206.1068345629
 20
31.5034380291
 10
206.0718396571
 20
31.4046155455
 10
206.0316977075
 20
31.3077260662
 10
205.9865268276
 20
31.2130647134
 10
205.9364503442
 20
31.1208934968
 10
205.8816041143
 20
31.0314656438
 10
205.8221531241
 20
30.9450491141
 10
205.7582652711
 20
30.8618830745
 10
205.6901161053
 20
30.7821914736
 10
205.6179054328
 20
30.706202153
 10
205.5418378117
 20
30.6341229897
 10
205.4621228328
 20
30.5661455591
 10
205.3789854022
 20
30.5024547958
 10
205.2926597525
 20
30.4432230208
 10
205.203382509
 20
30.3886057258
 10
205.1113944478
 20
30.3387444611
  0
LWPOLYLINE
  5
567
100
AcDbEntity
  8
RACCORDO
100
AcDbPolyline
 62
7
  6
CONTINUOUS
 90
28
 70
0
 10
203.854604523
 20
34.1532783309
 10
203.8509062802
 20
34.0560522938
 10
203.8416545896
 20
33.9590264643
 10
203.8268519539
 20
33.8625212187
 10
203.8064999464
 20
33.7667458093
 10
203.780645737
 20
33.6721369178
 10
203.7494425684
 20
33.5793409647
 10
203.7131002415
 20
33.4888457275
 10
203.6717064813
 20
33.4007394074
 10
203.6252652614
 20
33.3150612115
 10
203.5738022308
 20
33.2319439633
 10
203.5175580631
 20
33.1518431641
 10
203.4568809702
 20
33.0752639005
 10
203.3921307163
 20
33.0025916552
 10
203.3234205177
 20
32.9338812732
 10
203.250748511
 20
32.8691308805
 10
203.174169537
 20
32.8084536724
 10
203.0940690973
 20
32.7522094127
 10
203.0109523257
 20
32.7007463254
 10
202.9252748698
 20
32.6543051335
 10
202.8371694289
 20
32.6129113787
 10
202.7466748226
 20
32.576568867
 10
202.6538792275
 20
32.5453653661
 10
202.559270404
 20
32.5195107246
 10
202.4634943556
 20
32.499158161
 10
202.3669876104
 20
32.4843549476
 10
202.2699595507
 20
32.4751028102
 10
202.172730564
 20
32.4714043718
  0
LWPOLYLINE
  5
568
100
AcDbEntity
  8
RACCORDO
100
AcDbPolyline
 62
253
  6
CONTINUOUS
 90
28
 70
0
 10
200.2926509286
 20
36.9232113844
 10
200.2857898395
 20
36.8718483739
 10
200.276423433
 20
36.8216232282
 10
200.2646870215
 20
36.7726472243
 10
200.250784929
 20
36.7252329301
 10
200.2348108705
 20
36.6792469881
 10
200.2166442457
 20
36.6341459552
 10
200.1962381372
 20
36.5898298806
 10
200.1737287224
 20
36.5466123722
 10
200.1491859237
 20
36.5045969207
 10
200.122699779
 20
36.4639089221
 10
200.0943229659
 20
36.4246049874
 10
200.0640642895
 20
36.3866880758
 10
200.0319684868
 20
36.3502243125
 10
199.9981285765
 20
36.3153305873
 10
199.9626197426
 20
36.2820904408
 10
199.9256663028
 20
36.2507013736
 10
199.8872206037
 20
36.2211118432
 10
199.8469064086
 20
36.1930904381
 10
199.8046969333
 20
36.166730869
 10
199.7607208111
 20
36.1422246396
 10
199.7147790966
 20
36.1195906846
 10
199.666806811
 20
36.0989577872
 10
199.6170015531
 20
36.0805734712
 10
199.5655655627
 20
36.0646577938
 10
199.5126495439
 20
36.0513844025
 10
199.4583457837
 20
36.040899161
 10
199.4027975104
 20
36.0333579662
  0
LINE
  5
569
100
AcDbEntity
  8
RACCORDO
100
AcDbLine
 62
7
  6
CONTINUOUS
 10
189.1883827097
 20
32.2826922427
 11
189.1803610084
 21
32.2553349925
  0
LWPOLYLINE
  5
56A
100
AcDbEntity
  8
RACCORDO
100
AcDbPolyline
 62
7
  6
CONTINUOUS
 90
3
 70
0
 10
189.1803610084
 20
32.2553349925
 10
189.1722407152
 20
32.2281077588
 10
189.1701948525
 20
32.2213213948
  0
LINE
  5
56B
100
AcDbEntity
  8
DRAFT
100
AcDbLine
 62
7
  6
CONTINUOUS
 10
168.2046875
 20
32.2213213948
 11
168.2402286424
 21
32.2390865517
  0
LINE
  5
56C
100
AcDbEntity
  8
DRAFT
100
AcDbLine
 62
7
  6
CONTINUOUS
 10
136.704698134
 20
152.9515117691
 11
136.2046875
 21
152.8607347975
  0
LWPOLYLINE
  5
56D
100
AcDbEntity
  8
RACCORDO
100
AcDbPolyline
 62
253
  6
CONTINUOUS
 90
10
 70
0
 10
88.0065774896
 20
149.2092848234
 10
88.0181424568
 20
149.2104537808
 10
88.029719709
 20
149.2114850459
 10
88.0413076678
 20
149.2123785813
 10
88.0529033922
 20
149.2131342879
 10
88.0645066671
 20
149.2137522771
 10
88.0761200124
 20
149.2142327124
 10
88.0877432242
 20
149.2145755197
 10
88.0993733671
 20
149.2147805463
 10
88.1110088682
 20
149.2148477217
  0
LWPOLYLINE
  5
56E
100
AcDbEntity
  8
RACCORDO
100
AcDbPolyline
 62
253
  6
CONTINUOUS
 90
10
 70
0
 10
87.9543335978
 20
149.4196672061
 10
87.9716932743
 20
149.4214124081
 10
87.9890653579
 20
149.4229522928
 10
88.0064498486
 20
149.4242868601
 10
88.0238470603
 20
149.4254160823
 10
88.0412566791
 20
149.4263399872
 10
88.0586777634
 20
149.4270586581
 10
88.0761099995
 20
149.427572123
 10
88.0935537011
 20
149.427880354
 10
88.1110088682
 20
149.4279833511
  0
LWPOLYLINE
  5
56F
100
AcDbEntity
  8
RACCORDO
100
AcDbPolyline
 62
7
  6
CONTINUOUS
 90
31
 70
0
 10
83.2043828903
 20
155.1213213948
 10
83.0999171109
 20
155.1185917645
 10
82.9956975239
 20
155.1104056368
 10
82.8920092261
 20
155.0967790554
 10
82.7891344159
 20
155.0777426351
 10
82.6873576845
 20
155.0533423535
 10
82.5869649946
 20
155.0236404755
 10
82.4882249097
 20
154.9887100807
 10
82.3914182397
 20
154.9486440638
 10
82.2968410697
 20
154.9035615745
 10
82.2047589489
 20
154.8535892328
 10
82.1154186054
 20
154.7988610299
 10
82.0290748843
 20
154.7395334422
 10
81.9459690832
 20
154.6757744734
 10
81.8663227909
 20
154.6077564752
 10
81.7903477777
 20
154.5356611171
 10
81.7182524196
 20
154.459686104
 10
81.6502344214
 20
154.3800398116
 10
81.5864754527
 20
154.2969340105
 10
81.5271478649
 20
154.2105902895
 10
81.472419662
 20
154.1212499459
 10
81.4224473203
 20
154.0291678252
 10
81.377364831
 20
153.9345906551
 10
81.3372988141
 20
153.8377839851
 10
81.3023684193
 20
153.7390439002
 10
81.2726665413
 20
153.6386512103
 10
81.2482662597
 20
153.5368744789
 10
81.2292298395
 20
153.4339996687
 10
81.215603258
 20
153.3303113709
 10
81.2074171304
 20
153.226091784
 10
81.2046875
 20
153.1216260045
  0
LWPOLYLINE
  5
570
100
AcDbEntity
  8
0
100
AcDbPolyline
 62
7
  6
CONTINUOUS
 90
31
 70
0
 10
83.2043828903
 20
155.1213213948
 10
83.0999171109
 20
155.1185917645
 10
82.9956975239
 20
155.1104056368
 10
82.8920092261
 20
155.0967790554
 10
82.7891344159
 20
155.0777426351
 10
82.6873576845
 20
155.0533423535
 10
82.5869649946
 20
155.0236404755
 10
82.4882249097
 20
154.9887100807
 10
82.3914182397
 20
154.9486440638
 10
82.2968410697
 20
154.9035615745
 10
82.2047589489
 20
154.8535892328
 10
82.1154186054
 20
154.7988610299
 10
82.0290748843
 20
154.7395334422
 10
81.9459690832
 20
154.6757744734
 10
81.8663227909
 20
154.6077564752
 10
81.7903477777
 20
154.5356611171
 10
81.7182524196
 20
154.459686104
 10
81.6502344214
 20
154.3800398116
 10
81.5864754527
 20
154.2969340105
 10
81.5271478649
 20
154.2105902895
 10
81.472419662
 20
154.1212499459
 10
81.4224473203
 20
154.0291678252
 10
81.377364831
 20
153.9345906551
 10
81.3372988141
 20
153.8377839851
 10
81.3023684193
 20
153.7390439002
 10
81.2726665413
 20
153.6386512103
 10
81.2482662597
 20
153.5368744789
 10
81.2292298395
 20
153.4339996687
 10
81.215603258
 20
153.3303113709
 10
81.2074171304
 20
153.226091784
 10
81.2046875
 20
153.1216260045
  0
LWPOLYLINE
  5
571
100
AcDbEntity
  8
RACCORDO
100
AcDbPolyline
 62
253
  6
CONTINUOUS
 90
31
 70
0
 10
83.2271354013
 20
155.0985688838
 10
83.12812654
 20
155.096114066
 10
83.0291040231
 20
155.0887356354
 10
82.9303146922
 20
155.0764133921
 10
82.8323531096
 20
155.0592092063
 10
82.7351178335
 20
155.0370926285
 10
82.6378497903
 20
155.0097696694
 10
82.5401354323
 20
154.9768567981
 10
82.4430378423
 20
154.9384363185
 10
82.3480017391
 20
154.8949621784
 10
82.2555850718
 20
154.8467035771
 10
82.1657368904
 20
154.7936484307
 10
82.0788922304
 20
154.7360582699
 10
81.9954056342
 20
154.6742096195
 10
81.9153489569
 20
154.6081986259
 10
81.8387271454
 20
154.5380296071
 10
81.7656337981
 20
154.4637399416
 10
81.6964233506
 20
154.3856390006
 10
81.6314727178
 20
154.3041539925
 10
81.5710162505
 20
154.2196337481
 10
81.5151102592
 20
154.1322157138
 10
81.4638274966
 20
154.0420397098
 10
81.417541697
 20
153.9498602845
 10
81.3760811691
 20
153.8554422089
 10
81.3389545642
 20
153.7573270222
 10
81.306361801
 20
153.6551177488
 10
81.2788936741
 20
153.5495685271
 10
81.2569074642
 20
153.4408811918
 10
81.2407662328
 20
153.3293168351
 10
81.2308289601
 20
153.2151985356
 10
81.227440011
 20
153.0988734935
  0
LWPOLYLINE
  5
572
100
AcDbEntity
  8
0
100
AcDbPolyline
 62
253
  6
CONTINUOUS
 90
31
 70
0
 10
83.2271354013
 20
155.0985688838
 10
83.12812654
 20
155.096114066
 10
83.0291040231
 20
155.0887356354
 10
82.9303146922
 20
155.0764133921
 10
82.8323531096
 20
155.0592092063
 10
82.7351178335
 20
155.0370926285
 10
82.6378497903
 20
155.0097696694
 10
82.5401354323
 20
154.9768567981
 10
82.4430378423
 20
154.9384363185
 10
82.3480017391
 20
154.8949621784
 10
82.2555850718
 20
154.8467035771
 10
82.1657368904
 20
154.7936484307
 10
82.0788922304
 20
154.7360582699
 10
81.9954056342
 20
154.6742096195
 10
81.9153489569
 20
154.6081986259
 10
81.8387271454
 20
154.5380296071
 10
81.7656337981
 20
154.4637399416
 10
81.6964233506
 20
154.3856390006
 10
81.6314727178
 20
154.3041539925
 10
81.5710162505
 20
154.2196337481
 10
81.5151102592
 20
154.1322157138
 10
81.4638274966
 20
154.0420397098
 10
81.417541697
 20
153.9498602845
 10
81.3760811691
 20
153.8554422089
 10
81.3389545642
 20
153.7573270222
 10
81.306361801
 20
153.6551177488
 10
81.2788936741
 20
153.5495685271
 10
81.2569074642
 20
153.4408811918
 10
81.2407662328
 20
153.3293168351
 10
81.2308289601
 20
153.2151985356
 10
81.227440011
 20
153.0988734935
  0
LWPOLYLINE
  5
573
100
AcDbEntity
  8
RACCORDO
100
AcDbPolyline
 62
253
  6
CONTINUOUS
 90
31
 70
0
 10
83.2271354013
 20
154.8985993448
 10
83.13765095
 20
154.8964041782
 10
83.0486022281
 20
154.8897600398
 10
82.9599892357
 20
154.8786669296
 10
82.8718699359
 20
154.8632473675
 10
82.7841863656
 20
154.8433788337
 10
82.696764635
 20
154.8186937683
 10
82.6089427102
 20
154.7889340874
 10
82.5213826251
 20
154.754357875
 10
82.4358965918
 20
154.7153718234
 10
82.352815148
 20
154.671945778
 10
82.271807756
 20
154.6241098935
 10
82.1936950136
 20
154.5723613262
 10
82.1186182451
 20
154.5167565356
 10
82.0464361261
 20
154.4572390623
 10
81.9775452823
 20
154.3941366844
 10
81.9118546381
 20
154.327305051
 10
81.849455269
 20
154.2568885131
 10
81.7910170271
 20
154.1836479017
 10
81.7366577629
 20
154.107648816
 10
81.686259626
 20
154.0288256569
 10
81.640138917
 20
153.9477424582
 10
81.5983992754
 20
153.8648917319
 10
81.5609370617
 20
153.779780966
 10
81.5277576584
 20
153.6914966588
 10
81.4985377287
 20
153.5995286042
 10
81.4736006094
 20
153.5043870081
 10
81.4539216926
 20
153.4066889874
 10
81.4398261092
 20
153.3066402475
 10
81.4309887283
 20
153.2040350829
 10
81.42740955
 20
153.0988734935
  0
LINE
  5
574
100
AcDbEntity
  8
RACCORDO
100
AcDbLine
 62
7
  6
CONTINUOUS
 10
85.2536519059
 20
152.7713213948
 11
202.1557230941
 21
152.7713213948
  0
LINE
  5
575
100
AcDbEntity
  8
DRAFT
100
AcDbLine
 62
7
  6
CONTINUOUS
 10
171.2046875
 20
152.8607347975
 11
151.2046875
 21
152.8607347975
  0
LINE
  5
576
100
AcDbEntity
  8
DRAFT
100
AcDbLine
 62
7
  6
CONTINUOUS
 10
136.2046875
 20
152.8607347975
 11
116.2046875
 21
152.8607347975
  0
LINE
  5
577
100
AcDbEntity
  8
DRAFT
100
AcDbLine
 62
7
  6
CONTINUOUS
 10
83.4652740973
 20
152.8607347975
 11
98.1929541733
 21
152.8607347975
  0
LINE
  5
578
100
AcDbEntity
  8
DRAFT
100
AcDbLine
 62
7
  6
CONTINUOUS
 10
99.2164208267
 20
152.8607347975
 11
101.2046875
 21
152.8607347975
  0
LINE
  5
579
100
AcDbEntity
  8
DRAFT
100
AcDbLine
 62
7
  6
CONTINUOUS
 10
186.2046875
 20
152.8607347975
 11
188.1929541733
 21
152.8607347975
  0
LINE
  5
57A
100
AcDbEntity
  8
DRAFT
100
AcDbLine
 62
7
  6
CONTINUOUS
 10
189.2164208267
 20
152.8607347975
 11
203.9441009027
 21
152.8607347975
  0
LINE
  5
57B
100
AcDbEntity
  8
DRAFT
100
AcDbLine
 62
7
  6
CONTINUOUS
 10
184.7221505404
 20
152.9689641755
 11
179.0872244596
 21
152.9689641755
  0
LINE
  5
57C
100
AcDbEntity
  8
DRAFT
100
AcDbLine
 62
7
  6
CONTINUOUS
 10
178.3221505404
 20
152.9689641755
 11
172.6872244596
 21
152.9689641755
  0
LINE
  5
57D
100
AcDbEntity
  8
DRAFT
100
AcDbLine
 62
7
  6
CONTINUOUS
 10
149.7221505404
 20
152.9689641755
 11
144.0872244596
 21
152.9689641755
  0
LINE
  5
57E
100
AcDbEntity
  8
DRAFT
100
AcDbLine
 62
7
  6
CONTINUOUS
 10
143.3221505404
 20
152.9689641755
 11
137.6872244596
 21
152.9689641755
  0
LINE
  5
57F
100
AcDbEntity
  8
DRAFT
100
AcDbLine
 62
7
  6
CONTINUOUS
 10
114.7046875
 20
152.9689641755
 11
109.0872244596
 21
152.9689641755
  0
LINE
  5
580
100
AcDbEntity
  8
DRAFT
100
AcDbLine
 62
7
  6
CONTINUOUS
 10
108.3221505404
 20
152.9689641755
 11
102.6872244596
 21
152.9689641755
  0
LINE
  5
581
100
AcDbEntity
  8
RACCORDO
100
AcDbLine
 62
7
  6
CONTINUOUS
 10
185.3662406587
 20
152.9951387974
 11
185.0431343413
 21
152.9951387974
  0
LINE
  5
582
100
AcDbEntity
  8
RACCORDO
100
AcDbLine
 62
7
  6
CONTINUOUS
 10
172.3662406587
 20
152.9951387974
 11
172.0431343413
 21
152.9951387974
  0
LINE
  5
583
100
AcDbEntity
  8
RACCORDO
100
AcDbLine
 62
7
  6
CONTINUOUS
 10
150.3662406587
 20
152.9951387974
 11
150.0431343413
 21
152.9951387974
  0
LINE
  5
584
100
AcDbEntity
  8
RACCORDO
100
AcDbLine
 62
7
  6
CONTINUOUS
 10
137.3662406587
 20
152.9951387974
 11
137.0431343413
 21
152.9951387974
  0
LINE
  5
585
100
AcDbEntity
  8
RACCORDO
100
AcDbLine
 62
7
  6
CONTINUOUS
 10
115.3662406587
 20
152.9951387974
 11
115.0046875
 21
152.9951387974
  0
LINE
  5
586
100
AcDbEntity
  8
RACCORDO
100
AcDbLine
 62
7
  6
CONTINUOUS
 10
102.3662406587
 20
152.9951387974
 11
102.0431343413
 21
152.9951387974
  0
LINE
  5
587
100
AcDbEntity
  8
DRAFT
100
AcDbLine
 62
7
  6
CONTINUOUS
 10
179.0488526496
 20
153.0073359855
 11
178.3605223504
 21
153.0073359855
  0
LINE
  5
588
100
AcDbEntity
  8
DRAFT
100
AcDbLine
 62
7
  6
CONTINUOUS
 10
144.0488526496
 20
153.0073359855
 11
143.3605223504
 21
153.0073359855
  0
LINE
  5
589
100
AcDbEntity
  8
DRAFT
100
AcDbLine
 62
7
  6
CONTINUOUS
 10
109.0488526496
 20
153.0073359855
 11
108.3605223504
 21
153.0073359855
  0
LINE
  5
58A
100
AcDbEntity
  8
DRAFT
100
AcDbLine
 62
7
  6
CONTINUOUS
 10
83.3046875
 20
153.0213213948
 11
98.2391801475
 21
153.0213213948
  0
LINE
  5
58B
100
AcDbEntity
  8
DRAFT
100
AcDbLine
 62
7
  6
CONTINUOUS
 10
99.1701948525
 20
153.0213213948
 11
188.2391801475
 21
153.0213213948
  0
LINE
  5
58C
100
AcDbEntity
  8
DRAFT
100
AcDbLine
 62
7
  6
CONTINUOUS
 10
189.1701948525
 20
153.0213213948
 11
204.1046875
 21
153.0213213948
  0
LINE
  5
58D
100
AcDbEntity
  8
RACCORDO
100
AcDbLine
 62
253
  6
CONTINUOUS
 10
81.42740955
 20
153.0988734935
 11
81.227440011
 21
153.0988734935
  0
LINE
  5
58E
100
AcDbEntity
  8
0
100
AcDbLine
 62
253
  6
CONTINUOUS
 10
81.36495957
 20
153.0988734935
 11
81.227440011
 21
153.0988734935
  0
LINE
  5
58F
100
AcDbEntity
  8
RACCORDO
100
AcDbLine
 62
253
  6
CONTINUOUS
 10
205.98196545
 20
153.0988734935
 11
206.181934989
 21
153.0988734935
  0
LINE
  5
590
100
AcDbEntity
  8
0
100
AcDbLine
 62
253
  6
CONTINUOUS
 10
206.04441543
 20
153.0988734937
 11
206.181934989
 21
153.0988734935
  0
LINE
  5
591
100
AcDbEntity
  8
RACCORDO
100
AcDbLine
 62
7
  6
CONTINUOUS
 10
83.2044285818
 20
154.8213213948
 11
204.2049464182
 21
154.8213213948
  0
LINE
  5
592
100
AcDbEntity
  8
RACCORDO
100
AcDbLine
 62
253
  6
CONTINUOUS
 10
204.1822395987
 20
154.8985993448
 11
83.2271354013
 21
154.8985993448
  0
LINE
  5
593
100
AcDbEntity
  8
0
100
AcDbLine
 62
7
  6
CONTINUOUS
 10
204.1822395987
 20
154.9610493248
 11
83.2271354011
 21
154.9610493248
  0
LINE
  5
594
100
AcDbEntity
  8
RACCORDO
100
AcDbLine
 62
253
  6
CONTINUOUS
 10
204.1822395987
 20
155.0985688838
 11
83.2271354013
 21
155.0985688838
  0
LINE
  5
595
100
AcDbEntity
  8
0
100
AcDbLine
 62
253
  6
CONTINUOUS
 10
204.1822395987
 20
155.0985688838
 11
83.2271354013
 21
155.0985688838
  0
LINE
  5
596
100
AcDbEntity
  8
RACCORDO
100
AcDbLine
 62
7
  6
CONTINUOUS
 10
83.2043828903
 20
155.1213213948
 11
204.2049921097
 21
155.1213213948
  0
LINE
  5
597
100
AcDbEntity
  8
0
100
AcDbLine
 62
7
  6
CONTINUOUS
 10
83.2043828903
 20
155.1213213948
 11
204.2049921097
 21
155.1213213948
  0
LWPOLYLINE
  5
598
100
AcDbEntity
  8
0
100
AcDbPolyline
 62
7
  6
CONTINUOUS
 90
34
 70
0
 10
204.1822395987
 20
154.9610493248
 10
204.2710119257
 20
154.9589163569
 10
204.3592260945
 20
154.9526162368
 10
204.446882105
 20
154.9421489645
 10
204.534179216
 20
154.9274772774
 10
204.6209181687
 20
154.9086384381
 10
204.7065011876
 20
154.8857442343
 10
204.7909403146
 20
154.8587519962
 10
204.8742235077
 20
154.8277043936
 10
204.9557168651
 20
154.7928412226
 10
205.0353556335
 20
154.7541640666
 10
205.113204566
 20
154.7116713421
 10
205.1888240205
 20
154.6655980952
 10
205.2622608983
 20
154.6158774469
 10
205.3334682981
 20
154.5625762761
 10
205.4018658727
 20
154.5061302653
 10
205.4673722811
 20
154.4465723896
 10
205.5300688644
 20
154.3838696739
 10
205.5896192985
 20
154.3183588757
 10
205.6460565296
 20
154.2499583819
 10
205.6993476116
 20
154.1787498056
 10
205.7490573819
 20
154.1053147433
 10
205.7951186303
 20
154.0297012481
 10
205.8375985671
 20
153.9518612669
 10
205.876263661
 20
153.8722322371
 10
205.9111157564
 20
153.7907481397
 10
205.942153009
 20
153.7074749936
 10
205.9691363546
 20
153.6230482935
 10
205.992023543
 20
153.5374821283
 10
206.0108568244
 20
153.4507624091
 10
206.0255238852
 20
153.3634823632
 10
206.0359872875
 20
153.2758397333
 10
206.0422844691
 20
153.1876367768
 10
206.04441543
 20
153.0988734937
  0
LWPOLYLINE
  5
599
100
AcDbEntity
  8
RACCORDO
100
AcDbPolyline
 62
7
  6
CONTINUOUS
 90
31
 70
0
 10
204.2049921097
 20
155.1213213948
 10
204.3094578891
 20
155.1185917645
 10
204.4136774761
 20
155.1104056368
 10
204.5173657739
 20
155.0967790554
 10
204.6202405841
 20
155.0777426351
 10
204.7220173155
 20
155.0533423535
 10
204.8224100054
 20
155.0236404755
 10
204.9211500903
 20
154.9887100807
 10
205.0179567603
 20
154.9486440638
 10
205.1125339303
 20
154.9035615745
 10
205.2046160511
 20
154.8535892328
 10
205.2939563946
 20
154.7988610299
 10
205.3803001157
 20
154.7395334422
 10
205.4634059168
 20
154.6757744734
 10
205.5430522091
 20
154.6077564752
 10
205.6190272223
 20
154.5356611171
 10
205.6911225804
 20
154.459686104
 10
205.7591405786
 20
154.3800398116
 10
205.8228995473
 20
154.2969340105
 10
205.8822271351
 20
154.2105902895
 10
205.936955338
 20
154.1212499459
 10
205.9869276797
 20
154.0291678252
 10
206.032010169
 20
153.9345906551
 10
206.0720761859
 20
153.8377839851
 10
206.1070065807
 20
153.7390439002
 10
206.1367084587
 20
153.6386512103
 10
206.1611087403
 20
153.5368744789
 10
206.1801451605
 20
153.4339996687
 10
206.193771742
 20
153.3303113709
 10
206.2019578696
 20
153.226091784
 10
206.2046875
 20
153.1216260045
  0
LWPOLYLINE
  5
59A
100
AcDbEntity
  8
0
100
AcDbPolyline
 62
7
  6
CONTINUOUS
 90
31
 70
0
 10
204.2049921097
 20
155.1213213948
 10
204.3094578891
 20
155.1185917645
 10
204.4136774761
 20
155.1104056368
 10
204.5173657739
 20
155.0967790554
 10
204.6202405841
 20
155.0777426351
 10
204.7220173155
 20
155.0533423535
 10
204.8224100054
 20
155.0236404755
 10
204.9211500903
 20
154.9887100807
 10
205.0179567603
 20
154.9486440638
 10
205.1125339303
 20
154.9035615745
 10
205.2046160511
 20
154.8535892328
 10
205.2939563946
 20
154.7988610299
 10
205.3803001157
 20
154.7395334422
 10
205.4634059168
 20
154.6757744734
 10
205.5430522091
 20
154.6077564752
 10
205.6190272223
 20
154.5356611171
 10
205.6911225804
 20
154.459686104
 10
205.7591405786
 20
154.3800398116
 10
205.8228995473
 20
154.2969340105
 10
205.8822271351
 20
154.2105902895
 10
205.936955338
 20
154.1212499459
 10
205.9869276797
 20
154.0291678252
 10
206.032010169
 20
153.9345906551
 10
206.0720761859
 20
153.8377839851
 10
206.1070065807
 20
153.7390439002
 10
206.1367084587
 20
153.6386512103
 10
206.1611087403
 20
153.5368744789
 10
206.1801451605
 20
153.4339996687
 10
206.193771742
 20
153.3303113709
 10
206.2019578696
 20
153.226091784
 10
206.2046875
 20
153.1216260045
  0
LWPOLYLINE
  5
59B
100
AcDbEntity
  8
RACCORDO
100
AcDbPolyline
 62
7
  6
CONTINUOUS
 90
28
 70
0
 10
202.172730564
 20
152.7712384179
 10
202.2698944462
 20
152.7675443169
 10
202.3669934895
 20
152.7582871334
 10
202.4637043685
 20
152.7434462549
 10
202.5598706756
 20
152.7229862876
 10
202.6549871441
 20
152.6969396351
 10
202.7482267185
 20
152.6655010276
 10
202.839141225
 20
152.6288713487
 10
202.9275975891
 20
152.5871611314
 10
203.0132823136
 20
152.5405429079
 10
203.0958651188
 20
152.4892472039
 10
203.1751702196
 20
152.4334421601
 10
203.2511170243
 20
152.3732020629
 10
203.3234982525
 20
152.3086878157
 10
203.3920406079
 20
152.2401462477
 10
203.4565558534
 20
152.1677655612
 10
203.5167971739
 20
152.0918189519
 10
203.5726035653
 20
152.0125137392
 10
203.6239005669
 20
151.9299307208
 10
203.6705199496
 20
151.8442458474
 10
203.7122312806
 20
151.7557892525
 10
203.7488621184
 20
151.664874176
 10
203.7803018828
 20
151.5716336737
 10
203.8063496334
 20
151.4765159223
 10
203.8268106299
 20
151.3803477291
 10
203.8416523836
 20
151.2836342784
 10
203.8509101749
 20
151.1865320722
 10
203.854604523
 20
151.0893644588
  0
LWPOLYLINE
  5
59C
100
AcDbEntity
  8
RACCORDO
100
AcDbPolyline
 62
253
  6
CONTINUOUS
 90
28
 70
0
 10
199.4027975104
 20
149.2092848234
 10
199.4541605207
 20
149.2024237344
 10
199.5043856668
 20
149.1930573278
 10
199.5533616718
 20
149.1813209159
 10
199.6007759679
 20
149.1674188228
 10
199.6467619122
 20
149.1514447633
 10
199.6918629476
 20
149.1332781371
 10
199.7361790243
 20
149.112872027
 10
199.7793965348
 20
149.0903626104
 10
199.8214119884
 20
149.0658198098
 10
199.8620999887
 20
149.0393336628
 10
199.901403925
 20
149.0109568474
 10
199.939320838
 20
148.9806981684
 10
199.9757846023
 20
148.9486023631
 10
200.0106783284
 20
148.9147624499
 10
200.0439184758
 20
148.879253613
 10
200.075307544
 20
148.8423001695
 10
200.1048970752
 20
148.8038544663
 10
200.1329184802
 20
148.763540268
 10
200.1592780481
 20
148.7213307905
 10
200.1837842755
 20
148.6773546672
 10
200.2064182279
 20
148.6314129532
 10
200.2270511219
 20
148.5834406702
 10
200.2454354343
 20
148.5336354167
 10
200.2613511082
 20
148.482199432
 10
200.2746244964
 20
148.4292834203
 10
200.2851097355
 20
148.3749796686
 10
200.2926509286
 20
148.3194314052
  0
LINE
  5
59D
100
AcDbEntity
  8
DRAFT
100
AcDbLine
 62
7
  6
CONTINUOUS
 10
151.2046875
 20
152.8607347975
 11
150.7046289212
 21
152.9515117691
  0
LINE
  5
59E
100
AcDbEntity
  8
RACCORDO
100
AcDbLine
 62
7
  6
CONTINUOUS
 10
172.6661949673
 20
152.9899936678
 11
172.6872244596
 21
152.9689641755
  0
LINE
  5
59F
100
AcDbEntity
  8
DRAFT
100
AcDbLine
 62
7
  6
CONTINUOUS
 10
189.1807425683
 20
152.9860110034
 11
189.1701948525
 21
153.0213213948
  0
LINE
  5
5A0
100
AcDbEntity
  8
DRAFT
100
AcDbLine
 62
7
  6
CONTINUOUS
 10
189.1911280726
 20
152.950484367
 11
189.1807425683
 21
152.9860110034
  0
LINE
  5
5A1
100
AcDbEntity
  8
DRAFT
100
AcDbLine
 62
7
  6
CONTINUOUS
 10
189.2013546917
 20
152.914742612
 11
189.1911280726
 21
152.950484367
  0
LWPOLYLINE
  5
5A2
100
AcDbEntity
  8
DRAFT
100
AcDbPolyline
 62
7
  6
CONTINUOUS
 90
3
 70
0
 10
189.2164208267
 20
152.8607347975
 10
189.211435731
 20
152.8787902434
 10
189.2013546917
 20
152.914742612
  0
LINE
  5
5A3
100
AcDbEntity
  8
DRAFT
100
AcDbLine
 62
7
  6
CONTINUOUS
 10
178.6978203051
 20
32.4958733168
 11
178.7651578088
 21
32.5632108204
  0
LINE
  5
5A4
100
AcDbEntity
  8
RACCORDO
100
AcDbLine
 62
7
  6
CONTINUOUS
 10
203.9441009027
 20
52.0213213948
 11
204.0419101928
 21
52.119130685
  0
LINE
  5
5A5
100
AcDbEntity
  8
DRAFT
100
AcDbLine
 62
7
  6
CONTINUOUS
 10
101.704698134
 20
152.9515117691
 11
101.2046875
 21
152.8607347975
  0
LINE
  5
5A6
100
AcDbEntity
  8
DRAFT
100
AcDbLine
 62
7
  6
CONTINUOUS
 10
186.2046875
 20
152.8607347975
 11
185.7046289212
 21
152.9515117691
  0
LINE
  5
5A7
100
AcDbEntity
  8
DRAFT
100
AcDbLine
 62
7
  6
CONTINUOUS
 10
179.0872244596
 20
152.9689641755
 11
179.0488526496
 21
153.0073359855
  0
LINE
  5
5A8
100
AcDbEntity
  8
RACCORDO
100
AcDbLine
 62
7
  6
CONTINUOUS
 10
203.9441009027
 20
133.2213213948
 11
204.0419101928
 21
133.1235121046
  0
LWPOLYLINE
  5
5A9
100
AcDbEntity
  8
RACCORDO
100
AcDbPolyline
 62
7
  6
CONTINUOUS
 90
10
 70
0
 10
203.9569479386
 20
132.319100224
 10
203.9642963526
 20
132.2996140982
 10
203.9718270972
 20
132.2803890116
 10
203.9795401725
 20
132.2616031987
 10
203.9875569265
 20
132.2434263693
 10
203.9957560111
 20
132.226020942
 10
204.0037733824
 20
132.2095403646
 10
204.011636466
 20
132.1940768863
 10
204.0193178362
 20
132.1798112838
 10
204.0326476998
 20
132.1556658925
  0
LWPOLYLINE
  5
5AA
100
AcDbEntity
  8
RACCORDO
100
AcDbPolyline
 62
7
  6
CONTINUOUS
 90
9
 70
0
 10
204.0193167538
 20
53.0628294664
 10
204.0116349288
 20
53.0485631305
 10
204.0037634143
 20
53.0330825395
 10
203.9957182626
 20
53.0165410661
 10
203.9874834213
 20
52.9990513911
 10
203.9794498703
 20
52.9808296294
 10
203.9717479361
 20
52.962065209
 10
203.9642472922
 20
52.9429101291
 10
203.9569479386
 20
52.9235425656
  0
LWPOLYLINE
  5
5AB
100
AcDbEntity
  8
RACCORDO
100
AcDbPolyline
 62
7
  6
CONTINUOUS
 90
4
 70
0
 10
204.0433166521
 20
53.1050166045
 10
204.038296512
 20
53.0967673668
 10
204.0326475453
 20
53.0869764188
 10
204.0193167538
 20
53.0628294664
  0
LINE
  5
5AC
100
AcDbEntity
  8
RACCORDO
100
AcDbLine
 62
7
  6
CONTINUOUS
 10
189.3046875
 20
32.3819079922
 11
189.2068782098
 21
32.284098702
  0
LWPOLYLINE
  5
5AD
100
AcDbEntity
  8
RACCORDO
100
AcDbPolyline
 62
7
  6
CONTINUOUS
 90
3
 70
0
 10
188.2390324677
 20
32.2933613438
 10
188.2292415222
 20
32.2877123783
 10
188.2209922903
 20
32.2826922427
  0
LWPOLYLINE
  5
5AE
100
AcDbEntity
  8
RACCORDO
100
AcDbPolyline
 62
7
  6
CONTINUOUS
 90
10
 70
0
 10
188.4024663292
 20
32.3690609562
 10
188.3830991689
 20
32.3617617694
 10
188.3639443258
 20
32.3542612273
 10
188.3451799756
 20
32.3465593299
 10
188.3269580565
 20
32.3385257196
 10
188.3094680898
 20
32.330290754
 10
188.292926406
 20
32.3222455059
 10
188.277445756
 20
32.3143739621
 10
188.2631794183
 20
32.3066921357
 10
188.2390324677
 20
32.2933613438
  0
LINE
  5
5AF
100
AcDbEntity
  8
RACCORDO
100
AcDbLine
 62
7
  6
CONTINUOUS
 10
185.6661949673
 20
152.9899936678
 11
185.7046289212
 21
152.9515117691
  0
LWPOLYLINE
  5
5B0
100
AcDbEntity
  8
RACCORDO
100
AcDbPolyline
 62
7
  6
CONTINUOUS
 90
3
 70
0
 10
204.0326476998
 20
132.1556658925
 10
204.0382961932
 20
132.1458756586
 10
204.0433166521
 20
132.1376261851
  0
LINE
  5
5B1
100
AcDbEntity
  8
RACCORDO
100
AcDbLine
 62
7
  6
CONTINUOUS
 10
205.1113944478
 20
30.3387444611
 11
205.0169531628
 21
30.2937736866
  0
LINE
  5
5B2
100
AcDbEntity
  8
0
100
AcDbLine
 62
7
  6
CONTINUOUS
 10
205.1113944478
 20
30.3387444611
 11
205.0169531628
 21
30.2937736866
  0
LWPOLYLINE
  5
5B3
100
AcDbEntity
  8
RACCORDO
100
AcDbPolyline
 62
7
  6
CONTINUOUS
 90
7
 70
0
 10
205.0169531628
 20
30.2937736866
 10
204.9203149351
 20
30.2538103996
 10
204.8217263125
 20
30.2189536271
 10
204.7214573035
 20
30.1892977235
 10
204.619781821
 20
30.1649226053
 10
204.5169570161
 20
30.1458905188
 10
204.4132564205
 20
30.1322549893
  0
LWPOLYLINE
  5
5B4
100
AcDbEntity
  8
0
100
AcDbPolyline
 62
7
  6
CONTINUOUS
 90
7
 70
0
 10
205.0169531628
 20
30.2937736866
 10
204.9203149351
 20
30.2538103996
 10
204.8217263125
 20
30.2189536271
 10
204.7214573035
 20
30.1892977235
 10
204.619781821
 20
30.1649226053
 10
204.5169570161
 20
30.1458905188
 10
204.4132564205
 20
30.1322549893
  0
ARC
  5
5B5
100
AcDbEntity
  8
DRAFT
100
AcDbCircle
 62
7
  6
CONTINUOUS
 10
111.2046875
 20
57.6213213948
 40
2.8
100
AcDbArc
 50
90.0
 51
270.0
  0
ARC
  5
5B6
100
AcDbEntity
  8
DRAFT
100
AcDbCircle
 62
7
  6
CONTINUOUS
 10
116.2046875
 20
57.6213213948
 40
2.8
100
AcDbArc
 50
270.0
 51
90.0
  0
ARC
  5
5B7
100
AcDbEntity
  8
DRAFT
100
AcDbCircle
 62
7
  6
CONTINUOUS
 10
101.9046875
 20
90.1213213948
 40
2.8
100
AcDbArc
 50
0.0
 51
180.0
  0
ARC
  5
5B8
100
AcDbEntity
  8
DRAFT
100
AcDbCircle
 62
7
  6
CONTINUOUS
 10
101.9046875
 20
85.1213213948
 40
2.8
100
AcDbArc
 50
180.0
 51
360.0
  0
ARC
  5
5B9
100
AcDbEntity
  8
DRAFT
100
AcDbCircle
 62
7
  6
CONTINUOUS
 10
113.7046875
 20
90.1213213948
 40
2.8
100
AcDbArc
 50
0.0
 51
180.0
  0
ARC
  5
5BA
100
AcDbEntity
  8
DRAFT
100
AcDbCircle
 62
7
  6
CONTINUOUS
 10
113.7046875
 20
85.1213213948
 40
2.8
100
AcDbArc
 50
180.0
 51
360.0
  0
ARC
  5
5BB
100
AcDbEntity
  8
RACCORDO
100
AcDbCircle
 62
253
  6
CONTINUOUS
 10
116.2046875
 20
57.6213213948
 40
2.7751898462
100
AcDbArc
 50
270.0
 51
90.0
  0
ARC
  5
5BC
100
AcDbEntity
  8
RACCORDO
100
AcDbCircle
 62
253
  6
CONTINUOUS
 10
111.2046875
 20
57.6213213948
 40
2.7751898462
100
AcDbArc
 50
90.0
 51
270.0
  0
ARC
  5
5BD
100
AcDbEntity
  8
RACCORDO
100
AcDbCircle
 62
253
  6
CONTINUOUS
 10
113.7046875
 20
85.1213213948
 40
2.7751898462
100
AcDbArc
 50
180.0
 51
360.0
  0
ARC
  5
5BE
100
AcDbEntity
  8
RACCORDO
100
AcDbCircle
 62
253
  6
CONTINUOUS
 10
113.7046875
 20
90.1213213948
 40
2.7751898462
100
AcDbArc
 50
0.0
 51
180.0
  0
ARC
  5
5BF
100
AcDbEntity
  8
RACCORDO
100
AcDbCircle
 62
253
  6
CONTINUOUS
 10
101.9046875
 20
85.1213213948
 40
2.7751898462
100
AcDbArc
 50
180.0
 51
360.0
  0
ARC
  5
5C0
100
AcDbEntity
  8
RACCORDO
100
AcDbCircle
 62
253
  6
CONTINUOUS
 10
101.9046875
 20
90.1213213948
 40
2.7751898462
100
AcDbArc
 50
0.0
 51
180.0
  0
ARC
  5
5C1
100
AcDbEntity
  8
RACCORDO
100
AcDbCircle
 62
253
  6
CONTINUOUS
 10
113.7046875
 20
85.1213213948
 40
2.4753725981
100
AcDbArc
 50
180.0
 51
360.0
  0
ARC
  5
5C2
100
AcDbEntity
  8
RACCORDO
100
AcDbCircle
 62
253
  6
CONTINUOUS
 10
113.7046875
 20
90.1213213948
 40
2.4753725981
100
AcDbArc
 50
0.0
 51
180.0
  0
ARC
  5
5C3
100
AcDbEntity
  8
RACCORDO
100
AcDbCircle
 62
253
  6
CONTINUOUS
 10
101.9046875
 20
85.1213213948
 40
2.4753725981
100
AcDbArc
 50
180.0
 51
360.0
  0
ARC
  5
5C4
100
AcDbEntity
  8
RACCORDO
100
AcDbCircle
 62
253
  6
CONTINUOUS
 10
101.9046875
 20
90.1213213948
 40
2.4753725981
100
AcDbArc
 50
0.0
 51
180.0
  0
ARC
  5
5C5
100
AcDbEntity
  8
RACCORDO
100
AcDbCircle
 62
253
  6
CONTINUOUS
 10
111.2046875
 20
57.6213213948
 40
2.4753725981
100
AcDbArc
 50
90.0
 51
270.0
  0
ARC
  5
5C6
100
AcDbEntity
  8
RACCORDO
100
AcDbCircle
 62
253
  6
CONTINUOUS
 10
116.2046875
 20
57.6213213948
 40
2.4753725981
100
AcDbArc
 50
270.0
 51
90.0
  0
ARC
  5
5C7
100
AcDbEntity
  8
DRAFT
100
AcDbCircle
 62
7
  6
CONTINUOUS
 10
113.7046875
 20
85.1213213948
 40
1.8
100
AcDbArc
 50
180.0
 51
360.0
  0
ARC
  5
5C8
100
AcDbEntity
  8
DRAFT
100
AcDbCircle
 62
7
  6
CONTINUOUS
 10
113.7046875
 20
90.1213213948
 40
1.8
100
AcDbArc
 50
0.0
 51
180.0
  0
ARC
  5
5C9
100
AcDbEntity
  8
DRAFT
100
AcDbCircle
 62
7
  6
CONTINUOUS
 10
101.9046875
 20
90.1213213948
 40
1.8
100
AcDbArc
 50
0.0
 51
180.0
  0
ARC
  5
5CA
100
AcDbEntity
  8
DRAFT
100
AcDbCircle
 62
7
  6
CONTINUOUS
 10
101.9046875
 20
85.1213213948
 40
1.8
100
AcDbArc
 50
180.0
 51
360.0
  0
ARC
  5
5CB
100
AcDbEntity
  8
DRAFT
100
AcDbCircle
 62
7
  6
CONTINUOUS
 10
116.2046875
 20
57.6213213948
 40
1.8
100
AcDbArc
 50
270.0
 51
90.0
  0
ARC
  5
5CC
100
AcDbEntity
  8
DRAFT
100
AcDbCircle
 62
7
  6
CONTINUOUS
 10
111.2046875
 20
57.6213213948
 40
1.8
100
AcDbArc
 50
90.0
 51
270.0
  0
CIRCLE
  5
5CD
100
AcDbEntity
  8
RACCORDO
100
AcDbCircle
 62
7
  6
CONTINUOUS
 10
98.7046875
 20
47.6213213948
 40
1.5
  0
ARC
  5
5CE
100
AcDbEntity
  8
DRAFT
100
AcDbCircle
 62
7
  6
CONTINUOUS
 10
140.7046875
 20
33.8713213948
 40
1.1448770389
100
AcDbArc
 50
60.3405054038
 51
66.5360452787
  0
ARC
  5
5CF
100
AcDbEntity
  8
DRAFT
100
AcDbCircle
 62
7
  6
CONTINUOUS
 10
140.7046875
 20
33.8713213948
 40
1.1448770389
100
AcDbArc
 50
113.4639547213
 51
119.6594945962
  0
ARC
  5
5D0
100
AcDbEntity
  8
RACCORDO
100
AcDbCircle
 62
7
  6
CONTINUOUS
 10
140.7046875
 20
33.8713213948
 40
1.0
100
AcDbArc
 50
58.2116693829
 51
121.7883306171
  0
ARC
  5
5D1
100
AcDbEntity
  8
RACCORDO
100
AcDbCircle
 62
7
  6
CONTINUOUS
 10
82.6046875
 20
52.6213213948
 40
0.9
100
AcDbArc
 50
340.3787280035
 51
19.6212719965
  0
ARC
  5
5D2
100
AcDbEntity
  8
RACCORDO
100
AcDbCircle
 62
7
  6
CONTINUOUS
 10
98.7046875
 20
31.5213213948
 40
0.9
100
AcDbArc
 50
70.3787280035
 51
109.6212719965
  0
ARC
  5
5D3
100
AcDbEntity
  8
DRAFT
100
AcDbCircle
 62
7
  6
CONTINUOUS
 10
82.6046875
 20
52.6213213948
 40
0.8406527792
100
AcDbArc
 50
326.3756765746
 51
33.6243234254
  0
ARC
  5
5D4
100
AcDbEntity
  8
DRAFT
100
AcDbCircle
 62
7
  6
CONTINUOUS
 10
98.7046875
 20
31.5213213948
 40
0.8406527792
100
AcDbArc
 50
56.3756765746
 51
123.6243234254
  0
CIRCLE
  5
5D5
100
AcDbEntity
  8
RACCORDO
100
AcDbCircle
 62
253
  6
CONTINUOUS
 10
98.7046875
 20
47.6213213948
 40
0.5
  0
ARC
  5
5D6
100
AcDbEntity
  8
DRAFT
100
AcDbCircle
 62
7
  6
CONTINUOUS
 10
111.2046875
 20
127.6213213948
 40
2.8
100
AcDbArc
 50
90.0
 51
270.0
  0
ARC
  5
5D7
100
AcDbEntity
  8
DRAFT
100
AcDbCircle
 62
7
  6
CONTINUOUS
 10
116.2046875
 20
127.6213213948
 40
2.8
100
AcDbArc
 50
270.0
 51
90.0
  0
ARC
  5
5D8
100
AcDbEntity
  8
RACCORDO
100
AcDbCircle
 62
253
  6
CONTINUOUS
 10
116.2046875
 20
127.6213213948
 40
2.7751898462
100
AcDbArc
 50
270.0
 51
90.0
  0
ARC
  5
5D9
100
AcDbEntity
  8
RACCORDO
100
AcDbCircle
 62
253
  6
CONTINUOUS
 10
111.2046875
 20
127.6213213948
 40
2.7751898462
100
AcDbArc
 50
90.0
 51
270.0
  0
ARC
  5
5DA
100
AcDbEntity
  8
RACCORDO
100
AcDbCircle
 62
253
  6
CONTINUOUS
 10
116.2046875
 20
127.6213213948
 40
2.4753725981
100
AcDbArc
 50
270.0
 51
90.0
  0
ARC
  5
5DB
100
AcDbEntity
  8
RACCORDO
100
AcDbCircle
 62
253
  6
CONTINUOUS
 10
111.2046875
 20
127.6213213948
 40
2.4753725981
100
AcDbArc
 50
90.0
 51
270.0
  0
ARC
  5
5DC
100
AcDbEntity
  8
DRAFT
100
AcDbCircle
 62
7
  6
CONTINUOUS
 10
116.2046875
 20
127.6213213948
 40
1.8
100
AcDbArc
 50
270.0
 51
90.0
  0
ARC
  5
5DD
100
AcDbEntity
  8
DRAFT
100
AcDbCircle
 62
7
  6
CONTINUOUS
 10
111.2046875
 20
127.6213213948
 40
1.8
100
AcDbArc
 50
90.0
 51
270.0
  0
CIRCLE
  5
5DE
100
AcDbEntity
  8
RACCORDO
100
AcDbCircle
 62
7
  6
CONTINUOUS
 10
98.7046875
 20
137.6213213948
 40
1.5
  0
ARC
  5
5DF
100
AcDbEntity
  8
DRAFT
100
AcDbCircle
 62
7
  6
CONTINUOUS
 10
98.7046875
 20
153.7213213948
 40
1.0012393766
100
AcDbArc
 50
239.2628798965
 51
251.6610030095
  0
ARC
  5
5E0
100
AcDbEntity
  8
DRAFT
100
AcDbCircle
 62
7
  6
CONTINUOUS
 10
98.7046875
 20
153.7213213948
 40
1.0012393766
100
AcDbArc
 50
288.3389969905
 51
300.7371201035
  0
ARC
  5
5E1
100
AcDbEntity
  8
RACCORDO
100
AcDbCircle
 62
7
  6
CONTINUOUS
 10
82.6046875
 20
132.6213213948
 40
0.9
100
AcDbArc
 50
340.3787280035
 51
19.6212719965
  0
ARC
  5
5E2
100
AcDbEntity
  8
DRAFT
100
AcDbCircle
 62
7
  6
CONTINUOUS
 10
98.7046875
 20
153.7213213948
 40
0.8406527792
100
AcDbArc
 50
236.3756765746
 51
303.6243234254
  0
ARC
  5
5E3
100
AcDbEntity
  8
DRAFT
100
AcDbCircle
 62
7
  6
CONTINUOUS
 10
82.6046875
 20
132.6213213948
 40
0.8406527792
100
AcDbArc
 50
326.3756765746
 51
33.6243234254
  0
ARC
  5
5E4
100
AcDbEntity
  8
IMPORT_IGES
100
AcDbCircle
 62
7
  6
CONTINUOUS
 10
137.6046875
 20
111.1713213948
 40
0.5
100
AcDbArc
 50
281.5535726233
 51
78.4445013199
  0
CIRCLE
  5
5E5
100
AcDbEntity
  8
RACCORDO
100
AcDbCircle
 62
253
  6
CONTINUOUS
 10
98.7046875
 20
137.6213213948
 40
0.5
  0
ARC
  5
5E6
100
AcDbEntity
  8
DRAFT
100
AcDbCircle
 62
7
  6
CONTINUOUS
 10
171.2046875
 20
57.6213213948
 40
2.8
100
AcDbArc
 50
90.0
 51
270.0
  0
ARC
  5
5E7
100
AcDbEntity
  8
RACCORDO
100
AcDbCircle
 62
253
  6
CONTINUOUS
 10
171.2046875
 20
57.6213213948
 40
2.7751898462
100
AcDbArc
 50
90.0
 51
270.0
  0
ARC
  5
5E8
100
AcDbEntity
  8
RACCORDO
100
AcDbCircle
 62
253
  6
CONTINUOUS
 10
171.2046875
 20
57.6213213948
 40
2.4753725981
100
AcDbArc
 50
90.0
 51
270.0
  0
ARC
  5
5E9
100
AcDbEntity
  8
DRAFT
100
AcDbCircle
 62
7
  6
CONTINUOUS
 10
171.2046875
 20
57.6213213948
 40
1.8
100
AcDbArc
 50
90.0
 51
270.0
  0
ARC
  5
5EA
100
AcDbEntity
  8
DRAFT
100
AcDbCircle
 62
7
  6
CONTINUOUS
 10
146.7046875
 20
33.8713213948
 40
1.1448770389
100
AcDbArc
 50
60.3405054038
 51
66.5360452787
  0
ARC
  5
5EB
100
AcDbEntity
  8
DRAFT
100
AcDbCircle
 62
7
  6
CONTINUOUS
 10
146.7046875
 20
33.8713213948
 40
1.1448770389
100
AcDbArc
 50
113.4639547213
 51
119.6594945962
  0
ARC
  5
5EC
100
AcDbEntity
  8
RACCORDO
100
AcDbCircle
 62
7
  6
CONTINUOUS
 10
146.7046875
 20
33.8713213948
 40
1.0
100
AcDbArc
 50
58.2116693829
 51
121.7883306171
  0
CIRCLE
  5
5ED
100
AcDbEntity
  8
RACCORDO
100
AcDbCircle
 62
253
  6
CONTINUOUS
 10
143.7046875
 20
77.6213213948
 40
6.2980228479
  0
CIRCLE
  5
5EE
100
AcDbEntity
  8
RACCORDO
100
AcDbCircle
 62
253
  6
CONTINUOUS
 10
143.7046875
 20
77.6213213948
 40
5.8150599348
  0
CIRCLE
  5
5EF
100
AcDbEntity
  8
DRAFT
100
AcDbCircle
 62
7
  6
CONTINUOUS
 10
143.7046875
 20
77.6213213948
 40
5.7
  0
CIRCLE
  5
5F0
100
AcDbEntity
  8
DRAFT
100
AcDbCircle
 62
7
  6
CONTINUOUS
 10
143.7046875
 20
77.6213213948
 40
4.5
  0
CIRCLE
  5
5F1
100
AcDbEntity
  8
RACCORDO
100
AcDbCircle
 62
253
  6
CONTINUOUS
 10
143.7046875
 20
77.6213213948
 40
4.3849400652
  0
CIRCLE
  5
5F2
100
AcDbEntity
  8
RACCORDO
100
AcDbCircle
 62
253
  6
CONTINUOUS
 10
143.7046875
 20
77.6213213948
 40
3.9019771521
  0
ARC
  5
5F3
100
AcDbEntity
  8
DRAFT
100
AcDbCircle
 62
7
  6
CONTINUOUS
 10
173.7046875
 20
85.1213213948
 40
2.8
100
AcDbArc
 50
180.0
 51
360.0
  0
ARC
  5
5F4
100
AcDbEntity
  8
DRAFT
100
AcDbCircle
 62
7
  6
CONTINUOUS
 10
173.7046875
 20
90.1213213948
 40
2.8
100
AcDbArc
 50
0.0
 51
180.0
  0
ARC
  5
5F5
100
AcDbEntity
  8
RACCORDO
100
AcDbCircle
 62
253
  6
CONTINUOUS
 10
173.7046875
 20
90.1213213948
 40
2.7751898462
100
AcDbArc
 50
0.0
 51
180.0
  0
ARC
  5
5F6
100
AcDbEntity
  8
RACCORDO
100
AcDbCircle
 62
253
  6
CONTINUOUS
 10
173.7046875
 20
85.1213213948
 40
2.7751898462
100
AcDbArc
 50
180.0
 51
360.0
  0
ARC
  5
5F7
100
AcDbEntity
  8
RACCORDO
100
AcDbCircle
 62
253
  6
CONTINUOUS
 10
173.7046875
 20
85.1213213948
 40
2.4753725981
100
AcDbArc
 50
180.0
 51
360.0
  0
ARC
  5
5F8
100
AcDbEntity
  8
RACCORDO
100
AcDbCircle
 62
253
  6
CONTINUOUS
 10
173.7046875
 20
90.1213213948
 40
2.4753725981
100
AcDbArc
 50
0.0
 51
180.0
  0
ARC
  5
5F9
100
AcDbEntity
  8
DRAFT
100
AcDbCircle
 62
7
  6
CONTINUOUS
 10
173.7046875
 20
90.1213213948
 40
1.8
100
AcDbArc
 50
0.0
 51
180.0
  0
ARC
  5
5FA
100
AcDbEntity
  8
DRAFT
100
AcDbCircle
 62
7
  6
CONTINUOUS
 10
173.7046875
 20
85.1213213948
 40
1.8
100
AcDbArc
 50
180.0
 51
360.0
  0
ARC
  5
5FB
100
AcDbEntity
  8
IMPORT_IGES
100
AcDbCircle
 62
7
  6
CONTINUOUS
 10
173.5446875
 20
88.1213213948
 40
1.75
100
AcDbArc
 50
0.0
 51
159.6266868943
  0
ARC
  5
5FC
100
AcDbEntity
  8
DRAFT
100
AcDbCircle
 62
7
  6
CONTINUOUS
 10
176.2046875
 20
57.6213213948
 40
2.8
100
AcDbArc
 50
270.0
 51
90.0
  0
ARC
  5
5FD
100
AcDbEntity
  8
RACCORDO
100
AcDbCircle
 62
253
  6
CONTINUOUS
 10
176.2046875
 20
57.6213213948
 40
2.7751898462
100
AcDbArc
 50
270.0
 51
90.0
  0
ARC
  5
5FE
100
AcDbEntity
  8
IMPORT_IGES
100
AcDbCircle
 62
7
  6
CONTINUOUS
 10
177.3546875
 20
57.9713213948
 40
2.5
100
AcDbArc
 50
144.5348101391
 51
239.3456906797
  0
ARC
  5
5FF
100
AcDbEntity
  8
RACCORDO
100
AcDbCircle
 62
253
  6
CONTINUOUS
 10
176.2046875
 20
57.6213213948
 40
2.4753725981
100
AcDbArc
 50
270.0
 51
90.0
  0
ARC
  5
600
100
AcDbEntity
  8
DRAFT
100
AcDbCircle
 62
7
  6
CONTINUOUS
 10
176.2046875
 20
57.6213213948
 40
1.8
100
AcDbArc
 50
270.0
 51
90.0
  0
CIRCLE
  5
601
100
AcDbEntity
  8
RACCORDO
100
AcDbCircle
 62
7
  6
CONTINUOUS
 10
188.7046875
 20
47.6213213948
 40
1.5
  0
ARC
  5
602
100
AcDbEntity
  8
RACCORDO
100
AcDbCircle
 62
7
  6
CONTINUOUS
 10
204.8046875
 20
52.6213213948
 40
0.9
100
AcDbArc
 50
160.3787280035
 51
199.6212719965
  0
ARC
  5
603
100
AcDbEntity
  8
RACCORDO
100
AcDbCircle
 62
7
  6
CONTINUOUS
 10
188.7046875
 20
31.5213213948
 40
0.9
100
AcDbArc
 50
70.3787280035
 51
109.6212719965
  0
ARC
  5
604
100
AcDbEntity
  8
DRAFT
100
AcDbCircle
 62
7
  6
CONTINUOUS
 10
188.7046875
 20
31.5213213948
 40
0.8406527792
100
AcDbArc
 50
56.3756765746
 51
123.6243234254
  0
ARC
  5
605
100
AcDbEntity
  8
DRAFT
100
AcDbCircle
 62
7
  6
CONTINUOUS
 10
204.8046875
 20
52.6213213948
 40
0.8406527792
100
AcDbArc
 50
146.3756765746
 51
213.6243234254
  0
CIRCLE
  5
606
100
AcDbEntity
  8
RACCORDO
100
AcDbCircle
 62
253
  6
CONTINUOUS
 10
188.7046875
 20
47.6213213948
 40
0.5
  0
ARC
  5
607
100
AcDbEntity
  8
DRAFT
100
AcDbCircle
 62
7
  6
CONTINUOUS
 10
185.5046875
 20
90.1213213948
 40
2.8
100
AcDbArc
 50
0.0
 51
180.0
  0
ARC
  5
608
100
AcDbEntity
  8
DRAFT
100
AcDbCircle
 62
7
  6
CONTINUOUS
 10
185.5046875
 20
85.1213213948
 40
2.8
100
AcDbArc
 50
180.0
 51
360.0
  0
ARC
  5
609
100
AcDbEntity
  8
RACCORDO
100
AcDbCircle
 62
253
  6
CONTINUOUS
 10
185.5046875
 20
85.1213213948
 40
2.7751898462
100
AcDbArc
 50
180.0
 51
360.0
  0
ARC
  5
60A
100
AcDbEntity
  8
RACCORDO
100
AcDbCircle
 62
253
  6
CONTINUOUS
 10
185.5046875
 20
90.1213213948
 40
2.7751898462
100
AcDbArc
 50
0.0
 51
180.0
  0
ARC
  5
60B
100
AcDbEntity
  8
RACCORDO
100
AcDbCircle
 62
253
  6
CONTINUOUS
 10
185.5046875
 20
85.1213213948
 40
2.4753725981
100
AcDbArc
 50
180.0
 51
360.0
  0
ARC
  5
60C
100
AcDbEntity
  8
RACCORDO
100
AcDbCircle
 62
253
  6
CONTINUOUS
 10
185.5046875
 20
90.1213213948
 40
2.4753725981
100
AcDbArc
 50
0.0
 51
180.0
  0
ARC
  5
60D
100
AcDbEntity
  8
DRAFT
100
AcDbCircle
 62
7
  6
CONTINUOUS
 10
185.5046875
 20
85.1213213948
 40
1.8
100
AcDbArc
 50
180.0
 51
360.0
  0
ARC
  5
60E
100
AcDbEntity
  8
DRAFT
100
AcDbCircle
 62
7
  6
CONTINUOUS
 10
185.5046875
 20
90.1213213948
 40
1.8
100
AcDbArc
 50
0.0
 51
180.0
  0
CIRCLE
  5
60F
100
AcDbEntity
  8
DRAFT
100
AcDbCircle
 62
7
  6
CONTINUOUS
 10
143.7046875
 20
105.6213213948
 40
3.5
  0
CIRCLE
  5
610
100
AcDbEntity
  8
RACCORDO
100
AcDbCircle
 62
253
  6
CONTINUOUS
 10
143.7046875
 20
105.6213213948
 40
3.4364703937
  0
CIRCLE
  5
611
100
AcDbEntity
  8
RACCORDO
100
AcDbCircle
 62
253
  6
CONTINUOUS
 10
143.7046875
 20
105.6213213948
 40
3.1376119843
  0
ARC
  5
612
100
AcDbEntity
  8
DRAFT
100
AcDbCircle
 62
7
  6
CONTINUOUS
 10
171.2046875
 20
127.6213213948
 40
2.8
100
AcDbArc
 50
90.0
 51
270.0
  0
ARC
  5
613
100
AcDbEntity
  8
RACCORDO
100
AcDbCircle
 62
253
  6
CONTINUOUS
 10
171.2046875
 20
127.6213213948
 40
2.7751898462
100
AcDbArc
 50
90.0
 51
270.0
  0
ARC
  5
614
100
AcDbEntity
  8
RACCORDO
100
AcDbCircle
 62
253
  6
CONTINUOUS
 10
171.2046875
 20
127.6213213948
 40
2.4753725981
100
AcDbArc
 50
90.0
 51
270.0
  0
CIRCLE
  5
615
100
AcDbEntity
  8
RACCORDO
100
AcDbCircle
 62
253
  6
CONTINUOUS
 10
143.7046875
 20
105.6213213948
 40
2.3623880157
  0
CIRCLE
  5
616
100
AcDbEntity
  8
RACCORDO
100
AcDbCircle
 62
253
  6
CONTINUOUS
 10
143.7046875
 20
105.6213213948
 40
2.0635296063
  0
CIRCLE
  5
617
100
AcDbEntity
  8
DRAFT
100
AcDbCircle
 62
7
  6
CONTINUOUS
 10
143.7046875
 20
105.6213213948
 40
2.0
  0
ARC
  5
618
100
AcDbEntity
  8
DRAFT
100
AcDbCircle
 62
7
  6
CONTINUOUS
 10
171.2046875
 20
127.6213213948
 40
1.8
100
AcDbArc
 50
90.0
 51
270.0
  0
CIRCLE
  5
619
100
AcDbEntity
  8
DRAFT
100
AcDbCircle
 62
7
  6
CONTINUOUS
 10
143.7046875
 20
132.6213213948
 40
3.5
  0
CIRCLE
  5
61A
100
AcDbEntity
  8
RACCORDO
100
AcDbCircle
 62
253
  6
CONTINUOUS
 10
143.7046875
 20
132.6213213948
 40
3.4364703937
  0
CIRCLE
  5
61B
100
AcDbEntity
  8
RACCORDO
100
AcDbCircle
 62
253
  6
CONTINUOUS
 10
143.7046875
 20
132.6213213948
 40
3.1376119843
  0
CIRCLE
  5
61C
100
AcDbEntity
  8
RACCORDO
100
AcDbCircle
 62
253
  6
CONTINUOUS
 10
143.7046875
 20
132.6213213948
 40
2.3246274019
  0
CIRCLE
  5
61D
100
AcDbEntity
  8
RACCORDO
100
AcDbCircle
 62
253
  6
CONTINUOUS
 10
143.7046875
 20
132.6213213948
 40
2.0248101538
  0
CIRCLE
  5
61E
100
AcDbEntity
  8
DRAFT
100
AcDbCircle
 62
7
  6
CONTINUOUS
 10
143.7046875
 20
132.6213213948
 40
1.9231743071
  0
ARC
  5
61F
100
AcDbEntity
  8
DRAFT
100
AcDbCircle
 62
7
  6
CONTINUOUS
 10
176.2046875
 20
127.6213213948
 40
2.8
100
AcDbArc
 50
270.0
 51
90.0
  0
ARC
  5
620
100
AcDbEntity
  8
RACCORDO
100
AcDbCircle
 62
253
  6
CONTINUOUS
 10
176.2046875
 20
127.6213213948
 40
2.7751898462
100
AcDbArc
 50
270.0
 51
90.0
  0
ARC
  5
621
100
AcDbEntity
  8
RACCORDO
100
AcDbCircle
 62
253
  6
CONTINUOUS
 10
176.2046875
 20
127.6213213948
 40
2.4753725981
100
AcDbArc
 50
270.0
 51
90.0
  0
ARC
  5
622
100
AcDbEntity
  8
DRAFT
100
AcDbCircle
 62
7
  6
CONTINUOUS
 10
176.2046875
 20
127.6213213948
 40
1.8
100
AcDbArc
 50
270.0
 51
90.0
  0
CIRCLE
  5
623
100
AcDbEntity
  8
RACCORDO
100
AcDbCircle
 62
7
  6
CONTINUOUS
 10
188.7046875
 20
137.6213213948
 40
1.5
  0
ARC
  5
624
100
AcDbEntity
  8
DRAFT
100
AcDbCircle
 62
7
  6
CONTINUOUS
 10
188.7046875
 20
153.7213213948
 40
1.0012393766
100
AcDbArc
 50
239.2628798965
 51
251.6610030095
  0
ARC
  5
625
100
AcDbEntity
  8
DRAFT
100
AcDbCircle
 62
7
  6
CONTINUOUS
 10
188.7046875
 20
153.7213213948
 40
1.0012393766
100
AcDbArc
 50
288.3389969905
 51
300.7371201035
  0
ARC
  5
626
100
AcDbEntity
  8
RACCORDO
100
AcDbCircle
 62
7
  6
CONTINUOUS
 10
204.8046875
 20
132.6213213948
 40
0.9
100
AcDbArc
 50
160.3787280035
 51
199.6212719965
  0
ARC
  5
627
100
AcDbEntity
  8
DRAFT
100
AcDbCircle
 62
7
  6
CONTINUOUS
 10
204.8046875
 20
132.6213213948
 40
0.8406527792
100
AcDbArc
 50
146.3756765746
 51
213.6243234254
  0
ARC
  5
628
100
AcDbEntity
  8
DRAFT
100
AcDbCircle
 62
7
  6
CONTINUOUS
 10
188.7046875
 20
153.7213213948
 40
0.8406527792
100
AcDbArc
 50
236.3756765746
 51
303.6243234254
  0
CIRCLE
  5
629
100
AcDbEntity
  8
RACCORDO
100
AcDbCircle
 62
253
  6
CONTINUOUS
 10
188.7046875
 20
137.6213213948
 40
0.5
  0
ELLIPSE
  5
62A
100
AcDbEntity
  8
RACCORDO
100
AcDbEllipse
 62
7
  6
CONTINUOUS
 10
102.9615559676
 20
85.8646204881
 30
0.0
 11
0.0
 21
1.1
 31
0.0
 40
0.0174550649
 41
-4.7123889804
 42
-3.1590459461
  0
ELLIPSE
  5
62B
100
AcDbEntity
  8
RACCORDO
100
AcDbEllipse
 62
7
  6
CONTINUOUS
 10
101.9478190324
 20
85.8646204881
 30
0.0
 11
0.0
 21
1.1
 31
0.0
 40
0.0174550649
 41
-3.1241393611
 42
-1.5707963268
  0
ELLIPSE
  5
62C
100
AcDbEntity
  8
RACCORDO
100
AcDbEllipse
 62
7
  6
CONTINUOUS
 10
102.9615559676
 20
86.0403544054
 30
0.0
 11
0.0
 21
1.1
 31
0.0
 40
0.0174550649
 41
0.0174532925
 42
1.5707963268
  0
ELLIPSE
  5
62D
100
AcDbEntity
  8
RACCORDO
100
AcDbEllipse
 62
7
  6
CONTINUOUS
 10
101.9478190324
 20
86.0403544054
 30
0.0
 11
-0.0
 21
1.1
 31
0.0
 40
0.0174550649
 41
-1.5707963268
 42
-0.0174532925
  0
ELLIPSE
  5
62E
100
AcDbEntity
  8
RACCORDO
100
AcDbEllipse
 62
7
  6
CONTINUOUS
 10
185.4615559676
 20
85.8646204881
 30
0.0
 11
0.0
 21
1.1
 31
0.0
 40
0.0174550649
 41
-4.7123889804
 42
-3.1590459461
  0
ELLIPSE
  5
62F
100
AcDbEntity
  8
RACCORDO
100
AcDbEllipse
 62
7
  6
CONTINUOUS
 10
184.4478190324
 20
85.8646204881
 30
0.0
 11
0.0
 21
1.1
 31
0.0
 40
0.0174550649
 41
-3.1241393611
 42
-1.5707963268
  0
ELLIPSE
  5
630
100
AcDbEntity
  8
RACCORDO
100
AcDbEllipse
 62
7
  6
CONTINUOUS
 10
185.4615559676
 20
86.0403544054
 30
0.0
 11
-0.0
 21
1.1
 31
0.0
 40
0.0174550649
 41
0.0174532925
 42
1.5707963268
  0
ELLIPSE
  5
631
100
AcDbEntity
  8
RACCORDO
100
AcDbEllipse
 62
7
  6
CONTINUOUS
 10
184.4478190324
 20
86.0403544054
 30
0.0
 11
0.0
 21
1.1
 31
0.0
 40
0.0174550649
 41
-1.5707963268
 42
-0.0174532925
  0
ELLIPSE
  5
632
100
AcDbEntity
  8
RACCORDO
100
AcDbEllipse
 62
7
  6
CONTINUOUS
 10
139.7110704871
 20
30.7213670932
 30
0.0
 11
0.0261507362
 21
0.2989042824
 31
0.0
 40
0.9998465296
 41
-3.0543395159
 42
-1.5707963268
  0
ELLIPSE
  5
633
100
AcDbEntity
  8
RACCORDO
100
AcDbEllipse
 62
7
  6
CONTINUOUS
 10
83.2049464577
 20
32.1215803525
 30
0.0
 11
1.2024477216
 21
1.2024477216
 31
0.0
 40
0.9996954599
 41
2.3563467834
 42
3.9268385237
  0
ELLIPSE
  5
634
100
AcDbEntity
  8
RACCORDO
100
AcDbEllipse
 62
7
  6
CONTINUOUS
 10
83.2049464577
 20
153.1210624371
 30
0.0
 11
1.2024477216
 21
-1.2024477216
 31
0.0
 40
0.9996954599
 41
2.3563467834
 42
3.9268385237
  0
ELLIPSE
  5
635
100
AcDbEntity
  8
RACCORDO
100
AcDbEllipse
 62
7
  6
CONTINUOUS
 10
204.2044285423
 20
153.1210624371
 30
0.0
 11
-1.2024477216
 21
-1.2024477216
 31
0.0
 40
0.9996954599
 41
2.3563467834
 42
3.9268385237
  0
ELLIPSE
  5
636
100
AcDbEntity
  8
RACCORDO
100
AcDbEllipse
 62
7
  6
CONTINUOUS
 10
204.2044285423
 20
32.1215803525
 30
0.0
 11
-1.2024477216
 21
1.2024477216
 31
0.0
 40
0.9996954599
 41
2.3563467834
 42
3.9268385237
  0
ELLIPSE
  5
637
100
AcDbEntity
  8
RACCORDO
100
AcDbEllipse
 62
7
  6
CONTINUOUS
 10
147.6983045129
 20
30.7213670932
 30
0.0
 11
0.0261507362
 21
-0.2989042824
 31
0.0
 40
0.9998465296
 41
-1.5707963268
 42
-0.0872531377
  0
ELLIPSE
  5
638
100
AcDbEntity
  8
RACCORDO
100
AcDbEllipse
 62
7
  6
CONTINUOUS
 10
139.7600389532
 20
33.3659699417
 30
0.0
 11
1.0609832838
 21
-1.0609832838
 31
0.0
 40
0.9996954599
 41
2.3563467834
 42
3.9268385237
  0
ELLIPSE
  5
639
100
AcDbEntity
  8
RACCORDO
100
AcDbEllipse
 62
7
  6
CONTINUOUS
 10
147.6493360468
 20
33.3659699417
 30
0.0
 11
1.0609832838
 21
1.0609832838
 31
0.0
 40
0.9996954599
 41
-0.7852458701
 42
0.7852458701
  0
ELLIPSE
  5
63A
100
AcDbEntity
  8
RACCORDO
100
AcDbEllipse
 62
7
  6
CONTINUOUS
 10
171.7745077597
 20
153.0213213948
 30
0.0
 11
-0.0
 21
4.0
 31
0.0
 40
0.0174550649
 41
-4.6949356879
 42
-4.6498427652
  0
ELLIPSE
  5
63B
100
AcDbEntity
  8
RACCORDO
100
AcDbEllipse
 62
7
  6
CONTINUOUS
 10
136.7745077597
 20
153.0213213948
 30
0.0
 11
-0.0
 21
4.0
 31
0.0
 40
0.0174550649
 41
-4.6949356879
 42
-4.6498427652
  0
ELLIPSE
  5
63C
100
AcDbEntity
  8
RACCORDO
100
AcDbEllipse
 62
7
  6
CONTINUOUS
 10
101.7745077597
 20
153.0213213948
 30
0.0
 11
-0.0
 21
4.0
 31
0.0
 40
0.0174550649
 41
-4.6949356879
 42
-4.6498427652
  0
ELLIPSE
  5
63D
100
AcDbEntity
  8
RACCORDO
100
AcDbEllipse
 62
7
  6
CONTINUOUS
 10
168.7123640053
 20
32.2937829224
 30
0.0
 11
0.3513381634
 21
0.0000186051
 31
0.0
 40
0.0173964513
 41
3.1400697342
 42
4.709344983
  0
ELLIPSE
  5
63E
100
AcDbEntity
  8
RACCORDO
100
AcDbEllipse
 62
7
  6
CONTINUOUS
 10
178.6970109947
 20
32.2937829224
 30
0.0
 11
0.3513381634
 21
-0.0000186051
 31
0.0
 40
0.0173964513
 41
-1.5677523294
 42
0.0015229194
  0
ELLIPSE
  5
63F
100
AcDbEntity
  8
RACCORDO
100
AcDbEllipse
 62
7
  6
CONTINUOUS
 10
108.7123640053
 20
32.2937829224
 30
0.0
 11
0.3513381634
 21
0.0000186051
 31
0.0
 40
0.0173964513
 41
3.1400697342
 42
4.709344983
  0
ELLIPSE
  5
640
100
AcDbEntity
  8
RACCORDO
100
AcDbEllipse
 62
7
  6
CONTINUOUS
 10
118.6970109947
 20
32.2937829224
 30
0.0
 11
0.3513381634
 21
-0.0000186051
 31
0.0
 40
0.0173964513
 41
-1.5677523294
 42
0.0015229194
  0
ELLIPSE
  5
641
100
AcDbEntity
  8
DRAFT
100
AcDbEllipse
 62
7
  6
CONTINUOUS
 10
109.0348672403
 20
153.0213213948
 30
0.0
 11
0.0
 21
3.0
 31
0.0
 40
0.0174550649
 41
-1.6542452202
 42
-1.5882496193
  0
ELLIPSE
  5
642
100
AcDbEntity
  8
DRAFT
100
AcDbEllipse
 62
7
  6
CONTINUOUS
 10
108.3745077597
 20
153.0213213948
 30
0.0
 11
-0.0
 21
3.0
 31
0.0
 40
0.0174550649
 41
-4.6949356879
 42
-4.628940087
  0
ELLIPSE
  5
643
100
AcDbEntity
  8
DRAFT
100
AcDbEllipse
 62
7
  6
CONTINUOUS
 10
102.6348672403
 20
153.0213213948
 30
0.0
 11
0.0
 21
3.0
 31
0.0
 40
0.0174550649
 41
-1.6542452202
 42
-1.5882496193
  0
ELLIPSE
  5
644
100
AcDbEntity
  8
DRAFT
100
AcDbEllipse
 62
7
  6
CONTINUOUS
 10
179.0348672403
 20
153.0213213948
 30
0.0
 11
0.0
 21
3.0
 31
0.0
 40
0.0174550649
 41
-1.6542452202
 42
-1.5882496193
  0
ELLIPSE
  5
645
100
AcDbEntity
  8
DRAFT
100
AcDbEllipse
 62
7
  6
CONTINUOUS
 10
184.7745077597
 20
153.0213213948
 30
0.0
 11
0.0
 21
3.0
 31
0.0
 40
0.0174550649
 41
-4.6949356879
 42
-4.628940087
  0
ELLIPSE
  5
646
100
AcDbEntity
  8
DRAFT
100
AcDbEllipse
 62
7
  6
CONTINUOUS
 10
178.3745077597
 20
153.0213213948
 30
0.0
 11
0.0
 21
3.0
 31
0.0
 40
0.0174550649
 41
-4.6949356879
 42
-4.628940087
  0
ELLIPSE
  5
647
100
AcDbEntity
  8
DRAFT
100
AcDbEllipse
 62
7
  6
CONTINUOUS
 10
172.6348672403
 20
153.0213213948
 30
0.0
 11
0.0
 21
3.0
 31
0.0
 40
0.0174550649
 41
-1.6542452202
 42
-1.5882496193
  0
ELLIPSE
  5
648
100
AcDbEntity
  8
DRAFT
100
AcDbEllipse
 62
7
  6
CONTINUOUS
 10
144.0348672403
 20
153.0213213948
 30
0.0
 11
0.0
 21
3.0
 31
0.0
 40
0.0174550649
 41
-1.6542452202
 42
-1.5882496193
  0
ELLIPSE
  5
649
100
AcDbEntity
  8
DRAFT
100
AcDbEllipse
 62
7
  6
CONTINUOUS
 10
149.7745077597
 20
153.0213213948
 30
0.0
 11
0.0
 21
3.0
 31
0.0
 40
0.0174550649
 41
-4.6949356879
 42
-4.628940087
  0
ELLIPSE
  5
64A
100
AcDbEntity
  8
DRAFT
100
AcDbEllipse
 62
7
  6
CONTINUOUS
 10
143.3745077597
 20
153.0213213948
 30
0.0
 11
-0.0
 21
3.0
 31
0.0
 40
0.0174550649
 41
-4.6949356879
 42
-4.628940087
  0
ELLIPSE
  5
64B
100
AcDbEntity
  8
DRAFT
100
AcDbEllipse
 62
7
  6
CONTINUOUS
 10
137.6348672403
 20
153.0213213948
 30
0.0
 11
0.0
 21
3.0
 31
0.0
 40
0.0174550649
 41
-1.6542452202
 42
-1.5882496193
  0
ELLIPSE
  5
64C
100
AcDbEntity
  8
DRAFT
100
AcDbEllipse
 62
7
  6
CONTINUOUS
 10
143.7046875
 20
34.7736400636
 30
0.0
 11
1.7454206743
 21
0.0
 31
0.0
 40
0.0174550853
 41
0.0
 42
6.2831853072
  0
ELLIPSE
  5
64D
100
AcDbEntity
  8
RACCORDO
100
AcDbEllipse
 62
7
  6
CONTINUOUS
 10
143.7046875
 20
34.7736865896
 30
0.0
 11
4.5
 21
-0.0
 31
0.0
 40
0.0174550649
 41
-2.306469282
 42
-0.8351233716
  0
ELLIPSE
  5
64E
100
AcDbEntity
  8
RACCORDO
100
AcDbEllipse
 62
7
  6
CONTINUOUS
 10
115.3662406587
 20
152.9899022779
 30
0.0
 11
0.3
 21
0.0
 31
0.0
 40
0.0174550649
 41
0.0174532925
 42
1.5707963268
  0
ELLIPSE
  5
64F
100
AcDbEntity
  8
RACCORDO
100
AcDbEllipse
 62
7
  6
CONTINUOUS
 10
102.0431343413
 20
152.9899022779
 30
0.0
 11
0.3
 21
-0.0
 31
0.0
 40
0.0174550649
 41
1.5707963268
 42
3.1241393611
  0
ELLIPSE
  5
650
100
AcDbEntity
  8
RACCORDO
100
AcDbEllipse
 62
7
  6
CONTINUOUS
 10
150.3662406587
 20
152.9899022779
 30
0.0
 11
0.3
 21
-0.0
 31
0.0
 40
0.0174550649
 41
0.0174532925
 42
1.5707963268
  0
ELLIPSE
  5
651
100
AcDbEntity
  8
RACCORDO
100
AcDbEllipse
 62
7
  6
CONTINUOUS
 10
137.0431343413
 20
152.9899022779
 30
0.0
 11
0.3
 21
-0.0
 31
0.0
 40
0.0174550649
 41
1.5707963268
 42
3.1241393611
  0
ELLIPSE
  5
652
100
AcDbEntity
  8
RACCORDO
100
AcDbEllipse
 62
7
  6
CONTINUOUS
 10
185.3662406587
 20
152.9899022779
 30
0.0
 11
0.3
 21
0.0
 31
0.0
 40
0.0174550649
 41
0.0174532925
 42
1.5707963268
  0
ELLIPSE
  5
653
100
AcDbEntity
  8
RACCORDO
100
AcDbEllipse
 62
7
  6
CONTINUOUS
 10
172.0431343413
 20
152.9899022779
 30
0.0
 11
0.3
 21
0.0
 31
0.0
 40
0.0174550649
 41
1.5707963268
 42
3.1241393611
  0
ELLIPSE
  5
654
100
AcDbEntity
  8
RACCORDO
100
AcDbEllipse
 62
7
  6
CONTINUOUS
 10
115.0046875
 20
152.9899022779
 30
0.0
 11
0.3
 21
0.0
 31
0.0
 40
0.0174550649
 41
1.5707963268
 42
3.1415926536
  0
ELLIPSE
  5
655
100
AcDbEntity
  8
RACCORDO
100
AcDbEllipse
 62
7
  6
CONTINUOUS
 10
102.3662406587
 20
152.9899022779
 30
0.0
 11
0.3
 21
0.0
 31
0.0
 40
0.0174550649
 41
0.0174532925
 42
1.5707963268
  0
ELLIPSE
  5
656
100
AcDbEntity
  8
RACCORDO
100
AcDbEllipse
 62
7
  6
CONTINUOUS
 10
150.0431343413
 20
152.9899022779
 30
0.0
 11
0.3
 21
0.0
 31
0.0
 40
0.0174550649
 41
1.5707963268
 42
3.1241393611
  0
ELLIPSE
  5
657
100
AcDbEntity
  8
RACCORDO
100
AcDbEllipse
 62
7
  6
CONTINUOUS
 10
137.3662406587
 20
152.9899022779
 30
0.0
 11
0.3
 21
-0.0
 31
0.0
 40
0.0174550649
 41
0.0174532925
 42
1.5707963268
  0
ELLIPSE
  5
658
100
AcDbEntity
  8
RACCORDO
100
AcDbEllipse
 62
7
  6
CONTINUOUS
 10
185.0431343413
 20
152.9899022779
 30
0.0
 11
0.3
 21
0.0
 31
0.0
 40
0.0174550649
 41
1.5707963268
 42
3.1241393611
  0
ELLIPSE
  5
659
100
AcDbEntity
  8
RACCORDO
100
AcDbEllipse
 62
7
  6
CONTINUOUS
 10
172.3662406587
 20
152.9899022779
 30
0.0
 11
0.3
 21
0.0
 31
0.0
 40
0.0174550649
 41
0.0174532925
 42
1.5707963268
  0
ELLIPSE
  5
65A
100
AcDbEntity
  8
RACCORDO
100
AcDbEllipse
 62
7
  6
CONTINUOUS
 10
178.6932127302
 20
32.3371972837
 30
0.0
 11
0.3513332822
 21
0.000037188
 31
0.0
 40
0.0174283098
 41
0.0015229195
 42
1.5647230497
  0
ELLIPSE
  5
65B
100
AcDbEntity
  8
RACCORDO
100
AcDbEllipse
 62
7
  6
CONTINUOUS
 10
168.7161622698
 20
32.3371972837
 30
0.0
 11
0.3513332822
 21
-0.000037188
 31
0.0
 40
0.0174283098
 41
1.5768696038
 42
3.1400697341
  0
ELLIPSE
  5
65C
100
AcDbEntity
  8
RACCORDO
100
AcDbEllipse
 62
7
  6
CONTINUOUS
 10
108.7161622698
 20
32.3371972837
 30
0.0
 11
0.3513332822
 21
-0.000037188
 31
0.0
 40
0.0174283098
 41
1.5768696038
 42
3.1400697341
  0
ELLIPSE
  5
65D
100
AcDbEntity
  8
RACCORDO
100
AcDbEllipse
 62
7
  6
CONTINUOUS
 10
118.6932127302
 20
32.3371972837
 30
0.0
 11
0.3513332822
 21
0.000037188
 31
0.0
 40
0.0174283098
 41
0.0015229195
 42
1.5647230497
  0
ELLIPSE
  5
65E
100
AcDbEntity
  8
RACCORDO
100
AcDbEllipse
 62
7
  6
CONTINUOUS
 10
204.0418492663
 20
92.9235425656
 30
0.0
 11
-0.0
 21
0.2
 31
0.0
 40
0.0174550649
 41
-1.5707963268
 42
-0.0174532925
  0
ELLIPSE
  5
65F
100
AcDbEntity
  8
RACCORDO
100
AcDbEllipse
 62
7
  6
CONTINUOUS
 10
204.0418492663
 20
92.319100224
 30
0.0
 11
-0.0
 21
0.2
 31
0.0
 40
0.0174550649
 41
-3.1241393611
 42
-1.5707963268
  0
ELLIPSE
  5
660
100
AcDbEntity
  8
RACCORDO
100
AcDbEllipse
 62
7
  6
CONTINUOUS
 10
204.0418492663
 20
52.9235425656
 30
0.0
 11
0.0
 21
0.2
 31
0.0
 40
0.0174550649
 41
-0.4338116271
 42
-0.0174532925
  0
ELLIPSE
  5
661
100
AcDbEntity
  8
RACCORDO
100
AcDbEllipse
 62
7
  6
CONTINUOUS
 10
204.0418492663
 20
52.319100224
 30
0.0
 11
0.0
 21
0.2
 31
0.0
 40
0.0174550649
 41
-3.1241393611
 42
-2.7077810265
  0
ELLIPSE
  5
662
100
AcDbEntity
  8
RACCORDO
100
AcDbEllipse
 62
7
  6
CONTINUOUS
 10
83.3675257337
 20
52.9235425656
 30
0.0
 11
0.0
 21
0.2
 31
0.0
 40
0.0174550649
 41
0.0174532925
 42
0.4338116271
  0
ELLIPSE
  5
663
100
AcDbEntity
  8
RACCORDO
100
AcDbEllipse
 62
7
  6
CONTINUOUS
 10
83.3675257337
 20
52.319100224
 30
0.0
 11
-0.0
 21
0.2
 31
0.0
 40
0.0174550649
 41
-3.5754042807
 42
-3.1590459461
  0
ELLIPSE
  5
664
100
AcDbEntity
  8
RACCORDO
100
AcDbEllipse
 62
7
  6
CONTINUOUS
 10
83.3675257337
 20
92.9235425656
 30
0.0
 11
-0.0
 21
0.2
 31
0.0
 40
0.0174550649
 41
0.0174532925
 42
1.5707963268
  0
ELLIPSE
  5
665
100
AcDbEntity
  8
RACCORDO
100
AcDbEllipse
 62
7
  6
CONTINUOUS
 10
83.3675257337
 20
92.319100224
 30
0.0
 11
-0.0
 21
0.2
 31
0.0
 40
0.0174550649
 41
-4.7123889804
 42
-3.1590459461
  0
ELLIPSE
  5
666
100
AcDbEntity
  8
RACCORDO
100
AcDbEllipse
 62
7
  6
CONTINUOUS
 10
204.0418492663
 20
132.9235425656
 30
0.0
 11
0.0
 21
0.2
 31
0.0
 40
0.0174550649
 41
-0.4338116271
 42
-0.0174532925
  0
ELLIPSE
  5
667
100
AcDbEntity
  8
RACCORDO
100
AcDbEllipse
 62
7
  6
CONTINUOUS
 10
204.0418492663
 20
132.319100224
 30
0.0
 11
-0.0
 21
0.2
 31
0.0
 40
0.0174550649
 41
-3.1241393611
 42
-2.7077810265
  0
ELLIPSE
  5
668
100
AcDbEntity
  8
RACCORDO
100
AcDbEllipse
 62
7
  6
CONTINUOUS
 10
83.3675257337
 20
132.9235425656
 30
0.0
 11
-0.0
 21
0.2
 31
0.0
 40
0.0174550649
 41
0.0174532925
 42
0.4338116271
  0
ELLIPSE
  5
669
100
AcDbEntity
  8
RACCORDO
100
AcDbEllipse
 62
7
  6
CONTINUOUS
 10
83.3675257337
 20
132.319100224
 30
0.0
 11
0.0
 21
0.2
 31
0.0
 40
0.0174550649
 41
-3.5754042807
 42
-3.1590459461
  0
ELLIPSE
  5
66A
100
AcDbEntity
  8
RACCORDO
100
AcDbEllipse
 62
7
  6
CONTINUOUS
 10
189.0069086708
 20
32.2841596286
 30
0.0
 11
0.2
 21
-0.0
 31
0.0
 40
0.0174550649
 41
-0.4338116271
 42
-0.0174532925
  0
ELLIPSE
  5
66B
100
AcDbEntity
  8
RACCORDO
100
AcDbEllipse
 62
7
  6
CONTINUOUS
 10
188.4024663292
 20
32.2841596286
 30
0.0
 11
0.2
 21
0.0
 31
0.0
 40
0.0174550649
 41
-3.1241393611
 42
-2.7077810265
  0
ELLIPSE
  5
66C
100
AcDbEntity
  8
RACCORDO
100
AcDbEllipse
 62
7
  6
CONTINUOUS
 10
156.0069086708
 20
32.2841596286
 30
0.0
 11
0.2
 21
0.0
 31
0.0
 40
0.0174550649
 41
-1.5707963268
 42
-0.0174532925
  0
ELLIPSE
  5
66D
100
AcDbEntity
  8
RACCORDO
100
AcDbEllipse
 62
7
  6
CONTINUOUS
 10
155.4024663292
 20
32.2841596286
 30
0.0
 11
0.2
 21
0.0
 31
0.0
 40
0.0174550649
 41
-3.1241393611
 42
-1.5707963268
  0
ELLIPSE
  5
66E
100
AcDbEntity
  8
RACCORDO
100
AcDbEllipse
 62
7
  6
CONTINUOUS
 10
132.0069086708
 20
32.2841596286
 30
0.0
 11
0.2
 21
0.0
 31
0.0
 40
0.0174550649
 41
-1.5707963268
 42
-0.0174532925
  0
ELLIPSE
  5
66F
100
AcDbEntity
  8
RACCORDO
100
AcDbEllipse
 62
7
  6
CONTINUOUS
 10
131.4024663292
 20
32.2841596286
 30
0.0
 11
0.2
 21
0.0
 31
0.0
 40
0.0174550649
 41
-3.1241393611
 42
-1.5707963268
  0
ELLIPSE
  5
670
100
AcDbEntity
  8
RACCORDO
100
AcDbEllipse
 62
7
  6
CONTINUOUS
 10
99.0069086708
 20
32.2841596286
 30
0.0
 11
0.2
 21
0.0
 31
0.0
 40
0.0174550649
 41
-0.4338116271
 42
-0.0174532925
  0
ELLIPSE
  5
671
100
AcDbEntity
  8
RACCORDO
100
AcDbEllipse
 62
7
  6
CONTINUOUS
 10
98.4024663292
 20
32.2841596286
 30
0.0
 11
0.2
 21
0.0
 31
0.0
 40
0.0174550649
 41
-3.1241393611
 42
-2.7077810265
  0
ELLIPSE
  5
672
100
AcDbEntity
  8
RACCORDO
100
AcDbEllipse
 62
7
  6
CONTINUOUS
 10
138.0545960684
 20
26.8560949641
 30
0.0
 11
0.1495479602
 21
6.1455871562
 31
0.0
 40
0.0020764642
 41
-0.273133603
 42
-0.0851248902
  0
ELLIPSE
  5
673
100
AcDbEntity
  8
RACCORDO
100
AcDbEllipse
 62
7
  6
CONTINUOUS
 10
149.3547789316
 20
26.8560949641
 30
0.0
 11
-0.1495479602
 21
6.1455871562
 31
0.0
 40
0.0020764642
 41
0.0851248902
 42
0.273133603
  0
ELLIPSE
  5
674
100
AcDbEntity
  8
RACCORDO
100
AcDbEllipse
 62
7
  6
CONTINUOUS
 10
202.1942518909
 20
151.1108857858
 30
0.0
 11
-0.6241290872
 21
1.590775677
 31
0.0
 40
0.9672459152
 41
-1.9561455146
 42
-1.9461481729
  0
ELLIPSE
  5
675
100
AcDbEntity
  8
RACCORDO
100
AcDbEllipse
 62
7
  6
CONTINUOUS
 10
202.1942518909
 20
34.1317570039
 30
0.0
 11
0.6241290872
 21
1.590775677
 31
0.0
 40
0.9672459152
 41
-1.1954444807
 42
-1.185447139
  0
ELLIPSE
  5
676
100
AcDbEntity
  8
RACCORDO
100
AcDbEllipse
 62
7
  6
CONTINUOUS
 10
85.2151231091
 20
34.1317570039
 30
0.0
 11
1.590775677
 21
-0.6241290872
 31
0.0
 40
0.9672459152
 41
-1.1954444807
 42
-1.185447139
  0
ELLIPSE
  5
677
100
AcDbEntity
  8
RACCORDO
100
AcDbEllipse
 62
7
  6
CONTINUOUS
 10
202.1942518909
 20
34.1317570039
 30
0.0
 11
1.590775677
 21
0.6241290872
 31
0.0
 40
0.9672459152
 41
-1.9561455146
 42
-1.9461481729
  0
ELLIPSE
  5
678
100
AcDbEntity
  8
RACCORDO
100
AcDbEllipse
 62
7
  6
CONTINUOUS
 10
149.4977055487
 20
32.7643394435
 30
0.0
 11
0.2807251195
 21
-0.1101404272
 31
0.0
 40
0.9672459152
 41
-1.2128031854
 42
-1.185447139
  0
ELLIPSE
  5
679
100
AcDbEntity
  8
RACCORDO
100
AcDbEllipse
 62
7
  6
CONTINUOUS
 10
137.9116694513
 20
32.7643394435
 30
0.0
 11
0.2807251195
 21
0.1101404272
 31
0.0
 40
0.9672459152
 41
-1.9561455146
 42
-1.9287894682
  0
ELLIPSE
  5
67A
100
AcDbEntity
  8
RACCORDO
100
AcDbEllipse
 62
7
  6
CONTINUOUS
 10
85.2151231091
 20
34.1317570039
 30
0.0
 11
-0.6241290872
 21
1.590775677
 31
0.0
 40
0.9672459152
 41
1.185447139
 42
1.1954444807
  0
ELLIPSE
  5
67B
100
AcDbEntity
  8
RACCORDO
100
AcDbEllipse
 62
7
  6
CONTINUOUS
 10
85.2151231091
 20
151.1108857858
 30
0.0
 11
0.6241290872
 21
1.590775677
 31
0.0
 40
0.9672459152
 41
-4.3370371343
 42
-4.3270397926
  0
ELLIPSE
  5
67C
100
AcDbEntity
  8
RACCORDO
100
AcDbEllipse
 62
7
  6
CONTINUOUS
 10
85.2151231091
 20
151.1108857858
 30
0.0
 11
1.590775677
 21
0.6241290872
 31
0.0
 40
0.9672459152
 41
1.185447139
 42
1.1954444807
  0
ELLIPSE
  5
67D
100
AcDbEntity
  8
RACCORDO
100
AcDbEllipse
 62
7
  6
CONTINUOUS
 10
202.1942518909
 20
151.1108857858
 30
0.0
 11
1.590775677
 21
-0.6241290872
 31
0.0
 40
0.9672459152
 41
1.9461481729
 42
1.9561455146
  0
ELLIPSE
  5
67E
100
AcDbEntity
  8
RACCORDO
100
AcDbEllipse
 62
7
  6
CONTINUOUS
 10
179.5973282638
 20
35.5278712203
 30
0.0
 11
-0.0
 21
0.5
 31
0.0
 40
0.0174550649
 41
-0.9599310886
 42
-0.3059645267
  0
ELLIPSE
  5
67F
100
AcDbEntity
  8
RACCORDO
100
AcDbEllipse
 62
7
  6
CONTINUOUS
 10
107.8120467362
 20
35.5278712203
 30
0.0
 11
-0.0
 21
0.5
 31
0.0
 40
0.0174550649
 41
0.3059645267
 42
0.9599310886
  0
ELLIPSE
  5
680
100
AcDbEntity
  8
RACCORDO
100
AcDbEllipse
 62
7
  6
CONTINUOUS
 10
108.5973282638
 20
35.5278712203
 30
0.0
 11
0.0
 21
0.5
 31
0.0
 40
0.0174550649
 41
-0.9599310886
 42
-0.3059645267
  0
ELLIPSE
  5
681
100
AcDbEntity
  8
RACCORDO
100
AcDbEllipse
 62
7
  6
CONTINUOUS
 10
118.8120467362
 20
35.5278712203
 30
0.0
 11
0.0
 21
0.5
 31
0.0
 40
0.0174550649
 41
0.3059645267
 42
0.9599310886
  0
ELLIPSE
  5
682
100
AcDbEntity
  8
RACCORDO
100
AcDbEllipse
 62
7
  6
CONTINUOUS
 10
119.5973282638
 20
35.5278712203
 30
0.0
 11
0.0
 21
0.5
 31
0.0
 40
0.0174550649
 41
-0.9599310886
 42
-0.3059645267
  0
ELLIPSE
  5
683
100
AcDbEntity
  8
RACCORDO
100
AcDbEllipse
 62
7
  6
CONTINUOUS
 10
167.8120467362
 20
35.5278712203
 30
0.0
 11
-0.0
 21
0.5
 31
0.0
 40
0.0174550649
 41
0.3059645267
 42
0.9599310886
  0
ELLIPSE
  5
684
100
AcDbEntity
  8
RACCORDO
100
AcDbEllipse
 62
7
  6
CONTINUOUS
 10
168.5973282638
 20
35.5278712203
 30
0.0
 11
0.0
 21
0.5
 31
0.0
 40
0.0174550649
 41
-0.9599310886
 42
-0.3059645267
  0
ELLIPSE
  5
685
100
AcDbEntity
  8
RACCORDO
100
AcDbEllipse
 62
7
  6
CONTINUOUS
 10
178.8120467362
 20
35.5278712203
 30
0.0
 11
-0.0
 21
0.5
 31
0.0
 40
0.0174550649
 41
0.3059645267
 42
0.9599310886
  0
ELLIPSE
  5
686
100
AcDbEntity
  8
RACCORDO
100
AcDbEllipse
 62
7
  6
CONTINUOUS
 10
108.6488157303
 20
33.0586884454
 30
0.0
 11
0.0
 21
0.5
 31
0.0
 40
0.0174550649
 41
-4.1015237422
 42
-3.1590459461
  0
ELLIPSE
  5
687
100
AcDbEntity
  8
RACCORDO
100
AcDbEllipse
 62
7
  6
CONTINUOUS
 10
118.7605592697
 20
33.0586884454
 30
0.0
 11
0.0
 21
0.5
 31
0.0
 40
0.0174550649
 41
-3.1241393611
 42
-2.181661565
  0
ELLIPSE
  5
688
100
AcDbEntity
  8
RACCORDO
100
AcDbEllipse
 62
7
  6
CONTINUOUS
 10
137.8562058866
 20
34.9696201449
 30
0.0
 11
0.3000943356
 21
-0.0001981866
 31
0.0
 40
0.0436801752
 41
0.043710049
 42
0.6608899827
  0
ELLIPSE
  5
689
100
AcDbEntity
  8
RACCORDO
100
AcDbEllipse
 62
7
  6
CONTINUOUS
 10
149.5531691134
 20
34.9696201449
 30
0.0
 11
0.3000943356
 21
0.0001981866
 31
0.0
 40
0.0436801752
 41
2.4807026709
 42
3.0978826046
  0
ELLIPSE
  5
68A
100
AcDbEntity
  8
RACCORDO
100
AcDbEllipse
 62
7
  6
CONTINUOUS
 10
139.2328440178
 20
136.7950747958
 30
0.0
 11
0.5
 21
0.0
 31
0.0
 40
0.0874886635
 41
-3.054326191
 42
-1.5707963268
  0
ELLIPSE
  5
68B
100
AcDbEntity
  8
RACCORDO
100
AcDbEllipse
 62
7
  6
CONTINUOUS
 10
139.2328440178
 20
137.6475679939
 30
0.0
 11
0.5
 21
0.0
 31
0.0
 40
0.0874886635
 41
1.5707963268
 42
3.054326191
  0
ELLIPSE
  5
68C
100
AcDbEntity
  8
RACCORDO
100
AcDbEllipse
 62
7
  6
CONTINUOUS
 10
141.1765309822
 20
137.6475679939
 30
0.0
 11
0.5
 21
0.0
 31
0.0
 40
0.0874886635
 41
0.0872664626
 42
1.5707963268
  0
ELLIPSE
  5
68D
100
AcDbEntity
  8
RACCORDO
100
AcDbEllipse
 62
7
  6
CONTINUOUS
 10
141.1765309822
 20
136.7950747958
 30
0.0
 11
0.5
 21
0.0
 31
0.0
 40
0.0874886635
 41
-1.5707963268
 42
-0.0872664626
  0
ELLIPSE
  5
68E
100
AcDbEntity
  8
RACCORDO
100
AcDbEllipse
 62
7
  6
CONTINUOUS
 10
146.2328440178
 20
136.7950747958
 30
0.0
 11
0.5
 21
0.0
 31
0.0
 40
0.0874886635
 41
-3.054326191
 42
-1.5707963268
  0
ELLIPSE
  5
68F
100
AcDbEntity
  8
RACCORDO
100
AcDbEllipse
 62
7
  6
CONTINUOUS
 10
146.2328440178
 20
137.6475679939
 30
0.0
 11
0.5
 21
0.0
 31
0.0
 40
0.0874886635
 41
1.5707963268
 42
3.054326191
  0
ELLIPSE
  5
690
100
AcDbEntity
  8
RACCORDO
100
AcDbEllipse
 62
7
  6
CONTINUOUS
 10
148.1765309822
 20
137.6475679939
 30
0.0
 11
0.5
 21
0.0
 31
0.0
 40
0.0874886635
 41
0.0872664626
 42
1.5707963268
  0
ELLIPSE
  5
691
100
AcDbEntity
  8
RACCORDO
100
AcDbEllipse
 62
7
  6
CONTINUOUS
 10
148.1765309822
 20
136.7950747958
 30
0.0
 11
0.5
 21
0.0
 31
0.0
 40
0.0874886635
 41
-1.5707963268
 42
-0.0872664626
  0
ELLIPSE
  5
692
100
AcDbEntity
  8
RACCORDO
100
AcDbEllipse
 62
7
  6
CONTINUOUS
 10
148.1765309822
 20
96.4475679939
 30
0.0
 11
0.5
 21
0.0
 31
0.0
 40
0.0874886635
 41
0.0872664626
 42
1.5707963268
  0
ELLIPSE
  5
693
100
AcDbEntity
  8
RACCORDO
100
AcDbEllipse
 62
7
  6
CONTINUOUS
 10
148.1765309822
 20
95.5950747958
 30
0.0
 11
0.5
 21
0.0
 31
0.0
 40
0.0874886635
 41
-1.5707963268
 42
-0.0872664626
  0
ELLIPSE
  5
694
100
AcDbEntity
  8
RACCORDO
100
AcDbEllipse
 62
7
  6
CONTINUOUS
 10
146.2328440178
 20
95.5950747958
 30
0.0
 11
0.5
 21
0.0
 31
0.0
 40
0.0874886635
 41
-3.054326191
 42
-1.5707963268
  0
ELLIPSE
  5
695
100
AcDbEntity
  8
RACCORDO
100
AcDbEllipse
 62
7
  6
CONTINUOUS
 10
146.2328440178
 20
96.4475679939
 30
0.0
 11
0.5
 21
0.0
 31
0.0
 40
0.0874886635
 41
1.5707963268
 42
3.054326191
  0
ELLIPSE
  5
696
100
AcDbEntity
  8
RACCORDO
100
AcDbEllipse
 62
7
  6
CONTINUOUS
 10
141.1765309822
 20
96.4475679939
 30
0.0
 11
0.5
 21
0.0
 31
0.0
 40
0.0874886635
 41
0.0872664626
 42
1.5707963268
  0
ELLIPSE
  5
697
100
AcDbEntity
  8
RACCORDO
100
AcDbEllipse
 62
7
  6
CONTINUOUS
 10
141.1765309822
 20
95.5950747958
 30
0.0
 11
0.5
 21
0.0
 31
0.0
 40
0.0874886635
 41
-1.5707963268
 42
-0.0872664626
  0
ELLIPSE
  5
698
100
AcDbEntity
  8
RACCORDO
100
AcDbEllipse
 62
7
  6
CONTINUOUS
 10
139.2328440178
 20
95.5950747958
 30
0.0
 11
0.5
 21
0.0
 31
0.0
 40
0.0874886635
 41
-3.054326191
 42
-1.5707963268
  0
ELLIPSE
  5
699
100
AcDbEntity
  8
RACCORDO
100
AcDbEllipse
 62
7
  6
CONTINUOUS
 10
139.2328440178
 20
96.4475679939
 30
0.0
 11
0.5
 21
0.0
 31
0.0
 40
0.0874886635
 41
1.5707963268
 42
3.054326191
  0
ENDSEC
  0
SECTION
  2
OBJECTS
  0
DICTIONARY
  5
C
100
AcDbDictionary
280
0
281
1
  3
ACAD_GROUP
350
D
  3
ACAD_MLINESTYLE
350
17
  3
ACAD_LAYOUT
350
1A
  3
ACAD_PLOTSETTINGS
350
19
  3
ACAD_PLOTSTYLENAME
350
E
  0
DICTIONARY
  5
D
102
{ACAD_REACTORS
330
C
102
}
100
AcDbDictionary
280
0
281
1
  0
ACDBDICTIONARYWDFLT
  5
E
102
{ACAD_REACTORS
330
C
102
}
100
AcDbDictionary
281
1
  3
Normal
350
F
100
AcDbDictionaryWithDefault
340
F
  0
DICTIONARY
  5
17
102
{ACAD_REACTORS
330
C
102
}
100
AcDbDictionary
280
0
281
1
  3
Standard
350
18
  0
DICTIONARY
  5
19
102
{ACAD_REACTORS
330
C
102
}
100
AcDbDictionary
281
1
  0
DICTIONARY
  5
1A
102
{ACAD_REACTORS
330
C
102
}
100
AcDbDictionary
281
1
  3
Model
350
69A
  3
Layout1
350
69B
  0
ACDBPLACEHOLDER
  5
F
102
{ACAD_REACTORS
330
E
102
}
  0
MLINESTYLE
  5
18
102
{ACAD_REACTORS
330
17
102
}
100
AcDbMlineStyle
  2
STANDARD
 70
0
  3

 62
256
 51
90.0
 52
90.0
 71
2
 49
0.5
 62
256
  6
BYLAYER
 49
-0.5
 62
256
  6
BYLAYER
  0
LAYOUT
  5
69A
102
{ACAD_REACTORS
330
1A
102
}
100
AcDbPlotSettings
  1

  2
none_device
  4
ISO_A4_(297.00_x_210.00_MM)
  6

 40
0.0
 41
0.0
 42
0.0
 43
0.0
 44
297.0
 45
210.0
 46
0.0
 47
0.0
 48
0.0
 49
0.0
140
0.0
141
0.0
142
1.0
143
1.0
 70
1024
 72
1
 73
0
 74
0
  7

 75
0
147
1.0
148
0.0
149
0.0
100
AcDbLayout
  1
Model
 70
0
 71
0
 10
0.0
 20
0.0
 11
297.0
 21
210.0
 12
0.0
 22
0.0
 32
0.0
 14
0.0
 24
0.0
 34
0.0
 15
0.0
 25
0.0
 35
0.0
146
0.0
 13
0.0
 23
0.0
 33
0.0
 16
1.0
 26
0.0
 36
0.0
 17
0.0
 27
1.0
 37
0.0
 76
0
330
244
345
0
346
0
  0
LAYOUT
  5
69B
102
{ACAD_REACTORS
330
1A
102
}
100
AcDbPlotSettings
  1

  2
none_device
  4
ISO_A4_(297.00_x_210.00_MM)
  6

 40
0.0
 41
0.0
 42
0.0
 43
0.0
 44
297.0
 45
210.0
 46
0.0
 47
0.0
 48
0.0
 49
0.0
140
0.0
141
0.0
142
1.0
143
1.0
 70
0
 72
1
 73
0
 74
0
  7

 75
0
147
1.0
148
0.0
149
0.0
100
AcDbLayout
  1
Layout1
 70
0
 71
1
 10
0.0
 20
0.0
 11
297.0
 21
210.0
 12
0.0
 22
0.0
 32
0.0
 14
0.0
 24
0.0
 34
0.0
 15
0.0
 25
0.0
 35
0.0
146
0.0
 13
0.0
 23
0.0
 33
0.0
 16
1.0
 26
0.0
 36
0.0
 17
0.0
 27
1.0
 37
0.0
 76
0
330
245
345
0
346
0
  0
ENDSEC
  0
EOF
