  0
SECTION
  2
HEADER
  9
$ACADVER
  1
AC1021
  9
$DWGCODEPAGE
  3
ANSI_1252
  9
$EXTMAX
 10
297.0
 20
210.0
 30
0.0
  9
$EXTMIN
 10
0.0
 20
0.0
 30
0.0
  9
$LIMMIN
 10
0.0
 20
0.0
  9
$LIMMAX
 10
297.0
 20
210.0
  9
$VIEWCTR
 10
148.5
 20
105.0
  9
$VIEWSIZE
 40
210.0
  9
$CLAYER
  8
0
  9
$LTSCALE
 40
16.335
  9
$CELTYPE
  6
BYLAYER
  9
$DIMSCALE
 40
1.0
  9
$DIMASZ
 40
3.0
  9
$DIMEXO
 40
0.5
  9
$DIMDLI
 40
11.286
  9
$DIMEXE
 40
1.5
  9
$DIMCEN
 40
2.673
  9
$DIMLFAC
 40
1.0
  9
$DIMBLK
  1
_FILLED
  9
$DIMALT
 70
0
  9
$DIMALTF
 40
0.0393700787
  9
$DIMTXT
 40
3.0
  9
$DIMTOL
 70
1
  9
$DIMLIM
 70
0
  9
$DIMTFAC
 40
1.0
  9
$DIMTP
 40
0.01
  9
$DIMTM
 40
0.01
  9
$DIMGAP
 40
0.625
  9
$DIMDSEP
 70
44
  9
$AUNITS
 70
0
  9
$PDMODE
 70
3
  9
$PDSIZE
 40
3.0
  9
$HANDSEED
  5
2D0
  9
$TILEMODE
 70
1
  9
$MEASUREMENT
 70
1
  9
$INSUNITS
 70
4
  0
ENDSEC
  0
SECTION
  2
CLASSES
  0
CLASS
  1
ACDBDICTIONARYWDFLT
  2
AcDbDictionaryWithDefault
  3
AutoCAD 2000
 90
0
 91
1
280
0
281
0
  0
CLASS
  1
ACDBPLACEHOLDER
  2
AcDbPlaceHolder
  3
AutoCAD 2000
 90
0
 91
1
280
0
281
0
  0
CLASS
  1
LAYOUT
  2
AcDbLayout
  3
AutoCAD 2000
 90
0
 91
0
280
0
281
0
  0
ENDSEC
  0
SECTION
  2
TABLES
  0
TABLE
  2
VPORT
  5
8
100
AcDbSymbolTable
 70
2
  0
VPORT
  5
1F4
100
AcDbSymbolTableRecord
100
AcDbViewportTableRecord
  2
*ACTIVE
 70
0
 10
0.0
 20
0.0
 11
1.0
 21
1.0
 12
148.5
 22
105.0
 13
0.0
 23
0.0
 14
1.0
 24
1.0
 15
0.0
 25
0.0
 16
0.0
 26
0.0
 36
1.0
 17
0.0
 27
0.0
 37
0.0
 40
210.0
 41
1.4142857143
 42
50.0
 43
0.0
 44
0.0
 50
0.0
 51
0.0
 71
0
 72
100
 73
1
 74
1
 75
0
 76
0
 77
0
 78
0
  0
ENDTAB
  0
TABLE
  2
LTYPE
  5
5
100
AcDbSymbolTable
 70
6
  0
LTYPE
  5
14
100
AcDbSymbolTableRecord
100
AcDbLinetypeTableRecord
  2
BYBLOCK
 70
0
  3

 72
65
 73
0
 40
0.0
  0
LTYPE
  5
15
100
AcDbSymbolTableRecord
100
AcDbLinetypeTableRecord
  2
BYLAYER
 70
0
  3

 72
65
 73
0
 40
0.0
  0
LTYPE
  5
16
100
AcDbSymbolTableRecord
100
AcDbLinetypeTableRecord
  2
CONTINUOUS
 70
64
  3
Solid line
 72
65
 73
0
 40
0.0
  0
LTYPE
  5
1F5
100
AcDbSymbolTableRecord
100
AcDbLinetypeTableRecord
  2
CENTER
 70
64
  3
____ _ ____ _ ____ _ ____ _ ____ _ ____ _ ____
 72
65
 73
4
 40
0.6
 49
0.375
 74
0
 49
-0.075
 74
0
 49
0.075
 74
0
 49
-0.075
 74
0
  0
LTYPE
  5
1F6
100
AcDbSymbolTableRecord
100
AcDbLinetypeTableRecord
  2
HIDDEN
 70
64
  3
- - - - - - - - - - - - - - - - - - - -
 72
65
 73
2
 40
0.2
 49
0.1
 74
0
 49
-0.1
 74
0
  0
LTYPE
  5
1F7
100
AcDbSymbolTableRecord
100
AcDbLinetypeTableRecord
  2
PHANTOM
 70
64
  3
_____ _ _ _____ _ _ _____ _ _ _____
 72
65
 73
6
 40
0.8
 49
0.45
 74
0
 49
-0.05
 74
0
 49
0.1
 74
0
 49
-0.05
 74
0
 49
0.1
 74
0
 49
-0.05
 74
0
  0
LTYPE
  5
1F8
100
AcDbSymbolTableRecord
100
AcDbLinetypeTableRecord
  2
DOT
 70
64
  3
. . . . . . . . . . . . . . . . . . . .
 72
65
 73
2
 40
0.2
 49
0.1
 74
0
 49
-0.1
 74
0
  0
LTYPE
  5
1F9
100
AcDbSymbolTableRecord
100
AcDbLinetypeTableRecord
  2
DASHED
 70
64
  3
- - - - - - - - - - - - - - - - - - - -
 72
65
 73
2
 40
0.2
 49
0.1
 74
0
 49
-0.1
 74
0
  0
ENDTAB
  0
TABLE
  2
LAYER
  5
2
100
AcDbSymbolTable
 70
36
  0
LAYER
  5
10
100
AcDbSymbolTableRecord
100
AcDbLayerTableRecord
  2
0
 70
0
 62
7
  6
CONTINUOUS
370
-3
390
F
  0
LAYER
  5
1FA
100
AcDbSymbolTableRecord
100
AcDbLayerTableRecord
  2
DEFAULT_1
 70
0
 62
7
  6
CENTER
370
-3
390
F
  0
LAYER
  5
1FB
100
AcDbSymbolTableRecord
100
AcDbLayerTableRecord
  2
DEFAULT_2
 70
0
 62
7
  6
HIDDEN
370
-3
390
F
  0
LAYER
  5
1FC
100
AcDbSymbolTableRecord
100
AcDbLayerTableRecord
  2
DEFAULT_3
 70
0
 62
7
  6
PHANTOM
370
-3
390
F
  0
LAYER
  5
1FD
100
AcDbSymbolTableRecord
100
AcDbLayerTableRecord
  2
ASSI
 70
0
 62
7
  6
CONTINUOUS
370
-3
390
F
  0
LAYER
  5
1FE
100
AcDbSymbolTableRecord
100
AcDbLayerTableRecord
  2
COORDINATE
 70
0
 62
7
  6
CONTINUOUS
370
-3
390
F
  0
LAYER
  5
1FF
100
AcDbSymbolTableRecord
100
AcDbLayerTableRecord
  2
COPY_PUBLISH
 70
0
 62
7
  6
CONTINUOUS
370
-3
390
F
  0
LAYER
  5
200
100
AcDbSymbolTableRecord
100
AcDbLayerTableRecord
  2
COSMETICI
 70
0
 62
7
  6
CONTINUOUS
370
-3
390
F
  0
LAYER
  5
201
100
AcDbSymbolTableRecord
100
AcDbLayerTableRecord
  2
CURVE
 70
0
 62
7
  6
CONTINUOUS
370
-3
390
F
  0
LAYER
  5
202
100
AcDbSymbolTableRecord
100
AcDbLayerTableRecord
  2
DRAFT
 70
0
 62
7
  6
CONTINUOUS
370
-3
390
F
  0
LAYER
  5
203
100
AcDbSymbolTableRecord
100
AcDbLayerTableRecord
  2
IMPORT_IGES
 70
0
 62
7
  6
CONTINUOUS
370
-3
390
F
  0
LAYER
  5
204
100
AcDbSymbolTableRecord
100
AcDbLayerTableRecord
  2
NOTE
 70
0
 62
7
  6
CONTINUOUS
370
-3
390
F
  0
LAYER
  5
205
100
AcDbSymbolTableRecord
100
AcDbLayerTableRecord
  2
PIANI
 70
0
 62
7
  6
CONTINUOUS
370
-3
390
F
  0
LAYER
  5
206
100
AcDbSymbolTableRecord
100
AcDbLayerTableRecord
  2
PUNTI
 70
0
 62
7
  6
CONTINUOUS
370
-3
390
F
  0
LAYER
  5
207
100
AcDbSymbolTableRecord
100
AcDbLayerTableRecord
  2
RACCORDO
 70
0
 62
7
  6
CONTINUOUS
370
-3
390
F
  0
LAYER
  5
208
100
AcDbSymbolTableRecord
100
AcDbLayerTableRecord
  2
SIMBOLI
 70
0
 62
7
  6
CONTINUOUS
370
-3
390
F
  0
LAYER
  5
209
100
AcDbSymbolTableRecord
100
AcDbLayerTableRecord
  2
SMUSSO
 70
0
 62
7
  6
CONTINUOUS
370
-3
390
F
  0
LAYER
  5
20A
100
AcDbSymbolTableRecord
100
AcDbLayerTableRecord
  2
SNAPLINE
 70
0
 62
7
  6
CONTINUOUS
370
-3
390
F
  0
LAYER
  5
20B
100
AcDbSymbolTableRecord
100
AcDbLayerTableRecord
  2
SUPERFICI
 70
0
 62
7
  6
CONTINUOUS
370
-3
390
F
  0
LAYER
  5
20C
100
AcDbSymbolTableRecord
100
AcDbLayerTableRecord
  2
TRASH
 70
0
 62
7
  6
CONTINUOUS
370
-3
390
F
  0
ENDTAB
  0
TABLE
  2
STYLE
  5
3
100
AcDbSymbolTable
 70
1
  0
STYLE
  5
11
100
AcDbSymbolTableRecord
100
AcDbTextStyleTableRecord
  2
STANDARD
 70
0
 40
0.0
 41
0.8
 50
0.0
 71
0
 42
0.2
  3
txt
  4

  0
STYLE
  5
20D
100
AcDbSymbolTableRecord
100
AcDbTextStyleTableRecord
  2
TEXTSTYLE_1
 70
0
 40
0.0
 41
0.8
 50
0.0
 71
0
 42
0.2
  3
gdt
  4

  0
ENDTAB
  0
TABLE
  2
VIEW
  5
6
100
AcDbSymbolTable
 70
0
  0
ENDTAB
  0
TABLE
  2
UCS
  5
7
100
AcDbSymbolTable
 70
0
  0
ENDTAB
  0
TABLE
  2
APPID
  5
9
100
AcDbSymbolTable
 70
1
  0
APPID
  5
20E
100
AcDbSymbolTableRecord
100
AcDbRegAppTableRecord
  2
ACAD
 70
0
  0
ENDTAB
  0
TABLE
  2
BLOCK_RECORD
  5
1
100
AcDbSymbolTable
 70
0
  0
BLOCK_RECORD
  5
20F
100
AcDbSymbolTableRecord
100
AcDbBlockTableRecord
  2
*Model_Space
  0
BLOCK_RECORD
  5
210
100
AcDbSymbolTableRecord
100
AcDbBlockTableRecord
  2
*Paper_Space
  0
ENDTAB
  0
TABLE
  2
DIMSTYLE
  5
A
100
AcDbSymbolTable
 70
1
100
AcDbDimStyleTable
 71
0
  0
DIMSTYLE
105
211
100
AcDbSymbolTableRecord
100
AcDbDimStyleTableRecord
  2
STANDARD
 70
0
  3

  4

 40
1.0
 41
3.0
 42
0.5
 43
0.38
 44
1.5
 45
0.0
 46
0.0
 47
0.01
 48
0.01
140
3.0
141
0.09
142
0.0
143
25.4
144
1.0
145
0.0
146
1.0
147
0.625
 71
1.0
 72
0.0
 73
0
 74
0
 75
0
 76
0
 77
1
 78
8
170
0
171
2
172
0
173
0
174
0
175
0
176
0
177
0
178
0
270
2
271
2
272
2
273
2
274
2
275
0
280
0
281
0
282
0
283
1
284
8
285
0
286
0
287
3
288
0
340
11
278
44
  0
ENDTAB
  0
ENDSEC
  0
SECTION
  2
BLOCKS
  0
BLOCK
  5
20
100
AcDbEntity
  8
0
100
AcDbBlockBegin
  2
*Model_Space
 70
0
 10
0.0
 20
0.0
 30
0.0
  3
*Model_Space
  1

  0
ENDBLK
  5
21
100
AcDbEntity
  8
0
100
AcDbBlockEnd
  0
BLOCK
  5
1C
100
AcDbEntity
  8
0
100
AcDbBlockBegin
  2
*Paper_Space
 70
0
 10
0.0
 20
0.0
 30
0.0
  3
*Paper_Space
  1

  0
ENDBLK
  5
1D
100
AcDbEntity
  8
0
100
AcDbBlockEnd
  0
ENDSEC
  0
SECTION
  2
ENTITIES
  0
LWPOLYLINE
  5
212
100
AcDbEntity
  8
IMPORT_IGES
100
AcDbPolyline
 62
7
  6
CONTINUOUS
 90
16
 70
0
 10
-67.7879665327
 20
-45.621295346
 10
-67.8939862202
 20
-45.4584566042
 10
-67.9938048729
 20
-45.291248027
 10
-68.0873426652
 20
-45.1196696145
 10
-68.1748219998
 20
-44.9434837705
 10
-68.2559601274
 20
-44.7629280912
 10
-68.329974102
 20
-44.5787153645
 10
-68.3969455836
 20
-44.3906362301
 10
-68.4568876632
 20
-44.1989000482
 10
-68.508958745
 20
-44.0048476877
 10
-68.5531114182
 20
-43.8081445568
 10
-68.5895516833
 20
-43.6091252473
 10
-68.6178330368
 20
-43.4101344039
 10
-68.6378471056
 20
-43.2119535749
 10
-68.6498144637
 20
-43.0138012119
 10
-68.6537645492
 20
-42.815677315
  0
LINE
  5
213
100
AcDbEntity
  8
RACCORDO
100
AcDbLine
 62
7
  6
CONTINUOUS
 10
-73.1493069085
 20
-51.8427804281
 11
-73.1493069085
 21
52.1654423634
  0
LINE
  5
214
100
AcDbEntity
  8
0
100
AcDbLine
 62
7
  6
CONTINUOUS
 10
-69.4462360273
 20
50.4632874697
 11
-69.4462360273
 21
-50.1406255331
  0
LWPOLYLINE
  5
215
100
AcDbEntity
  8
0
100
AcDbPolyline
 62
7
  6
CONTINUOUS
 90
37
 70
0
 10
-69.4462360273
 20
50.4632874697
 10
-69.4455540869
 20
50.5070577388
 10
-69.4432475505
 20
50.5506163428
 10
-69.439316418
 20
50.5939632819
 10
-69.4338032622
 20
50.6371515689
 10
-69.4266655102
 20
50.6801281909
 10
-69.4177754439
 20
50.7227341094
 10
-69.4071192238
 20
50.7649957446
 10
-69.3947106893
 20
50.8068866764
 10
-69.3804636404
 20
50.8481686053
 10
-69.3643678839
 20
50.8888461047
 10
-69.3464336131
 20
50.9289146012
 10
-69.3266052081
 20
50.9681220755
 10
-69.3048249943
 20
51.0065160023
 10
-69.2811506463
 20
51.0440489067
 10
-69.2556995688
 20
51.0803263449
 10
-69.2284389542
 20
51.1153200293
 10
-69.1994016101
 20
51.1490582473
 10
-69.168803364
 20
51.1812314172
 10
-69.1366125902
 20
51.2118075784
 10
-69.1028609143
 20
51.2408186915
 10
-69.0678590409
 20
51.2680510565
 10
-69.0315789926
 20
51.2934718446
 10
-68.9940487467
 20
51.3171138847
 10
-68.9556629394
 20
51.338861963
 10
-68.9164689064
 20
51.3586586488
 10
-68.8764193121
 20
51.3765613727
 10
-68.8357667861
 20
51.3926272133
 10
-68.7945173617
 20
51.4068458274
 10
-68.7526650056
 20
51.4192275581
 10
-68.7104442478
 20
51.4298605134
 10
-68.6678810027
 20
51.4387314734
 10
-68.6249493559
 20
51.4458536581
 10
-68.5818060944
 20
51.451354835
 10
-68.5385034807
 20
51.4552775933
 10
-68.4949892523
 20
51.4575793438
 10
-68.4512634093
 20
51.4582600865
  0
LINE
  5
216
100
AcDbEntity
  8
IMPORT_IGES
100
AcDbLine
 62
253
  6
CONTINUOUS
 10
-67.7879665327
 20
-49.4773286565
 11
-67.7879665327
 21
-45.6212960552
  0
LINE
  5
217
100
AcDbEntity
  8
IMPORT_IGES
100
AcDbLine
 62
253
  6
CONTINUOUS
 10
-67.7879665327
 20
-40.0100585748
 11
-67.7879665327
 21
49.7999905918
  0
LINE
  5
218
100
AcDbEntity
  8
IMPORT_IGES
100
AcDbLine
 62
253
  6
CONTINUOUS
 10
-63.6493069085
 20
-47.815677315
 11
-63.6493069085
 21
-47.2979121581
  0
LINE
  5
219
100
AcDbEntity
  8
IMPORT_IGES
100
AcDbLine
 62
253
  6
CONTINUOUS
 10
-63.6493069085
 20
-38.3334424719
 11
-63.6493069085
 21
-37.815677315
  0
LWPOLYLINE
  5
21A
100
AcDbEntity
  8
IMPORT_IGES
100
AcDbPolyline
 62
7
  6
CONTINUOUS
 90
16
 70
0
 10
-68.6537645492
 20
-42.815677315
 10
-68.6498164187
 20
-42.617582309
 10
-68.6378520358
 20
-42.4194546423
 10
-68.6178419731
 20
-42.2212943152
 10
-68.5895662412
 20
-42.022319921
 10
-68.5531326652
 20
-41.8233128662
 10
-68.5089860471
 20
-41.6266173704
 10
-68.456920233
 20
-41.4325675912
 10
-68.3969827744
 20
-41.2408293709
 10
-68.3300139639
 20
-41.0527444557
 10
-68.2560006377
 20
-40.8685222903
 10
-68.1748611428
 20
-40.6879534299
 10
-68.0873772122
 20
-40.511751287
 10
-67.9938311701
 20
-40.3401536655
 10
-67.8940009969
 20
-40.1729227615
 10
-67.7879665327
 20
-40.0100585748
  0
LINE
  5
21B
100
AcDbEntity
  8
IMPORT_IGES
100
AcDbLine
 62
253
  6
CONTINUOUS
 10
-58.6493069085
 20
-37.815677315
 11
-58.6493069085
 21
-38.3334424719
  0
LINE
  5
21C
100
AcDbEntity
  8
IMPORT_IGES
100
AcDbLine
 62
253
  6
CONTINUOUS
 10
-58.6493069085
 20
-47.2979121581
 11
-58.6493069085
 21
-47.815677315
  0
LINE
  5
21D
100
AcDbEntity
  8
RACCORDO
100
AcDbLine
 62
7
  6
CONTINUOUS
 10
67.8548044872
 20
-54.8386690323
 11
-70.1534183042
 21
-54.8386690323
  0
LWPOLYLINE
  5
21E
100
AcDbEntity
  8
0
100
AcDbPolyline
 62
7
  6
CONTINUOUS
 90
37
 70
0
 10
-68.4512634106
 20
-51.1355981511
 10
-68.4950336796
 20
-51.1349162108
 10
-68.5385922837
 20
-51.1326096743
 10
-68.5819392228
 20
-51.1286785418
 10
-68.6251275098
 20
-51.123165386
 10
-68.6681041318
 20
-51.1160276341
 10
-68.7107100503
 20
-51.1071375678
 10
-68.7529716855
 20
-51.0964813476
 10
-68.7948626172
 20
-51.0840728131
 10
-68.8361445461
 20
-51.0698257643
 10
-68.8768220455
 20
-51.0537300077
 10
-68.9168905421
 20
-51.0357957369
 10
-68.9560980163
 20
-51.015967332
 10
-68.9944919431
 20
-50.9941871181
 10
-69.0320248476
 20
-50.9705127701
 10
-69.0683022857
 20
-50.9450616926
 10
-69.1032959701
 20
-50.917801078
 10
-69.1370341882
 20
-50.8887637339
 10
-69.1692073581
 20
-50.8581654878
 10
-69.1997835193
 20
-50.825974714
 10
-69.2287946323
 20
-50.7922230382
 10
-69.2560269973
 20
-50.7572211647
 10
-69.2814477855
 20
-50.7209411164
 10
-69.3050898256
 20
-50.6834108705
 10
-69.3268379039
 20
-50.6450250632
 10
-69.3466345896
 20
-50.6058310302
 10
-69.3645373136
 20
-50.5657814359
 10
-69.3806031542
 20
-50.5251289099
 10
-69.3948217682
 20
-50.4838794855
 10
-69.4072034989
 20
-50.4420271294
 10
-69.4178364542
 20
-50.3998063717
 10
-69.4267074143
 20
-50.3572431265
 10
-69.4338295989
 20
-50.3143114797
 10
-69.4393307758
 20
-50.2711682183
 10
-69.4432535341
 20
-50.2278656045
 10
-69.4455552846
 20
-50.1843513761
 10
-69.4462360273
 20
-50.1406255331
  0
LINE
  5
21F
100
AcDbEntity
  8
0
100
AcDbLine
 62
7
  6
CONTINUOUS
 10
-68.4512634106
 20
-51.1355981511
 11
66.1526495922
 21
-51.1355981511
  0
LINE
  5
220
100
AcDbEntity
  8
IMPORT_IGES
100
AcDbLine
 62
253
  6
CONTINUOUS
 10
65.4893527156
 20
-49.4773286565
 11
-67.7879665327
 21
-49.4773286565
  0
LINE
  5
221
100
AcDbEntity
  8
IMPORT_IGES
100
AcDbLine
 62
7
  6
CONTINUOUS
 10
-63.6493069085
 20
-47.815677315
 11
-58.6493069085
 21
-47.815677315
  0
LINE
  5
222
100
AcDbEntity
  8
IMPORT_IGES
100
AcDbLine
 62
253
  6
CONTINUOUS
 10
-63.6493069085
 20
-47.7976075716
 11
-58.6493069085
 21
-47.7976075716
  0
LINE
  5
223
100
AcDbEntity
  8
IMPORT_IGES
100
AcDbLine
 62
253
  6
CONTINUOUS
 10
-58.6493069085
 20
-47.2979121581
 11
-63.6493069085
 21
-47.2979121581
  0
LINE
  5
224
100
AcDbEntity
  8
IMPORT_IGES
100
AcDbLine
 62
253
  6
CONTINUOUS
 10
-39.152047839
 20
10.0026185034
 11
-39.152047839
 21
10.5203836603
  0
LINE
  5
225
100
AcDbEntity
  8
IMPORT_IGES
100
AcDbLine
 62
253
  6
CONTINUOUS
 10
-39.152047839
 20
19.4848533466
 11
-39.152047839
 21
20.0026185034
  0
LINE
  5
226
100
AcDbEntity
  8
0
100
AcDbLine
 62
253
  6
CONTINUOUS
 10
-67.7879665327
 20
-49.4773286565
 11
-68.4512757574
 21
-51.1356410517
  0
LINE
  5
227
100
AcDbEntity
  8
IMPORT_IGES
100
AcDbLine
 62
253
  6
CONTINUOUS
 10
-63.6493069085
 20
-38.3334424719
 11
-58.6493069085
 21
-38.3334424719
  0
LINE
  5
228
100
AcDbEntity
  8
IMPORT_IGES
100
AcDbLine
 62
253
  6
CONTINUOUS
 10
-58.6493069085
 20
-37.8337470584
 11
-63.6493069085
 21
-37.8337470584
  0
LINE
  5
229
100
AcDbEntity
  8
IMPORT_IGES
100
AcDbLine
 62
7
  6
CONTINUOUS
 10
-58.6493069085
 20
-37.815677315
 11
-63.6493069085
 21
-37.815677315
  0
LINE
  5
22A
100
AcDbEntity
  8
0
100
AcDbLine
 62
253
  6
CONTINUOUS
 10
-68.4512757561
 20
51.458302987
 11
-67.7879665327
 21
49.7999905918
  0
LINE
  5
22B
100
AcDbEntity
  8
IMPORT_IGES
100
AcDbLine
 62
253
  6
CONTINUOUS
 10
-36.152047839
 20
20.0026185034
 11
-36.152047839
 21
19.4848533466
  0
LINE
  5
22C
100
AcDbEntity
  8
IMPORT_IGES
100
AcDbLine
 62
253
  6
CONTINUOUS
 10
-36.152047839
 20
10.5203836603
 11
-36.152047839
 21
10.0026185034
  0
LINE
  5
22D
100
AcDbEntity
  8
IMPORT_IGES
100
AcDbLine
 62
7
  6
CONTINUOUS
 10
67.0994281152
 20
-34.9510405236
 11
67.1097321028
 21
-34.9512489592
  0
LINE
  5
22E
100
AcDbEntity
  8
0
100
AcDbLine
 62
253
  6
CONTINUOUS
 10
67.1476651108
 20
50.4632998152
 11
65.4893527156
 21
49.7999905918
  0
LINE
  5
22F
100
AcDbEntity
  8
IMPORT_IGES
100
AcDbLine
 62
7
  6
CONTINUOUS
 10
67.1097321028
 20
-16.3260891054
 11
67.0994281152
 21
-16.3262975411
  0
LINE
  5
230
100
AcDbEntity
  8
IMPORT_IGES
100
AcDbLine
 62
7
  6
CONTINUOUS
 10
42.4330779913
 20
-14.4955444125
 11
65.4893527156
 21
-14.4955444125
  0
LINE
  5
231
100
AcDbEntity
  8
0
100
AcDbLine
 62
253
  6
CONTINUOUS
 10
65.4893527156
 20
-49.4773286565
 11
67.1476651108
 21
-50.1406378813
  0
LWPOLYLINE
  5
232
100
AcDbEntity
  8
IMPORT_IGES
100
AcDbPolyline
 62
7
  6
CONTINUOUS
 90
16
 70
0
 10
56.0114605765
 20
49.7999905918
 10
56.1754309507
 20
49.9086173073
 10
56.3439653355
 20
50.010941004
 10
56.5170637307
 20
50.1068753557
 10
56.6949768303
 20
50.1966577704
 10
56.8774539404
 20
50.2799842505
 10
57.0637429794
 20
50.3560153764
 10
57.2540548298
 20
50.4248348409
 10
57.448178609
 20
50.4864604436
 10
57.6447295875
 20
50.5400027103
 10
57.844044118
 20
50.5854183346
 10
58.0457858478
 20
50.6229225688
 10
58.2475609888
 20
50.6520309167
 10
58.4485716118
 20
50.6726261622
 10
58.649615646
 20
50.6849479882
 10
58.8506930915
 20
50.6890285392
  0
LINE
  5
233
100
AcDbEntity
  8
IMPORT_IGES
100
AcDbLine
 62
7
  6
CONTINUOUS
 10
66.3918985771
 20
-12.9886088345
 11
65.6929275575
 21
-12.9909134544
  0
LINE
  5
234
100
AcDbEntity
  8
IMPORT_IGES
100
AcDbLine
 62
7
  6
CONTINUOUS
 10
65.6929275575
 20
-12.9909134544
 11
42.4330779913
 21
-12.9910342271
  0
LINE
  5
235
100
AcDbEntity
  8
IMPORT_IGES
100
AcDbLine
 62
7
  6
CONTINUOUS
 10
42.4330779913
 20
-9.9386690323
 11
43.9375881767
 21
-9.9386690323
  0
LINE
  5
236
100
AcDbEntity
  8
IMPORT_IGES
100
AcDbLine
 62
7
  6
CONTINUOUS
 10
64.8843569346
 20
-9.9386690323
 11
66.3912897485
 21
-9.9386690323
  0
LINE
  5
237
100
AcDbEntity
  8
IMPORT_IGES
100
AcDbLine
 62
7
  6
CONTINUOUS
 10
66.3912897485
 20
-2.9386690323
 11
64.8843569347
 21
-2.9386690323
  0
LINE
  5
238
100
AcDbEntity
  8
IMPORT_IGES
100
AcDbLine
 62
7
  6
CONTINUOUS
 10
43.9375881767
 20
-2.9386690323
 11
42.4330779913
 21
-2.9386690323
  0
LINE
  5
239
100
AcDbEntity
  8
IMPORT_IGES
100
AcDbLine
 62
7
  6
CONTINUOUS
 10
42.4330779913
 20
0.1136961624
 11
66.1951860984
 21
0.1122260607
  0
LINE
  5
23A
100
AcDbEntity
  8
IMPORT_IGES
100
AcDbLine
 62
7
  6
CONTINUOUS
 10
66.1951860984
 20
0.1122260607
 11
66.3918985771
 21
0.1112707698
  0
LINE
  5
23B
100
AcDbEntity
  8
IMPORT_IGES
100
AcDbLine
 62
7
  6
CONTINUOUS
 10
65.4893527156
 20
1.6182063479
 11
42.4330779913
 21
1.6182063479
  0
LINE
  5
23C
100
AcDbEntity
  8
IMPORT_IGES
100
AcDbLine
 62
7
  6
CONTINUOUS
 10
-39.152047839
 20
10.0026185034
 11
-36.152047839
 21
10.0026185034
  0
LINE
  5
23D
100
AcDbEntity
  8
IMPORT_IGES
100
AcDbLine
 62
253
  6
CONTINUOUS
 10
-39.152047839
 20
10.0206882468
 11
-36.152047839
 21
10.0206882468
  0
LINE
  5
23E
100
AcDbEntity
  8
IMPORT_IGES
100
AcDbLine
 62
253
  6
CONTINUOUS
 10
-36.152047839
 20
10.5203836603
 11
-39.152047839
 21
10.5203836603
  0
LINE
  5
23F
100
AcDbEntity
  8
IMPORT_IGES
100
AcDbLine
 62
253
  6
CONTINUOUS
 10
50.347952161
 20
13.5026185034
 11
49.8301870041
 21
13.5026185034
  0
LINE
  5
240
100
AcDbEntity
  8
IMPORT_IGES
100
AcDbLine
 62
253
  6
CONTINUOUS
 10
40.8657173179
 20
13.5026185034
 11
40.347952161
 21
13.5026185034
  0
LINE
  5
241
100
AcDbEntity
  8
0
100
AcDbLine
 62
253
  6
CONTINUOUS
 10
-69.4462789278
 20
-50.1406378799
 11
-67.7879665327
 21
-49.4773286565
  0
LINE
  5
242
100
AcDbEntity
  8
IMPORT_IGES
100
AcDbLine
 62
253
  6
CONTINUOUS
 10
40.347952161
 20
16.5026185034
 11
40.8657173179
 21
16.5026185034
  0
LINE
  5
243
100
AcDbEntity
  8
IMPORT_IGES
100
AcDbLine
 62
253
  6
CONTINUOUS
 10
49.8301870041
 20
16.5026185034
 11
50.347952161
 21
16.5026185034
  0
LINE
  5
244
100
AcDbEntity
  8
IMPORT_IGES
100
AcDbLine
 62
253
  6
CONTINUOUS
 10
-39.152047839
 20
19.4848533466
 11
-36.152047839
 21
19.4848533466
  0
LINE
  5
245
100
AcDbEntity
  8
IMPORT_IGES
100
AcDbLine
 62
253
  6
CONTINUOUS
 10
-36.152047839
 20
19.9845487601
 11
-39.152047839
 21
19.9845487601
  0
LINE
  5
246
100
AcDbEntity
  8
IMPORT_IGES
100
AcDbLine
 62
7
  6
CONTINUOUS
 10
-36.152047839
 20
20.0026185034
 11
-39.152047839
 21
20.0026185034
  0
LINE
  5
247
100
AcDbEntity
  8
0
100
AcDbLine
 62
253
  6
CONTINUOUS
 10
-67.7879665327
 20
49.7999905918
 11
-69.4462789278
 21
50.4632998166
  0
LINE
  5
248
100
AcDbEntity
  8
IMPORT_IGES
100
AcDbLine
 62
7
  6
CONTINUOUS
 10
67.1097321027
 20
-34.9512489592
 11
67.0994880289
 21
-34.9411086968
  0
LINE
  5
249
100
AcDbEntity
  8
IMPORT_IGES
100
AcDbLine
 62
7
  6
CONTINUOUS
 10
40.347952161
 20
16.5026185034
 11
40.347952161
 21
13.5026185034
  0
LINE
  5
24A
100
AcDbEntity
  8
IMPORT_IGES
100
AcDbLine
 62
253
  6
CONTINUOUS
 10
40.3660219044
 20
16.5026185034
 11
40.3660219044
 21
13.5026185034
  0
LINE
  5
24B
100
AcDbEntity
  8
IMPORT_IGES
100
AcDbLine
 62
253
  6
CONTINUOUS
 10
40.8657173179
 20
13.5026185034
 11
40.8657173179
 21
16.5026185034
  0
LINE
  5
24C
100
AcDbEntity
  8
IMPORT_IGES
100
AcDbLine
 62
7
  6
CONTINUOUS
 10
42.4330779913
 20
1.6182063479
 11
42.4330779913
 21
0.1136961624
  0
LINE
  5
24D
100
AcDbEntity
  8
IMPORT_IGES
100
AcDbLine
 62
7
  6
CONTINUOUS
 10
42.4330779913
 20
-2.9386690323
 11
42.4330779913
 21
-9.9386690323
  0
LINE
  5
24E
100
AcDbEntity
  8
IMPORT_IGES
100
AcDbLine
 62
7
  6
CONTINUOUS
 10
42.4330779913
 20
-12.9910342271
 11
42.4330779913
 21
-14.4955444125
  0
LINE
  5
24F
100
AcDbEntity
  8
IMPORT_IGES
100
AcDbLine
 62
7
  6
CONTINUOUS
 10
43.9375881767
 20
-9.9386690323
 11
43.9375881767
 21
-2.9386690323
  0
LINE
  5
250
100
AcDbEntity
  8
0
100
AcDbLine
 62
253
  6
CONTINUOUS
 10
65.4893527156
 20
49.7999905918
 11
66.1526619404
 21
51.458302987
  0
LINE
  5
251
100
AcDbEntity
  8
IMPORT_IGES
100
AcDbLine
 62
253
  6
CONTINUOUS
 10
63.8506930915
 20
40.684322685
 11
63.3329279346
 21
40.684322685
  0
LINE
  5
252
100
AcDbEntity
  8
IMPORT_IGES
100
AcDbLine
 62
253
  6
CONTINUOUS
 10
54.3684582484
 20
40.684322685
 11
53.8506930915
 21
40.684322685
  0
LINE
  5
253
100
AcDbEntity
  8
IMPORT_IGES
100
AcDbLine
 62
253
  6
CONTINUOUS
 10
53.8506930915
 20
45.684322685
 11
54.3684582484
 21
45.684322685
  0
LINE
  5
254
100
AcDbEntity
  8
IMPORT_IGES
100
AcDbLine
 62
253
  6
CONTINUOUS
 10
63.3329279346
 20
45.684322685
 11
63.8506930915
 21
45.684322685
  0
LINE
  5
255
100
AcDbEntity
  8
0
100
AcDbLine
 62
253
  6
CONTINUOUS
 10
66.1526619391
 20
-51.1356410517
 11
65.4893527156
 21
-49.4773286565
  0
LINE
  5
256
100
AcDbEntity
  8
IMPORT_IGES
100
AcDbLine
 62
253
  6
CONTINUOUS
 10
49.8301870041
 20
16.5026185034
 11
49.8301870041
 21
13.5026185034
  0
LINE
  5
257
100
AcDbEntity
  8
IMPORT_IGES
100
AcDbLine
 62
253
  6
CONTINUOUS
 10
50.3298824176
 20
13.5026185034
 11
50.3298824176
 21
16.5026185034
  0
LINE
  5
258
100
AcDbEntity
  8
IMPORT_IGES
100
AcDbLine
 62
7
  6
CONTINUOUS
 10
50.347952161
 20
13.5026185034
 11
50.347952161
 21
16.5026185034
  0
LINE
  5
259
100
AcDbEntity
  8
IMPORT_IGES
100
AcDbLine
 62
253
  6
CONTINUOUS
 10
-67.7879665327
 20
49.7999905918
 11
56.0114541652
 21
49.7999905918
  0
LINE
  5
25A
100
AcDbEntity
  8
IMPORT_IGES
100
AcDbLine
 62
253
  6
CONTINUOUS
 10
61.6899320178
 20
49.7999905918
 11
65.4893527156
 21
49.7999905918
  0
LINE
  5
25B
100
AcDbEntity
  8
0
100
AcDbLine
 62
7
  6
CONTINUOUS
 10
66.1526495936
 20
51.4582600865
 11
-68.4512634093
 21
51.4582600865
  0
LWPOLYLINE
  5
25C
100
AcDbEntity
  8
0
100
AcDbPolyline
 62
7
  6
CONTINUOUS
 90
37
 70
0
 10
66.1526495936
 20
51.4582600865
 10
66.1964198626
 20
51.4575781461
 10
66.2399784667
 20
51.4552716097
 10
66.2833254058
 20
51.4513404771
 10
66.3265136927
 20
51.4458273213
 10
66.3694903147
 20
51.4386895694
 10
66.4120962332
 20
51.4297995031
 10
66.4543578685
 20
51.4191432829
 10
66.4962488002
 20
51.4067347484
 10
66.5375307291
 20
51.3924876996
 10
66.5782082285
 20
51.3763919431
 10
66.6182767251
 20
51.3584576722
 10
66.6574841993
 20
51.3386292673
 10
66.6958781261
 20
51.3168490534
 10
66.7334110306
 20
51.2931747054
 10
66.7696884687
 20
51.2677236279
 10
66.8046821531
 20
51.2404630133
 10
66.8384203711
 20
51.2114256693
 10
66.8705935411
 20
51.1808274231
 10
66.9011697022
 20
51.1486366493
 10
66.9301808153
 20
51.1148849735
 10
66.9574131803
 20
51.0798831001
 10
66.9828339685
 20
51.0436030517
 10
67.0064760086
 20
51.0060728058
 10
67.0282240868
 20
50.9676869986
 10
67.0480207726
 20
50.9284929656
 10
67.0659234966
 20
50.8884433712
 10
67.0819893372
 20
50.8477908452
 10
67.0962079512
 20
50.8065414208
 10
67.1085896819
 20
50.7646890647
 10
67.1192226372
 20
50.722468307
 10
67.1280935972
 20
50.6799050619
 10
67.1352157819
 20
50.636973415
 10
67.1407169588
 20
50.5938301536
 10
67.1446397171
 20
50.5505275398
 10
67.1469414676
 20
50.5070133114
 10
67.1476222103
 20
50.4632874684
  0
LWPOLYLINE
  5
25D
100
AcDbEntity
  8
IMPORT_IGES
100
AcDbPolyline
 62
7
  6
CONTINUOUS
 90
16
 70
0
 10
58.8506930915
 20
50.6890285392
 10
59.0517421074
 20
50.6849499431
 10
59.2527618474
 20
50.6726310874
 10
59.4537523115
 20
50.6520398391
 10
59.6555112928
 20
50.6229370994
 10
59.8572409981
 20
50.585439539
 10
60.0565480485
 20
50.5400299558
 10
60.2530965156
 20
50.4864929429
 10
60.4472223277
 20
50.4248719477
 10
60.6375398905
 20
50.3560551436
 10
60.8238382739
 20
50.2800246506
 10
61.006328408
 20
50.1966967871
 10
61.1842574887
 20
50.106909778
 10
61.3573745813
 20
50.0109672016
 10
61.5259306206
 20
49.9086320255
 10
61.6899256064
 20
49.7999905918
  0
LINE
  5
25E
100
AcDbEntity
  8
IMPORT_IGES
100
AcDbLine
 62
7
  6
CONTINUOUS
 10
53.8506930915
 20
45.684322685
 11
53.8506930915
 21
40.684322685
  0
LINE
  5
25F
100
AcDbEntity
  8
IMPORT_IGES
100
AcDbLine
 62
253
  6
CONTINUOUS
 10
53.8687628349
 20
45.684322685
 11
53.8687628349
 21
40.684322685
  0
LINE
  5
260
100
AcDbEntity
  8
IMPORT_IGES
100
AcDbLine
 62
253
  6
CONTINUOUS
 10
54.3684582484
 20
40.684322685
 11
54.3684582484
 21
45.684322685
  0
LINE
  5
261
100
AcDbEntity
  8
IMPORT_IGES
100
AcDbLine
 62
7
  6
CONTINUOUS
 10
67.0994880289
 20
-16.3362293679
 11
67.1097321026
 21
-16.3260891054
  0
LINE
  5
262
100
AcDbEntity
  8
RACCORDO
100
AcDbLine
 62
7
  6
CONTINUOUS
 10
-70.1534183042
 20
55.1613309677
 11
67.8548044872
 21
55.1613309677
  0
LINE
  5
263
100
AcDbEntity
  8
IMPORT_IGES
100
AcDbLine
 62
253
  6
CONTINUOUS
 10
63.3329279346
 20
45.684322685
 11
63.3329279346
 21
40.684322685
  0
LINE
  5
264
100
AcDbEntity
  8
IMPORT_IGES
100
AcDbLine
 62
253
  6
CONTINUOUS
 10
63.8326233481
 20
40.684322685
 11
63.8326233481
 21
45.684322685
  0
LINE
  5
265
100
AcDbEntity
  8
IMPORT_IGES
100
AcDbLine
 62
7
  6
CONTINUOUS
 10
63.8506930915
 20
40.684322685
 11
63.8506930915
 21
45.684322685
  0
LINE
  5
266
100
AcDbEntity
  8
IMPORT_IGES
100
AcDbLine
 62
7
  6
CONTINUOUS
 10
64.8843569347
 20
-2.9386690323
 11
64.8843569347
 21
-9.9386690323
  0
LINE
  5
267
100
AcDbEntity
  8
IMPORT_IGES
100
AcDbLine
 62
253
  6
CONTINUOUS
 10
65.4893527156
 20
49.7999905918
 11
65.4893527156
 21
1.6182063479
  0
LINE
  5
268
100
AcDbEntity
  8
IMPORT_IGES
100
AcDbLine
 62
253
  6
CONTINUOUS
 10
65.4893527156
 20
0.1136961624
 11
65.4893527156
 21
-2.9386690323
  0
LINE
  5
269
100
AcDbEntity
  8
IMPORT_IGES
100
AcDbLine
 62
253
  6
CONTINUOUS
 10
65.4893527156
 20
-9.9386690323
 11
65.4893527156
 21
-12.9910342271
  0
LINE
  5
26A
100
AcDbEntity
  8
IMPORT_IGES
100
AcDbLine
 62
253
  6
CONTINUOUS
 10
65.4893527156
 20
-14.4955444125
 11
65.4893527156
 21
-49.4773286565
  0
LINE
  5
26B
100
AcDbEntity
  8
IMPORT_IGES
100
AcDbLine
 62
7
  6
CONTINUOUS
 10
66.3912897459
 20
1.6206289762
 11
66.3912897459
 21
0.1106647055
  0
LINE
  5
26C
100
AcDbEntity
  8
IMPORT_IGES
100
AcDbLine
 62
7
  6
CONTINUOUS
 10
66.3912897459
 20
-2.9386690323
 11
66.3912897459
 21
-9.9386690323
  0
LINE
  5
26D
100
AcDbEntity
  8
IMPORT_IGES
100
AcDbLine
 62
7
  6
CONTINUOUS
 10
66.3912897459
 20
-12.9880027701
 11
66.3912897459
 21
-14.4979670409
  0
LINE
  5
26E
100
AcDbEntity
  8
IMPORT_IGES
100
AcDbLine
 62
7
  6
CONTINUOUS
 10
67.0994880289
 20
-34.9510417341
 11
67.0994880289
 21
-34.9411086968
  0
LINE
  5
26F
100
AcDbEntity
  8
IMPORT_IGES
100
AcDbLine
 62
7
  6
CONTINUOUS
 10
67.0994880289
 20
-16.3362293679
 11
67.0994880289
 21
-16.3262963305
  0
LINE
  5
270
100
AcDbEntity
  8
0
100
AcDbLine
 62
7
  6
CONTINUOUS
 10
67.1476222103
 20
-50.1406255344
 11
67.1476222103
 21
50.4632874684
  0
LINE
  5
271
100
AcDbEntity
  8
RACCORDO
100
AcDbLine
 62
7
  6
CONTINUOUS
 10
70.8506930915
 20
52.1654423634
 11
70.8506930915
 21
-51.8427804281
  0
LWPOLYLINE
  5
272
100
AcDbEntity
  8
0
100
AcDbPolyline
 62
7
  6
CONTINUOUS
 90
37
 70
0
 10
67.1476222103
 20
-50.1406255344
 10
67.1469402699
 20
-50.1843958035
 10
67.1446337335
 20
-50.2279544075
 10
67.140702601
 20
-50.2713013466
 10
67.1351894451
 20
-50.3144896336
 10
67.1280516932
 20
-50.3574662556
 10
67.1191616269
 20
-50.4000721741
 10
67.1085054068
 20
-50.4423338093
 10
67.0960968722
 20
-50.4842247411
 10
67.0818498234
 20
-50.5255066699
 10
67.0657540669
 20
-50.5661841693
 10
67.0478197961
 20
-50.6062526659
 10
67.0279913911
 20
-50.6454601401
 10
67.0062111772
 20
-50.6838540669
 10
66.9825368292
 20
-50.7213869714
 10
66.9570857517
 20
-50.7576644095
 10
66.9298251372
 20
-50.7926580939
 10
66.9007877931
 20
-50.826396312
 10
66.870189547
 20
-50.8585694819
 10
66.8379987732
 20
-50.8891456431
 10
66.8042470973
 20
-50.9181567562
 10
66.7692452239
 20
-50.9453891212
 10
66.7329651756
 20
-50.9708099093
 10
66.6954349296
 20
-50.9944519494
 10
66.6570491224
 20
-51.0162000277
 10
66.6178550894
 20
-51.0359967135
 10
66.5778054951
 20
-51.0538994374
 10
66.5371529691
 20
-51.069965278
 10
66.4959035446
 20
-51.0841838921
 10
66.4540511886
 20
-51.0965656227
 10
66.4118304308
 20
-51.107198578
 10
66.3692671857
 20
-51.1160695381
 10
66.3263355389
 20
-51.1231917228
 10
66.2831922774
 20
-51.1286928997
 10
66.2398896637
 20
-51.1326156579
 10
66.1963754353
 20
-51.1349174084
 10
66.1526495922
 20
-51.1355981511
  0
CIRCLE
  5
273
100
AcDbEntity
  8
IMPORT_IGES
100
AcDbCircle
 62
7
  6
CONTINUOUS
 10
-55.1493069085
 20
-25.8386690323
 40
10.25
  0
CIRCLE
  5
274
100
AcDbEntity
  8
IMPORT_IGES
100
AcDbCircle
 62
7
  6
CONTINUOUS
 10
-55.1493069085
 20
-1.8386690323
 40
10.25
  0
CIRCLE
  5
275
100
AcDbEntity
  8
0
100
AcDbCircle
 62
7
  6
CONTINUOUS
 10
-55.1493069085
 20
-25.8386690323
 40
9.75
  0
CIRCLE
  5
276
100
AcDbEntity
  8
0
100
AcDbCircle
 62
7
  6
CONTINUOUS
 10
-55.1493069085
 20
-1.8386690323
 40
9.75
  0
CIRCLE
  5
277
100
AcDbEntity
  8
0
100
AcDbCircle
 62
7
  6
CONTINUOUS
 10
-55.1493069085
 20
-25.8386690323
 40
8.25
  0
CIRCLE
  5
278
100
AcDbEntity
  8
0
100
AcDbCircle
 62
7
  6
CONTINUOUS
 10
-55.1493069085
 20
-1.8386690323
 40
8.25
  0
CIRCLE
  5
279
100
AcDbEntity
  8
IMPORT_IGES
100
AcDbCircle
 62
7
  6
CONTINUOUS
 10
-55.1493069085
 20
-25.8386690323
 40
7.75
  0
CIRCLE
  5
27A
100
AcDbEntity
  8
IMPORT_IGES
100
AcDbCircle
 62
7
  6
CONTINUOUS
 10
-55.1493069085
 20
-1.8386690323
 40
7.75
  0
ARC
  5
27B
100
AcDbEntity
  8
IMPORT_IGES
100
AcDbCircle
 62
7
  6
CONTINUOUS
 10
-63.6493069085
 20
-42.815677315
 40
5.0
100
AcDbArc
 50
214.1335480824
 51
270.0
  0
ARC
  5
27C
100
AcDbEntity
  8
IMPORT_IGES
100
AcDbCircle
 62
7
  6
CONTINUOUS
 10
-58.6493069085
 20
-42.815677315
 40
5.0
100
AcDbArc
 50
270.0
 51
90.0
  0
ARC
  5
27D
100
AcDbEntity
  8
IMPORT_IGES
100
AcDbCircle
 62
7
  6
CONTINUOUS
 10
-63.6493069085
 20
-42.815677315
 40
5.0
100
AcDbArc
 50
90.0
 51
145.8664519176
  0
ARC
  5
27E
100
AcDbEntity
  8
IMPORT_IGES
100
AcDbCircle
 62
253
  6
CONTINUOUS
 10
-63.6493069085
 20
-42.815677315
 40
4.9819302566
100
AcDbArc
 50
90.0
 51
270.0
  0
ARC
  5
27F
100
AcDbEntity
  8
IMPORT_IGES
100
AcDbCircle
 62
253
  6
CONTINUOUS
 10
-58.6493069085
 20
-42.815677315
 40
4.9819302566
100
AcDbArc
 50
270.0
 51
90.0
  0
ARC
  5
280
100
AcDbEntity
  8
IMPORT_IGES
100
AcDbCircle
 62
253
  6
CONTINUOUS
 10
-58.6493069085
 20
-42.815677315
 40
4.4822348431
100
AcDbArc
 50
270.0
 51
90.0
  0
ARC
  5
281
100
AcDbEntity
  8
IMPORT_IGES
100
AcDbCircle
 62
253
  6
CONTINUOUS
 10
-63.6493069085
 20
-42.815677315
 40
4.4822348431
100
AcDbArc
 50
90.0
 51
270.0
  0
CIRCLE
  5
282
100
AcDbEntity
  8
IMPORT_IGES
100
AcDbCircle
 62
7
  6
CONTINUOUS
 10
-55.1493069085
 20
-25.8386690323
 40
1.25
  0
CIRCLE
  5
283
100
AcDbEntity
  8
IMPORT_IGES
100
AcDbCircle
 62
7
  6
CONTINUOUS
 10
-55.1493069085
 20
-1.8386690323
 40
1.25
  0
CIRCLE
  5
284
100
AcDbEntity
  8
0
100
AcDbCircle
 62
7
  6
CONTINUOUS
 10
-55.1493069085
 20
-25.8386690323
 40
0.75
  0
CIRCLE
  5
285
100
AcDbEntity
  8
0
100
AcDbCircle
 62
7
  6
CONTINUOUS
 10
-55.1493069085
 20
-1.8386690323
 40
0.75
  0
CIRCLE
  5
286
100
AcDbEntity
  8
IMPORT_IGES
100
AcDbCircle
 62
7
  6
CONTINUOUS
 10
-55.1493069085
 20
22.1613309677
 40
10.25
  0
CIRCLE
  5
287
100
AcDbEntity
  8
0
100
AcDbCircle
 62
7
  6
CONTINUOUS
 10
-55.1493069085
 20
22.1613309677
 40
9.75
  0
CIRCLE
  5
288
100
AcDbEntity
  8
0
100
AcDbCircle
 62
7
  6
CONTINUOUS
 10
-55.1493069085
 20
22.1613309677
 40
8.25
  0
CIRCLE
  5
289
100
AcDbEntity
  8
IMPORT_IGES
100
AcDbCircle
 62
7
  6
CONTINUOUS
 10
-55.1493069085
 20
22.1613309677
 40
7.75
  0
ARC
  5
28A
100
AcDbEntity
  8
IMPORT_IGES
100
AcDbCircle
 62
7
  6
CONTINUOUS
 10
-36.152047839
 20
15.0026185034
 40
5.0
100
AcDbArc
 50
270.0
 51
90.0
  0
ARC
  5
28B
100
AcDbEntity
  8
IMPORT_IGES
100
AcDbCircle
 62
7
  6
CONTINUOUS
 10
-39.152047839
 20
15.0026185034
 40
5.0
100
AcDbArc
 50
90.0
 51
270.0
  0
ARC
  5
28C
100
AcDbEntity
  8
IMPORT_IGES
100
AcDbCircle
 62
253
  6
CONTINUOUS
 10
-39.152047839
 20
15.0026185034
 40
4.9819302566
100
AcDbArc
 50
90.0
 51
270.0
  0
ARC
  5
28D
100
AcDbEntity
  8
IMPORT_IGES
100
AcDbCircle
 62
253
  6
CONTINUOUS
 10
-36.152047839
 20
15.0026185034
 40
4.9819302566
100
AcDbArc
 50
270.0
 51
90.0
  0
ARC
  5
28E
100
AcDbEntity
  8
IMPORT_IGES
100
AcDbCircle
 62
253
  6
CONTINUOUS
 10
-36.152047839
 20
15.0026185034
 40
4.4822348431
100
AcDbArc
 50
270.0
 51
90.0
  0
ARC
  5
28F
100
AcDbEntity
  8
IMPORT_IGES
100
AcDbCircle
 62
253
  6
CONTINUOUS
 10
-39.152047839
 20
15.0026185034
 40
4.4822348431
100
AcDbArc
 50
90.0
 51
270.0
  0
CIRCLE
  5
290
100
AcDbEntity
  8
IMPORT_IGES
100
AcDbCircle
 62
7
  6
CONTINUOUS
 10
-55.1493069085
 20
22.1613309677
 40
1.25
  0
CIRCLE
  5
291
100
AcDbEntity
  8
0
100
AcDbCircle
 62
7
  6
CONTINUOUS
 10
-55.1493069085
 20
22.1613309677
 40
0.75
  0
CIRCLE
  5
292
100
AcDbEntity
  8
IMPORT_IGES
100
AcDbCircle
 62
7
  6
CONTINUOUS
 10
-61.1493069085
 20
43.184322685
 40
3.5
  0
CIRCLE
  5
293
100
AcDbEntity
  8
IMPORT_IGES
100
AcDbCircle
 62
253
  6
CONTINUOUS
 10
-61.1493069085
 20
43.184322685
 40
3.4819302566
  0
CIRCLE
  5
294
100
AcDbEntity
  8
IMPORT_IGES
100
AcDbCircle
 62
253
  6
CONTINUOUS
 10
-61.1493069085
 20
43.184322685
 40
2.9822348431
  0
CIRCLE
  5
295
100
AcDbEntity
  8
IMPORT_IGES
100
AcDbCircle
 62
7
  6
CONTINUOUS
 10
-35.1493069085
 20
35.9613309677
 40
10.25
  0
CIRCLE
  5
296
100
AcDbEntity
  8
IMPORT_IGES
100
AcDbCircle
 62
7
  6
CONTINUOUS
 10
-9.1493069085
 20
35.9613309677
 40
10.25
  0
CIRCLE
  5
297
100
AcDbEntity
  8
0
100
AcDbCircle
 62
7
  6
CONTINUOUS
 10
-9.1493069085
 20
35.9613309677
 40
9.75
  0
CIRCLE
  5
298
100
AcDbEntity
  8
0
100
AcDbCircle
 62
7
  6
CONTINUOUS
 10
-35.1493069085
 20
35.9613309677
 40
9.75
  0
CIRCLE
  5
299
100
AcDbEntity
  8
0
100
AcDbCircle
 62
7
  6
CONTINUOUS
 10
-9.1493069085
 20
35.9613309677
 40
8.25
  0
CIRCLE
  5
29A
100
AcDbEntity
  8
0
100
AcDbCircle
 62
7
  6
CONTINUOUS
 10
-35.1493069085
 20
35.9613309677
 40
8.25
  0
CIRCLE
  5
29B
100
AcDbEntity
  8
IMPORT_IGES
100
AcDbCircle
 62
7
  6
CONTINUOUS
 10
-9.1493069085
 20
35.9613309677
 40
7.75
  0
CIRCLE
  5
29C
100
AcDbEntity
  8
IMPORT_IGES
100
AcDbCircle
 62
7
  6
CONTINUOUS
 10
-35.1493069085
 20
35.9613309677
 40
7.75
  0
CIRCLE
  5
29D
100
AcDbEntity
  8
IMPORT_IGES
100
AcDbCircle
 62
7
  6
CONTINUOUS
 10
-9.1493069085
 20
35.9613309677
 40
1.25
  0
CIRCLE
  5
29E
100
AcDbEntity
  8
IMPORT_IGES
100
AcDbCircle
 62
7
  6
CONTINUOUS
 10
-35.1493069085
 20
35.9613309677
 40
1.25
  0
CIRCLE
  5
29F
100
AcDbEntity
  8
0
100
AcDbCircle
 62
7
  6
CONTINUOUS
 10
-9.1493069085
 20
35.9613309677
 40
0.75
  0
CIRCLE
  5
2A0
100
AcDbEntity
  8
0
100
AcDbCircle
 62
7
  6
CONTINUOUS
 10
-35.1493069085
 20
35.9613309677
 40
0.75
  0
CIRCLE
  5
2A1
100
AcDbEntity
  8
IMPORT_IGES
100
AcDbCircle
 62
7
  6
CONTINUOUS
 10
58.4819917399
 20
-6.4386690323
 40
4.3420383684
  0
CIRCLE
  5
2A2
100
AcDbEntity
  8
IMPORT_IGES
100
AcDbCircle
 62
253
  6
CONTINUOUS
 10
58.4819917399
 20
-6.4386690323
 40
4.3331585195
  0
CIRCLE
  5
2A3
100
AcDbEntity
  8
IMPORT_IGES
100
AcDbCircle
 62
7
  6
CONTINUOUS
 10
49.8506930915
 20
-6.4386690323
 40
4.0
  0
CIRCLE
  5
2A4
100
AcDbEntity
  8
IMPORT_IGES
100
AcDbCircle
 62
253
  6
CONTINUOUS
 10
49.8506930915
 20
-6.4386690323
 40
3.9911201511
  0
CIRCLE
  5
2A5
100
AcDbEntity
  8
IMPORT_IGES
100
AcDbCircle
 62
253
  6
CONTINUOUS
 10
58.4819917399
 20
-6.4386690323
 40
3.8332346719
  0
CIRCLE
  5
2A6
100
AcDbEntity
  8
IMPORT_IGES
100
AcDbCircle
 62
7
  6
CONTINUOUS
 10
58.8506930915
 20
-42.8616607497
 40
3.5
  0
CIRCLE
  5
2A7
100
AcDbEntity
  8
IMPORT_IGES
100
AcDbCircle
 62
253
  6
CONTINUOUS
 10
49.8506930915
 20
-6.4386690323
 40
3.4911963035
  0
CIRCLE
  5
2A8
100
AcDbEntity
  8
IMPORT_IGES
100
AcDbCircle
 62
253
  6
CONTINUOUS
 10
58.8506930915
 20
-42.8616607497
 40
3.4819302566
  0
CIRCLE
  5
2A9
100
AcDbEntity
  8
IMPORT_IGES
100
AcDbCircle
 62
253
  6
CONTINUOUS
 10
49.8506930915
 20
-6.4386690323
 40
3.2588036965
  0
CIRCLE
  5
2AA
100
AcDbEntity
  8
IMPORT_IGES
100
AcDbCircle
 62
253
  6
CONTINUOUS
 10
58.8506930915
 20
-42.8616607497
 40
2.9822348431
  0
CIRCLE
  5
2AB
100
AcDbEntity
  8
IMPORT_IGES
100
AcDbCircle
 62
253
  6
CONTINUOUS
 10
49.8506930915
 20
-6.4386690323
 40
2.7588798489
  0
CIRCLE
  5
2AC
100
AcDbEntity
  8
IMPORT_IGES
100
AcDbCircle
 62
7
  6
CONTINUOUS
 10
49.8506930915
 20
-6.4386690323
 40
2.75
  0
CIRCLE
  5
2AD
100
AcDbEntity
  8
IMPORT_IGES
100
AcDbCircle
 62
253
  6
CONTINUOUS
 10
58.4819917399
 20
-6.4386690323
 40
2.2889834368
  0
CIRCLE
  5
2AE
100
AcDbEntity
  8
IMPORT_IGES
100
AcDbCircle
 62
7
  6
CONTINUOUS
 10
58.4819917399
 20
-6.4386690323
 40
1.7889834368
  0
CIRCLE
  5
2AF
100
AcDbEntity
  8
IMPORT_IGES
100
AcDbCircle
 62
7
  6
CONTINUOUS
 10
42.8506930915
 20
35.9613309677
 40
10.25
  0
CIRCLE
  5
2B0
100
AcDbEntity
  8
IMPORT_IGES
100
AcDbCircle
 62
7
  6
CONTINUOUS
 10
16.8506930915
 20
35.9613309677
 40
10.25
  0
CIRCLE
  5
2B1
100
AcDbEntity
  8
0
100
AcDbCircle
 62
7
  6
CONTINUOUS
 10
42.8506930915
 20
35.9613309677
 40
9.75
  0
CIRCLE
  5
2B2
100
AcDbEntity
  8
0
100
AcDbCircle
 62
7
  6
CONTINUOUS
 10
16.8506930915
 20
35.9613309677
 40
9.75
  0
CIRCLE
  5
2B3
100
AcDbEntity
  8
0
100
AcDbCircle
 62
7
  6
CONTINUOUS
 10
42.8506930915
 20
35.9613309677
 40
8.25
  0
CIRCLE
  5
2B4
100
AcDbEntity
  8
0
100
AcDbCircle
 62
7
  6
CONTINUOUS
 10
16.8506930915
 20
35.9613309677
 40
8.25
  0
CIRCLE
  5
2B5
100
AcDbEntity
  8
IMPORT_IGES
100
AcDbCircle
 62
7
  6
CONTINUOUS
 10
42.8506930915
 20
35.9613309677
 40
7.75
  0
CIRCLE
  5
2B6
100
AcDbEntity
  8
IMPORT_IGES
100
AcDbCircle
 62
7
  6
CONTINUOUS
 10
16.8506930915
 20
35.9613309677
 40
7.75
  0
ARC
  5
2B7
100
AcDbEntity
  8
IMPORT_IGES
100
AcDbCircle
 62
7
  6
CONTINUOUS
 10
45.347952161
 20
16.5026185034
 40
5.0
100
AcDbArc
 50
0.0
 51
180.0
  0
ARC
  5
2B8
100
AcDbEntity
  8
IMPORT_IGES
100
AcDbCircle
 62
7
  6
CONTINUOUS
 10
45.347952161
 20
13.5026185034
 40
5.0
100
AcDbArc
 50
180.0
 51
360.0
  0
ARC
  5
2B9
100
AcDbEntity
  8
IMPORT_IGES
100
AcDbCircle
 62
7
  6
CONTINUOUS
 10
58.8506930915
 20
45.684322685
 40
5.0
100
AcDbArc
 50
124.6002812257
 51
180.0
  0
ARC
  5
2BA
100
AcDbEntity
  8
IMPORT_IGES
100
AcDbCircle
 62
7
  6
CONTINUOUS
 10
58.8506930915
 20
40.684322685
 40
5.0
100
AcDbArc
 50
180.0
 51
360.0
  0
ARC
  5
2BB
100
AcDbEntity
  8
IMPORT_IGES
100
AcDbCircle
 62
7
  6
CONTINUOUS
 10
58.8506930915
 20
45.684322685
 40
5.0
100
AcDbArc
 50
0.0
 51
55.3997187743
  0
ARC
  5
2BC
100
AcDbEntity
  8
IMPORT_IGES
100
AcDbCircle
 62
253
  6
CONTINUOUS
 10
58.8506930915
 20
45.684322685
 40
4.9819302566
100
AcDbArc
 50
0.0
 51
180.0
  0
ARC
  5
2BD
100
AcDbEntity
  8
IMPORT_IGES
100
AcDbCircle
 62
253
  6
CONTINUOUS
 10
58.8506930915
 20
40.684322685
 40
4.9819302566
100
AcDbArc
 50
180.0
 51
360.0
  0
ARC
  5
2BE
100
AcDbEntity
  8
IMPORT_IGES
100
AcDbCircle
 62
253
  6
CONTINUOUS
 10
45.347952161
 20
13.5026185034
 40
4.9819302566
100
AcDbArc
 50
180.0
 51
360.0
  0
ARC
  5
2BF
100
AcDbEntity
  8
IMPORT_IGES
100
AcDbCircle
 62
253
  6
CONTINUOUS
 10
45.347952161
 20
16.5026185034
 40
4.9819302566
100
AcDbArc
 50
0.0
 51
180.0
  0
ARC
  5
2C0
100
AcDbEntity
  8
IMPORT_IGES
100
AcDbCircle
 62
253
  6
CONTINUOUS
 10
58.8506930915
 20
40.684322685
 40
4.4822348431
100
AcDbArc
 50
180.0
 51
360.0
  0
ARC
  5
2C1
100
AcDbEntity
  8
IMPORT_IGES
100
AcDbCircle
 62
253
  6
CONTINUOUS
 10
58.8506930915
 20
45.684322685
 40
4.4822348431
100
AcDbArc
 50
0.0
 51
180.0
  0
ARC
  5
2C2
100
AcDbEntity
  8
IMPORT_IGES
100
AcDbCircle
 62
253
  6
CONTINUOUS
 10
45.347952161
 20
16.5026185034
 40
4.4822348431
100
AcDbArc
 50
0.0
 51
180.0
  0
ARC
  5
2C3
100
AcDbEntity
  8
IMPORT_IGES
100
AcDbCircle
 62
253
  6
CONTINUOUS
 10
45.347952161
 20
13.5026185034
 40
4.4822348431
100
AcDbArc
 50
180.0
 51
360.0
  0
CIRCLE
  5
2C4
100
AcDbEntity
  8
IMPORT_IGES
100
AcDbCircle
 62
7
  6
CONTINUOUS
 10
42.8506930915
 20
35.9613309677
 40
1.25
  0
CIRCLE
  5
2C5
100
AcDbEntity
  8
IMPORT_IGES
100
AcDbCircle
 62
7
  6
CONTINUOUS
 10
16.8506930915
 20
35.9613309677
 40
1.25
  0
CIRCLE
  5
2C6
100
AcDbEntity
  8
0
100
AcDbCircle
 62
7
  6
CONTINUOUS
 10
42.8506930915
 20
35.9613309677
 40
0.75
  0
CIRCLE
  5
2C7
100
AcDbEntity
  8
0
100
AcDbCircle
 62
7
  6
CONTINUOUS
 10
16.8506930915
 20
35.9613309677
 40
0.75
  0
ELLIPSE
  5
2C8
100
AcDbEntity
  8
RACCORDO
100
AcDbEllipse
 62
7
  6
CONTINUOUS
 10
-70.1451898705
 20
52.1572139297
 30
0.0
 11
2.1271387303
 21
-2.1271387303
 31
0.0
 40
0.9972646886
 41
2.3575640181
 42
3.9256212891
  0
ELLIPSE
  5
2C9
100
AcDbEntity
  8
RACCORDO
100
AcDbEllipse
 62
7
  6
CONTINUOUS
 10
-70.1451898705
 20
-51.8345519943
 30
0.0
 11
2.1271387303
 21
2.1271387303
 31
0.0
 40
0.9972646886
 41
2.3575640181
 42
3.9256212891
  0
ELLIPSE
  5
2CA
100
AcDbEntity
  8
IMPORT_IGES
100
AcDbEllipse
 62
7
  6
CONTINUOUS
 10
65.4893527156
 20
-14.5479096073
 30
0.0
 11
3.0
 21
-0.0
 31
0.0
 40
0.0174550649
 41
1.2654267466
 42
1.5707963268
  0
ELLIPSE
  5
2CB
100
AcDbEntity
  8
RACCORDO
100
AcDbEllipse
 62
7
  6
CONTINUOUS
 10
67.8465760535
 20
-51.8345519943
 30
0.0
 11
-2.1271387303
 21
2.1271387303
 31
0.0
 40
0.9972646886
 41
2.3575640181
 42
3.9256212891
  0
ELLIPSE
  5
2CC
100
AcDbEntity
  8
RACCORDO
100
AcDbEllipse
 62
7
  6
CONTINUOUS
 10
67.8465760535
 20
52.1572139297
 30
0.0
 11
-2.1271387303
 21
-2.1271387303
 31
0.0
 40
0.9972646886
 41
2.3575640181
 42
3.9256212891
  0
ELLIPSE
  5
2CD
100
AcDbEntity
  8
IMPORT_IGES
100
AcDbEllipse
 62
7
  6
CONTINUOUS
 10
65.4893527156
 20
1.6705715426
 30
0.0
 11
3.0
 21
-0.0
 31
0.0
 40
0.0174550649
 41
-1.5707963268
 42
-1.2654267466
  0
ENDSEC
  0
SECTION
  2
OBJECTS
  0
DICTIONARY
  5
C
100
AcDbDictionary
280
0
281
1
  3
ACAD_GROUP
350
D
  3
ACAD_MLINESTYLE
350
17
  3
ACAD_LAYOUT
350
1A
  3
ACAD_PLOTSETTINGS
350
19
  3
ACAD_PLOTSTYLENAME
350
E
  0
DICTIONARY
  5
D
102
{ACAD_REACTORS
330
C
102
}
100
AcDbDictionary
280
0
281
1
  0
ACDBDICTIONARYWDFLT
  5
E
102
{ACAD_REACTORS
330
C
102
}
100
AcDbDictionary
281
1
  3
Normal
350
F
100
AcDbDictionaryWithDefault
340
F
  0
DICTIONARY
  5
17
102
{ACAD_REACTORS
330
C
102
}
100
AcDbDictionary
280
0
281
1
  3
Standard
350
18
  0
DICTIONARY
  5
19
102
{ACAD_REACTORS
330
C
102
}
100
AcDbDictionary
281
1
  0
DICTIONARY
  5
1A
102
{ACAD_REACTORS
330
C
102
}
100
AcDbDictionary
281
1
  3
Model
350
2CE
  3
Layout1
350
2CF
  0
ACDBPLACEHOLDER
  5
F
102
{ACAD_REACTORS
330
E
102
}
  0
MLINESTYLE
  5
18
102
{ACAD_REACTORS
330
17
102
}
100
AcDbMlineStyle
  2
STANDARD
 70
0
  3

 62
256
 51
90.0
 52
90.0
 71
2
 49
0.5
 62
256
  6
BYLAYER
 49
-0.5
 62
256
  6
BYLAYER
  0
LAYOUT
  5
2CE
102
{ACAD_REACTORS
330
1A
102
}
100
AcDbPlotSettings
  1

  2
none_device
  4
ISO_A4_(297.00_x_210.00_MM)
  6

 40
0.0
 41
0.0
 42
0.0
 43
0.0
 44
297.0
 45
210.0
 46
0.0
 47
0.0
 48
0.0
 49
0.0
140
0.0
141
0.0
142
1.0
143
1.0
 70
1024
 72
1
 73
0
 74
0
  7

 75
0
147
1.0
148
0.0
149
0.0
100
AcDbLayout
  1
Model
 70
0
 71
0
 10
0.0
 20
0.0
 11
297.0
 21
210.0
 12
0.0
 22
0.0
 32
0.0
 14
0.0
 24
0.0
 34
0.0
 15
0.0
 25
0.0
 35
0.0
146
0.0
 13
0.0
 23
0.0
 33
0.0
 16
1.0
 26
0.0
 36
0.0
 17
0.0
 27
1.0
 37
0.0
 76
0
330
20F
345
0
346
0
  0
LAYOUT
  5
2CF
102
{ACAD_REACTORS
330
1A
102
}
100
AcDbPlotSettings
  1

  2
none_device
  4
ISO_A4_(297.00_x_210.00_MM)
  6

 40
0.0
 41
0.0
 42
0.0
 43
0.0
 44
297.0
 45
210.0
 46
0.0
 47
0.0
 48
0.0
 49
0.0
140
0.0
141
0.0
142
1.0
143
1.0
 70
0
 72
1
 73
0
 74
0
  7

 75
0
147
1.0
148
0.0
149
0.0
100
AcDbLayout
  1
Layout1
 70
0
 71
1
 10
0.0
 20
0.0
 11
297.0
 21
210.0
 12
0.0
 22
0.0
 32
0.0
 14
0.0
 24
0.0
 34
0.0
 15
0.0
 25
0.0
 35
0.0
146
0.0
 13
0.0
 23
0.0
 33
0.0
 16
1.0
 26
0.0
 36
0.0
 17
0.0
 27
1.0
 37
0.0
 76
0
330
210
345
0
346
0
  0
ENDSEC
  0
EOF
