  0
SECTION
  2
HEADER
  9
$ACADVER
  1
AC1021
  9
$DWGCODEPAGE
  3
ANSI_1252
  9
$EXTMAX
 10
297.0
 20
210.0
 30
0.0
  9
$EXTMIN
 10
0.0
 20
0.0
 30
0.0
  9
$LIMMIN
 10
0.0
 20
0.0
  9
$LIMMAX
 10
297.0
 20
210.0
  9
$VIEWCTR
 10
148.5
 20
105.0
  9
$VIEWSIZE
 40
210.0
  9
$CLAYER
  8
0
  9
$LTSCALE
 40
16.335
  9
$CELTYPE
  6
BYLAYER
  9
$DIMSCALE
 40
1.0
  9
$DIMASZ
 40
3.0
  9
$DIMEXO
 40
0.5
  9
$DIMDLI
 40
11.286
  9
$DIMEXE
 40
1.5
  9
$DIMCEN
 40
2.673
  9
$DIMLFAC
 40
1.0
  9
$DIMBLK
  1
_FILLED
  9
$DIMALT
 70
0
  9
$DIMALTF
 40
0.0393700787
  9
$DIMTXT
 40
3.0
  9
$DIMTOL
 70
1
  9
$DIMLIM
 70
0
  9
$DIMTFAC
 40
1.0
  9
$DIMTP
 40
0.01
  9
$DIMTM
 40
0.01
  9
$DIMGAP
 40
0.625
  9
$DIMDSEP
 70
44
  9
$AUNITS
 70
0
  9
$PDMODE
 70
3
  9
$PDSIZE
 40
3.0
  9
$HANDSEED
  5
53A
  9
$TILEMODE
 70
1
  9
$MEASUREMENT
 70
1
  9
$INSUNITS
 70
4
  0
ENDSEC
  0
SECTION
  2
CLASSES
  0
CLASS
  1
ACDBDICTIONARYWDFLT
  2
AcDbDictionaryWithDefault
  3
AutoCAD 2000
 90
0
 91
1
280
0
281
0
  0
CLASS
  1
ACDBPLACEHOLDER
  2
AcDbPlaceHolder
  3
AutoCAD 2000
 90
0
 91
1
280
0
281
0
  0
CLASS
  1
LAYOUT
  2
AcDbLayout
  3
AutoCAD 2000
 90
0
 91
0
280
0
281
0
  0
ENDSEC
  0
SECTION
  2
TABLES
  0
TABLE
  2
VPORT
  5
8
100
AcDbSymbolTable
 70
2
  0
VPORT
  5
1F4
100
AcDbSymbolTableRecord
100
AcDbViewportTableRecord
  2
*ACTIVE
 70
0
 10
0.0
 20
0.0
 11
1.0
 21
1.0
 12
148.5
 22
105.0
 13
0.0
 23
0.0
 14
1.0
 24
1.0
 15
0.0
 25
0.0
 16
0.0
 26
0.0
 36
1.0
 17
0.0
 27
0.0
 37
0.0
 40
210.0
 41
1.4142857143
 42
50.0
 43
0.0
 44
0.0
 50
0.0
 51
0.0
 71
0
 72
100
 73
1
 74
1
 75
0
 76
0
 77
0
 78
0
  0
ENDTAB
  0
TABLE
  2
LTYPE
  5
5
100
AcDbSymbolTable
 70
6
  0
LTYPE
  5
14
100
AcDbSymbolTableRecord
100
AcDbLinetypeTableRecord
  2
BYBLOCK
 70
0
  3

 72
65
 73
0
 40
0.0
  0
LTYPE
  5
15
100
AcDbSymbolTableRecord
100
AcDbLinetypeTableRecord
  2
BYLAYER
 70
0
  3

 72
65
 73
0
 40
0.0
  0
LTYPE
  5
16
100
AcDbSymbolTableRecord
100
AcDbLinetypeTableRecord
  2
CONTINUOUS
 70
64
  3
Solid line
 72
65
 73
0
 40
0.0
  0
LTYPE
  5
1F5
100
AcDbSymbolTableRecord
100
AcDbLinetypeTableRecord
  2
CENTER
 70
64
  3
____ _ ____ _ ____ _ ____ _ ____ _ ____ _ ____
 72
65
 73
4
 40
0.6
 49
0.375
 74
0
 49
-0.075
 74
0
 49
0.075
 74
0
 49
-0.075
 74
0
  0
LTYPE
  5
1F6
100
AcDbSymbolTableRecord
100
AcDbLinetypeTableRecord
  2
HIDDEN
 70
64
  3
- - - - - - - - - - - - - - - - - - - -
 72
65
 73
2
 40
0.2
 49
0.1
 74
0
 49
-0.1
 74
0
  0
LTYPE
  5
1F7
100
AcDbSymbolTableRecord
100
AcDbLinetypeTableRecord
  2
PHANTOM
 70
64
  3
_____ _ _ _____ _ _ _____ _ _ _____
 72
65
 73
6
 40
0.8
 49
0.45
 74
0
 49
-0.05
 74
0
 49
0.1
 74
0
 49
-0.05
 74
0
 49
0.1
 74
0
 49
-0.05
 74
0
  0
LTYPE
  5
1F8
100
AcDbSymbolTableRecord
100
AcDbLinetypeTableRecord
  2
DOT
 70
64
  3
. . . . . . . . . . . . . . . . . . . .
 72
65
 73
2
 40
0.2
 49
0.1
 74
0
 49
-0.1
 74
0
  0
LTYPE
  5
1F9
100
AcDbSymbolTableRecord
100
AcDbLinetypeTableRecord
  2
DASHED
 70
64
  3
- - - - - - - - - - - - - - - - - - - -
 72
65
 73
2
 40
0.2
 49
0.1
 74
0
 49
-0.1
 74
0
  0
ENDTAB
  0
TABLE
  2
LAYER
  5
2
100
AcDbSymbolTable
 70
36
  0
LAYER
  5
10
100
AcDbSymbolTableRecord
100
AcDbLayerTableRecord
  2
0
 70
0
 62
7
  6
CONTINUOUS
370
-3
390
F
  0
LAYER
  5
1FA
100
AcDbSymbolTableRecord
100
AcDbLayerTableRecord
  2
DEFAULT_1
 70
0
 62
7
  6
CENTER
370
-3
390
F
  0
LAYER
  5
1FB
100
AcDbSymbolTableRecord
100
AcDbLayerTableRecord
  2
DEFAULT_2
 70
0
 62
7
  6
HIDDEN
370
-3
390
F
  0
LAYER
  5
1FC
100
AcDbSymbolTableRecord
100
AcDbLayerTableRecord
  2
DEFAULT_3
 70
0
 62
7
  6
PHANTOM
370
-3
390
F
  0
LAYER
  5
1FD
100
AcDbSymbolTableRecord
100
AcDbLayerTableRecord
  2
ASSI
 70
0
 62
7
  6
CONTINUOUS
370
-3
390
F
  0
LAYER
  5
1FE
100
AcDbSymbolTableRecord
100
AcDbLayerTableRecord
  2
COLOR5
 70
0
 62
7
  6
CONTINUOUS
370
-3
390
F
  0
LAYER
  5
1FF
100
AcDbSymbolTableRecord
100
AcDbLayerTableRecord
  2
COORDINATE
 70
0
 62
7
  6
CONTINUOUS
370
-3
390
F
  0
LAYER
  5
200
100
AcDbSymbolTableRecord
100
AcDbLayerTableRecord
  2
COORD_ORIGINE
 70
0
 62
7
  6
CONTINUOUS
370
-3
390
F
  0
LAYER
  5
201
100
AcDbSymbolTableRecord
100
AcDbLayerTableRecord
  2
COPY_PUBLISH
 70
0
 62
7
  6
CONTINUOUS
370
-3
390
F
  0
LAYER
  5
202
100
AcDbSymbolTableRecord
100
AcDbLayerTableRecord
  2
COSMETIC
 70
0
 62
7
  6
CONTINUOUS
370
-3
390
F
  0
LAYER
  5
203
100
AcDbSymbolTableRecord
100
AcDbLayerTableRecord
  2
COSMETICI
 70
0
 62
7
  6
CONTINUOUS
370
-3
390
F
  0
LAYER
  5
204
100
AcDbSymbolTableRecord
100
AcDbLayerTableRecord
  2
CURVE
 70
0
 62
7
  6
CONTINUOUS
370
-3
390
F
  0
LAYER
  5
205
100
AcDbSymbolTableRecord
100
AcDbLayerTableRecord
  2
DRAFT
 70
0
 62
7
  6
CONTINUOUS
370
-3
390
F
  0
LAYER
  5
206
100
AcDbSymbolTableRecord
100
AcDbLayerTableRecord
  2
IMPORT_IGES
 70
0
 62
7
  6
CONTINUOUS
370
-3
390
F
  0
LAYER
  5
207
100
AcDbSymbolTableRecord
100
AcDbLayerTableRecord
  2
INTFCLR_1
 70
0
 62
7
  6
CONTINUOUS
370
-3
390
F
  0
LAYER
  5
208
100
AcDbSymbolTableRecord
100
AcDbLayerTableRecord
  2
INTF_2
 70
0
 62
7
  6
CONTINUOUS
370
-3
390
F
  0
LAYER
  5
209
100
AcDbSymbolTableRecord
100
AcDbLayerTableRecord
  2
INTF_4
 70
0
 62
7
  6
CONTINUOUS
370
-3
390
F
  0
LAYER
  5
20A
100
AcDbSymbolTableRecord
100
AcDbLayerTableRecord
  2
INTF_6
 70
0
 62
7
  6
CONTINUOUS
370
-3
390
F
  0
LAYER
  5
20B
100
AcDbSymbolTableRecord
100
AcDbLayerTableRecord
  2
NOTE
 70
0
 62
7
  6
CONTINUOUS
370
-3
390
F
  0
LAYER
  5
20C
100
AcDbSymbolTableRecord
100
AcDbLayerTableRecord
  2
PIANI
 70
0
 62
7
  6
CONTINUOUS
370
-3
390
F
  0
LAYER
  5
20D
100
AcDbSymbolTableRecord
100
AcDbLayerTableRecord
  2
PIANI_ORIGINE
 70
0
 62
7
  6
CONTINUOUS
370
-3
390
F
  0
LAYER
  5
20E
100
AcDbSymbolTableRecord
100
AcDbLayerTableRecord
  2
PUNTI
 70
0
 62
7
  6
CONTINUOUS
370
-3
390
F
  0
LAYER
  5
20F
100
AcDbSymbolTableRecord
100
AcDbLayerTableRecord
  2
RACCORDO
 70
0
 62
7
  6
CONTINUOUS
370
-3
390
F
  0
LAYER
  5
210
100
AcDbSymbolTableRecord
100
AcDbLayerTableRecord
  2
SIMBOLI
 70
0
 62
7
  6
CONTINUOUS
370
-3
390
F
  0
LAYER
  5
211
100
AcDbSymbolTableRecord
100
AcDbLayerTableRecord
  2
SMUSSO
 70
0
 62
7
  6
CONTINUOUS
370
-3
390
F
  0
LAYER
  5
212
100
AcDbSymbolTableRecord
100
AcDbLayerTableRecord
  2
SNAPLINE
 70
0
 62
7
  6
CONTINUOUS
370
-3
390
F
  0
LAYER
  5
213
100
AcDbSymbolTableRecord
100
AcDbLayerTableRecord
  2
SUPERFICI
 70
0
 62
7
  6
CONTINUOUS
370
-3
390
F
  0
LAYER
  5
214
100
AcDbSymbolTableRecord
100
AcDbLayerTableRecord
  2
TRASH
 70
0
 62
7
  6
CONTINUOUS
370
-3
390
F
  0
LAYER
  5
215
100
AcDbSymbolTableRecord
100
AcDbLayerTableRecord
  2
XSEC_DATUMS
 70
0
 62
7
  6
CONTINUOUS
370
-3
390
F
  0
ENDTAB
  0
TABLE
  2
STYLE
  5
3
100
AcDbSymbolTable
 70
1
  0
STYLE
  5
11
100
AcDbSymbolTableRecord
100
AcDbTextStyleTableRecord
  2
STANDARD
 70
0
 40
0.0
 41
0.8
 50
0.0
 71
0
 42
0.2
  3
txt
  4

  0
STYLE
  5
216
100
AcDbSymbolTableRecord
100
AcDbTextStyleTableRecord
  2
TEXTSTYLE_1
 70
0
 40
0.0
 41
0.8
 50
0.0
 71
0
 42
0.2
  3
gdt
  4

  0
ENDTAB
  0
TABLE
  2
VIEW
  5
6
100
AcDbSymbolTable
 70
0
  0
ENDTAB
  0
TABLE
  2
UCS
  5
7
100
AcDbSymbolTable
 70
0
  0
ENDTAB
  0
TABLE
  2
APPID
  5
9
100
AcDbSymbolTable
 70
1
  0
APPID
  5
217
100
AcDbSymbolTableRecord
100
AcDbRegAppTableRecord
  2
ACAD
 70
0
  0
ENDTAB
  0
TABLE
  2
BLOCK_RECORD
  5
1
100
AcDbSymbolTable
 70
0
  0
BLOCK_RECORD
  5
218
100
AcDbSymbolTableRecord
100
AcDbBlockTableRecord
  2
*Model_Space
  0
BLOCK_RECORD
  5
219
100
AcDbSymbolTableRecord
100
AcDbBlockTableRecord
  2
*Paper_Space
  0
ENDTAB
  0
TABLE
  2
DIMSTYLE
  5
A
100
AcDbSymbolTable
 70
1
100
AcDbDimStyleTable
 71
0
  0
DIMSTYLE
105
21A
100
AcDbSymbolTableRecord
100
AcDbDimStyleTableRecord
  2
STANDARD
 70
0
  3

  4

 40
1.0
 41
3.0
 42
0.5
 43
0.38
 44
1.5
 45
0.0
 46
0.0
 47
0.01
 48
0.01
140
3.0
141
0.09
142
0.0
143
25.4
144
1.0
145
0.0
146
1.0
147
0.625
 71
1.0
 72
0.0
 73
0
 74
0
 75
0
 76
0
 77
1
 78
8
170
0
171
2
172
0
173
0
174
0
175
0
176
0
177
0
178
0
270
2
271
2
272
2
273
2
274
2
275
0
280
0
281
0
282
0
283
1
284
8
285
0
286
0
287
3
288
0
340
11
278
44
  0
ENDTAB
  0
ENDSEC
  0
SECTION
  2
BLOCKS
  0
BLOCK
  5
20
100
AcDbEntity
  8
0
100
AcDbBlockBegin
  2
*Model_Space
 70
0
 10
0.0
 20
0.0
 30
0.0
  3
*Model_Space
  1

  0
ENDBLK
  5
21
100
AcDbEntity
  8
0
100
AcDbBlockEnd
  0
BLOCK
  5
1C
100
AcDbEntity
  8
0
100
AcDbBlockBegin
  2
*Paper_Space
 70
0
 10
0.0
 20
0.0
 30
0.0
  3
*Paper_Space
  1

  0
ENDBLK
  5
1D
100
AcDbEntity
  8
0
100
AcDbBlockEnd
  0
ENDSEC
  0
SECTION
  2
ENTITIES
  0
LWPOLYLINE
  5
21B
100
AcDbEntity
  8
RACCORDO
100
AcDbPolyline
 62
7
  6
CONTINUOUS
 90
11
 70
0
 10
-101.407186945
 20
-134.0516502332
 10
-101.2681895552
 20
-134.3170222649
 10
-101.1028200498
 20
-134.5680202633
 10
-100.9095852221
 20
-134.8054578018
 10
-100.6850893775
 20
-135.0288955607
 10
-100.4290915168
 20
-135.2336482176
 10
-100.1427823005
 20
-135.4142006703
 10
-99.8241596445
 20
-135.5663808647
 10
-99.4741673526
 20
-135.683683108
 10
-99.0976089633
 20
-135.7586808216
 10
-98.6995770358
 20
-135.7846542996
  0
LWPOLYLINE
  5
21C
100
AcDbEntity
  8
RACCORDO
100
AcDbPolyline
 62
7
  6
CONTINUOUS
 90
11
 70
0
 10
-101.410804926
 20
130.9741393464
 10
-101.2729032303
 20
131.23801171
 10
-101.1108541387
 20
131.487352336
 10
-100.9206122434
 20
131.7233927394
 10
-100.6995808148
 20
131.9455491975
 10
-100.4470337921
 20
132.150625142
 10
-100.1638686424
 20
132.332729923
 10
-99.8500793658
 20
132.4858848716
 10
-99.5074179149
 20
132.6042170286
 10
-99.1397967357
 20
132.6824915181
 10
-98.7520099587
 20
132.7152917053
  0
LWPOLYLINE
  5
21D
100
AcDbEntity
  8
RACCORDO
100
AcDbPolyline
 62
7
  6
CONTINUOUS
 90
4
 70
0
 10
-69.3905784681
 20
-135.8491483259
 10
-69.7986522383
 20
-135.8212223397
 10
-70.1997852164
 20
-135.7364262477
 10
-70.3870248026
 20
-135.6681921443
  0
LWPOLYLINE
  5
21E
100
AcDbEntity
  8
0
100
AcDbPolyline
 62
7
  6
CONTINUOUS
 90
3
 70
0
 10
-77.5836878537
 20
-116.9749039077
 10
-77.5345146848
 20
-117.0030817248
 10
-77.4847719003
 20
-117.0276358656
  0
LINE
  5
21F
100
AcDbEntity
  8
0
100
AcDbLine
 62
7
  6
CONTINUOUS
 10
-77.5219540899
 20
-116.0023067009
 11
-77.7785615774
 21
-115.8517769701
  0
LWPOLYLINE
  5
220
100
AcDbEntity
  8
RACCORDO
100
AcDbPolyline
 62
7
  6
CONTINUOUS
 90
3
 70
0
 10
-75.5057259158
 20
-135.7256374991
 10
-75.2438867722
 20
-135.7076495099
 10
-75.0508516709
 20
-135.6681922225
  0
LINE
  5
221
100
AcDbEntity
  8
0
100
AcDbLine
 62
7
  6
CONTINUOUS
 10
-98.2558179512
 20
-132.3390688086
 11
-97.7360217859
 21
-132.3175638551
  0
LINE
  5
222
100
AcDbEntity
  8
RACCORDO
100
AcDbLine
 62
7
  6
CONTINUOUS
 10
-98.684123092
 20
-135.7655464305
 11
-90.9534763044
 21
-135.7510482111
  0
LINE
  5
223
100
AcDbEntity
  8
0
100
AcDbLine
 62
7
  6
CONTINUOUS
 10
-98.6260156987
 20
-132.7092665561
 11
-97.732093905
 21
-132.7076923018
  0
LINE
  5
224
100
AcDbEntity
  8
RACCORDO
100
AcDbLine
 62
7
  6
CONTINUOUS
 10
-90.9534763044
 20
-135.7510482111
 11
-83.1938149368
 21
-135.7376917272
  0
LINE
  5
225
100
AcDbEntity
  8
RACCORDO
100
AcDbLine
 62
7
  6
CONTINUOUS
 10
-83.1938149368
 20
-135.7376917272
 11
-75.5057259158
 21
-135.7256374991
  0
LINE
  5
226
100
AcDbEntity
  8
DRAFT
100
AcDbLine
 62
7
  6
CONTINUOUS
 10
-97.7022870502
 20
-135.6681950006
 11
97.300741349
 21
-135.6681950006
  0
LINE
  5
227
100
AcDbEntity
  8
DRAFT
100
AcDbLine
 62
7
  6
CONTINUOUS
 10
-98.6499286452
 20
-132.8005575038
 11
-97.7311589221
 21
-132.8005575038
  0
LINE
  5
228
100
AcDbEntity
  8
DRAFT
100
AcDbLine
 62
7
  6
CONTINUOUS
 10
97.3296132208
 20
-132.8005575038
 11
98.248382944
 21
-132.8005575038
  0
LINE
  5
229
100
AcDbEntity
  8
DRAFT
100
AcDbLine
 62
7
  6
CONTINUOUS
 10
96.7416254351
 20
-129.9264219937
 11
30.2992271494
 21
-129.9264219937
  0
LINE
  5
22A
100
AcDbEntity
  8
DRAFT
100
AcDbLine
 62
7
  6
CONTINUOUS
 10
24.2992271494
 20
-129.9264219937
 11
-97.1431711363
 21
-129.9264219937
  0
LINE
  5
22B
100
AcDbEntity
  8
DRAFT
100
AcDbLine
 62
7
  6
CONTINUOUS
 10
93.4416254351
 20
-126.6264219937
 11
81.5568288637
 21
-126.6264219937
  0
LINE
  5
22C
100
AcDbEntity
  8
DRAFT
100
AcDbLine
 62
7
  6
CONTINUOUS
 10
9.7416254351
 20
-126.6264219937
 11
-10.1431711363
 21
-126.6264219937
  0
LINE
  5
22D
100
AcDbEntity
  8
DRAFT
100
AcDbLine
 62
7
  6
CONTINUOUS
 10
-81.9583745649
 20
-126.6264219937
 11
-93.8431711363
 21
-126.6264219937
  0
LINE
  5
22E
100
AcDbEntity
  8
0
100
AcDbLine
 62
7
  6
CONTINUOUS
 10
-93.7007728506
 20
-126.284023708
 11
-92.7007728506
 21
-126.284023708
  0
LINE
  5
22F
100
AcDbEntity
  8
0
100
AcDbLine
 62
7
  6
CONTINUOUS
 10
93.2992271494
 20
-126.284023708
 11
92.2992271494
 21
-126.284023708
  0
LINE
  5
230
100
AcDbEntity
  8
0
100
AcDbLine
 62
7
  6
CONTINUOUS
 10
-92.7007728506
 20
-125.784023708
 11
-81.9583745649
 21
-125.784023708
  0
LINE
  5
231
100
AcDbEntity
  8
0
100
AcDbLine
 62
7
  6
CONTINUOUS
 10
-10.1431711363
 20
-125.784023708
 11
-5.2007728506
 21
-125.784023708
  0
LINE
  5
232
100
AcDbEntity
  8
0
100
AcDbLine
 62
7
  6
CONTINUOUS
 10
4.7992271494
 20
-125.784023708
 11
9.7416254351
 21
-125.784023708
  0
LINE
  5
233
100
AcDbEntity
  8
0
100
AcDbLine
 62
7
  6
CONTINUOUS
 10
81.5568288637
 20
-125.784023708
 11
92.2992271494
 21
-125.784023708
  0
LINE
  5
234
100
AcDbEntity
  8
0
100
AcDbLine
 62
253
  6
CONTINUOUS
 10
-92.7007728506
 20
-125.284023708
 11
-81.9583745649
 21
-125.284023708
  0
LINE
  5
235
100
AcDbEntity
  8
0
100
AcDbLine
 62
253
  6
CONTINUOUS
 10
-10.1431711363
 20
-125.284023708
 11
-5.2007728506
 21
-125.284023708
  0
LINE
  5
236
100
AcDbEntity
  8
0
100
AcDbLine
 62
253
  6
CONTINUOUS
 10
4.7992271494
 20
-125.284023708
 11
9.7416254351
 21
-125.284023708
  0
LINE
  5
237
100
AcDbEntity
  8
0
100
AcDbLine
 62
253
  6
CONTINUOUS
 10
81.5568288637
 20
-125.284023708
 11
92.2992271494
 21
-125.284023708
  0
LWPOLYLINE
  5
238
100
AcDbEntity
  8
DRAFT
100
AcDbPolyline
 62
7
  6
CONTINUOUS
 90
25
 70
0
 10
-97.6116427251
 20
-130.3948935825
 10
-89.5004593967
 20
-130.4023197689
 10
-81.3878063711
 20
-130.4091004701
 10
-73.2736836482
 20
-130.4152356861
 10
-65.1578655229
 20
-130.4207255374
 10
-57.0405777002
 20
-130.4255699035
 10
-48.9224972962
 20
-130.4297684235
 10
-40.8037741658
 20
-130.4333209955
 10
-32.684258454
 20
-130.4362277214
 10
-24.5641777115
 20
-130.4384885453
 10
-16.443419445
 20
-130.4401034819
 10
-8.3220961478
 20
-130.4410725165
 10
-0.2007728506
 20
-130.44139555
 10
7.9205504466
 20
-130.4410725165
 10
16.0418737438
 20
-130.4401034819
 10
24.1626320103
 20
-130.4384885453
 10
32.2827127528
 20
-130.4362277214
 10
40.4022284646
 20
-130.4333209955
 10
48.520951595
 20
-130.4297684235
 10
56.6390319991
 20
-130.4255699035
 10
64.7563198217
 20
-130.4207255374
 10
72.8721379471
 20
-130.4152356861
 10
80.9862606699
 20
-130.4091004701
 10
89.0989136955
 20
-130.4023197689
 10
97.2100970239
 20
-130.3948935825
  0
LINE
  5
239
100
AcDbEntity
  8
RACCORDO
100
AcDbLine
 62
7
  6
CONTINUOUS
 10
75.1041802146
 20
-135.7256374991
 11
77.658924072
 21
-135.7295108801
  0
LWPOLYLINE
  5
23A
100
AcDbEntity
  8
RACCORDO
100
AcDbPolyline
 62
7
  6
CONTINUOUS
 90
4
 70
0
 10
77.658924072
 20
-135.7295108801
 10
82.7922692356
 20
-135.7376917272
 10
85.3745959836
 20
-135.7420051386
 10
87.9648752145
 20
-135.7464632451
  0
LINE
  5
23B
100
AcDbEntity
  8
0
100
AcDbLine
 62
7
  6
CONTINUOUS
 10
97.3305482038
 20
-132.7076923018
 11
98.2244699975
 21
-132.7092665561
  0
LWPOLYLINE
  5
23C
100
AcDbEntity
  8
RACCORDO
100
AcDbPolyline
 62
7
  6
CONTINUOUS
 90
4
 70
0
 10
87.9648752145
 20
-135.7464632451
 10
93.132036708
 20
-135.7557540914
 10
95.7089189705
 20
-135.7605868312
 10
98.2825773908
 20
-135.7655464305
  0
LINE
  5
23D
100
AcDbEntity
  8
0
100
AcDbLine
 62
7
  6
CONTINUOUS
 10
97.3344760847
 20
-132.3175638496
 11
97.8542722438
 21
-132.3390688023
  0
LWPOLYLINE
  5
23E
100
AcDbEntity
  8
0
100
AcDbPolyline
 62
7
  6
CONTINUOUS
 90
20
 70
0
 10
-76.9076234495
 20
-117.6660612816
 10
-76.8274093492
 20
-117.677322997
 10
-76.7466182484
 20
-117.6831476364
 10
-76.6656182589
 20
-117.6835086604
 10
-76.5847784439
 20
-117.6784044237
 10
-76.5044671373
 20
-117.6678581828
 10
-76.4250502645
 20
-117.6519179893
 10
-76.3468896759
 20
-117.6306564721
 10
-76.2703414979
 20
-117.6041705055
 10
-76.1957545099
 20
-117.5725807681
 10
-76.123468556
 20
-117.5360311933
 10
-76.0538129957
 20
-117.4946883131
 10
-75.9871052035
 20
-117.4487404994
 10
-75.9236491232
 20
-117.3983971058
 10
-75.8637338825
 20
-117.3438875138
 10
-75.8076324759
 20
-117.2854600873
 10
-75.755600521
 20
-117.2233810413
 10
-75.7078750932
 20
-117.1579332291
 10
-75.6646736464
 20
-117.089414853
 10
-75.6261930213
 20
-117.018138106
  0
LINE
  5
23F
100
AcDbEntity
  8
0
100
AcDbLine
 62
7
  6
CONTINUOUS
 10
-76.9868950668
 20
-117.6494138028
 11
-76.9076234495
 21
-117.6660612816
  0
LINE
  5
240
100
AcDbEntity
  8
0
100
AcDbLine
 62
7
  6
CONTINUOUS
 10
-77.0648630129
 20
-117.6274564123
 11
-76.9868950668
 21
-117.6494138028
  0
LINE
  5
241
100
AcDbEntity
  8
0
100
AcDbLine
 62
7
  6
CONTINUOUS
 10
-75.8253772891
 20
-116.847720367
 11
-75.5926085492
 21
-116.9444277491
  0
LINE
  5
242
100
AcDbEntity
  8
0
100
AcDbLine
 62
7
  6
CONTINUOUS
 10
-77.4847719003
 20
-117.0276358656
 11
-77.4346955968
 21
-117.0485817002
  0
LINE
  5
243
100
AcDbEntity
  8
0
100
AcDbLine
 62
7
  6
CONTINUOUS
 10
-75.8088119672
 20
-116.1552405347
 11
-75.8439746267
 21
-116.115186471
  0
LINE
  5
244
100
AcDbEntity
  8
0
100
AcDbLine
 62
7
  6
CONTINUOUS
 10
-77.4346955968
 20
-117.0485817002
 11
-77.4551182099
 21
-117.022349088
  0
LWPOLYLINE
  5
245
100
AcDbEntity
  8
0
100
AcDbPolyline
 62
7
  6
CONTINUOUS
 90
8
 70
0
 10
-77.8918799757
 20
-116.6780047534
 10
-77.8533779943
 20
-116.7307366476
 10
-77.8126417537
 20
-116.7801522545
 10
-77.7699041115
 20
-116.8261628933
 10
-77.7254010688
 20
-116.8686947493
 10
-77.6793708731
 20
-116.9076889601
 10
-77.6320531192
 20
-116.9431016492
 10
-77.5836878537
 20
-116.9749039077
  0
LWPOLYLINE
  5
246
100
AcDbEntity
  8
0
100
AcDbPolyline
 62
7
  6
CONTINUOUS
 90
18
 70
0
 10
-77.4551182099
 20
-117.022349088
 10
-77.4746702469
 20
-116.9952802207
 10
-77.4933144828
 20
-116.9674013004
 10
-77.5110202808
 20
-116.9387301698
 10
-77.5277450554
 20
-116.9093060395
 10
-77.5434380009
 20
-116.8791916734
 10
-77.5580753312
 20
-116.84840626
 10
-77.5716191155
 20
-116.8170009819
 10
-77.584010893
 20
-116.7850946681
 10
-77.5952253939
 20
-116.7527505383
 10
-77.6052540783
 20
-116.7199911907
 10
-77.6140767081
 20
-116.6868802206
 10
-77.6216851513
 20
-116.6534462126
 10
-77.6280650678
 20
-116.6197499553
 10
-77.6331990615
 20
-116.585906178
 10
-77.6370860095
 20
-116.5519847216
 10
-77.6397326847
 20
-116.5180086897
 10
-77.6411436394
 20
-116.484023708
  0
LWPOLYLINE
  5
247
100
AcDbEntity
  8
0
100
AcDbPolyline
 62
7
  6
CONTINUOUS
 90
4
 70
0
 10
-75.7153698274
 20
-116.2913418806
 10
-75.7443210197
 20
-116.2434137786
 10
-75.7755305324
 20
-116.1980127092
 10
-75.8088119672
 20
-116.1552405347
  0
LWPOLYLINE
  5
248
100
AcDbEntity
  8
0
100
AcDbPolyline
 62
7
  6
CONTINUOUS
 90
3
 70
0
 10
-77.9457369833
 20
-116.5905183083
 10
-77.9279188784
 20
-116.6220599803
 10
-77.8918799757
 20
-116.6780047534
  0
LWPOLYLINE
  5
249
100
AcDbEntity
  8
RACCORDO
100
AcDbPolyline
 62
7
  6
CONTINUOUS
 90
6
 70
0
 10
-101.6947000808
 20
129.7117310412
 10
-101.6792452705
 20
129.9410398641
 10
-101.6489244091
 20
130.1831036245
 10
-101.5987767697
 20
130.4365119044
 10
-101.520898845
 20
130.7025068661
 10
-101.410804926
 20
130.9741393464
  0
LINE
  5
24A
100
AcDbEntity
  8
RACCORDO
100
AcDbLine
 62
253
  6
CONTINUOUS
 10
-60.2007728506
 20
-124.2253723396
 11
-50.2007728506
 21
-124.2253723396
  0
LINE
  5
24B
100
AcDbEntity
  8
RACCORDO
100
AcDbLine
 62
253
  6
CONTINUOUS
 10
49.7992271494
 20
-124.2253723396
 11
59.7992271494
 21
-124.2253723396
  0
LINE
  5
24C
100
AcDbEntity
  8
RACCORDO
100
AcDbLine
 62
253
  6
CONTINUOUS
 10
-60.2007728506
 20
-123.725448492
 11
-50.2007728506
 21
-123.725448492
  0
LINE
  5
24D
100
AcDbEntity
  8
RACCORDO
100
AcDbLine
 62
253
  6
CONTINUOUS
 10
49.7992271494
 20
-123.725448492
 11
59.7992271494
 21
-123.725448492
  0
LINE
  5
24E
100
AcDbEntity
  8
RACCORDO
100
AcDbLine
 62
253
  6
CONTINUOUS
 10
-60.2007728506
 20
-123.6815061968
 11
-50.2007728506
 21
-123.6815061968
  0
LINE
  5
24F
100
AcDbEntity
  8
RACCORDO
100
AcDbLine
 62
253
  6
CONTINUOUS
 10
49.7992271494
 20
-123.6815061968
 11
59.7992271494
 21
-123.6815061968
  0
LINE
  5
250
100
AcDbEntity
  8
RACCORDO
100
AcDbLine
 62
253
  6
CONTINUOUS
 10
-60.2007728506
 20
-123.1815823492
 11
-50.2007728506
 21
-123.1815823492
  0
LINE
  5
251
100
AcDbEntity
  8
RACCORDO
100
AcDbLine
 62
253
  6
CONTINUOUS
 10
49.7992271494
 20
-123.1815823492
 11
59.7992271494
 21
-123.1815823492
  0
LINE
  5
252
100
AcDbEntity
  8
DRAFT
100
AcDbLine
 62
7
  6
CONTINUOUS
 10
-93.8431711363
 20
-121.7416254223
 11
-81.9583745649
 21
-121.7416254223
  0
LINE
  5
253
100
AcDbEntity
  8
DRAFT
100
AcDbLine
 62
7
  6
CONTINUOUS
 10
-10.1431711363
 20
-121.7416254223
 11
9.7416254351
 21
-121.7416254223
  0
LINE
  5
254
100
AcDbEntity
  8
DRAFT
100
AcDbLine
 62
7
  6
CONTINUOUS
 10
81.5568288637
 20
-121.7416254223
 11
93.4416254351
 21
-121.7416254223
  0
LINE
  5
255
100
AcDbEntity
  8
DRAFT
100
AcDbLine
 62
7
  6
CONTINUOUS
 10
59.7992271494
 20
-118.0601495262
 11
49.7992271494
 21
-118.0601495262
  0
LINE
  5
256
100
AcDbEntity
  8
DRAFT
100
AcDbLine
 62
7
  6
CONTINUOUS
 10
-50.2007728506
 20
-118.0601495262
 11
-60.2007728506
 21
-118.0601495262
  0
LINE
  5
257
100
AcDbEntity
  8
DRAFT
100
AcDbLine
 62
7
  6
CONTINUOUS
 10
-60.2007728506
 20
-112.4078978898
 11
-50.2007728506
 21
-112.4078978898
  0
LINE
  5
258
100
AcDbEntity
  8
DRAFT
100
AcDbLine
 62
7
  6
CONTINUOUS
 10
49.7992271494
 20
-112.4078978898
 11
59.7992271494
 21
-112.4078978898
  0
LWPOLYLINE
  5
259
100
AcDbEntity
  8
RACCORDO
100
AcDbPolyline
 62
7
  6
CONTINUOUS
 90
3
 70
0
 10
74.6493072232
 20
-135.6681922225
 10
74.8423373622
 20
-135.707648987
 10
75.1041802146
 20
-135.7256374991
  0
LINE
  5
25A
100
AcDbEntity
  8
0
100
AcDbLine
 62
7
  6
CONTINUOUS
 10
-75.8439746267
 20
-116.115186471
 11
-75.8273572323
 21
-116.1540439224
  0
LWPOLYLINE
  5
25B
100
AcDbEntity
  8
0
100
AcDbPolyline
 62
7
  6
CONTINUOUS
 90
9
 70
0
 10
-75.8273572323
 20
-116.1540439224
 10
-75.8125044087
 20
-116.1936457511
 10
-75.7994493002
 20
-116.233911722
 10
-75.7882144577
 20
-116.2747878236
 10
-75.7788351072
 20
-116.316163988
 10
-75.7713465365
 20
-116.3578711456
 10
-75.7657585878
 20
-116.3997938121
 10
-75.7620682522
 20
-116.441873387
 10
-75.7602742541
 20
-116.484023708
  0
LINE
  5
25C
100
AcDbEntity
  8
DRAFT
100
AcDbLine
 62
7
  6
CONTINUOUS
 10
-98.6205672318
 20
-132.8005575038
 11
-98.6261024944
 21
-132.7093533518
  0
LWPOLYLINE
  5
25D
100
AcDbEntity
  8
RACCORDO
100
AcDbPolyline
 62
7
  6
CONTINUOUS
 90
4
 70
0
 10
-98.7224224243
 20
-135.4068871977
 10
-98.7467200175
 20
-135.004818691
 10
-98.7551514517
 20
-134.8650842902
 10
-98.7637533713
 20
-134.7224179652
  0
LWPOLYLINE
  5
25E
100
AcDbEntity
  8
RACCORDO
100
AcDbPolyline
 62
7
  6
CONTINUOUS
 90
4
 70
0
 10
-98.699632608
 20
-135.7847098718
 10
-98.7070616827
 20
-135.6614629618
 10
-98.7146582881
 20
-135.5355220705
 10
-98.7224224243
 20
-135.4068871977
  0
LWPOLYLINE
  5
25F
100
AcDbEntity
  8
RACCORDO
100
AcDbPolyline
 62
7
  6
CONTINUOUS
 90
3
 70
0
 10
-98.7637533713
 20
-134.7224179652
 10
-98.781547295
 20
-134.4269207184
 10
-98.7907392992
 20
-134.2740897964
  0
LWPOLYLINE
  5
260
100
AcDbEntity
  8
RACCORDO
100
AcDbPolyline
 62
7
  6
CONTINUOUS
 90
3
 70
0
 10
-98.7907392992
 20
-134.2740897964
 10
-98.8097924498
 20
-133.95686698
 10
-98.8196535963
 20
-133.7924750854
  0
LWPOLYLINE
  5
261
100
AcDbEntity
  8
RACCORDO
100
AcDbPolyline
 62
7
  6
CONTINUOUS
 90
3
 70
0
 10
-98.8196535963
 20
-133.7924750854
 10
-98.8401196908
 20
-133.4507860336
 10
-98.8507246387
 20
-133.2734888763
  0
LWPOLYLINE
  5
262
100
AcDbEntity
  8
RACCORDO
100
AcDbPolyline
 62
7
  6
CONTINUOUS
 90
3
 70
0
 10
-98.8507246387
 20
-133.2734888763
 10
-98.872723746
 20
-132.9051124478
 10
-98.8841179055
 20
-132.7140331765
  0
LINE
  5
263
100
AcDbEntity
  8
RACCORDO
100
AcDbLine
 62
7
  6
CONTINUOUS
 10
-98.8841179055
 20
-132.7140331765
 11
-98.9077341117
 21
-132.3173085057
  0
LWPOLYLINE
  5
264
100
AcDbEntity
  8
RACCORDO
100
AcDbPolyline
 62
7
  6
CONTINUOUS
 90
3
 70
0
 10
-98.9077341117
 20
-132.3173085057
 10
-98.9324699387
 20
-131.9008438414
 10
-98.9452731346
 20
-131.6848931977
  0
LINE
  5
265
100
AcDbEntity
  8
RACCORDO
100
AcDbLine
 62
7
  6
CONTINUOUS
 10
-98.9452731346
 20
-131.6848931977
 11
-98.9717772145
 21
-131.2370292242
  0
LINE
  5
266
100
AcDbEntity
  8
RACCORDO
100
AcDbLine
 62
7
  6
CONTINUOUS
 10
-98.9717772145
 20
-131.2370292242
 11
-98.9995373833
 21
-130.7667276617
  0
LINE
  5
267
100
AcDbEntity
  8
RACCORDO
100
AcDbLine
 62
7
  6
CONTINUOUS
 10
-98.9995373833
 20
-130.7667276617
 11
-99.028625558
 21
-130.2725468421
  0
LINE
  5
268
100
AcDbEntity
  8
RACCORDO
100
AcDbLine
 62
7
  6
CONTINUOUS
 10
-99.028625558
 20
-130.2725468421
 11
-99.0590888507
 21
-129.7535262165
  0
LWPOLYLINE
  5
269
100
AcDbEntity
  8
RACCORDO
100
AcDbPolyline
 62
7
  6
CONTINUOUS
 90
3
 70
0
 10
-99.0590888507
 20
-129.7535262165
 10
-99.0910130976
 20
-129.2078795007
 10
-99.1075172207
 20
-128.925192886
  0
LWPOLYLINE
  5
26A
100
AcDbEntity
  8
RACCORDO
100
AcDbPolyline
 62
7
  6
CONTINUOUS
 90
6
 70
0
 10
-101.6952279009
 20
-132.7803062773
 10
-101.683436321
 20
-133.011321206
 10
-101.6521559382
 20
-133.2558161674
 10
-101.5981117737
 20
-133.511686097
 10
-101.5174173289
 20
-133.7791330707
 10
-101.407186945
 20
-134.0516502332
  0
LINE
  5
26B
100
AcDbEntity
  8
DRAFT
100
AcDbLine
 62
7
  6
CONTINUOUS
 10
-97.8779611641
 20
-118.1700417441
 11
-97.7022870502
 21
-135.6681950006
  0
LINE
  5
26C
100
AcDbEntity
  8
DRAFT
100
AcDbLine
 62
7
  6
CONTINUOUS
 10
-97.8889750845
 20
-116.8155781737
 11
-97.8779611641
 21
-118.1700417441
  0
LINE
  5
26D
100
AcDbEntity
  8
DRAFT
100
AcDbLine
 62
7
  6
CONTINUOUS
 10
-97.8981894496
 20
-115.4184856206
 11
-97.8889750845
 21
-116.8155781737
  0
LINE
  5
26E
100
AcDbEntity
  8
DRAFT
100
AcDbLine
 62
7
  6
CONTINUOUS
 10
-97.905559847
 20
-113.9851224221
 11
-97.8981894496
 21
-115.4184856206
  0
LINE
  5
26F
100
AcDbEntity
  8
DRAFT
100
AcDbLine
 62
7
  6
CONTINUOUS
 10
-97.9110396687
 20
-112.5250300701
 11
-97.905559847
 21
-113.9851224221
  0
LINE
  5
270
100
AcDbEntity
  8
DRAFT
100
AcDbLine
 62
7
  6
CONTINUOUS
 10
-97.9146012086
 20
-111.0451111686
 11
-97.9110396687
 21
-112.5250300701
  0
LINE
  5
271
100
AcDbEntity
  8
DRAFT
100
AcDbLine
 62
7
  6
CONTINUOUS
 10
-97.9162240779
 20
-109.5547305632
 11
-97.9146012086
 21
-111.0451111686
  0
LINE
  5
272
100
AcDbEntity
  8
RACCORDO
100
AcDbLine
 62
7
  6
CONTINUOUS
 10
-101.7007728506
 20
-132.3914076192
 11
-101.7007728506
 21
129.3003194175
  0
LINE
  5
273
100
AcDbEntity
  8
RACCORDO
100
AcDbLine
 62
7
  6
CONTINUOUS
 10
-101.2921998475
 20
-125.6364094697
 11
-101.2921998475
 21
122.545321268
  0
LINE
  5
274
100
AcDbEntity
  8
RACCORDO
100
AcDbLine
 62
7
  6
CONTINUOUS
 10
-99.1075172207
 20
-128.925192886
 11
-99.1075172207
 21
124.015976292
  0
LINE
  5
275
100
AcDbEntity
  8
DRAFT
100
AcDbLine
 62
7
  6
CONTINUOUS
 10
-98.2007728506
 20
-95.734023708
 11
-98.2007728506
 21
-94.234023708
  0
LINE
  5
276
100
AcDbEntity
  8
DRAFT
100
AcDbLine
 62
7
  6
CONTINUOUS
 10
-98.2007728506
 20
-85.734023708
 11
-98.2007728506
 21
-84.234023708
  0
LINE
  5
277
100
AcDbEntity
  8
DRAFT
100
AcDbLine
 62
7
  6
CONTINUOUS
 10
-97.9162240779
 20
-109.5547305632
 11
-97.9163326937
 21
124.015976292
  0
LINE
  5
278
100
AcDbEntity
  8
DRAFT
100
AcDbLine
 62
7
  6
CONTINUOUS
 10
-97.1431711363
 20
-129.9264219937
 11
-97.1431711363
 21
123.4583745777
  0
LINE
  5
279
100
AcDbEntity
  8
DRAFT
100
AcDbLine
 62
7
  6
CONTINUOUS
 10
-97.9164443234
 20
-108.8412818617
 11
-97.9241278583
 21
-111.0091928639
  0
LWPOLYLINE
  5
27A
100
AcDbEntity
  8
DRAFT
100
AcDbPolyline
 62
7
  6
CONTINUOUS
 90
3
 70
0
 10
-97.9241278583
 20
-111.0091928639
 10
-97.9319124184
 20
-113.176906991
 10
-97.9397980035
 20
-115.3444242428
  0
LINE
  5
27B
100
AcDbEntity
  8
DRAFT
100
AcDbLine
 62
7
  6
CONTINUOUS
 10
-97.6116427251
 20
-130.3948935825
 11
-97.6192082307
 21
-131.1046493584
  0
LINE
  5
27C
100
AcDbEntity
  8
DRAFT
100
AcDbLine
 62
7
  6
CONTINUOUS
 10
-97.6192082307
 20
-131.1046493584
 11
-97.6274620319
 21
-131.787592464
  0
LWPOLYLINE
  5
27D
100
AcDbEntity
  8
DRAFT
100
AcDbPolyline
 62
7
  6
CONTINUOUS
 90
3
 70
0
 10
-97.6274620319
 20
-131.787592464
 10
-97.6363933696
 20
-132.4429054421
 10
-97.6411000771
 20
-132.759161094
  0
LINE
  5
27E
100
AcDbEntity
  8
0
100
AcDbLine
 62
7
  6
CONTINUOUS
 10
-97.9397980035
 20
-115.3444242428
 11
-97.9743375794
 21
-117.2413131955
  0
LINE
  5
27F
100
AcDbEntity
  8
0
100
AcDbLine
 62
7
  6
CONTINUOUS
 10
-97.9743375794
 20
-117.2413131955
 11
-98.0438472276
 21
-121.0286549263
  0
LINE
  5
280
100
AcDbEntity
  8
0
100
AcDbLine
 62
7
  6
CONTINUOUS
 10
-98.0438472276
 20
-121.0286549263
 11
-98.1139310332
 21
-124.8074241215
  0
LINE
  5
281
100
AcDbEntity
  8
0
100
AcDbLine
 62
7
  6
CONTINUOUS
 10
-98.1139310332
 20
-124.8074241215
 11
-98.1845880223
 21
-128.5775665975
  0
LINE
  5
282
100
AcDbEntity
  8
0
100
AcDbLine
 62
7
  6
CONTINUOUS
 10
-98.1845880223
 20
-128.5775665975
 11
-98.2558179512
 21
-132.3390688086
  0
LWPOLYLINE
  5
283
100
AcDbEntity
  8
RACCORDO
100
AcDbPolyline
 62
253
  6
CONTINUOUS
 90
37
 70
0
 10
7.2470904003
 20
-97.9315823492
 10
7.3351214295
 20
-97.9295725213
 10
7.4224119212
 20
-97.9238337434
 10
7.5089618755
 20
-97.9143660156
 10
7.5948397743
 20
-97.9011413428
 10
7.6799771358
 20
-97.88418772
 10
7.7641685136
 20
-97.8635891327
 10
7.8475126291
 20
-97.8393183864
 10
7.9299107609
 20
-97.8114026756
 10
8.0108612986
 20
-97.7800075687
 10
8.0903403698
 20
-97.7451173491
 10
8.1683718468
 20
-97.7067477333
 10
8.244525736
 20
-97.6651114391
 10
8.3187955204
 20
-97.6201885012
 10
8.391187717
 20
-97.5719988849
 10
8.4612918825
 20
-97.5208152037
 10
8.529094513
 20
-97.4666206625
 10
8.5946091124
 20
-97.4094320564
 10
8.6574657499
 20
-97.349572385
 10
8.7176488108
 20
-97.2870273634
 10
8.7751739097
 20
-97.2218112766
 10
8.8297179606
 20
-97.1542899789
 10
8.881266879
 20
-97.0844449286
 10
8.9298347493
 20
-97.0122946675
 10
8.9751407379
 20
-96.9382606759
 10
9.0171389486
 20
-96.8624224122
 10
9.0558752776
 20
-96.7847004179
 10
9.0912065805
 20
-96.7052777982
 10
9.1231706942
 20
-96.6240693402
 10
9.1517297818
 20
-96.5411602568
 10
9.1766271885
 20
-96.4569892912
 10
9.1978446672
 20
-96.3714973024
 10
9.215400465
 20
-96.2847434314
 10
9.2290926676
 20
-96.197343845
 10
9.2388539704
 20
-96.1095039318
 10
9.2447516781
 20
-96.0210183031
 10
9.2467857906
 20
-95.9318869589
  0
LWPOLYLINE
  5
284
100
AcDbEntity
  8
RACCORDO
100
AcDbPolyline
 62
253
  6
CONTINUOUS
 90
37
 70
0
 10
7.2470904003
 20
-98.4315061968
 10
7.3567860874
 20
-98.4290919815
 10
7.4659617855
 20
-98.4218942239
 10
7.5744111204
 20
-98.4099671564
 10
7.6818185331
 20
-98.3933937597
 10
7.7881020518
 20
-98.372234998
 10
7.8934038559
 20
-98.34648049
 10
7.9976499786
 20
-98.3161346131
 10
8.1005144348
 20
-98.2812783769
 10
8.2017574207
 20
-98.2419911187
 10
8.3011699148
 20
-98.1983568641
 10
8.3985842069
 20
-98.1504522149
 10
8.4938289264
 20
-98.0983619156
 10
8.586728925
 20
-98.0421809132
 10
8.677103971
 20
-97.9820173605
 10
8.7647810929
 20
-97.9179861048
 10
8.8495943904
 20
-97.8502083315
 10
8.9313844814
 20
-97.7788114651
 10
9.0099965293
 20
-97.7039306835
 10
9.0852814659
 20
-97.6257081855
 10
9.1570983139
 20
-97.544290695
 10
9.2253135457
 20
-97.4598294291
 10
9.2898027239
 20
-97.3724771182
 10
9.3504389445
 20
-97.2824042745
 10
9.4070973923
 20
-97.189798175
 10
9.4596182401
 20
-97.0949391809
 10
9.5079685096
 20
-96.9979074489
 10
9.5521885957
 20
-96.8985784782
 10
9.5921950699
 20
-96.7970206709
 10
9.6278264677
 20
-96.6935114259
 10
9.6589767534
 20
-96.5882302423
 10
9.6855575291
 20
-96.4813132942
 10
9.7074587812
 20
-96.3730114293
 10
9.7245743744
 20
-96.263689206
 10
9.7368451115
 20
-96.1536115664
 10
9.74423543
 20
-96.0429386946
 10
9.7467096382
 20
-95.9318869589
  0
LINE
  5
285
100
AcDbEntity
  8
RACCORDO
100
AcDbLine
 62
253
  6
CONTINUOUS
 10
59.7992271494
 20
-107.2864650668
 11
49.7992271494
 21
-107.2864650668
  0
LINE
  5
286
100
AcDbEntity
  8
RACCORDO
100
AcDbLine
 62
253
  6
CONTINUOUS
 10
-50.2007728506
 20
-107.2864650668
 11
-60.2007728506
 21
-107.2864650668
  0
LINE
  5
287
100
AcDbEntity
  8
RACCORDO
100
AcDbLine
 62
253
  6
CONTINUOUS
 10
59.7992271494
 20
-106.7865412192
 11
49.7992271494
 21
-106.7865412192
  0
LINE
  5
288
100
AcDbEntity
  8
RACCORDO
100
AcDbLine
 62
253
  6
CONTINUOUS
 10
-50.2007728506
 20
-106.7865412192
 11
-60.2007728506
 21
-106.7865412192
  0
LINE
  5
289
100
AcDbEntity
  8
RACCORDO
100
AcDbLine
 62
253
  6
CONTINUOUS
 10
59.7992271494
 20
-106.742598924
 11
49.7992271494
 21
-106.742598924
  0
LINE
  5
28A
100
AcDbEntity
  8
RACCORDO
100
AcDbLine
 62
253
  6
CONTINUOUS
 10
-50.2007728506
 20
-106.742598924
 11
-60.2007728506
 21
-106.742598924
  0
LINE
  5
28B
100
AcDbEntity
  8
RACCORDO
100
AcDbLine
 62
253
  6
CONTINUOUS
 10
59.7992271494
 20
-106.2426750764
 11
49.7992271494
 21
-106.2426750764
  0
LINE
  5
28C
100
AcDbEntity
  8
RACCORDO
100
AcDbLine
 62
253
  6
CONTINUOUS
 10
-50.2007728506
 20
-106.2426750764
 11
-60.2007728506
 21
-106.2426750764
  0
LINE
  5
28D
100
AcDbEntity
  8
DRAFT
100
AcDbLine
 62
7
  6
CONTINUOUS
 10
27.8568288637
 20
-103.234023708
 11
26.7416254351
 21
-103.234023708
  0
LINE
  5
28E
100
AcDbEntity
  8
DRAFT
100
AcDbLine
 62
7
  6
CONTINUOUS
 10
37.2416254351
 20
-103.1764219937
 11
30.2992271494
 21
-103.1764219937
  0
LINE
  5
28F
100
AcDbEntity
  8
DRAFT
100
AcDbLine
 62
7
  6
CONTINUOUS
 10
24.2992271494
 20
-103.1764219937
 11
17.3568288637
 21
-103.1764219937
  0
LINE
  5
290
100
AcDbEntity
  8
DRAFT
100
AcDbLine
 62
7
  6
CONTINUOUS
 10
18.2416254351
 20
-102.2916254223
 11
26.7416254351
 21
-102.2916254223
  0
LINE
  5
291
100
AcDbEntity
  8
DRAFT
100
AcDbLine
 62
7
  6
CONTINUOUS
 10
27.8568288637
 20
-102.2916254223
 11
36.3568288637
 21
-102.2916254223
  0
LINE
  5
292
100
AcDbEntity
  8
DRAFT
100
AcDbLine
 62
7
  6
CONTINUOUS
 10
96.7416254351
 20
-98.734023708
 11
37.2416254351
 21
-98.734023708
  0
LINE
  5
293
100
AcDbEntity
  8
RACCORDO
100
AcDbLine
 62
7
  6
CONTINUOUS
 10
-90.7100897026
 20
-98.484023708
 11
7.2996079115
 21
-98.484023708
  0
LINE
  5
294
100
AcDbEntity
  8
RACCORDO
100
AcDbLine
 62
253
  6
CONTINUOUS
 10
-90.6575721914
 20
-98.4315061968
 11
7.2470904003
 21
-98.4315061968
  0
LINE
  5
295
100
AcDbEntity
  8
RACCORDO
100
AcDbLine
 62
253
  6
CONTINUOUS
 10
-90.6575721914
 20
-97.9315823492
 11
7.2470904003
 21
-97.9315823492
  0
LINE
  5
296
100
AcDbEntity
  8
RACCORDO
100
AcDbLine
 62
253
  6
CONTINUOUS
 10
7.3518208131
 20
-97.0364650668
 11
-90.7623026042
 21
-97.0364650668
  0
LINE
  5
297
100
AcDbEntity
  8
RACCORDO
100
AcDbLine
 62
253
  6
CONTINUOUS
 10
7.3518208131
 20
-96.5365412192
 11
-90.7623026042
 21
-96.5365412192
  0
LWPOLYLINE
  5
298
100
AcDbEntity
  8
RACCORDO
100
AcDbPolyline
 62
253
  6
CONTINUOUS
 90
31
 70
0
 10
-90.7623026042
 20
-96.5365412192
 10
-90.788936972
 20
-96.535839769
 10
-90.8153065701
 20
-96.5337411368
 10
-90.8413400703
 20
-96.5302811391
 10
-90.8669024717
 20
-96.5255132608
 10
-90.8919984455
 20
-96.5194721212
 10
-90.916764098
 20
-96.5121386707
 10
-90.9412243886
 20
-96.5034948978
 10
-90.965217775
 20
-96.493587062
 10
-90.9885996627
 20
-96.4824794255
 10
-91.0112721945
 20
-96.4702347359
 10
-91.033222576
 20
-96.4568765741
 10
-91.0544389842
 20
-96.4424205492
 10
-91.0748621006
 20
-96.4269117954
 10
-91.0944459365
 20
-96.4103901148
 10
-91.1131911766
 20
-96.3928522431
 10
-91.1310586001
 20
-96.3743223162
 10
-91.1479785967
 20
-96.3548592901
 10
-91.1639018909
 20
-96.3345081749
 10
-91.1787895543
 20
-96.3133037338
 10
-91.1925839265
 20
-96.2913120389
 10
-91.2052176237
 20
-96.2686331825
 10
-91.2166090471
 20
-96.2454318748
 10
-91.2267857724
 20
-96.2216719861
 10
-91.235814116
 20
-96.1971412566
 10
-91.2436544887
 20
-96.1717916694
 10
-91.2502024452
 20
-96.1457766875
 10
-91.2553907628
 20
-96.1191776579
 10
-91.2591600322
 20
-96.092070186
 10
-91.2614559519
 20
-96.0645233137
 10
-91.2622264518
 20
-96.0366173716
  0
LWPOLYLINE
  5
299
100
AcDbEntity
  8
RACCORDO
100
AcDbPolyline
 62
253
  6
CONTINUOUS
 90
31
 70
0
 10
-90.7623026042
 20
-97.0364650668
 10
-90.8157814246
 20
-97.034916381
 10
-90.8684583056
 20
-97.0307282197
 10
-90.9203332471
 20
-97.0239005828
 10
-90.9714044073
 20
-97.0144064008
 10
-91.021673628
 20
-97.0022727433
 10
-91.0711464346
 20
-96.9875808188
 10
-91.120002994
 20
-96.970274914
 10
-91.1680631393
 20
-96.9504107421
 10
-91.2147918949
 20
-96.9282366512
 10
-91.2600917377
 20
-96.9037694789
 10
-91.3040601909
 20
-96.8769923874
 10
-91.3464548486
 20
-96.8481032113
 10
-91.3872655966
 20
-96.8171135445
 10
-91.4265025491
 20
-96.7840117929
 10
-91.4639536438
 20
-96.7489610093
 10
-91.4996484503
 20
-96.711923332
 10
-91.533557399
 20
-96.6729366226
 10
-91.5653797185
 20
-96.632277519
 10
-91.5951132575
 20
-96.5898964699
 10
-91.6227601672
 20
-96.5458430267
 10
-91.6480261301
 20
-96.500542481
 10
-91.6708352845
 20
-96.4541998852
 10
-91.6912634919
 20
-96.4066101869
 10
-91.7092440198
 20
-96.3575835217
 10
-91.7248821109
 20
-96.3069177171
 10
-91.7380725225
 20
-96.2548149455
 10
-91.7484327932
 20
-96.2016918599
 10
-91.755835436
 20
-96.1476873446
 10
-91.7604079381
 20
-96.0926625151
 10
-91.7621502993
 20
-96.0366173716
  0
LWPOLYLINE
  5
29A
100
AcDbEntity
  8
0
100
AcDbPolyline
 62
7
  6
CONTINUOUS
 90
20
 70
0
 10
76.0923765505
 20
-117.6660612816
 10
76.1725906508
 20
-117.677322997
 10
76.2533817516
 20
-117.6831476364
 10
76.3343817411
 20
-117.6835086604
 10
76.4152215561
 20
-117.6784044237
 10
76.4955328627
 20
-117.6678581828
 10
76.5749497355
 20
-117.6519179893
 10
76.6531103241
 20
-117.6306564721
 10
76.7296585021
 20
-117.6041705055
 10
76.8042454901
 20
-117.5725807681
 10
76.876531444
 20
-117.5360311933
 10
76.9461870043
 20
-117.4946883131
 10
77.0128947965
 20
-117.4487404994
 10
77.0763508768
 20
-117.3983971058
 10
77.1362661175
 20
-117.3438875138
 10
77.1923675241
 20
-117.2854600873
 10
77.244399479
 20
-117.2233810413
 10
77.2921249068
 20
-117.1579332291
 10
77.3353263536
 20
-117.089414853
 10
77.3738069787
 20
-117.018138106
  0
LINE
  5
29B
100
AcDbEntity
  8
0
100
AcDbLine
 62
7
  6
CONTINUOUS
 10
76.0131049332
 20
-117.6494138028
 11
76.0923765505
 21
-117.6660612816
  0
LINE
  5
29C
100
AcDbEntity
  8
RACCORDO
100
AcDbLine
 62
253
  6
CONTINUOUS
 10
-93.1571914293
 20
-61.0361604571
 11
-93.2097089405
 21
-60.9836429459
  0
LINE
  5
29D
100
AcDbEntity
  8
RACCORDO
100
AcDbLine
 62
253
  6
CONTINUOUS
 10
-91.2097089405
 20
-60.9839475556
 11
-91.2622264518
 21
-60.9314300443
  0
LINE
  5
29E
100
AcDbEntity
  8
RACCORDO
100
AcDbLine
 62
253
  6
CONTINUOUS
 10
-90.7097850929
 20
-60.484023708
 11
-90.7623026042
 21
-60.4315061968
  0
LINE
  5
29F
100
AcDbEntity
  8
RACCORDO
100
AcDbLine
 62
253
  6
CONTINUOUS
 10
-90.6575721914
 20
-58.5365412192
 11
-90.7100897026
 21
-58.484023708
  0
LINE
  5
2A0
100
AcDbEntity
  8
RACCORDO
100
AcDbLine
 62
253
  6
CONTINUOUS
 10
-59.9200741705
 20
-81.5146462356
 11
-59.9507728506
 21
-81.4839475556
  0
LINE
  5
2A1
100
AcDbEntity
  8
RACCORDO
100
AcDbLine
 62
253
  6
CONTINUOUS
 10
-59.4201503229
 20
-81.0147223881
 11
-59.450849003
 21
-80.984023708
  0
LINE
  5
2A2
100
AcDbEntity
  8
RACCORDO
100
AcDbLine
 62
253
  6
CONTINUOUS
 10
-101.7007728506
 20
129.3003194175
 11
-101.2921998475
 21
122.545321268
  0
LINE
  5
2A3
100
AcDbEntity
  8
RACCORDO
100
AcDbLine
 62
253
  6
CONTINUOUS
 10
-98.7520099587
 20
132.7152917053
 11
-98.3427523689
 21
125.9489751817
  0
LWPOLYLINE
  5
2A4
100
AcDbEntity
  8
RACCORDO
100
AcDbPolyline
 62
253
  6
CONTINUOUS
 90
37
 70
0
 10
-92.6572675817
 20
-95.9318869589
 10
-92.6552577538
 20
-96.019917988
 10
-92.6495189759
 20
-96.1072084798
 10
-92.6400512481
 20
-96.193758434
 10
-92.6268265753
 20
-96.2796363329
 10
-92.6098729525
 20
-96.3647736944
 10
-92.5892743652
 20
-96.4489650721
 10
-92.565003619
 20
-96.5323091877
 10
-92.5370879082
 20
-96.6147073195
 10
-92.5056928012
 20
-96.6956578572
 10
-92.4708025816
 20
-96.7751369284
 10
-92.4324329658
 20
-96.8531684054
 10
-92.3907966717
 20
-96.9293222946
 10
-92.3458737337
 20
-97.003592079
 10
-92.2976841174
 20
-97.0759842756
 10
-92.2465004363
 20
-97.1460884411
 10
-92.192305895
 20
-97.2138910716
 10
-92.1351172889
 20
-97.279405671
 10
-92.0752576175
 20
-97.3422623085
 10
-92.0127125959
 20
-97.4024453694
 10
-91.9474965091
 20
-97.4599704683
 10
-91.8799752115
 20
-97.5145145191
 10
-91.8101301611
 20
-97.5660634376
 10
-91.7379799
 20
-97.6146313079
 10
-91.6639459084
 20
-97.6599372965
 10
-91.5881076447
 20
-97.7019355072
 10
-91.5103856505
 20
-97.7406718362
 10
-91.4309630307
 20
-97.7760031391
 10
-91.3497545728
 20
-97.8079672528
 10
-91.2668454893
 20
-97.8365263404
 10
-91.1826745237
 20
-97.861423747
 10
-91.0971825349
 20
-97.8826412258
 10
-91.010428664
 20
-97.9001970235
 10
-90.9230290775
 20
-97.9138892262
 10
-90.8351891643
 20
-97.923650529
 10
-90.7467035356
 20
-97.9295482366
 10
-90.6575721914
 20
-97.9315823492
  0
LWPOLYLINE
  5
2A5
100
AcDbEntity
  8
RACCORDO
100
AcDbPolyline
 62
253
  6
CONTINUOUS
 90
37
 70
0
 10
-93.1571914293
 20
-95.9318869589
 10
-93.154777214
 20
-96.041582646
 10
-93.1475794564
 20
-96.1507583441
 10
-93.135652389
 20
-96.259207679
 10
-93.1190789922
 20
-96.3666150917
 10
-93.0979202305
 20
-96.4728986104
 10
-93.0721657225
 20
-96.5782004145
 10
-93.0418198456
 20
-96.6824465372
 10
-93.0069636094
 20
-96.7853109934
 10
-92.9676763513
 20
-96.8865539793
 10
-92.9240420966
 20
-96.9859664733
 10
-92.8761374475
 20
-97.0833807655
 10
-92.8240471482
 20
-97.1786254849
 10
-92.7678661458
 20
-97.2715254835
 10
-92.707702593
 20
-97.3619005296
 10
-92.6436713373
 20
-97.4495776515
 10
-92.575893564
 20
-97.534390949
 10
-92.5044966977
 20
-97.61618104
 10
-92.4296159161
 20
-97.6947930879
 10
-92.351393418
 20
-97.7700780244
 10
-92.2699759275
 20
-97.8418948725
 10
-92.1855146616
 20
-97.9101101043
 10
-92.0981623508
 20
-97.9745992824
 10
-92.008089507
 20
-98.0352355031
 10
-91.9154834076
 20
-98.0918939509
 10
-91.8206244134
 20
-98.1444147987
 10
-91.7235926814
 20
-98.1927650682
 10
-91.6242637107
 20
-98.2369851543
 10
-91.5227059034
 20
-98.2769916285
 10
-91.4191966584
 20
-98.3126230262
 10
-91.3139154748
 20
-98.3437733119
 10
-91.2069985267
 20
-98.3703540876
 10
-91.0986966619
 20
-98.3922553398
 10
-90.9893744386
 20
-98.409370933
 10
-90.8792967989
 20
-98.4216416701
 10
-90.7686239271
 20
-98.4290319886
 10
-90.6575721914
 20
-98.4315061968
  0
LINE
  5
2A6
100
AcDbEntity
  8
DRAFT
100
AcDbLine
 62
7
  6
CONTINUOUS
 10
-93.8431711363
 20
-126.6264219937
 11
-93.8431711363
 21
-121.7416254223
  0
LINE
  5
2A7
100
AcDbEntity
  8
0
100
AcDbLine
 62
7
  6
CONTINUOUS
 10
-93.7007728506
 20
-126.284023708
 11
-93.7007728506
 21
-121.7416254223
  0
LINE
  5
2A8
100
AcDbEntity
  8
RACCORDO
100
AcDbLine
 62
7
  6
CONTINUOUS
 10
-93.2097089405
 20
-60.9836429459
 11
-93.2097089405
 21
-95.9844044701
  0
LINE
  5
2A9
100
AcDbEntity
  8
RACCORDO
100
AcDbLine
 62
253
  6
CONTINUOUS
 10
-93.1571914293
 20
-61.0361604571
 11
-93.1571914293
 21
-95.9318869589
  0
LINE
  5
2AA
100
AcDbEntity
  8
0
100
AcDbLine
 62
7
  6
CONTINUOUS
 10
-92.7007728506
 20
-126.284023708
 11
-92.7007728506
 21
-121.7416254223
  0
LINE
  5
2AB
100
AcDbEntity
  8
0
100
AcDbLine
 62
7
  6
CONTINUOUS
 10
-92.7007728506
 20
-126.284023708
 11
-92.7007728506
 21
-126.6264219937
  0
LINE
  5
2AC
100
AcDbEntity
  8
RACCORDO
100
AcDbLine
 62
253
  6
CONTINUOUS
 10
-92.6572675817
 20
-61.0361604571
 11
-92.6572675817
 21
-95.9318869589
  0
LINE
  5
2AD
100
AcDbEntity
  8
RACCORDO
100
AcDbLine
 62
253
  6
CONTINUOUS
 10
-91.7621502993
 20
-96.0366173716
 11
-91.7621502993
 21
-60.9314300443
  0
LINE
  5
2AE
100
AcDbEntity
  8
RACCORDO
100
AcDbLine
 62
253
  6
CONTINUOUS
 10
-91.2622264518
 20
-96.0366173716
 11
-91.2622264518
 21
-60.9314300443
  0
LINE
  5
2AF
100
AcDbEntity
  8
RACCORDO
100
AcDbLine
 62
7
  6
CONTINUOUS
 10
-91.2097089405
 20
-95.9840998604
 11
-91.2097089405
 21
-60.9839475556
  0
LINE
  5
2B0
100
AcDbEntity
  8
RACCORDO
100
AcDbLine
 62
253
  6
CONTINUOUS
 10
-90.7623026042
 20
-97.0364650668
 11
-90.7623026042
 21
-96.5365412192
  0
LINE
  5
2B1
100
AcDbEntity
  8
RACCORDO
100
AcDbLine
 62
253
  6
CONTINUOUS
 10
-90.7623026042
 20
-59.9315823492
 11
-90.7623026042
 21
-60.4315061968
  0
LINE
  5
2B2
100
AcDbEntity
  8
RACCORDO
100
AcDbLine
 62
253
  6
CONTINUOUS
 10
-90.6575721914
 20
-59.0364650668
 11
-90.6575721914
 21
-58.5365412192
  0
LINE
  5
2B3
100
AcDbEntity
  8
RACCORDO
100
AcDbLine
 62
253
  6
CONTINUOUS
 10
-90.6575721914
 20
-97.9315823492
 11
-90.6575721914
 21
-98.4315061968
  0
LINE
  5
2B4
100
AcDbEntity
  8
RACCORDO
100
AcDbLine
 62
7
  6
CONTINUOUS
 10
-86.3931711363
 20
-84.9265742986
 11
-86.3931711363
 21
-66.0414731174
  0
LINE
  5
2B5
100
AcDbEntity
  8
RACCORDO
100
AcDbLine
 62
7
  6
CONTINUOUS
 10
-86.3771209027
 20
-65.8636670334
 11
-86.3771209027
 21
-66.2577518083
  0
LINE
  5
2B6
100
AcDbEntity
  8
DRAFT
100
AcDbLine
 62
7
  6
CONTINUOUS
 10
-85.9849497338
 20
-67.984023708
 11
-85.9849497338
 21
-70.0682005912
  0
LINE
  5
2B7
100
AcDbEntity
  8
DRAFT
100
AcDbLine
 62
7
  6
CONTINUOUS
 10
-85.9849497338
 20
-73.8998468248
 11
-85.9849497338
 21
-76.984023708
  0
LINE
  5
2B8
100
AcDbEntity
  8
RACCORDO
100
AcDbLine
 62
7
  6
CONTINUOUS
 10
-84.5083745649
 20
-67.4263458413
 11
-84.5083745649
 21
-83.0417777271
  0
LINE
  5
2B9
100
AcDbEntity
  8
DRAFT
100
AcDbLine
 62
7
  6
CONTINUOUS
 10
-81.9583745649
 20
-121.7416254223
 11
-81.9583745649
 21
-126.6264219937
  0
LINE
  5
2BA
100
AcDbEntity
  8
DRAFT
100
AcDbLine
 62
7
  6
CONTINUOUS
 10
-85.7876248092
 20
-67.984023708
 11
-85.7901334282
 21
-69.8733842857
  0
LINE
  5
2BB
100
AcDbEntity
  8
DRAFT
100
AcDbLine
 62
7
  6
CONTINUOUS
 10
-85.7958699421
 20
-74.0889266165
 11
-85.7999205598
 21
-76.984023708
  0
LINE
  5
2BC
100
AcDbEntity
  8
DRAFT
100
AcDbLine
 62
7
  6
CONTINUOUS
 10
-97.6411000771
 20
-132.759161094
 11
-97.6509827519
 21
-133.3681418568
  0
LINE
  5
2BD
100
AcDbEntity
  8
DRAFT
100
AcDbLine
 62
7
  6
CONTINUOUS
 10
-97.6509827519
 20
-133.3681418568
 11
-97.6614598114
 21
-133.9436668541
  0
LINE
  5
2BE
100
AcDbEntity
  8
DRAFT
100
AcDbLine
 62
7
  6
CONTINUOUS
 10
-97.6614598114
 20
-133.9436668541
 11
-97.6724918322
 21
-134.4836616683
  0
LINE
  5
2BF
100
AcDbEntity
  8
DRAFT
100
AcDbLine
 62
7
  6
CONTINUOUS
 10
-97.6724918322
 20
-134.4836616683
 11
-97.6840516829
 21
-134.9867918152
  0
LWPOLYLINE
  5
2C0
100
AcDbEntity
  8
RACCORDO
100
AcDbPolyline
 62
253
  6
CONTINUOUS
 90
31
 70
0
 10
-91.2622264518
 20
-60.9314300443
 10
-91.2615250016
 20
-60.9047956765
 10
-91.2594263693
 20
-60.8784260784
 10
-91.2559663716
 20
-60.8523925782
 10
-91.2511984933
 20
-60.8268301769
 10
-91.2451573537
 20
-60.801734203
 10
-91.2378239032
 20
-60.7769685505
 10
-91.2291801304
 20
-60.7525082599
 10
-91.2192722945
 20
-60.7285148735
 10
-91.2081646581
 20
-60.7051329859
 10
-91.1959199684
 20
-60.6824604541
 10
-91.1825618066
 20
-60.6605100725
 10
-91.1681057817
 20
-60.6392936644
 10
-91.1525970279
 20
-60.6188705479
 10
-91.1360753473
 20
-60.599286712
 10
-91.1185374756
 20
-60.580541472
 10
-91.1000075487
 20
-60.5626740484
 10
-91.0805445226
 20
-60.5457540518
 10
-91.0601934075
 20
-60.5298307576
 10
-91.0389889663
 20
-60.5149430942
 10
-91.0169972714
 20
-60.501148722
 10
-90.9943184151
 20
-60.4885150248
 10
-90.9711171074
 20
-60.4771236014
 10
-90.9473572186
 20
-60.4669468761
 10
-90.9228264891
 20
-60.4579185325
 10
-90.8974769019
 20
-60.4500781598
 10
-90.8714619201
 20
-60.4435302033
 10
-90.8448628905
 20
-60.4383418857
 10
-90.8177554185
 20
-60.4345726163
 10
-90.7902085462
 20
-60.4322766967
 10
-90.7623026042
 20
-60.4315061968
  0
LWPOLYLINE
  5
2C1
100
AcDbEntity
  8
DRAFT
100
AcDbPolyline
 62
7
  6
CONTINUOUS
 90
3
 70
0
 10
-97.6840516829
 20
-134.9867918152
 10
-97.6960873021
 20
-135.4507481388
 10
-97.7022870502
 20
-135.6681950006
  0
LWPOLYLINE
  5
2C2
100
AcDbEntity
  8
RACCORDO
100
AcDbPolyline
 62
253
  6
CONTINUOUS
 90
31
 70
0
 10
-91.7621502993
 20
-60.9314300443
 10
-91.7606016135
 20
-60.8779512239
 10
-91.7564134522
 20
-60.8252743429
 10
-91.7495858153
 20
-60.7733994014
 10
-91.7400916334
 20
-60.7223282412
 10
-91.7279579759
 20
-60.6720590205
 10
-91.7132660513
 20
-60.6225862139
 10
-91.6959601465
 20
-60.5737296545
 10
-91.6760959747
 20
-60.5256695092
 10
-91.6539218837
 20
-60.4789407536
 10
-91.6294547114
 20
-60.4336409108
 10
-91.60267762
 20
-60.3896724576
 10
-91.5737884439
 20
-60.3472777999
 10
-91.542798777
 20
-60.306467052
 10
-91.5096970255
 20
-60.2672300994
 10
-91.4746462419
 20
-60.2297790047
 10
-91.4376085645
 20
-60.1940841982
 10
-91.3986218551
 20
-60.1601752495
 10
-91.3579627515
 20
-60.1283529301
 10
-91.3155817024
 20
-60.0986193911
 10
-91.2715282592
 20
-60.0709724813
 10
-91.2262277136
 20
-60.0457065184
 10
-91.1798851177
 20
-60.0228973641
 10
-91.1322954195
 20
-60.0024691566
 10
-91.0832687543
 20
-59.9844886287
 10
-91.0326029496
 20
-59.9688505376
 10
-90.9805001781
 20
-59.9556601261
 10
-90.9273770925
 20
-59.9452998554
 10
-90.8733725771
 20
-59.9378972125
 10
-90.8183477477
 20
-59.9333247104
 10
-90.7623026042
 20
-59.9315823492
  0
LINE
  5
2C3
100
AcDbEntity
  8
RACCORDO
100
AcDbLine
 62
253
  6
CONTINUOUS
 10
-101.2921998475
 20
-125.6364094697
 11
-101.7007728506
 21
-132.3914076192
  0
LWPOLYLINE
  5
2C4
100
AcDbEntity
  8
0
100
AcDbPolyline
 62
7
  6
CONTINUOUS
 90
13
 70
0
 10
17.3189200313
 20
108.0964983469
 10
17.2629493339
 20
108.0607250306
 10
17.2044363301
 20
108.0287414962
 10
17.1439975335
 20
108.0008857659
 10
17.0821088159
 20
107.9773129865
 10
17.0189043467
 20
107.9580117559
 10
16.9545221306
 20
107.9430001382
 10
16.8892375682
 20
107.9323375213
 10
16.8233642428
 20
107.9260702077
 10
16.7570870553
 20
107.9242202129
 10
16.6906652682
 20
107.9268140648
 10
16.6244344463
 20
107.9338579313
 10
16.5586928362
 20
107.9453356561
  0
LWPOLYLINE
  5
2C5
100
AcDbEntity
  8
RACCORDO
100
AcDbPolyline
 62
253
  6
CONTINUOUS
 90
25
 70
0
 10
3.5186046218
 20
-82.7033250279
 10
3.551294876
 20
-82.7022451105
 10
3.5838451999
 20
-82.6990298949
 10
3.616116262
 20
-82.6936931437
 10
3.6479699262
 20
-82.6862577009
 10
3.6792698431
 20
-82.6767553939
 10
3.7098820336
 20
-82.6652268971
 10
3.7396754623
 20
-82.6517215584
 10
3.7685225987
 20
-82.6362971871
 10
3.7962999628
 20
-82.6190198072
 10
3.8228886538
 20
-82.5999633745
 10
3.848174859
 20
-82.5792094597
 10
3.8720503408
 20
-82.5568469001
 10
3.8944129005
 20
-82.5329714183
 10
3.9151668153
 20
-82.5076852132
 10
3.9342232481
 20
-82.4810965222
 10
3.951500628
 20
-82.4533191581
 10
3.9669249994
 20
-82.4244720218
 10
3.9804303382
 20
-82.394678593
 10
3.991958835
 20
-82.3640664026
 10
4.0014611421
 20
-82.3327664856
 10
4.008896585
 20
-82.3009128213
 10
4.0142333362
 20
-82.268641759
 10
4.0174485519
 20
-82.2360914349
 10
4.0185284693
 20
-82.2034011804
  0
LINE
  5
2C6
100
AcDbEntity
  8
RACCORDO
100
AcDbLine
 62
7
  6
CONTINUOUS
 10
7.2993033018
 20
-96.484023708
 11
-90.7097850929
 21
-96.484023708
  0
LINE
  5
2C7
100
AcDbEntity
  8
DRAFT
100
AcDbLine
 62
7
  6
CONTINUOUS
 10
17.3568288637
 20
-96.2916254223
 11
18.2416254351
 21
-96.2916254223
  0
LINE
  5
2C8
100
AcDbEntity
  8
DRAFT
100
AcDbLine
 62
7
  6
CONTINUOUS
 10
36.3568288637
 20
-96.2916254223
 11
37.2992271494
 21
-96.2916254223
  0
LINE
  5
2C9
100
AcDbEntity
  8
RACCORDO
100
AcDbLine
 62
253
  6
CONTINUOUS
 10
-91.7621502993
 20
-96.0366173716
 11
-91.2622264518
 21
-96.0366173716
  0
LINE
  5
2CA
100
AcDbEntity
  8
RACCORDO
100
AcDbLine
 62
253
  6
CONTINUOUS
 10
8.3516685082
 20
-96.0366173716
 11
7.8517446606
 21
-96.0366173716
  0
LINE
  5
2CB
100
AcDbEntity
  8
RACCORDO
100
AcDbLine
 62
253
  6
CONTINUOUS
 10
9.2467857906
 20
-95.9318869589
 11
9.7467096382
 21
-95.9318869589
  0
LINE
  5
2CC
100
AcDbEntity
  8
RACCORDO
100
AcDbLine
 62
253
  6
CONTINUOUS
 10
-92.6572675817
 20
-95.9318869589
 11
-93.1571914293
 21
-95.9318869589
  0
LINE
  5
2CD
100
AcDbEntity
  8
DRAFT
100
AcDbLine
 62
7
  6
CONTINUOUS
 10
97.7992271494
 20
-95.734023708
 11
97.5147869921
 21
-95.734023708
  0
LINE
  5
2CE
100
AcDbEntity
  8
DRAFT
100
AcDbLine
 62
7
  6
CONTINUOUS
 10
-97.9163326936
 20
-95.734023708
 11
-98.2007728506
 21
-95.734023708
  0
LINE
  5
2CF
100
AcDbEntity
  8
DRAFT
100
AcDbLine
 62
7
  6
CONTINUOUS
 10
37.2992271494
 20
-95.1764219937
 11
36.3568288637
 21
-95.1764219937
  0
LINE
  5
2D0
100
AcDbEntity
  8
DRAFT
100
AcDbLine
 62
7
  6
CONTINUOUS
 10
18.2416254351
 20
-95.1764219937
 11
17.3568288637
 21
-95.1764219937
  0
LINE
  5
2D1
100
AcDbEntity
  8
DRAFT
100
AcDbLine
 62
7
  6
CONTINUOUS
 10
-98.2007728506
 20
-94.234023708
 11
-97.9163326936
 21
-94.234023708
  0
LINE
  5
2D2
100
AcDbEntity
  8
DRAFT
100
AcDbLine
 62
7
  6
CONTINUOUS
 10
97.5147869921
 20
-94.234023708
 11
97.7992271494
 21
-94.234023708
  0
LINE
  5
2D3
100
AcDbEntity
  8
DRAFT
100
AcDbLine
 62
7
  6
CONTINUOUS
 10
37.2416254351
 20
-92.734023708
 11
96.7416254351
 21
-92.734023708
  0
LINE
  5
2D4
100
AcDbEntity
  8
RACCORDO
100
AcDbLine
 62
7
  6
CONTINUOUS
 10
-64.00822226
 20
-90.9264219937
 11
-80.3933234412
 21
-90.9264219937
  0
LINE
  5
2D5
100
AcDbEntity
  8
DRAFT
100
AcDbLine
 62
7
  6
CONTINUOUS
 10
36.3568288637
 20
-89.1764219937
 11
27.8568288637
 21
-89.1764219937
  0
LINE
  5
2D6
100
AcDbEntity
  8
DRAFT
100
AcDbLine
 62
7
  6
CONTINUOUS
 10
26.7416254351
 20
-89.1764219937
 11
18.2416254351
 21
-89.1764219937
  0
LINE
  5
2D7
100
AcDbEntity
  8
RACCORDO
100
AcDbLine
 62
7
  6
CONTINUOUS
 10
-78.5085268697
 20
-89.0416254223
 11
-65.8930188315
 21
-89.0416254223
  0
LINE
  5
2D8
100
AcDbEntity
  8
DRAFT
100
AcDbLine
 62
7
  6
CONTINUOUS
 10
17.3568288637
 20
-88.2916254223
 11
26.7416254351
 21
-88.2916254223
  0
LINE
  5
2D9
100
AcDbEntity
  8
DRAFT
100
AcDbLine
 62
7
  6
CONTINUOUS
 10
27.8568288637
 20
-88.2916254223
 11
37.2416254351
 21
-88.2916254223
  0
LINE
  5
2DA
100
AcDbEntity
  8
RACCORDO
100
AcDbLine
 62
7
  6
CONTINUOUS
 10
-21.00822226
 20
-85.9264219937
 11
-62.0085268697
 21
-85.9264219937
  0
LINE
  5
2DB
100
AcDbEntity
  8
RACCORDO
100
AcDbLine
 62
7
  6
CONTINUOUS
 10
-82.3930188315
 20
-85.9264219937
 11
-85.3933234412
 21
-85.9264219937
  0
LINE
  5
2DC
100
AcDbEntity
  8
DRAFT
100
AcDbLine
 62
7
  6
CONTINUOUS
 10
97.7992271494
 20
-85.734023708
 11
97.5147869921
 21
-85.734023708
  0
LINE
  5
2DD
100
AcDbEntity
  8
DRAFT
100
AcDbLine
 62
7
  6
CONTINUOUS
 10
-97.9163326936
 20
-85.734023708
 11
-98.2007728506
 21
-85.734023708
  0
LINE
  5
2DE
100
AcDbEntity
  8
DRAFT
100
AcDbLine
 62
7
  6
CONTINUOUS
 10
-98.2007728506
 20
-84.234023708
 11
-97.9163326936
 21
-84.234023708
  0
LINE
  5
2DF
100
AcDbEntity
  8
DRAFT
100
AcDbLine
 62
7
  6
CONTINUOUS
 10
97.5147869921
 20
-84.234023708
 11
97.7992271494
 21
-84.234023708
  0
LINE
  5
2E0
100
AcDbEntity
  8
RACCORDO
100
AcDbLine
 62
7
  6
CONTINUOUS
 10
-83.5085268697
 20
-84.0416254223
 11
-80.50822226
 21
-84.0416254223
  0
LINE
  5
2E1
100
AcDbEntity
  8
RACCORDO
100
AcDbLine
 62
7
  6
CONTINUOUS
 10
-63.8933234412
 20
-84.0416254223
 11
-21.00822226
 21
-84.0416254223
  0
LINE
  5
2E2
100
AcDbEntity
  8
RACCORDO
100
AcDbLine
 62
7
  6
CONTINUOUS
 10
-59.450849003
 20
-82.734023708
 11
3.5493033018
 21
-82.734023708
  0
LINE
  5
2E3
100
AcDbEntity
  8
RACCORDO
100
AcDbLine
 62
253
  6
CONTINUOUS
 10
-59.4201503229
 20
-82.7033250279
 11
3.5186046218
 21
-82.7033250279
  0
LINE
  5
2E4
100
AcDbEntity
  8
0
100
AcDbLine
 62
7
  6
CONTINUOUS
 10
75.9351369871
 20
-117.6274564123
 11
76.0131049332
 21
-117.6494138028
  0
LINE
  5
2E5
100
AcDbEntity
  8
RACCORDO
100
AcDbLine
 62
253
  6
CONTINUOUS
 10
-59.9200741705
 20
-75.5146462356
 11
-59.9507728506
 21
-75.4839475556
  0
LINE
  5
2E6
100
AcDbEntity
  8
RACCORDO
100
AcDbLine
 62
253
  6
CONTINUOUS
 10
-59.4201503229
 20
-75.0147223881
 11
-59.450849003
 21
-74.984023708
  0
LWPOLYLINE
  5
2E7
100
AcDbEntity
  8
0
100
AcDbPolyline
 62
7
  6
CONTINUOUS
 90
18
 70
0
 10
-77.8825612715
 20
-116.6903901138
 10
-77.8808851786
 20
-116.7015895289
 10
-77.8635192195
 20
-116.7807068299
 10
-77.8408553968
 20
-116.8584723442
 10
-77.8129969743
 20
-116.9345317458
 10
-77.780070884
 20
-117.0085384826
 10
-77.742227148
 20
-117.0801553547
 10
-77.6996381948
 20
-117.1490560516
 10
-77.6524980739
 20
-117.2149266382
 10
-77.6010215712
 20
-117.2774669859
 10
-77.5454432308
 20
-117.3363921395
 10
-77.4860162862
 20
-117.3914336161
 10
-77.4230115063
 20
-117.4423406278
 10
-77.3567159621
 20
-117.4888812249
 10
-77.2874317181
 20
-117.5308433525
 10
-77.2154744567
 20
-117.5680358167
 10
-77.1411720394
 20
-117.6002891557
 10
-77.0648630129
 20
-117.6274564123
  0
LINE
  5
2E8
100
AcDbEntity
  8
RACCORDO
100
AcDbLine
 62
7
  6
CONTINUOUS
 10
-81.3931711363
 20
-89.9265742986
 11
-81.3931711363
 21
-86.9262696889
  0
LINE
  5
2E9
100
AcDbEntity
  8
RACCORDO
100
AcDbLine
 62
7
  6
CONTINUOUS
 10
-79.5083745649
 20
-85.0414731174
 11
-79.5083745649
 21
-88.0417777271
  0
LWPOLYLINE
  5
2EA
100
AcDbEntity
  8
0
100
AcDbPolyline
 62
7
  6
CONTINUOUS
 90
10
 70
0
 10
-75.7602742541
 20
-116.484023708
 10
-75.7603494829
 20
-116.5252535388
 10
-75.7622316031
 20
-116.5664578895
 10
-75.7659176964
 20
-116.6075576024
 10
-75.7714004915
 20
-116.648468085
 10
-75.7786705481
 20
-116.6891165742
 10
-75.787718765
 20
-116.7294418931
 10
-75.7985323277
 20
-116.7693717717
 10
-75.811092246
 20
-116.8088233906
 10
-75.8253772891
 20
-116.847720367
  0
LWPOLYLINE
  5
2EB
100
AcDbEntity
  8
0
100
AcDbPolyline
 62
7
  6
CONTINUOUS
 90
10
 70
0
 10
-77.6411436394
 20
-116.484023708
 10
-77.6408173586
 20
-116.4288895334
 10
-77.6372420826
 20
-116.3736364629
 10
-77.6303934624
 20
-116.3184570942
 10
-77.620238173
 20
-116.2634523538
 10
-77.6067841624
 20
-116.2089173716
 10
-77.5901370665
 20
-116.1553283134
 10
-77.5704061456
 20
-116.1029594579
 10
-77.5476477334
 20
-116.0518950829
 10
-77.5219540899
 20
-116.0023067009
  0
LINE
  5
2EC
100
AcDbEntity
  8
0
100
AcDbLine
 62
7
  6
CONTINUOUS
 10
17.3719969122
 20
108.1357707177
 11
17.3189200313
 21
108.0964983469
  0
LWPOLYLINE
  5
2ED
100
AcDbEntity
  8
RACCORDO
100
AcDbPolyline
 62
253
  6
CONTINUOUS
 90
25
 70
0
 10
-59.4201503229
 20
-81.0147223881
 10
-59.4528405772
 20
-81.0158023055
 10
-59.4853909011
 20
-81.0190175211
 10
-59.5176619632
 20
-81.0243542723
 10
-59.5495156274
 20
-81.0317897151
 10
-59.5808155443
 20
-81.0412920221
 10
-59.6114277348
 20
-81.0528205189
 10
-59.6412211635
 20
-81.0663258576
 10
-59.6700682999
 20
-81.0817502289
 10
-59.697845664
 20
-81.0990276088
 10
-59.724434355
 20
-81.1180840415
 10
-59.7497205602
 20
-81.1388379563
 10
-59.773596042
 20
-81.1612005159
 10
-59.7959586017
 20
-81.1850759977
 10
-59.8167125165
 20
-81.2103622028
 10
-59.8357689493
 20
-81.2369508938
 10
-59.8530463292
 20
-81.2647282578
 10
-59.8684707006
 20
-81.2935753942
 10
-59.8819760394
 20
-81.323368823
 10
-59.8935045362
 20
-81.3539810134
 10
-59.9030068433
 20
-81.3852809304
 10
-59.9104422862
 20
-81.4171345947
 10
-59.9157790374
 20
-81.449405657
 10
-59.9189942531
 20
-81.4819559811
 10
-59.9200741705
 20
-81.5146462356
  0
LWPOLYLINE
  5
2EE
100
AcDbEntity
  8
RACCORDO
100
AcDbPolyline
 62
253
  6
CONTINUOUS
 90
25
 70
0
 10
3.5186046218
 20
-76.7033250279
 10
3.551294876
 20
-76.7022451105
 10
3.5838451999
 20
-76.6990298949
 10
3.616116262
 20
-76.6936931437
 10
3.6479699262
 20
-76.6862577009
 10
3.6792698431
 20
-76.6767553939
 10
3.7098820336
 20
-76.6652268971
 10
3.7396754623
 20
-76.6517215584
 10
3.7685225987
 20
-76.6362971871
 10
3.7962999628
 20
-76.6190198072
 10
3.8228886538
 20
-76.5999633745
 10
3.848174859
 20
-76.5792094597
 10
3.8720503408
 20
-76.5568469001
 10
3.8944129005
 20
-76.5329714183
 10
3.9151668153
 20
-76.5076852132
 10
3.9342232481
 20
-76.4810965222
 10
3.951500628
 20
-76.4533191581
 10
3.9669249994
 20
-76.4244720218
 10
3.9804303382
 20
-76.394678593
 10
3.991958835
 20
-76.3640664026
 10
4.0014611421
 20
-76.3327664856
 10
4.008896585
 20
-76.3009128213
 10
4.0142333362
 20
-76.268641759
 10
4.0174485519
 20
-76.2360914349
 10
4.0185284693
 20
-76.2034011804
  0
LWPOLYLINE
  5
2EF
100
AcDbEntity
  8
RACCORDO
100
AcDbPolyline
 62
253
  6
CONTINUOUS
 90
25
 70
0
 10
-59.4201503229
 20
-75.0147223881
 10
-59.4528405772
 20
-75.0158023055
 10
-59.4853909011
 20
-75.0190175211
 10
-59.5176619632
 20
-75.0243542723
 10
-59.5495156274
 20
-75.0317897151
 10
-59.5808155443
 20
-75.0412920221
 10
-59.6114277348
 20
-75.0528205189
 10
-59.6412211635
 20
-75.0663258576
 10
-59.6700682999
 20
-75.0817502289
 10
-59.697845664
 20
-75.0990276088
 10
-59.724434355
 20
-75.1180840415
 10
-59.7497205602
 20
-75.1388379563
 10
-59.773596042
 20
-75.1612005159
 10
-59.7959586017
 20
-75.1850759977
 10
-59.8167125165
 20
-75.2103622028
 10
-59.8357689493
 20
-75.2369508938
 10
-59.8530463292
 20
-75.2647282578
 10
-59.8684707006
 20
-75.2935753942
 10
-59.8819760394
 20
-75.323368823
 10
-59.8935045362
 20
-75.3539810134
 10
-59.9030068433
 20
-75.3852809304
 10
-59.9104422862
 20
-75.4171345947
 10
-59.9157790374
 20
-75.449405657
 10
-59.9189942531
 20
-75.4819559811
 10
-59.9200741705
 20
-75.5146462356
  0
LINE
  5
2F0
100
AcDbEntity
  8
DRAFT
100
AcDbLine
 62
7
  6
CONTINUOUS
 10
-84.5083745649
 20
-69.8721831918
 11
-85.7901334282
 21
-69.8733842857
  0
LINE
  5
2F1
100
AcDbEntity
  8
RACCORDO
100
AcDbLine
 62
253
  6
CONTINUOUS
 10
4.0185284693
 20
-82.2034011804
 11
-59.9200741705
 21
-82.2034011804
  0
LINE
  5
2F2
100
AcDbEntity
  8
RACCORDO
100
AcDbLine
 62
253
  6
CONTINUOUS
 10
4.0185284693
 20
-81.5146462356
 11
-59.9200741705
 21
-81.5146462356
  0
LINE
  5
2F3
100
AcDbEntity
  8
RACCORDO
100
AcDbLine
 62
253
  6
CONTINUOUS
 10
3.5186046218
 20
-81.0147223881
 11
-59.4201503229
 21
-81.0147223881
  0
LINE
  5
2F4
100
AcDbEntity
  8
RACCORDO
100
AcDbLine
 62
7
  6
CONTINUOUS
 10
3.5493033018
 20
-80.984023708
 11
-59.450849003
 21
-80.984023708
  0
LINE
  5
2F5
100
AcDbEntity
  8
0
100
AcDbLine
 62
7
  6
CONTINUOUS
 10
-86.3931711363
 20
-76.984023708
 11
-84.5083745649
 21
-76.984023708
  0
LINE
  5
2F6
100
AcDbEntity
  8
RACCORDO
100
AcDbLine
 62
7
  6
CONTINUOUS
 10
-59.450849003
 20
-76.734023708
 11
3.5493033018
 21
-76.734023708
  0
LINE
  5
2F7
100
AcDbEntity
  8
RACCORDO
100
AcDbLine
 62
253
  6
CONTINUOUS
 10
-59.4201503229
 20
-76.7033250279
 11
3.5186046218
 21
-76.7033250279
  0
LINE
  5
2F8
100
AcDbEntity
  8
RACCORDO
100
AcDbLine
 62
253
  6
CONTINUOUS
 10
4.0185284693
 20
-76.2034011804
 11
-59.9200741705
 21
-76.2034011804
  0
LINE
  5
2F9
100
AcDbEntity
  8
RACCORDO
100
AcDbLine
 62
253
  6
CONTINUOUS
 10
4.0185284693
 20
-75.5146462356
 11
-59.9200741705
 21
-75.5146462356
  0
LINE
  5
2FA
100
AcDbEntity
  8
RACCORDO
100
AcDbLine
 62
253
  6
CONTINUOUS
 10
3.5186046218
 20
-75.0147223881
 11
-59.4201503229
 21
-75.0147223881
  0
LINE
  5
2FB
100
AcDbEntity
  8
RACCORDO
100
AcDbLine
 62
7
  6
CONTINUOUS
 10
3.5493033018
 20
-74.984023708
 11
-59.450849003
 21
-74.984023708
  0
LINE
  5
2FC
100
AcDbEntity
  8
DRAFT
100
AcDbLine
 62
7
  6
CONTINUOUS
 10
-85.9849497338
 20
-73.8998468248
 11
-86.3931711363
 21
-73.8998468248
  0
LINE
  5
2FD
100
AcDbEntity
  8
DRAFT
100
AcDbLine
 62
7
  6
CONTINUOUS
 10
-84.5083745649
 20
-73.734023708
 11
-86.3931711363
 21
-73.734023708
  0
LINE
  5
2FE
100
AcDbEntity
  8
RACCORDO
100
AcDbLine
 62
7
  6
CONTINUOUS
 10
-21.00822226
 20
-73.4264219937
 11
-58.8933234412
 21
-73.4264219937
  0
LINE
  5
2FF
100
AcDbEntity
  8
RACCORDO
100
AcDbLine
 62
7
  6
CONTINUOUS
 10
-57.0085268697
 20
-71.5416254223
 11
-21.00822226
 21
-71.5416254223
  0
LINE
  5
300
100
AcDbEntity
  8
DRAFT
100
AcDbLine
 62
7
  6
CONTINUOUS
 10
-86.3931711363
 20
-70.234023708
 11
-84.5083745649
 21
-70.234023708
  0
LINE
  5
301
100
AcDbEntity
  8
DRAFT
100
AcDbLine
 62
7
  6
CONTINUOUS
 10
-86.3931711363
 20
-70.0682005912
 11
-85.9849497338
 21
-70.0682005912
  0
LINE
  5
302
100
AcDbEntity
  8
DRAFT
100
AcDbLine
 62
7
  6
CONTINUOUS
 10
-85.7958699421
 20
-74.0889266165
 11
-84.5083745649
 21
-74.0901301023
  0
LINE
  5
303
100
AcDbEntity
  8
0
100
AcDbLine
 62
7
  6
CONTINUOUS
 10
77.1746227109
 20
-116.847720367
 11
77.4073914508
 21
-116.9444277491
  0
LINE
  5
304
100
AcDbEntity
  8
0
100
AcDbLine
 62
7
  6
CONTINUOUS
 10
75.5152280997
 20
-117.0276358656
 11
75.5653044032
 21
-117.0485817002
  0
LWPOLYLINE
  5
305
100
AcDbEntity
  8
RACCORDO
100
AcDbPolyline
 62
253
  6
CONTINUOUS
 90
25
 70
0
 10
-59.9200741705
 20
-82.2034011804
 10
-59.9189942531
 20
-82.2360914346
 10
-59.9157790375
 20
-82.2686417585
 10
-59.9104422863
 20
-82.3009128206
 10
-59.9030068435
 20
-82.3327664848
 10
-59.8935045365
 20
-82.3640664017
 10
-59.8819760397
 20
-82.3946785922
 10
-59.868470701
 20
-82.4244720209
 10
-59.8530463297
 20
-82.4533191573
 10
-59.8357689498
 20
-82.4810965214
 10
-59.816712517
 20
-82.5076852124
 10
-59.7959586023
 20
-82.5329714176
 10
-59.7735960427
 20
-82.5568468994
 10
-59.7497205609
 20
-82.5792094591
 10
-59.7244343558
 20
-82.5999633739
 10
-59.6978456648
 20
-82.6190198067
 10
-59.6700683007
 20
-82.6362971866
 10
-59.6412211643
 20
-82.651721558
 10
-59.6114277356
 20
-82.6652268968
 10
-59.5808155451
 20
-82.6767553936
 10
-59.5495156282
 20
-82.6862577007
 10
-59.5176619639
 20
-82.6936931436
 10
-59.4853909016
 20
-82.6990298948
 10
-59.4528405775
 20
-82.7022451105
 10
-59.4201503229
 20
-82.7033250279
  0
LWPOLYLINE
  5
306
100
AcDbEntity
  8
RACCORDO
100
AcDbPolyline
 62
253
  6
CONTINUOUS
 90
25
 70
0
 10
-59.9200741705
 20
-76.2034011804
 10
-59.9189942531
 20
-76.2360914346
 10
-59.9157790375
 20
-76.2686417585
 10
-59.9104422863
 20
-76.3009128206
 10
-59.9030068435
 20
-76.3327664848
 10
-59.8935045365
 20
-76.3640664017
 10
-59.8819760397
 20
-76.3946785922
 10
-59.868470701
 20
-76.4244720209
 10
-59.8530463297
 20
-76.4533191573
 10
-59.8357689498
 20
-76.4810965214
 10
-59.816712517
 20
-76.5076852124
 10
-59.7959586023
 20
-76.5329714176
 10
-59.7735960427
 20
-76.5568468994
 10
-59.7497205609
 20
-76.5792094591
 10
-59.7244343558
 20
-76.5999633739
 10
-59.6978456648
 20
-76.6190198067
 10
-59.6700683007
 20
-76.6362971866
 10
-59.6412211643
 20
-76.651721558
 10
-59.6114277356
 20
-76.6652268968
 10
-59.5808155451
 20
-76.6767553936
 10
-59.5495156282
 20
-76.6862577007
 10
-59.5176619639
 20
-76.6936931436
 10
-59.4853909016
 20
-76.6990298948
 10
-59.4528405775
 20
-76.7022451105
 10
-59.4201503229
 20
-76.7033250279
  0
LINE
  5
307
100
AcDbEntity
  8
RACCORDO
100
AcDbLine
 62
7
  6
CONTINUOUS
 10
-64.8931711363
 20
-88.0417777271
 11
-64.8931711363
 21
-85.0414731174
  0
LINE
  5
308
100
AcDbEntity
  8
RACCORDO
100
AcDbLine
 62
7
  6
CONTINUOUS
 10
-63.0083745649
 20
-86.9262696889
 11
-63.0083745649
 21
-89.9265742986
  0
LINE
  5
309
100
AcDbEntity
  8
0
100
AcDbLine
 62
7
  6
CONTINUOUS
 10
-61.2007728506
 20
-112.5913257482
 11
-61.2007728506
 21
-113.484023708
  0
LINE
  5
30A
100
AcDbEntity
  8
0
100
AcDbLine
 62
7
  6
CONTINUOUS
 10
-60.2008488838
 20
-114.4840119269
 11
-60.2008488838
 21
-112.4078978898
  0
LINE
  5
30B
100
AcDbEntity
  8
RACCORDO
100
AcDbLine
 62
253
  6
CONTINUOUS
 10
-60.2007728506
 20
-106.2426750764
 11
-60.2007728506
 21
-107.2864650668
  0
LINE
  5
30C
100
AcDbEntity
  8
RACCORDO
100
AcDbLine
 62
253
  6
CONTINUOUS
 10
-60.2007728506
 20
-123.1815823492
 11
-60.2007728506
 21
-124.2253723396
  0
LINE
  5
30D
100
AcDbEntity
  8
RACCORDO
100
AcDbLine
 62
7
  6
CONTINUOUS
 10
-59.9507728506
 20
-75.4839475556
 11
-59.9507728506
 21
-76.2340998604
  0
LINE
  5
30E
100
AcDbEntity
  8
RACCORDO
100
AcDbLine
 62
7
  6
CONTINUOUS
 10
-59.9507728506
 20
-81.4839475556
 11
-59.9507728506
 21
-82.2340998604
  0
LINE
  5
30F
100
AcDbEntity
  8
RACCORDO
100
AcDbLine
 62
253
  6
CONTINUOUS
 10
-59.9200741705
 20
-75.5146462356
 11
-59.9200741705
 21
-76.2034011804
  0
LINE
  5
310
100
AcDbEntity
  8
RACCORDO
100
AcDbLine
 62
253
  6
CONTINUOUS
 10
-59.9200741705
 20
-81.5146462356
 11
-59.9200741705
 21
-82.2034011804
  0
LINE
  5
311
100
AcDbEntity
  8
RACCORDO
100
AcDbLine
 62
7
  6
CONTINUOUS
 10
-59.8931711363
 20
-72.4265742986
 11
-59.8931711363
 21
-67.4263458413
  0
LINE
  5
312
100
AcDbEntity
  8
RACCORDO
100
AcDbLine
 62
253
  6
CONTINUOUS
 10
-59.4201503229
 20
-75.0147223881
 11
-59.4201503229
 21
-76.7033250279
  0
LINE
  5
313
100
AcDbEntity
  8
RACCORDO
100
AcDbLine
 62
253
  6
CONTINUOUS
 10
-59.4201503229
 20
-81.0147223881
 11
-59.4201503229
 21
-82.7033250279
  0
LINE
  5
314
100
AcDbEntity
  8
0
100
AcDbLine
 62
7
  6
CONTINUOUS
 10
-59.2007728506
 20
-112.4078978898
 11
-59.2007728506
 21
-113.484023708
  0
LINE
  5
315
100
AcDbEntity
  8
RACCORDO
100
AcDbLine
 62
7
  6
CONTINUOUS
 10
-58.0083745649
 20
-66.0414731174
 11
-58.0083745649
 21
-70.5417777271
  0
LINE
  5
316
100
AcDbEntity
  8
0
100
AcDbLine
 62
7
  6
CONTINUOUS
 10
-57.2007728506
 20
-112.4078978898
 11
-57.2007728506
 21
-113.484023708
  0
LINE
  5
317
100
AcDbEntity
  8
0
100
AcDbLine
 62
7
  6
CONTINUOUS
 10
-55.2007728506
 20
-112.4078978898
 11
-55.2007728506
 21
-113.484023708
  0
LWPOLYLINE
  5
318
100
AcDbEntity
  8
0
100
AcDbPolyline
 62
7
  6
CONTINUOUS
 90
12
 70
0
 10
-75.5926085492
 20
-116.9444277491
 10
-75.5864238772
 20
-116.8787312801
 10
-75.5840445994
 20
-116.8137023014
 10
-75.5853810922
 20
-116.7495571426
 10
-75.5903316269
 20
-116.6865044332
 10
-75.5987829386
 20
-116.6247444347
 10
-75.6106108305
 20
-116.5644684116
 10
-75.625680812
 20
-116.5058580431
 10
-75.6438487687
 20
-116.4490848767
 10
-75.6649616607
 20
-116.3943098269
 10
-75.6888582459
 20
-116.3416827192
 10
-75.7153698274
 20
-116.2913418806
  0
LWPOLYLINE
  5
319
100
AcDbEntity
  8
0
100
AcDbPolyline
 62
7
  6
CONTINUOUS
 90
18
 70
0
 10
16.1206880689
 20
109.596762611
 10
16.1641903891
 20
109.6405533676
 10
16.2107097743
 20
109.6817158545
 10
16.2602439421
 20
109.7201366089
 10
16.3124963764
 20
109.7554790825
 10
16.3670110742
 20
109.7873902013
 10
16.4235544852
 20
109.8157261133
 10
16.4818957993
 20
109.8403643492
 10
16.5415105702
 20
109.8611072039
 10
16.6019433312
 20
109.8778693447
 10
16.6631105774
 20
109.8906992856
 10
16.725037411
 20
109.8996260797
 10
16.7875510779
 20
109.9046134603
 10
16.8503231763
 20
109.9056240012
 10
16.9131564759
 20
109.902645403
 10
16.9758158333
 20
109.8956725959
 10
17.0380286043
 20
109.8847196381
 10
17.0995419032
 20
109.8698164509
  0
LWPOLYLINE
  5
31A
100
AcDbEntity
  8
RACCORDO
100
AcDbPolyline
 62
253
  6
CONTINUOUS
 90
37
 70
0
 10
-90.6575721914
 20
-59.0364650668
 10
-90.7456032206
 20
-59.0384748947
 10
-90.8328937123
 20
-59.0442136726
 10
-90.9194436666
 20
-59.0536814004
 10
-91.0053215655
 20
-59.0669060732
 10
-91.0904589269
 20
-59.083859696
 10
-91.1746503047
 20
-59.1044582833
 10
-91.2579944202
 20
-59.1287290295
 10
-91.340392552
 20
-59.1566447403
 10
-91.4213430897
 20
-59.1880398473
 10
-91.5008221609
 20
-59.2229300669
 10
-91.5788536379
 20
-59.2612996827
 10
-91.6550075271
 20
-59.3029359769
 10
-91.7292773115
 20
-59.3478589148
 10
-91.8016695081
 20
-59.3960485311
 10
-91.8717736737
 20
-59.4472322123
 10
-91.9395763041
 20
-59.5014267535
 10
-92.0050909035
 20
-59.5586153596
 10
-92.067947541
 20
-59.618475031
 10
-92.1281306019
 20
-59.6810200526
 10
-92.1856557008
 20
-59.7462361394
 10
-92.2401997517
 20
-59.8137574371
 10
-92.2917486701
 20
-59.8836024874
 10
-92.3403165404
 20
-59.9557527485
 10
-92.3856225291
 20
-60.0297867401
 10
-92.4276207397
 20
-60.1056250038
 10
-92.4663570687
 20
-60.1833469981
 10
-92.5016883717
 20
-60.2627696178
 10
-92.5336524853
 20
-60.3439780757
 10
-92.5622115729
 20
-60.4268871592
 10
-92.5871089796
 20
-60.5110581248
 10
-92.6083264583
 20
-60.5965501136
 10
-92.6258822561
 20
-60.6833039846
 10
-92.6395744587
 20
-60.770703571
 10
-92.6493357615
 20
-60.8585434842
 10
-92.6552334692
 20
-60.9470291129
 10
-92.6572675817
 20
-61.0361604571
  0
LWPOLYLINE
  5
31B
100
AcDbEntity
  8
RACCORDO
100
AcDbPolyline
 62
253
  6
CONTINUOUS
 90
37
 70
0
 10
-90.6575721914
 20
-58.5365412192
 10
-90.7672678786
 20
-58.5389554345
 10
-90.8764435766
 20
-58.5461531921
 10
-90.9848929115
 20
-58.5580802596
 10
-91.0923003243
 20
-58.5746536563
 10
-91.1985838429
 20
-58.595812418
 10
-91.303885647
 20
-58.621566926
 10
-91.4081317698
 20
-58.6519128029
 10
-91.5109962259
 20
-58.6867690391
 10
-91.6122392118
 20
-58.7260562973
 10
-91.7116517059
 20
-58.7696905519
 10
-91.809065998
 20
-58.8175952011
 10
-91.9043107175
 20
-58.8696855003
 10
-91.9972107161
 20
-58.9258665027
 10
-92.0875857621
 20
-58.9860300555
 10
-92.175262884
 20
-59.0500613112
 10
-92.2600761815
 20
-59.1178390845
 10
-92.3418662726
 20
-59.1892359508
 10
-92.4204783204
 20
-59.2641167325
 10
-92.495763257
 20
-59.3423392305
 10
-92.567580105
 20
-59.423756721
 10
-92.6357953369
 20
-59.5082179869
 10
-92.700284515
 20
-59.5955702978
 10
-92.7609207357
 20
-59.6856431415
 10
-92.8175791834
 20
-59.778249241
 10
-92.8701000313
 20
-59.8731082351
 10
-92.9184503007
 20
-59.9701399671
 10
-92.9626703869
 20
-60.0694689378
 10
-93.002676861
 20
-60.1710267451
 10
-93.0383082588
 20
-60.2745359901
 10
-93.0694585445
 20
-60.3798171737
 10
-93.0960393202
 20
-60.4867341218
 10
-93.1179405723
 20
-60.5950359867
 10
-93.1350561655
 20
-60.70435821
 10
-93.1473269026
 20
-60.8144358496
 10
-93.1547172211
 20
-60.9251087214
 10
-93.1571914293
 20
-61.0361604571
  0
LINE
  5
31C
100
AcDbEntity
  8
0
100
AcDbLine
 62
7
  6
CONTINUOUS
 10
-84.5083745649
 20
-67.984023708
 11
-86.3931711363
 21
-67.984023708
  0
LINE
  5
31D
100
AcDbEntity
  8
RACCORDO
100
AcDbLine
 62
7
  6
CONTINUOUS
 10
-60.3930949839
 20
-66.9264219937
 11
-84.0084507173
 21
-66.9264219937
  0
LINE
  5
31E
100
AcDbEntity
  8
RACCORDO
100
AcDbLine
 62
7
  6
CONTINUOUS
 10
-85.3933234412
 20
-65.0416254223
 11
-59.00822226
 21
-65.0416254223
  0
LINE
  5
31F
100
AcDbEntity
  8
RACCORDO
100
AcDbLine
 62
253
  6
CONTINUOUS
 10
9.2467857906
 20
-61.0361604571
 11
9.7467096382
 21
-61.0361604571
  0
LINE
  5
320
100
AcDbEntity
  8
RACCORDO
100
AcDbLine
 62
253
  6
CONTINUOUS
 10
-92.6572675817
 20
-61.0361604571
 11
-93.1571914293
 21
-61.0361604571
  0
LINE
  5
321
100
AcDbEntity
  8
RACCORDO
100
AcDbLine
 62
253
  6
CONTINUOUS
 10
-91.7621502993
 20
-60.9314300443
 11
-91.2622264518
 21
-60.9314300443
  0
LINE
  5
322
100
AcDbEntity
  8
RACCORDO
100
AcDbLine
 62
253
  6
CONTINUOUS
 10
8.3516685082
 20
-60.9314300443
 11
7.8517446606
 21
-60.9314300443
  0
LINE
  5
323
100
AcDbEntity
  8
RACCORDO
100
AcDbLine
 62
7
  6
CONTINUOUS
 10
-90.7097850929
 20
-60.484023708
 11
7.2993033018
 21
-60.484023708
  0
LINE
  5
324
100
AcDbEntity
  8
RACCORDO
100
AcDbLine
 62
253
  6
CONTINUOUS
 10
-90.7623026042
 20
-60.4315061968
 11
7.3518208131
 21
-60.4315061968
  0
LINE
  5
325
100
AcDbEntity
  8
RACCORDO
100
AcDbLine
 62
253
  6
CONTINUOUS
 10
-90.7623026042
 20
-59.9315823492
 11
7.3518208131
 21
-59.9315823492
  0
LINE
  5
326
100
AcDbEntity
  8
RACCORDO
100
AcDbLine
 62
253
  6
CONTINUOUS
 10
7.2470904003
 20
-59.0364650668
 11
-90.6575721914
 21
-59.0364650668
  0
LINE
  5
327
100
AcDbEntity
  8
RACCORDO
100
AcDbLine
 62
253
  6
CONTINUOUS
 10
7.2470904003
 20
-58.5365412192
 11
-90.6575721914
 21
-58.5365412192
  0
LINE
  5
328
100
AcDbEntity
  8
RACCORDO
100
AcDbLine
 62
7
  6
CONTINUOUS
 10
7.2996079115
 20
-58.484023708
 11
-90.7100897026
 21
-58.484023708
  0
LWPOLYLINE
  5
329
100
AcDbEntity
  8
RACCORDO
100
AcDbPolyline
 62
253
  6
CONTINUOUS
 90
31
 70
0
 10
7.3518208131
 20
-60.4315061968
 10
7.3784551809
 20
-60.432207647
 10
7.404824779
 20
-60.4343062792
 10
7.4308582792
 20
-60.4377662769
 10
7.4564206806
 20
-60.4425341552
 10
7.4815166544
 20
-60.4485752948
 10
7.5062823069
 20
-60.4559087453
 10
7.5307425975
 20
-60.4645525181
 10
7.5547359839
 20
-60.474460354
 10
7.5781178715
 20
-60.4855679905
 10
7.6007904034
 20
-60.4978126801
 10
7.6227407849
 20
-60.5111708419
 10
7.643957193
 20
-60.5256268668
 10
7.6643803095
 20
-60.5411356206
 10
7.6839641454
 20
-60.5576573012
 10
7.7027093855
 20
-60.5751951729
 10
7.720576809
 20
-60.5937250998
 10
7.7374968056
 20
-60.6131881259
 10
7.7534200998
 20
-60.6335392411
 10
7.7683077632
 20
-60.6547436822
 10
7.7821021354
 20
-60.6767353771
 10
7.7947358326
 20
-60.6994142335
 10
7.806127256
 20
-60.7226155412
 10
7.8163039813
 20
-60.7463754299
 10
7.8253323249
 20
-60.7709061594
 10
7.8331726976
 20
-60.7962557466
 10
7.8397206541
 20
-60.8222707285
 10
7.8449089717
 20
-60.8488697581
 10
7.8486782411
 20
-60.87597723
 10
7.8509741608
 20
-60.9035241023
 10
7.8517446606
 20
-60.9314300443
  0
LWPOLYLINE
  5
32A
100
AcDbEntity
  8
RACCORDO
100
AcDbPolyline
 62
253
  6
CONTINUOUS
 90
31
 70
0
 10
7.3518208131
 20
-59.9315823492
 10
7.4052996335
 20
-59.933131035
 10
7.4579765145
 20
-59.9373191963
 10
7.509851456
 20
-59.9441468332
 10
7.5609226162
 20
-59.9536410152
 10
7.6111918369
 20
-59.9657746726
 10
7.6606646435
 20
-59.9804665972
 10
7.7095212029
 20
-59.997772502
 10
7.7575813482
 20
-60.0176366738
 10
7.8043101038
 20
-60.0398107648
 10
7.8496099466
 20
-60.0642779371
 10
7.8935783998
 20
-60.0910550286
 10
7.9359730575
 20
-60.1199442047
 10
7.9767838054
 20
-60.1509338715
 10
8.016020758
 20
-60.1840356231
 10
8.0534718527
 20
-60.2190864066
 10
8.0891666592
 20
-60.256124084
 10
8.1230756079
 20
-60.2951107934
 10
8.1548979274
 20
-60.335769897
 10
8.1846314664
 20
-60.3781509461
 10
8.2122783761
 20
-60.4222043893
 10
8.237544339
 20
-60.4675049349
 10
8.2603534934
 20
-60.5138475308
 10
8.2807817008
 20
-60.5614372291
 10
8.2987622287
 20
-60.6104638942
 10
8.3144003198
 20
-60.6611296989
 10
8.3275907313
 20
-60.7132324704
 10
8.3379510021
 20
-60.7663555561
 10
8.3453536449
 20
-60.8203600714
 10
8.349926147
 20
-60.8753849009
 10
8.3516685082
 20
-60.9314300443
  0
LWPOLYLINE
  5
32B
100
AcDbEntity
  8
0
100
AcDbPolyline
 62
7
  6
CONTINUOUS
 90
3
 70
0
 10
75.4163121463
 20
-116.9749039077
 10
75.4654853152
 20
-117.0030817248
 10
75.5152280997
 20
-117.0276358656
  0
LINE
  5
32C
100
AcDbEntity
  8
0
100
AcDbLine
 62
7
  6
CONTINUOUS
 10
75.4780459101
 20
-116.0023067009
 11
75.2214384226
 21
-115.8517769701
  0
LINE
  5
32D
100
AcDbEntity
  8
RACCORDO
100
AcDbLine
 62
253
  6
CONTINUOUS
 10
7.2470904003
 20
-98.4315061968
 11
7.2996079115
 21
-98.484023708
  0
LINE
  5
32E
100
AcDbEntity
  8
RACCORDO
100
AcDbLine
 62
253
  6
CONTINUOUS
 10
7.2993033018
 20
-96.484023708
 11
7.3518208131
 21
-96.5365412192
  0
LINE
  5
32F
100
AcDbEntity
  8
RACCORDO
100
AcDbLine
 62
253
  6
CONTINUOUS
 10
7.7992271494
 20
-95.9840998604
 11
7.8517446606
 21
-96.0366173716
  0
LINE
  5
330
100
AcDbEntity
  8
RACCORDO
100
AcDbLine
 62
253
  6
CONTINUOUS
 10
9.7467096382
 20
-95.9318869589
 11
9.7992271494
 21
-95.9844044701
  0
LINE
  5
331
100
AcDbEntity
  8
RACCORDO
100
AcDbLine
 62
253
  6
CONTINUOUS
 10
3.5186046218
 20
-82.7033250279
 11
3.5493033018
 21
-82.734023708
  0
LINE
  5
332
100
AcDbEntity
  8
RACCORDO
100
AcDbLine
 62
253
  6
CONTINUOUS
 10
4.0185284693
 20
-82.2034011804
 11
4.0492271494
 21
-82.2340998604
  0
LINE
  5
333
100
AcDbEntity
  8
0
100
AcDbLine
 62
7
  6
CONTINUOUS
 10
-53.2007728506
 20
-112.4078978898
 11
-53.2007728506
 21
-113.484023708
  0
LINE
  5
334
100
AcDbEntity
  8
0
100
AcDbLine
 62
7
  6
CONTINUOUS
 10
-51.2007728506
 20
-112.4078978898
 11
-51.2007728506
 21
-113.484023708
  0
LINE
  5
335
100
AcDbEntity
  8
RACCORDO
100
AcDbLine
 62
253
  6
CONTINUOUS
 10
-50.2007728506
 20
-106.2426750764
 11
-50.2007728506
 21
-107.2864650668
  0
LINE
  5
336
100
AcDbEntity
  8
RACCORDO
100
AcDbLine
 62
253
  6
CONTINUOUS
 10
-50.2007728506
 20
-123.1815823492
 11
-50.2007728506
 21
-124.2253723396
  0
LINE
  5
337
100
AcDbEntity
  8
0
100
AcDbLine
 62
7
  6
CONTINUOUS
 10
-49.2007728506
 20
-112.5913257482
 11
-49.2007728506
 21
-113.484023708
  0
LINE
  5
338
100
AcDbEntity
  8
0
100
AcDbLine
 62
7
  6
CONTINUOUS
 10
-48.2008270219
 20
-114.4840153144
 11
-48.2008270219
 21
-113.2372861858
  0
LINE
  5
339
100
AcDbEntity
  8
0
100
AcDbLine
 62
7
  6
CONTINUOUS
 10
-41.2007728506
 20
-84.484023708
 11
-41.2007728506
 21
-85.9264219937
  0
LWPOLYLINE
  5
33A
100
AcDbEntity
  8
0
100
AcDbPolyline
 62
7
  6
CONTINUOUS
 90
5
 70
0
 10
15.9780459101
 20
109.3976932991
 10
16.0087124905
 20
109.4506112577
 10
16.042801304
 20
109.5015848676
 10
16.0801895887
 20
109.5503920617
 10
16.1206880689
 20
109.596762611
  0
LINE
  5
33B
100
AcDbEntity
  8
RACCORDO
100
AcDbLine
 62
253
  6
CONTINUOUS
 10
3.5186046218
 20
-76.7033250279
 11
3.5493033018
 21
-76.734023708
  0
LINE
  5
33C
100
AcDbEntity
  8
RACCORDO
100
AcDbLine
 62
253
  6
CONTINUOUS
 10
4.0185284693
 20
-76.2034011804
 11
4.0492271494
 21
-76.2340998604
  0
LINE
  5
33D
100
AcDbEntity
  8
0
100
AcDbLine
 62
7
  6
CONTINUOUS
 10
-39.2007728506
 20
-85.9264219937
 11
-39.2007728506
 21
-84.484023708
  0
LINE
  5
33E
100
AcDbEntity
  8
0
100
AcDbLine
 62
7
  6
CONTINUOUS
 10
-37.2007728506
 20
-84.0416254223
 11
-37.2007728506
 21
-85.9264219937
  0
LINE
  5
33F
100
AcDbEntity
  8
0
100
AcDbLine
 62
7
  6
CONTINUOUS
 10
-36.2008096006
 20
-85.9264219937
 11
-36.2008096006
 21
-85.723781091
  0
LINE
  5
340
100
AcDbEntity
  8
0
100
AcDbLine
 62
7
  6
CONTINUOUS
 10
-35.2007728506
 20
-85.9264219937
 11
-35.2007728506
 21
-84.0416254223
  0
LINE
  5
341
100
AcDbEntity
  8
0
100
AcDbLine
 62
7
  6
CONTINUOUS
 10
-33.2007728506
 20
-84.0416254223
 11
-33.2007728506
 21
-85.9264219937
  0
LINE
  5
342
100
AcDbEntity
  8
0
100
AcDbLine
 62
7
  6
CONTINUOUS
 10
-31.2007728506
 20
-85.9264219937
 11
-31.2007728506
 21
-84.0416254223
  0
LINE
  5
343
100
AcDbEntity
  8
0
100
AcDbLine
 62
7
  6
CONTINUOUS
 10
-29.2007728506
 20
-72.484023708
 11
-29.2007728506
 21
-73.4264219937
  0
LINE
  5
344
100
AcDbEntity
  8
0
100
AcDbLine
 62
7
  6
CONTINUOUS
 10
-29.2007728506
 20
-84.0416254223
 11
-29.2007728506
 21
-85.9264219937
  0
LINE
  5
345
100
AcDbEntity
  8
0
100
AcDbLine
 62
7
  6
CONTINUOUS
 10
-27.2007728506
 20
-85.9264219937
 11
-27.2007728506
 21
-84.0416254223
  0
LINE
  5
346
100
AcDbEntity
  8
0
100
AcDbLine
 62
7
  6
CONTINUOUS
 10
-27.2007728506
 20
-73.4264219937
 11
-27.2007728506
 21
-72.484023708
  0
LWPOLYLINE
  5
347
100
AcDbEntity
  8
0
100
AcDbPolyline
 62
7
  6
CONTINUOUS
 90
9
 70
0
 10
-75.8253772891
 20
-116.847720367
 10
-75.8499237445
 20
-116.9075669186
 10
-75.8785413903
 20
-116.9657054977
 10
-75.9111078625
 20
-117.021860513
 10
-75.9474627799
 20
-117.075738533
 10
-75.9874631433
 20
-117.1271126523
 10
-76.0310024129
 20
-117.1758105046
 10
-76.0779181229
 20
-117.2215993375
 10
-76.1280030878
 20
-117.2642292823
  0
LINE
  5
348
100
AcDbEntity
  8
0
100
AcDbLine
 62
7
  6
CONTINUOUS
 10
17.8738069787
 20
108.381861894
 11
17.9073914508
 21
108.4555722509
  0
LINE
  5
349
100
AcDbEntity
  8
DRAFT
100
AcDbLine
 62
7
  6
CONTINUOUS
 10
-1.5355175257
 20
-37.8687683831
 11
11.1339718245
 21
-37.8687683831
  0
LINE
  5
34A
100
AcDbEntity
  8
DRAFT
100
AcDbLine
 62
7
  6
CONTINUOUS
 10
-0.9507728506
 20
-37.284023708
 11
10.5492271494
 21
-37.284023708
  0
LINE
  5
34B
100
AcDbEntity
  8
DRAFT
100
AcDbLine
 62
7
  6
CONTINUOUS
 10
7.8928080325
 20
-34.6276045911
 11
1.7056462663
 21
-34.6276045911
  0
LINE
  5
34C
100
AcDbEntity
  8
DRAFT
100
AcDbLine
 62
7
  6
CONTINUOUS
 10
1.7056462663
 20
-28.4404428249
 11
7.8928080325
 21
-28.4404428249
  0
LINE
  5
34D
100
AcDbEntity
  8
0
100
AcDbLine
 62
7
  6
CONTINUOUS
 10
-25.2007728506
 20
-71.5416254223
 11
-25.2007728506
 21
-73.484023708
  0
LINE
  5
34E
100
AcDbEntity
  8
0
100
AcDbLine
 62
7
  6
CONTINUOUS
 10
-25.2007728506
 20
-84.0416254223
 11
-25.2007728506
 21
-85.9264219937
  0
LINE
  5
34F
100
AcDbEntity
  8
0
100
AcDbLine
 62
7
  6
CONTINUOUS
 10
-24.200795505
 20
-85.9264219937
 11
-24.200795505
 21
-84.0416254223
  0
LINE
  5
350
100
AcDbEntity
  8
0
100
AcDbLine
 62
7
  6
CONTINUOUS
 10
-23.2007728506
 20
-85.9264219937
 11
-23.2007728506
 21
-84.0416254223
  0
LINE
  5
351
100
AcDbEntity
  8
0
100
AcDbLine
 62
7
  6
CONTINUOUS
 10
-23.2007728506
 20
-73.484023708
 11
-23.2007728506
 21
-71.5416254223
  0
LINE
  5
352
100
AcDbEntity
  8
0
100
AcDbLine
 62
7
  6
CONTINUOUS
 10
-21.2007728506
 20
-71.5416254223
 11
-21.2007728506
 21
-73.484023708
  0
LINE
  5
353
100
AcDbEntity
  8
0
100
AcDbLine
 62
7
  6
CONTINUOUS
 10
-21.2007728506
 20
-84.0416254223
 11
-21.2007728506
 21
-85.9264219937
  0
LINE
  5
354
100
AcDbEntity
  8
0
100
AcDbLine
 62
7
  6
CONTINUOUS
 10
-17.2007728506
 20
-87.4847350267
 11
-17.2007728506
 21
-88.9833123893
  0
LINE
  5
355
100
AcDbEntity
  8
0
100
AcDbLine
 62
7
  6
CONTINUOUS
 10
-15.2007728506
 20
-88.9833123893
 11
-15.2007728506
 21
-87.4847350267
  0
LINE
  5
356
100
AcDbEntity
  8
0
100
AcDbLine
 62
7
  6
CONTINUOUS
 10
-12.9289655898
 20
-0.729031631
 11
-12.9289526437
 21
-1.4727354009
  0
LINE
  5
357
100
AcDbEntity
  8
0
100
AcDbLine
 62
7
  6
CONTINUOUS
 10
-12.4725930593
 20
2.3046879851
 11
-12.4725801044
 21
1.5609842164
  0
LINE
  5
358
100
AcDbEntity
  8
0
100
AcDbLine
 62
7
  6
CONTINUOUS
 10
-12.9291261217
 20
1.5610158751
 11
-12.9287733455
 21
2.3047096377
  0
LINE
  5
359
100
AcDbEntity
  8
0
100
AcDbLine
 62
7
  6
CONTINUOUS
 10
-12.4724195795
 20
-0.7290632911
 11
-12.4727723557
 21
-1.4727570537
  0
LINE
  5
35A
100
AcDbEntity
  8
0
100
AcDbLine
 62
7
  6
CONTINUOUS
 10
-12.9855262298
 20
2.0395810879
 11
-13.0731450359
 21
1.6231438709
  0
LINE
  5
35B
100
AcDbEntity
  8
0
100
AcDbLine
 62
7
  6
CONTINUOUS
 10
-12.9287733455
 20
2.3047096377
 11
-12.9855262298
 21
2.0395810879
  0
LWPOLYLINE
  5
35C
100
AcDbEntity
  8
0
100
AcDbPolyline
 62
7
  6
CONTINUOUS
 90
9
 70
0
 10
17.6746227109
 20
108.552279633
 10
17.6500762555
 20
108.4924330814
 10
17.6214586097
 20
108.4342945023
 10
17.5888921375
 20
108.378139487
 10
17.5525372201
 20
108.324261467
 10
17.5125368567
 20
108.2728873477
 10
17.4689975871
 20
108.2241894954
 10
17.4220818771
 20
108.1784006625
 10
17.3719969122
 20
108.1357707177
  0
LWPOLYLINE
  5
35D
100
AcDbEntity
  8
0
100
AcDbPolyline
 62
7
  6
CONTINUOUS
 90
3
 70
0
 10
-13.8661829782
 20
0.1395758687
 10
-13.8593275223
 20
0.1556289838
 10
-13.8457701275
 20
0.1878280639
  0
LINE
  5
35E
100
AcDbEntity
  8
0
100
AcDbLine
 62
7
  6
CONTINUOUS
 10
-13.9079404294
 20
0.0436041067
 11
-13.8661829782
 21
0.1395758687
  0
LINE
  5
35F
100
AcDbEntity
  8
0
100
AcDbLine
 62
7
  6
CONTINUOUS
 10
-75.6261930213
 20
-117.018138106
 11
-75.5926085492
 21
-116.9444277491
  0
LINE
  5
360
100
AcDbEntity
  8
0
100
AcDbLine
 62
7
  6
CONTINUOUS
 10
-13.8906492497
 20
0.0317204847
 11
-13.8228791443
 21
0.1771539095
  0
LINE
  5
361
100
AcDbEntity
  8
TRASH
100
AcDbLine
 62
7
  6
CONTINUOUS
 10
-13.2204902855
 20
0.9357030742
 11
-12.9289210787
 21
1.5609735689
  0
LINE
  5
362
100
AcDbEntity
  8
0
100
AcDbLine
 62
7
  6
CONTINUOUS
 10
-13.3591727276
 20
1.0743760091
 11
-13.3348236168
 21
1.1231813376
  0
LINE
  5
363
100
AcDbEntity
  8
0
100
AcDbLine
 62
7
  6
CONTINUOUS
 10
-13.3348236168
 20
1.1231813376
 11
-13.2980354794
 21
1.1960924224
  0
LINE
  5
364
100
AcDbEntity
  8
0
100
AcDbLine
 62
7
  6
CONTINUOUS
 10
-13.2980354794
 20
1.1960924224
 11
-13.2489711833
 21
1.292111715
  0
LINE
  5
365
100
AcDbEntity
  8
0
100
AcDbLine
 62
7
  6
CONTINUOUS
 10
-13.2489711833
 20
1.292111715
 11
-13.1607766292
 21
1.4620239792
  0
LWPOLYLINE
  5
366
100
AcDbEntity
  8
0
100
AcDbPolyline
 62
7
  6
CONTINUOUS
 90
3
 70
0
 10
-13.1607766292
 20
1.4620239792
 10
-13.1016146145
 20
1.5747779463
 10
-13.0850286579
 20
1.6058526911
  0
LINE
  5
367
100
AcDbEntity
  8
0
100
AcDbLine
 62
7
  6
CONTINUOUS
 10
-13.0731450359
 20
1.6231438709
 11
-13.0850286579
 21
1.6058526911
  0
LINE
  5
368
100
AcDbEntity
  8
DRAFT
100
AcDbLine
 62
7
  6
CONTINUOUS
 10
96.7416254351
 20
123.4583745777
 11
97.2992271494
 21
124.015976292
  0
LINE
  5
369
100
AcDbEntity
  8
DRAFT
100
AcDbLine
 62
7
  6
CONTINUOUS
 10
10.5492271494
 20
-25.784023708
 11
-0.9507728506
 21
-25.784023708
  0
LINE
  5
36A
100
AcDbEntity
  8
DRAFT
100
AcDbLine
 62
7
  6
CONTINUOUS
 10
11.1339718245
 20
-25.1992790329
 11
-1.5355175257
 21
-25.1992790329
  0
LINE
  5
36B
100
AcDbEntity
  8
RACCORDO
100
AcDbLine
 62
7
  6
CONTINUOUS
 10
98.279006031
 20
-135.765628996
 11
98.2980869068
 21
-135.7847098718
  0
LINE
  5
36C
100
AcDbEntity
  8
0
100
AcDbLine
 62
7
  6
CONTINUOUS
 10
97.8542722438
 20
-132.3390688023
 11
98.2244699975
 21
-132.7092665561
  0
LINE
  5
36D
100
AcDbEntity
  8
DRAFT
100
AcDbLine
 62
7
  6
CONTINUOUS
 10
96.7416254351
 20
-129.9264219937
 11
97.2100970239
 21
-130.3948935825
  0
LINE
  5
36E
100
AcDbEntity
  8
DRAFT
100
AcDbLine
 62
7
  6
CONTINUOUS
 10
11.1339718245
 20
-37.8687683831
 11
10.5492271494
 21
-37.284023708
  0
LINE
  5
36F
100
AcDbEntity
  8
DRAFT
100
AcDbLine
 62
7
  6
CONTINUOUS
 10
-1.5355175257
 20
-25.1992790329
 11
-0.9507728506
 21
-25.784023708
  0
LINE
  5
370
100
AcDbEntity
  8
0
100
AcDbLine
 62
7
  6
CONTINUOUS
 10
77.1911880328
 20
-116.1552405347
 11
77.1560253733
 21
-116.115186471
  0
LINE
  5
371
100
AcDbEntity
  8
0
100
AcDbLine
 62
7
  6
CONTINUOUS
 10
-12.9289526437
 20
-1.4727354009
 11
-12.9961793707
 21
-1.1582261452
  0
LWPOLYLINE
  5
372
100
AcDbEntity
  8
0
100
AcDbPolyline
 62
7
  6
CONTINUOUS
 90
3
 70
0
 10
-12.9961793707
 20
-1.1582261452
 10
-13.0636863223
 20
-0.8363322458
 10
-13.073006173
 20
-0.7913932719
  0
LWPOLYLINE
  5
373
100
AcDbEntity
  8
RACCORDO
100
AcDbPolyline
 62
253
  6
CONTINUOUS
 90
25
 70
0
 10
4.0185284693
 20
-81.5146462356
 10
4.0174485519
 20
-81.4819559814
 10
4.0142333363
 20
-81.4494056575
 10
4.0088965851
 20
-81.4171345954
 10
4.0014611423
 20
-81.3852809312
 10
3.9919588353
 20
-81.3539810143
 10
3.9804303386
 20
-81.3233688238
 10
3.9669249998
 20
-81.2935753951
 10
3.9515006285
 20
-81.2647282587
 10
3.9342232486
 20
-81.2369508946
 10
3.9151668159
 20
-81.2103622036
 10
3.8944129012
 20
-81.1850759984
 10
3.8720503415
 20
-81.1612005166
 10
3.8481748597
 20
-81.1388379569
 10
3.8228886546
 20
-81.1180840421
 10
3.7962999637
 20
-81.0990276093
 10
3.7685225996
 20
-81.0817502294
 10
3.7396754632
 20
-81.066325858
 10
3.7098820344
 20
-81.0528205192
 10
3.679269844
 20
-81.0412920224
 10
3.647969927
 20
-81.0317897153
 10
3.6161162627
 20
-81.0243542724
 10
3.5838452005
 20
-81.0190175212
 10
3.5512948763
 20
-81.0158023055
 10
3.5186046218
 20
-81.0147223881
  0
LWPOLYLINE
  5
374
100
AcDbEntity
  8
RACCORDO
100
AcDbPolyline
 62
253
  6
CONTINUOUS
 90
25
 70
0
 10
4.0185284693
 20
-75.5146462356
 10
4.0174485519
 20
-75.4819559814
 10
4.0142333363
 20
-75.4494056575
 10
4.0088965851
 20
-75.4171345954
 10
4.0014611423
 20
-75.3852809312
 10
3.9919588353
 20
-75.3539810143
 10
3.9804303386
 20
-75.3233688238
 10
3.9669249998
 20
-75.2935753951
 10
3.9515006285
 20
-75.2647282587
 10
3.9342232486
 20
-75.2369508946
 10
3.9151668159
 20
-75.2103622036
 10
3.8944129012
 20
-75.1850759984
 10
3.8720503415
 20
-75.1612005166
 10
3.8481748597
 20
-75.1388379569
 10
3.8228886546
 20
-75.1180840421
 10
3.7962999637
 20
-75.0990276093
 10
3.7685225996
 20
-75.0817502294
 10
3.7396754632
 20
-75.066325858
 10
3.7098820344
 20
-75.0528205192
 10
3.679269844
 20
-75.0412920224
 10
3.647969927
 20
-75.0317897153
 10
3.6161162627
 20
-75.0243542724
 10
3.5838452005
 20
-75.0190175212
 10
3.5512948763
 20
-75.0158023055
 10
3.5186046218
 20
-75.0147223881
  0
LINE
  5
375
100
AcDbEntity
  8
DRAFT
100
AcDbLine
 62
7
  6
CONTINUOUS
 10
-10.1431711363
 20
-126.6264219937
 11
-10.1431711363
 21
-121.7416254223
  0
LINE
  5
376
100
AcDbEntity
  8
0
100
AcDbLine
 62
7
  6
CONTINUOUS
 10
-5.2007728506
 20
-121.7416254223
 11
-5.2007728506
 21
-125.784023708
  0
LINE
  5
377
100
AcDbEntity
  8
0
100
AcDbLine
 62
7
  6
CONTINUOUS
 10
-5.2007728506
 20
-125.784023708
 11
-5.2007728506
 21
-126.6264219937
  0
LINE
  5
378
100
AcDbEntity
  8
0
100
AcDbLine
 62
7
  6
CONTINUOUS
 10
-3.2007755008
 20
-126.6264219937
 11
-3.2007755008
 21
-121.7416254223
  0
LINE
  5
379
100
AcDbEntity
  8
DRAFT
100
AcDbLine
 62
7
  6
CONTINUOUS
 10
-1.5355175257
 20
-25.1992790329
 11
-1.5355175257
 21
-37.8687683831
  0
LINE
  5
37A
100
AcDbEntity
  8
DRAFT
100
AcDbLine
 62
7
  6
CONTINUOUS
 10
-0.9507728506
 20
-25.784023708
 11
-0.9507728506
 21
-37.284023708
  0
LINE
  5
37B
100
AcDbEntity
  8
0
100
AcDbLine
 62
7
  6
CONTINUOUS
 10
-0.2007728506
 20
-126.6264219937
 11
-0.2007728506
 21
-121.7416254223
  0
LINE
  5
37C
100
AcDbEntity
  8
0
100
AcDbLine
 62
7
  6
CONTINUOUS
 10
-12.3284006653
 20
-0.7911912868
 11
-12.3993375062
 21
-1.1290061319
  0
LINE
  5
37D
100
AcDbEntity
  8
0
100
AcDbLine
 62
7
  6
CONTINUOUS
 10
-12.3993375062
 20
-1.1290061319
 11
-12.4727723557
 21
-1.4727570537
  0
LWPOLYLINE
  5
37E
100
AcDbEntity
  8
0
100
AcDbPolyline
 62
7
  6
CONTINUOUS
 90
3
 70
0
 10
-11.535362723
 20
0.6923767153
 10
-11.5422181789
 20
0.6763236002
 10
-11.5557755737
 20
0.6441245201
  0
LINE
  5
37F
100
AcDbEntity
  8
0
100
AcDbLine
 62
7
  6
CONTINUOUS
 10
-11.4936052717
 20
0.7883484773
 11
-11.535362723
 21
0.6923767153
  0
LINE
  5
380
100
AcDbEntity
  8
0
100
AcDbLine
 62
7
  6
CONTINUOUS
 10
-11.5108964515
 20
0.8002320993
 11
-11.5786665569
 21
0.6547986745
  0
LINE
  5
381
100
AcDbEntity
  8
TRASH
100
AcDbLine
 62
7
  6
CONTINUOUS
 10
-12.1810554156
 20
-0.1037504902
 11
-12.4726246225
 21
-0.7290209849
  0
LINE
  5
382
100
AcDbEntity
  8
0
100
AcDbLine
 62
7
  6
CONTINUOUS
 10
-12.0423729736
 20
-0.2424234251
 11
-12.0667220843
 21
-0.2912287536
  0
LINE
  5
383
100
AcDbEntity
  8
0
100
AcDbLine
 62
7
  6
CONTINUOUS
 10
-12.0667220843
 20
-0.2912287536
 11
-12.1035102218
 21
-0.3641398384
  0
LINE
  5
384
100
AcDbEntity
  8
0
100
AcDbLine
 62
7
  6
CONTINUOUS
 10
-12.1035102218
 20
-0.3641398384
 11
-12.1525745179
 21
-0.460159131
  0
LINE
  5
385
100
AcDbEntity
  8
0
100
AcDbLine
 62
7
  6
CONTINUOUS
 10
-12.1525745179
 20
-0.460159131
 11
-12.240769072
 21
-0.6300713952
  0
LWPOLYLINE
  5
386
100
AcDbEntity
  8
0
100
AcDbPolyline
 62
7
  6
CONTINUOUS
 90
3
 70
0
 10
-12.240769072
 20
-0.6300713952
 10
-12.2999310866
 20
-0.7428253623
 10
-12.3165170433
 20
-0.7739001071
  0
LWPOLYLINE
  5
387
100
AcDbEntity
  8
0
100
AcDbPolyline
 62
7
  6
CONTINUOUS
 90
5
 70
0
 10
-77.5219540899
 20
-116.0023067009
 10
-77.4912875095
 20
-115.9493887423
 10
-77.457198696
 20
-115.8984151324
 10
-77.4198104113
 20
-115.8496079383
 10
-77.3793119311
 20
-115.803237389
  0
LINE
  5
388
100
AcDbEntity
  8
0
100
AcDbLine
 62
7
  6
CONTINUOUS
 10
-12.3165170433
 20
-0.7739001071
 11
-12.3284006653
 21
-0.7911912868
  0
LINE
  5
389
100
AcDbEntity
  8
0
100
AcDbLine
 62
7
  6
CONTINUOUS
 10
-13.3591729097
 20
-0.2424237723
 11
-13.2204963348
 21
-0.1037471922
  0
LINE
  5
38A
100
AcDbEntity
  8
0
100
AcDbLine
 62
7
  6
CONTINUOUS
 10
-12.1810493664
 20
0.9356997762
 11
-12.0423727915
 21
1.0743763563
  0
LINE
  5
38B
100
AcDbEntity
  8
RACCORDO
100
AcDbLine
 62
253
  6
CONTINUOUS
 10
-93.1571914293
 20
-95.9318869589
 11
-93.2097089405
 21
-95.9844044701
  0
LINE
  5
38C
100
AcDbEntity
  8
0
100
AcDbLine
 62
7
  6
CONTINUOUS
 10
-13.9081424142
 20
0.7882096146
 11
-13.8906491575
 21
0.8002321481
  0
LINE
  5
38D
100
AcDbEntity
  8
0
100
AcDbLine
 62
7
  6
CONTINUOUS
 10
-11.5108965437
 20
0.0317204359
 11
-11.4934032844
 21
0.0437429711
  0
LINE
  5
38E
100
AcDbEntity
  8
0
100
AcDbLine
 62
7
  6
CONTINUOUS
 10
-13.8906491575
 20
0.8002321481
 11
-13.8607224693
 21
0.8162137975
  0
LINE
  5
38F
100
AcDbEntity
  8
0
100
AcDbLine
 62
7
  6
CONTINUOUS
 10
-11.5108965437
 20
0.0317204359
 11
-11.5408232319
 21
0.0157387865
  0
LINE
  5
390
100
AcDbEntity
  8
0
100
AcDbLine
 62
7
  6
CONTINUOUS
 10
-13.8607224693
 20
0.8162137975
 11
-13.7283187017
 21
0.8856626654
  0
LINE
  5
391
100
AcDbEntity
  8
0
100
AcDbLine
 62
7
  6
CONTINUOUS
 10
-11.5408232319
 20
0.0157387865
 11
-11.6732269994
 21
-0.0537100814
  0
LINE
  5
392
100
AcDbEntity
  8
0
100
AcDbLine
 62
7
  6
CONTINUOUS
 10
-13.7283187017
 20
0.8856626654
 11
-13.5376932032
 21
0.984284051
  0
LINE
  5
393
100
AcDbEntity
  8
0
100
AcDbLine
 62
7
  6
CONTINUOUS
 10
-11.6732269994
 20
-0.0537100814
 11
-11.863852498
 21
-0.152331467
  0
LINE
  5
394
100
AcDbEntity
  8
0
100
AcDbLine
 62
7
  6
CONTINUOUS
 10
-13.5376932032
 20
0.984284051
 11
-13.4586178945
 21
1.0245104878
  0
LINE
  5
395
100
AcDbEntity
  8
0
100
AcDbLine
 62
7
  6
CONTINUOUS
 10
-11.863852498
 20
-0.152331467
 11
-11.9429278066
 21
-0.1925579038
  0
LWPOLYLINE
  5
396
100
AcDbEntity
  8
0
100
AcDbPolyline
 62
7
  6
CONTINUOUS
 90
3
 70
0
 10
-13.4586178945
 20
1.0245104878
 10
-13.3791238105
 20
1.0644525824
 10
-13.3591727276
 20
1.0743760091
  0
LWPOLYLINE
  5
397
100
AcDbEntity
  8
0
100
AcDbPolyline
 62
7
  6
CONTINUOUS
 90
3
 70
0
 10
-11.9429278066
 20
-0.1925579038
 10
-12.0224218907
 20
-0.2324999984
 10
-12.0423729736
 20
-0.2424234251
  0
LINE
  5
398
100
AcDbEntity
  8
0
100
AcDbLine
 62
7
  6
CONTINUOUS
 10
-12.461950478
 20
1.538082579
 11
-12.3165169945
 21
1.6058525989
  0
LINE
  5
399
100
AcDbEntity
  8
0
100
AcDbLine
 62
7
  6
CONTINUOUS
 10
-12.9395952232
 20
-0.706129995
 11
-13.0850287067
 21
-0.7739000149
  0
LINE
  5
39A
100
AcDbEntity
  8
TRASH
100
AcDbLine
 62
7
  6
CONTINUOUS
 10
-13.320474479
 20
0.8890793138
 11
-13.2204996328
 21
0.935693727
  0
LINE
  5
39B
100
AcDbEntity
  8
TRASH
100
AcDbLine
 62
7
  6
CONTINUOUS
 10
-12.081071222
 20
-0.0571267297
 11
-12.1810460683
 21
-0.103741143
  0
LINE
  5
39C
100
AcDbEntity
  8
TRASH
100
AcDbLine
 62
7
  6
CONTINUOUS
 10
-13.8457701207
 20
0.6441245101
 11
-13.320474479
 21
0.8890793138
  0
LINE
  5
39D
100
AcDbEntity
  8
TRASH
100
AcDbLine
 62
7
  6
CONTINUOUS
 10
-11.5557755805
 20
0.1878280739
 11
-12.081071222
 21
-0.0571267297
  0
LINE
  5
39E
100
AcDbEntity
  8
0
100
AcDbLine
 62
7
  6
CONTINUOUS
 10
-12.4726246325
 20
1.5609735621
 11
-12.3285395308
 21
1.6233458598
  0
LINE
  5
39F
100
AcDbEntity
  8
0
100
AcDbLine
 62
7
  6
CONTINUOUS
 10
-12.9289210687
 20
-0.7290209781
 11
-13.073006173
 21
-0.7913932719
  0
LINE
  5
3A0
100
AcDbEntity
  8
0
100
AcDbLine
 62
7
  6
CONTINUOUS
 10
-11.5557649265
 20
0.1877835471
 11
-10.8120611575
 21
0.1877965003
  0
LINE
  5
3A1
100
AcDbEntity
  8
0
100
AcDbLine
 62
7
  6
CONTINUOUS
 10
-14.5894845435
 20
0.6441560849
 11
-13.8457807737
 21
0.644169032
  0
LINE
  5
3A2
100
AcDbEntity
  8
0
100
AcDbLine
 62
7
  6
CONTINUOUS
 10
-13.8458124337
 20
0.1876230209
 11
-14.5895061963
 21
0.1879757971
  0
LINE
  5
3A3
100
AcDbEntity
  8
0
100
AcDbLine
 62
7
  6
CONTINUOUS
 10
-11.5557332675
 20
0.6443295631
 11
-10.8120395049
 21
0.6439767869
  0
LINE
  5
3A4
100
AcDbEntity
  8
0
100
AcDbLine
 62
7
  6
CONTINUOUS
 10
-11.4936052717
 20
0.7883484773
 11
-11.1445008411
 21
0.7150207361
  0
LINE
  5
3A5
100
AcDbEntity
  8
0
100
AcDbLine
 62
7
  6
CONTINUOUS
 10
-14.3459320339
 20
0.1358085196
 11
-13.9079404294
 21
0.0436041067
  0
LINE
  5
3A6
100
AcDbEntity
  8
0
100
AcDbLine
 62
7
  6
CONTINUOUS
 10
-14.5895061963
 20
0.1879757971
 11
-14.3459320339
 21
0.1358085196
  0
LINE
  5
3A7
100
AcDbEntity
  8
0
100
AcDbLine
 62
7
  6
CONTINUOUS
 10
-11.1445008411
 20
0.7150207361
 11
-10.8120395049
 21
0.6439767869
  0
LWPOLYLINE
  5
3A8
100
AcDbEntity
  8
0
100
AcDbPolyline
 62
7
  6
CONTINUOUS
 90
3
 70
0
 10
-12.4243724273
 20
-0.7494338356
 10
-12.4404255424
 20
-0.7425783797
 10
-12.4726246225
 20
-0.7290209849
  0
LWPOLYLINE
  5
3A9
100
AcDbEntity
  8
0
100
AcDbPolyline
 62
7
  6
CONTINUOUS
 90
3
 70
0
 10
-12.9771732739
 20
1.5813864196
 10
-12.9611201587
 20
1.5745309637
 10
-12.9289210787
 20
1.5609735689
  0
LINE
  5
3AA
100
AcDbEntity
  8
0
100
AcDbLine
 62
7
  6
CONTINUOUS
 10
-12.3284006653
 20
-0.7911912868
 11
-12.4243724273
 21
-0.7494338356
  0
LINE
  5
3AB
100
AcDbEntity
  8
0
100
AcDbLine
 62
7
  6
CONTINUOUS
 10
-13.0731450359
 20
1.6231438709
 11
-12.9771732739
 21
1.5813864196
  0
LINE
  5
3AC
100
AcDbEntity
  8
0
100
AcDbLine
 62
7
  6
CONTINUOUS
 10
-12.3165170433
 20
-0.7739001071
 11
-12.4619504681
 21
-0.7061300017
  0
LINE
  5
3AD
100
AcDbEntity
  8
0
100
AcDbLine
 62
7
  6
CONTINUOUS
 10
-13.0850286579
 20
1.6058526911
 11
-12.9395952331
 21
1.5380825857
  0
LINE
  5
3AE
100
AcDbEntity
  8
TRASH
100
AcDbLine
 62
7
  6
CONTINUOUS
 10
-13.2204963344
 20
-0.1037471919
 11
-13.8457701275
 21
0.1878280639
  0
LINE
  5
3AF
100
AcDbEntity
  8
TRASH
100
AcDbLine
 62
7
  6
CONTINUOUS
 10
-12.1810493667
 20
0.9356997759
 11
-11.5557755737
 21
0.6441245201
  0
LINE
  5
3B0
100
AcDbEntity
  8
0
100
AcDbLine
 62
7
  6
CONTINUOUS
 10
-13.3591729097
 20
-0.2424237723
 11
-13.4199442249
 21
-0.2120478885
  0
LINE
  5
3B1
100
AcDbEntity
  8
0
100
AcDbLine
 62
7
  6
CONTINUOUS
 10
-12.0423727915
 20
1.0743763563
 11
-11.9816014763
 21
1.0440004725
  0
LINE
  5
3B2
100
AcDbEntity
  8
0
100
AcDbLine
 62
7
  6
CONTINUOUS
 10
-13.4199442249
 20
-0.2120478885
 11
-13.500473746
 21
-0.1713136591
  0
LINE
  5
3B3
100
AcDbEntity
  8
0
100
AcDbLine
 62
7
  6
CONTINUOUS
 10
-11.9816014763
 20
1.0440004725
 11
-11.9010719552
 21
1.0032662431
  0
LINE
  5
3B4
100
AcDbEntity
  8
0
100
AcDbLine
 62
7
  6
CONTINUOUS
 10
-13.500473746
 20
-0.1713136591
 11
-13.6007329194
 21
-0.1199561266
  0
LINE
  5
3B5
100
AcDbEntity
  8
0
100
AcDbLine
 62
7
  6
CONTINUOUS
 10
-11.9010719552
 20
1.0032662431
 11
-11.8008127817
 21
0.9519087106
  0
LWPOLYLINE
  5
3B6
100
AcDbEntity
  8
0
100
AcDbPolyline
 62
7
  6
CONTINUOUS
 90
3
 70
0
 10
-13.6007329194
 20
-0.1199561266
 10
-13.861438739
 20
0.0161338598
 10
-13.8906492497
 20
0.0317204847
  0
LWPOLYLINE
  5
3B7
100
AcDbEntity
  8
0
100
AcDbPolyline
 62
7
  6
CONTINUOUS
 90
3
 70
0
 10
-11.8008127817
 20
0.9519087106
 10
-11.5401069622
 20
0.8158187242
 10
-11.5108964515
 20
0.8002320993
  0
LINE
  5
3B8
100
AcDbEntity
  8
0
100
AcDbLine
 62
7
  6
CONTINUOUS
 10
-13.9079404294
 20
0.0436041067
 11
-13.8906492497
 21
0.0317204847
  0
LINE
  5
3B9
100
AcDbEntity
  8
0
100
AcDbLine
 62
7
  6
CONTINUOUS
 10
-11.5108964515
 20
0.8002320993
 11
-11.4936052717
 21
0.7883484773
  0
LINE
  5
3BA
100
AcDbEntity
  8
0
100
AcDbLine
 62
7
  6
CONTINUOUS
 10
-12.1810493664
 20
-0.1037471922
 11
-12.0423729736
 21
-0.2424234251
  0
LINE
  5
3BB
100
AcDbEntity
  8
0
100
AcDbLine
 62
7
  6
CONTINUOUS
 10
-13.2204963348
 20
0.9356997762
 11
-13.3591727276
 21
1.0743760091
  0
LINE
  5
3BC
100
AcDbEntity
  8
0
100
AcDbLine
 62
7
  6
CONTINUOUS
 10
75.5653044032
 20
-117.0485817002
 11
75.5448817901
 21
-117.022349088
  0
LWPOLYLINE
  5
3BD
100
AcDbEntity
  8
0
100
AcDbPolyline
 62
7
  6
CONTINUOUS
 90
8
 70
0
 10
75.1081200243
 20
-116.6780047534
 10
75.1466220057
 20
-116.7307366476
 10
75.1873582463
 20
-116.7801522545
 10
75.2300958885
 20
-116.8261628933
 10
75.2745989312
 20
-116.8686947493
 10
75.3206291269
 20
-116.9076889601
 10
75.3679468808
 20
-116.9431016492
 10
75.4163121463
 20
-116.9749039077
  0
LWPOLYLINE
  5
3BE
100
AcDbEntity
  8
0
100
AcDbPolyline
 62
7
  6
CONTINUOUS
 90
18
 70
0
 10
75.5448817901
 20
-117.022349088
 10
75.5253297531
 20
-116.9952802207
 10
75.5066855172
 20
-116.9674013004
 10
75.4889797192
 20
-116.9387301698
 10
75.4722549446
 20
-116.9093060395
 10
75.4565619991
 20
-116.8791916734
 10
75.4419246688
 20
-116.84840626
 10
75.4283808845
 20
-116.8170009819
 10
75.415989107
 20
-116.7850946681
 10
75.4047746061
 20
-116.7527505383
 10
75.3947459217
 20
-116.7199911907
 10
75.3859232919
 20
-116.6868802206
 10
75.3783148487
 20
-116.6534462126
 10
75.3719349322
 20
-116.6197499553
 10
75.3668009385
 20
-116.585906178
 10
75.3629139905
 20
-116.5519847216
 10
75.3602673153
 20
-116.5180086897
 10
75.3588563606
 20
-116.484023708
  0
LINE
  5
3BF
100
AcDbEntity
  8
0
100
AcDbLine
 62
7
  6
CONTINUOUS
 10
-13.0850287067
 20
-0.7739000149
 11
-13.073006173
 21
-0.7913932719
  0
LINE
  5
3C0
100
AcDbEntity
  8
0
100
AcDbLine
 62
7
  6
CONTINUOUS
 10
-12.3285395308
 20
1.6233458598
 11
-12.3165169945
 21
1.6058525989
  0
LINE
  5
3C1
100
AcDbEntity
  8
0
100
AcDbLine
 62
7
  6
CONTINUOUS
 10
-13.0850287067
 20
-0.7739000149
 11
-13.1015356401
 21
-0.7429687897
  0
LINE
  5
3C2
100
AcDbEntity
  8
0
100
AcDbLine
 62
7
  6
CONTINUOUS
 10
-12.3165169945
 20
1.6058525989
 11
-12.3000100611
 21
1.5749213737
  0
LINE
  5
3C3
100
AcDbEntity
  8
0
100
AcDbLine
 62
7
  6
CONTINUOUS
 10
-13.1015356401
 20
-0.7429687897
 11
-13.2488110612
 21
-0.460470577
  0
LINE
  5
3C4
100
AcDbEntity
  8
0
100
AcDbLine
 62
7
  6
CONTINUOUS
 10
-12.3000100611
 20
1.5749213737
 11
-12.1527346399
 21
1.292423161
  0
LINE
  5
3C5
100
AcDbEntity
  8
0
100
AcDbLine
 62
7
  6
CONTINUOUS
 10
-13.2488110612
 20
-0.460470577
 11
-13.2979862099
 21
-0.364237143
  0
LINE
  5
3C6
100
AcDbEntity
  8
0
100
AcDbLine
 62
7
  6
CONTINUOUS
 10
-12.1527346399
 20
1.292423161
 11
-12.1035594913
 21
1.196189727
  0
LWPOLYLINE
  5
3C7
100
AcDbEntity
  8
0
100
AcDbPolyline
 62
7
  6
CONTINUOUS
 90
3
 70
0
 10
-13.2979862099
 20
-0.364237143
 10
-13.3470190071
 20
-0.2668639045
 10
-13.3591729097
 20
-0.2424237723
  0
LWPOLYLINE
  5
3C8
100
AcDbEntity
  8
0
100
AcDbPolyline
 62
7
  6
CONTINUOUS
 90
3
 70
0
 10
-12.1035594913
 20
1.196189727
 10
-12.054526694
 20
1.0988164885
 10
-12.0423727915
 20
1.0743763563
  0
LINE
  5
3C9
100
AcDbEntity
  8
0
100
AcDbLine
 62
7
  6
CONTINUOUS
 10
-13.8228791376
 20
0.6547986646
 11
-13.8906491575
 21
0.8002321481
  0
LINE
  5
3CA
100
AcDbEntity
  8
0
100
AcDbLine
 62
7
  6
CONTINUOUS
 10
-11.5786665636
 20
0.1771539194
 11
-11.5108965437
 21
0.0317204359
  0
LINE
  5
3CB
100
AcDbEntity
  8
TRASH
100
AcDbLine
 62
7
  6
CONTINUOUS
 10
-13.1739036144
 20
-0.2037037874
 11
-13.2204963344
 21
-0.1037471919
  0
LINE
  5
3CC
100
AcDbEntity
  8
TRASH
100
AcDbLine
 62
7
  6
CONTINUOUS
 10
-12.2276420867
 20
1.0356563714
 11
-12.1810493667
 21
0.9356997759
  0
LINE
  5
3CD
100
AcDbEntity
  8
TRASH
100
AcDbLine
 62
7
  6
CONTINUOUS
 10
-12.9289210687
 20
-0.7290209781
 11
-13.1739036144
 21
-0.2037037874
  0
LINE
  5
3CE
100
AcDbEntity
  8
TRASH
100
AcDbLine
 62
7
  6
CONTINUOUS
 10
-12.4726246325
 20
1.5609735621
 11
-12.2276420867
 21
1.0356563714
  0
LINE
  5
3CF
100
AcDbEntity
  8
0
100
AcDbLine
 62
7
  6
CONTINUOUS
 10
-13.8457701207
 20
0.6441245101
 11
-13.9081424142
 21
0.7882096146
  0
LINE
  5
3D0
100
AcDbEntity
  8
0
100
AcDbLine
 62
7
  6
CONTINUOUS
 10
-11.5557755805
 20
0.1878280739
 11
-11.4934032844
 21
0.0437429711
  0
LINE
  5
3D1
100
AcDbEntity
  8
0
100
AcDbLine
 62
7
  6
CONTINUOUS
 10
-12.4725930593
 20
2.3046879851
 11
-12.4053663327
 21
1.9901787312
  0
LWPOLYLINE
  5
3D2
100
AcDbEntity
  8
0
100
AcDbPolyline
 62
7
  6
CONTINUOUS
 90
3
 70
0
 10
-12.4053663327
 20
1.9901787312
 10
-12.3378593816
 20
1.6682848337
 10
-12.3285395308
 20
1.6233458598
  0
LWPOLYLINE
  5
3D3
100
AcDbEntity
  8
RACCORDO
100
AcDbPolyline
 62
253
  6
CONTINUOUS
 90
37
 70
0
 10
9.2467857906
 20
-61.0361604571
 10
9.2447759627
 20
-60.9481294279
 10
9.2390371848
 20
-60.8608389362
 10
9.229569457
 20
-60.774288982
 10
9.2163447842
 20
-60.6884110831
 10
9.1993911614
 20
-60.6032737216
 10
9.1787925741
 20
-60.5190823439
 10
9.1545218279
 20
-60.4357382283
 10
9.1266061171
 20
-60.3533400965
 10
9.0952110101
 20
-60.2723895588
 10
9.0603207905
 20
-60.1929104876
 10
9.0219511747
 20
-60.1148790106
 10
8.9803148805
 20
-60.0387251214
 10
8.9353919426
 20
-59.964455337
 10
8.8872023263
 20
-59.8920631404
 10
8.8360186451
 20
-59.8219589749
 10
8.7818241039
 20
-59.7541563444
 10
8.7246354978
 20
-59.688641745
 10
8.6647758264
 20
-59.6257851075
 10
8.6022308048
 20
-59.5656020466
 10
8.537014718
 20
-59.5080769477
 10
8.4694934204
 20
-59.4535328969
 10
8.39964837
 20
-59.4019839784
 10
8.3274981089
 20
-59.3534161081
 10
8.2534641173
 20
-59.3081101195
 10
8.1776258536
 20
-59.2661119088
 10
8.0999038593
 20
-59.2273755798
 10
8.0204812396
 20
-59.1920442769
 10
7.9392727817
 20
-59.1600801632
 10
7.8563636982
 20
-59.1315210756
 10
7.7721927326
 20
-59.106623669
 10
7.6867007438
 20
-59.0854061902
 10
7.5999468729
 20
-59.0678503925
 10
7.5125472864
 20
-59.0541581898
 10
7.4247073732
 20
-59.044396887
 10
7.3362217445
 20
-59.0384991793
 10
7.2470904003
 20
-59.0364650668
  0
LWPOLYLINE
  5
3D4
100
AcDbEntity
  8
RACCORDO
100
AcDbPolyline
 62
253
  6
CONTINUOUS
 90
37
 70
0
 10
9.7467096382
 20
-61.0361604571
 10
9.7442954229
 20
-60.92646477
 10
9.7370976653
 20
-60.8172890719
 10
9.7251705978
 20
-60.708839737
 10
9.7085972011
 20
-60.6014323243
 10
9.6874384394
 20
-60.4951488056
 10
9.6616839314
 20
-60.3898470015
 10
9.6313380545
 20
-60.2856008788
 10
9.5964818183
 20
-60.1827364226
 10
9.5571945602
 20
-60.0814934367
 10
9.5135603055
 20
-59.9820809427
 10
9.4656556563
 20
-59.8846666505
 10
9.4135653571
 20
-59.7894219311
 10
9.3573843547
 20
-59.6965219325
 10
9.2972208019
 20
-59.6061468864
 10
9.2331895462
 20
-59.5184697645
 10
9.1654117729
 20
-59.433656467
 10
9.0940149066
 20
-59.351866376
 10
9.0191341249
 20
-59.2732543281
 10
8.9409116269
 20
-59.1979693915
 10
8.8594941364
 20
-59.1261525435
 10
8.7750328705
 20
-59.0579373117
 10
8.6876805596
 20
-58.9934481336
 10
8.5976077159
 20
-58.9328119129
 10
8.5050016165
 20
-58.8761534651
 10
8.4101426223
 20
-58.8236326173
 10
8.3131108903
 20
-58.7752823478
 10
8.2137819196
 20
-58.7310622617
 10
8.1122241123
 20
-58.6910557875
 10
8.0087148673
 20
-58.6554243897
 10
7.9034336837
 20
-58.6242741041
 10
7.7965167356
 20
-58.5976933284
 10
7.6882148708
 20
-58.5757920762
 10
7.5788926474
 20
-58.558676483
 10
7.4688150078
 20
-58.5464057459
 10
7.358142136
 20
-58.5390154274
 10
7.2470904003
 20
-58.5365412192
  0
LINE
  5
3D5
100
AcDbEntity
  8
DRAFT
100
AcDbLine
 62
7
  6
CONTINUOUS
 10
1.7056462663
 20
-34.6276045911
 11
1.7056462663
 21
-28.4404428249
  0
LINE
  5
3D6
100
AcDbEntity
  8
0
100
AcDbLine
 62
7
  6
CONTINUOUS
 10
2.7992297996
 20
-126.6264219937
 11
2.7992297996
 21
-121.7416254223
  0
LINE
  5
3D7
100
AcDbEntity
  8
RACCORDO
100
AcDbLine
 62
253
  6
CONTINUOUS
 10
3.5186046218
 20
-75.0147223881
 11
3.5186046218
 21
-76.7033250279
  0
LINE
  5
3D8
100
AcDbEntity
  8
RACCORDO
100
AcDbLine
 62
253
  6
CONTINUOUS
 10
3.5186046218
 20
-81.0147223881
 11
3.5186046218
 21
-82.7033250279
  0
LINE
  5
3D9
100
AcDbEntity
  8
RACCORDO
100
AcDbLine
 62
253
  6
CONTINUOUS
 10
4.0185284693
 20
-82.2034011804
 11
4.0185284693
 21
-81.5146462356
  0
LINE
  5
3DA
100
AcDbEntity
  8
RACCORDO
100
AcDbLine
 62
253
  6
CONTINUOUS
 10
4.0185284693
 20
-76.2034011804
 11
4.0185284693
 21
-75.5146462356
  0
LINE
  5
3DB
100
AcDbEntity
  8
RACCORDO
100
AcDbLine
 62
7
  6
CONTINUOUS
 10
4.0492271494
 20
-82.2340998604
 11
4.0492271494
 21
-81.4839475556
  0
LINE
  5
3DC
100
AcDbEntity
  8
RACCORDO
100
AcDbLine
 62
7
  6
CONTINUOUS
 10
4.0492271494
 20
-76.2340998604
 11
4.0492271494
 21
-75.4839475556
  0
LINE
  5
3DD
100
AcDbEntity
  8
0
100
AcDbLine
 62
7
  6
CONTINUOUS
 10
4.7992271494
 20
-121.7416254223
 11
4.7992271494
 21
-125.784023708
  0
LINE
  5
3DE
100
AcDbEntity
  8
0
100
AcDbLine
 62
7
  6
CONTINUOUS
 10
4.7992271494
 20
-125.784023708
 11
4.7992271494
 21
-126.6264219937
  0
LINE
  5
3DF
100
AcDbEntity
  8
RACCORDO
100
AcDbLine
 62
253
  6
CONTINUOUS
 10
7.2470904003
 20
-59.0364650668
 11
7.2470904003
 21
-58.5365412192
  0
LINE
  5
3E0
100
AcDbEntity
  8
RACCORDO
100
AcDbLine
 62
253
  6
CONTINUOUS
 10
7.2470904003
 20
-97.9315823492
 11
7.2470904003
 21
-98.4315061968
  0
LINE
  5
3E1
100
AcDbEntity
  8
RACCORDO
100
AcDbLine
 62
253
  6
CONTINUOUS
 10
7.3518208131
 20
-97.0364650668
 11
7.3518208131
 21
-96.5365412192
  0
LINE
  5
3E2
100
AcDbEntity
  8
RACCORDO
100
AcDbLine
 62
253
  6
CONTINUOUS
 10
7.3518208131
 20
-59.9315823492
 11
7.3518208131
 21
-60.4315061968
  0
LINE
  5
3E3
100
AcDbEntity
  8
RACCORDO
100
AcDbLine
 62
7
  6
CONTINUOUS
 10
7.7992271494
 20
-60.9839475556
 11
7.7992271494
 21
-95.9840998604
  0
LINE
  5
3E4
100
AcDbEntity
  8
RACCORDO
100
AcDbLine
 62
253
  6
CONTINUOUS
 10
7.8517446606
 20
-60.9314300443
 11
7.8517446606
 21
-96.0366173716
  0
LINE
  5
3E5
100
AcDbEntity
  8
DRAFT
100
AcDbLine
 62
7
  6
CONTINUOUS
 10
7.8928080325
 20
-28.4404428249
 11
7.8928080325
 21
-34.6276045911
  0
LINE
  5
3E6
100
AcDbEntity
  8
RACCORDO
100
AcDbLine
 62
253
  6
CONTINUOUS
 10
8.3516685082
 20
-60.9314300443
 11
8.3516685082
 21
-96.0366173716
  0
LINE
  5
3E7
100
AcDbEntity
  8
RACCORDO
100
AcDbLine
 62
253
  6
CONTINUOUS
 10
9.2467857906
 20
-95.9318869589
 11
9.2467857906
 21
-61.0361604571
  0
LINE
  5
3E8
100
AcDbEntity
  8
DRAFT
100
AcDbLine
 62
7
  6
CONTINUOUS
 10
9.7416254351
 20
-121.7416254223
 11
9.7416254351
 21
-126.6264219937
  0
LINE
  5
3E9
100
AcDbEntity
  8
RACCORDO
100
AcDbLine
 62
253
  6
CONTINUOUS
 10
9.7467096382
 20
-95.9318869589
 11
9.7467096382
 21
-61.0361604571
  0
LINE
  5
3EA
100
AcDbEntity
  8
RACCORDO
100
AcDbLine
 62
7
  6
CONTINUOUS
 10
9.7992271494
 20
-95.9844044701
 11
9.7992271494
 21
-60.9836429459
  0
LINE
  5
3EB
100
AcDbEntity
  8
DRAFT
100
AcDbLine
 62
7
  6
CONTINUOUS
 10
10.5492271494
 20
-37.284023708
 11
10.5492271494
 21
-25.784023708
  0
LINE
  5
3EC
100
AcDbEntity
  8
DRAFT
100
AcDbLine
 62
7
  6
CONTINUOUS
 10
11.1339718245
 20
-37.8687683831
 11
11.1339718245
 21
-25.1992790329
  0
LWPOLYLINE
  5
3ED
100
AcDbEntity
  8
0
100
AcDbPolyline
 62
7
  6
CONTINUOUS
 90
10
 70
0
 10
15.8588563606
 20
108.915976292
 10
15.8591826414
 20
108.9711104666
 10
15.8627579174
 20
109.0263635371
 10
15.8696065376
 20
109.0815429058
 10
15.879761827
 20
109.1365476462
 10
15.8932158376
 20
109.1910826284
 10
15.9098629335
 20
109.2446716866
 10
15.9295938544
 20
109.2970405421
 10
15.9523522666
 20
109.3481049171
 10
15.9780459101
 20
109.3976932991
  0
LWPOLYLINE
  5
3EE
100
AcDbEntity
  8
RACCORDO
100
AcDbPolyline
 62
253
  6
CONTINUOUS
 90
31
 70
0
 10
7.8517446606
 20
-96.0366173716
 10
7.8510432105
 20
-96.0632517395
 10
7.8489445782
 20
-96.0896213376
 10
7.8454845805
 20
-96.1156548378
 10
7.8407167022
 20
-96.1412172391
 10
7.8346755626
 20
-96.1663132129
 10
7.8273421121
 20
-96.1910788655
 10
7.8186983393
 20
-96.2155391561
 10
7.8087905034
 20
-96.2395325425
 10
7.797682867
 20
-96.2629144301
 10
7.7854381773
 20
-96.2855869619
 10
7.7720800155
 20
-96.3075373435
 10
7.7576239906
 20
-96.3287537516
 10
7.7421152368
 20
-96.3491768681
 10
7.7255935562
 20
-96.368760704
 10
7.7080556845
 20
-96.387505944
 10
7.6895257576
 20
-96.4053733676
 10
7.6700627315
 20
-96.4222933642
 10
7.6497116164
 20
-96.4382166584
 10
7.6285071752
 20
-96.4531043218
 10
7.6065154803
 20
-96.466898694
 10
7.583836624
 20
-96.4795323912
 10
7.5606353162
 20
-96.4909238146
 10
7.5368754275
 20
-96.5011005399
 10
7.512344698
 20
-96.5101288835
 10
7.4869951108
 20
-96.5179692562
 10
7.460980129
 20
-96.5245172127
 10
7.4343810993
 20
-96.5297055303
 10
7.4072736274
 20
-96.5334747997
 10
7.3797267551
 20
-96.5357707193
 10
7.3518208131
 20
-96.5365412192
  0
LWPOLYLINE
  5
3EF
100
AcDbEntity
  8
RACCORDO
100
AcDbPolyline
 62
253
  6
CONTINUOUS
 90
31
 70
0
 10
8.3516685082
 20
-96.0366173716
 10
8.3501198224
 20
-96.0900961921
 10
8.3459316611
 20
-96.1427730731
 10
8.3391040242
 20
-96.1946480146
 10
8.3296098423
 20
-96.2457191748
 10
8.3174761848
 20
-96.2959883955
 10
8.3027842602
 20
-96.345461202
 10
8.2854783554
 20
-96.3943177615
 10
8.2656141836
 20
-96.4423779068
 10
8.2434400926
 20
-96.4891066624
 10
8.2189729203
 20
-96.5344065052
 10
8.1921958289
 20
-96.5783749583
 10
8.1633066527
 20
-96.6207696161
 10
8.1323169859
 20
-96.661580364
 10
8.0992152343
 20
-96.7008173166
 10
8.0641644508
 20
-96.7382684113
 10
8.0271267734
 20
-96.7739632178
 10
7.988140064
 20
-96.8078721665
 10
7.9474809604
 20
-96.8396944859
 10
7.9050999113
 20
-96.8694280249
 10
7.8610464681
 20
-96.8970749347
 10
7.8157459225
 20
-96.9223408976
 10
7.7694033266
 20
-96.9451500519
 10
7.7218136284
 20
-96.9655782594
 10
7.6727869632
 20
-96.9835587873
 10
7.6221211585
 20
-96.9991968784
 10
7.570018387
 20
-97.0123872899
 10
7.5168953013
 20
-97.0227475606
 10
7.462890786
 20
-97.0301502035
 10
7.4078659565
 20
-97.0347227055
 10
7.3518208131
 20
-97.0364650668
  0
LWPOLYLINE
  5
3F0
100
AcDbEntity
  8
0
100
AcDbPolyline
 62
7
  6
CONTINUOUS
 90
12
 70
0
 10
17.9073914508
 20
108.4555722509
 10
17.9135761228
 20
108.5212687199
 10
17.9159554006
 20
108.5862976986
 10
17.9146189078
 20
108.6504428574
 10
17.9096683731
 20
108.7134955668
 10
17.9012170614
 20
108.7752555653
 10
17.8893891695
 20
108.8355315884
 10
17.874319188
 20
108.8941419569
 10
17.8561512313
 20
108.9509151233
 10
17.8350383393
 20
109.0056901731
 10
17.8111417541
 20
109.0583172808
 10
17.7846301726
 20
109.1086581194
  0
LINE
  5
3F1
100
AcDbEntity
  8
RACCORDO
100
AcDbLine
 62
253
  6
CONTINUOUS
 10
-91.2097089405
 20
-95.9840998604
 11
-91.2622264518
 21
-96.0366173716
  0
LINE
  5
3F2
100
AcDbEntity
  8
RACCORDO
100
AcDbLine
 62
253
  6
CONTINUOUS
 10
-90.7097850929
 20
-96.484023708
 11
-90.7623026042
 21
-96.5365412192
  0
LINE
  5
3F3
100
AcDbEntity
  8
RACCORDO
100
AcDbLine
 62
253
  6
CONTINUOUS
 10
-90.6575721914
 20
-98.4315061968
 11
-90.7100897026
 21
-98.484023708
  0
LINE
  5
3F4
100
AcDbEntity
  8
RACCORDO
100
AcDbLine
 62
253
  6
CONTINUOUS
 10
-59.9200741705
 20
-76.2034011804
 11
-59.9507728506
 21
-76.2340998604
  0
LINE
  5
3F5
100
AcDbEntity
  8
RACCORDO
100
AcDbLine
 62
253
  6
CONTINUOUS
 10
-59.4201503229
 20
-76.7033250279
 11
-59.450849003
 21
-76.734023708
  0
LINE
  5
3F6
100
AcDbEntity
  8
RACCORDO
100
AcDbLine
 62
253
  6
CONTINUOUS
 10
-59.9200741705
 20
-82.2034011804
 11
-59.9507728506
 21
-82.2340998604
  0
LINE
  5
3F7
100
AcDbEntity
  8
0
100
AcDbLine
 62
7
  6
CONTINUOUS
 10
-10.8120611575
 20
0.1877965003
 11
-11.1275352307
 21
0.1203654326
  0
LINE
  5
3F8
100
AcDbEntity
  8
0
100
AcDbLine
 62
7
  6
CONTINUOUS
 10
-14.5894845435
 20
0.6441560849
 11
-14.2740104713
 21
0.7115871524
  0
LWPOLYLINE
  5
3F9
100
AcDbEntity
  8
0
100
AcDbPolyline
 62
7
  6
CONTINUOUS
 90
3
 70
0
 10
-11.1275352307
 20
0.1203654326
 10
-11.4476425163
 20
0.053234379
 10
-11.4934032844
 20
0.0437429711
  0
LWPOLYLINE
  5
3FA
100
AcDbEntity
  8
0
100
AcDbPolyline
 62
7
  6
CONTINUOUS
 90
3
 70
0
 10
-14.2740104713
 20
0.7115871524
 10
-13.9539031831
 20
0.7787182066
 10
-13.9081424142
 20
0.7882096146
  0
LWPOLYLINE
  5
3FB
100
AcDbEntity
  8
0
100
AcDbPolyline
 62
7
  6
CONTINUOUS
 90
4
 70
0
 10
77.2846301726
 20
-116.2913418806
 10
77.2556789803
 20
-116.2434137786
 10
77.2244694676
 20
-116.1980127092
 10
77.1911880328
 20
-116.1552405347
  0
LWPOLYLINE
  5
3FC
100
AcDbEntity
  8
0
100
AcDbPolyline
 62
7
  6
CONTINUOUS
 90
3
 70
0
 10
75.0542630167
 20
-116.5905183083
 10
75.0720811216
 20
-116.6220599803
 10
75.1081200243
 20
-116.6780047534
  0
LINE
  5
3FD
100
AcDbEntity
  8
DRAFT
100
AcDbLine
 62
7
  6
CONTINUOUS
 10
17.3568288637
 20
-103.1764219937
 11
17.3568288637
 21
-96.2916254223
  0
LINE
  5
3FE
100
AcDbEntity
  8
DRAFT
100
AcDbLine
 62
7
  6
CONTINUOUS
 10
17.3568288637
 20
-95.1764219937
 11
17.3568288637
 21
-88.2916254223
  0
LINE
  5
3FF
100
AcDbEntity
  8
DRAFT
100
AcDbLine
 62
7
  6
CONTINUOUS
 10
18.2416254351
 20
-89.1764219937
 11
18.2416254351
 21
-95.1764219937
  0
LINE
  5
400
100
AcDbEntity
  8
DRAFT
100
AcDbLine
 62
7
  6
CONTINUOUS
 10
18.2416254351
 20
-96.2916254223
 11
18.2416254351
 21
-102.2916254223
  0
LINE
  5
401
100
AcDbEntity
  8
0
100
AcDbLine
 62
7
  6
CONTINUOUS
 10
18.7992271494
 20
-88.2916254223
 11
18.7992271494
 21
-89.1764219937
  0
LINE
  5
402
100
AcDbEntity
  8
0
100
AcDbLine
 62
7
  6
CONTINUOUS
 10
18.7992271494
 20
-102.2916254223
 11
18.7992271494
 21
-103.1764219937
  0
LINE
  5
403
100
AcDbEntity
  8
0
100
AcDbLine
 62
7
  6
CONTINUOUS
 10
20.7992271494
 20
-103.1764219937
 11
20.7992271494
 21
-102.2916254223
  0
LINE
  5
404
100
AcDbEntity
  8
0
100
AcDbLine
 62
7
  6
CONTINUOUS
 10
20.7992271494
 20
-89.1764219937
 11
20.7992271494
 21
-88.2916254223
  0
LINE
  5
405
100
AcDbEntity
  8
0
100
AcDbLine
 62
7
  6
CONTINUOUS
 10
22.7992271494
 20
-88.2916254223
 11
22.7992271494
 21
-89.1764219937
  0
LINE
  5
406
100
AcDbEntity
  8
0
100
AcDbLine
 62
7
  6
CONTINUOUS
 10
22.7992271494
 20
-102.2916254223
 11
22.7992271494
 21
-103.1764219937
  0
LINE
  5
407
100
AcDbEntity
  8
0
100
AcDbLine
 62
7
  6
CONTINUOUS
 10
23.7992498039
 20
-103.1764219937
 11
23.7992498039
 21
-102.2916254223
  0
LINE
  5
408
100
AcDbEntity
  8
0
100
AcDbLine
 62
7
  6
CONTINUOUS
 10
23.7992498039
 20
-89.1764219937
 11
23.7992498039
 21
-88.2916254223
  0
LINE
  5
409
100
AcDbEntity
  8
DRAFT
100
AcDbLine
 62
7
  6
CONTINUOUS
 10
24.2992271494
 20
-129.9264219937
 11
24.2992271494
 21
-103.1764219937
  0
LINE
  5
40A
100
AcDbEntity
  8
0
100
AcDbLine
 62
7
  6
CONTINUOUS
 10
24.7992271494
 20
-103.1764219937
 11
24.7992271494
 21
-102.2916254223
  0
LINE
  5
40B
100
AcDbEntity
  8
0
100
AcDbLine
 62
7
  6
CONTINUOUS
 10
24.7992271494
 20
-89.1764219937
 11
24.7992271494
 21
-88.2916254223
  0
LINE
  5
40C
100
AcDbEntity
  8
DRAFT
100
AcDbLine
 62
7
  6
CONTINUOUS
 10
26.7416254351
 20
-88.2916254223
 11
26.7416254351
 21
-89.1764219937
  0
LINE
  5
40D
100
AcDbEntity
  8
DRAFT
100
AcDbLine
 62
7
  6
CONTINUOUS
 10
26.7416254351
 20
-102.2916254223
 11
26.7416254351
 21
-103.234023708
  0
LINE
  5
40E
100
AcDbEntity
  8
DRAFT
100
AcDbLine
 62
7
  6
CONTINUOUS
 10
27.8568288637
 20
-103.234023708
 11
27.8568288637
 21
-102.2916254223
  0
LINE
  5
40F
100
AcDbEntity
  8
DRAFT
100
AcDbLine
 62
7
  6
CONTINUOUS
 10
27.8568288637
 20
-89.1764219937
 11
27.8568288637
 21
-88.2916254223
  0
LINE
  5
410
100
AcDbEntity
  8
0
100
AcDbLine
 62
7
  6
CONTINUOUS
 10
28.7992271494
 20
-103.2280369998
 11
28.7992271494
 21
-102.2916254223
  0
LINE
  5
411
100
AcDbEntity
  8
0
100
AcDbLine
 62
7
  6
CONTINUOUS
 10
28.7992271494
 20
-89.1764219937
 11
28.7992271494
 21
-88.2916254223
  0
LWPOLYLINE
  5
412
100
AcDbEntity
  8
0
100
AcDbPolyline
 62
7
  6
CONTINUOUS
 90
10
 70
0
 10
17.7397257459
 20
108.915976292
 10
17.7396505171
 20
108.8747464612
 10
17.7377683969
 20
108.8335421105
 10
17.7340823036
 20
108.7924423976
 10
17.7285995085
 20
108.751531915
 10
17.7213294519
 20
108.7108834258
 10
17.712281235
 20
108.6705581069
 10
17.7014676723
 20
108.6306282283
 10
17.688907754
 20
108.5911766094
 10
17.6746227109
 20
108.552279633
  0
LWPOLYLINE
  5
413
100
AcDbEntity
  8
0
100
AcDbPolyline
 62
7
  6
CONTINUOUS
 90
18
 70
0
 10
-77.3793119311
 20
-115.803237389
 10
-77.3358096109
 20
-115.7594466324
 10
-77.2892902257
 20
-115.7182841455
 10
-77.2397560579
 20
-115.6798633911
 10
-77.1875036236
 20
-115.6445209175
 10
-77.1329889258
 20
-115.6126097987
 10
-77.0764455148
 20
-115.5842738867
 10
-77.0181042007
 20
-115.5596356508
 10
-76.9584894298
 20
-115.5388927961
 10
-76.8980566688
 20
-115.5221306553
 10
-76.8368894226
 20
-115.5093007144
 10
-76.774962589
 20
-115.5003739203
 10
-76.7124489221
 20
-115.4953865397
 10
-76.6496768237
 20
-115.4943759988
 10
-76.5868435241
 20
-115.497354597
 10
-76.5241841667
 20
-115.5043274041
 10
-76.4619713957
 20
-115.5152803619
 10
-76.4004580968
 20
-115.5301835491
  0
LINE
  5
414
100
AcDbEntity
  8
RACCORDO
100
AcDbLine
 62
253
  6
CONTINUOUS
 10
-59.4201503229
 20
-82.7033250279
 11
-59.450849003
 21
-82.734023708
  0
LINE
  5
415
100
AcDbEntity
  8
DRAFT
100
AcDbLine
 62
7
  6
CONTINUOUS
 10
-97.1431711363
 20
-129.9264219937
 11
-97.6116427251
 21
-130.3948935825
  0
LINE
  5
416
100
AcDbEntity
  8
0
100
AcDbLine
 62
7
  6
CONTINUOUS
 10
-98.6261024944
 20
-132.7093533518
 11
-98.2558179512
 21
-132.3390688086
  0
LINE
  5
417
100
AcDbEntity
  8
DRAFT
100
AcDbLine
 62
7
  6
CONTINUOUS
 10
-1.5355175257
 20
-37.8687683831
 11
-0.9507728506
 21
-37.284023708
  0
LINE
  5
418
100
AcDbEntity
  8
DRAFT
100
AcDbLine
 62
7
  6
CONTINUOUS
 10
11.1339718245
 20
-25.1992790329
 11
10.5492271494
 21
-25.784023708
  0
LINE
  5
419
100
AcDbEntity
  8
RACCORDO
100
AcDbLine
 62
7
  6
CONTINUOUS
 10
-98.6805517322
 20
-135.765628996
 11
-98.699632608
 21
-135.7847098718
  0
LINE
  5
41A
100
AcDbEntity
  8
DRAFT
100
AcDbLine
 62
7
  6
CONTINUOUS
 10
-97.1431711363
 20
123.4583745777
 11
-97.7007728506
 21
124.015976292
  0
LINE
  5
41B
100
AcDbEntity
  8
0
100
AcDbLine
 62
7
  6
CONTINUOUS
 10
77.1560253733
 20
-116.115186471
 11
77.1726427677
 21
-116.1540439224
  0
LINE
  5
41C
100
AcDbEntity
  8
DRAFT
100
AcDbLine
 62
7
  6
CONTINUOUS
 10
30.2992271494
 20
-129.9264219937
 11
30.2992271494
 21
-103.1764219937
  0
LINE
  5
41D
100
AcDbEntity
  8
0
100
AcDbLine
 62
7
  6
CONTINUOUS
 10
30.7992271494
 20
-88.2916254223
 11
30.7992271494
 21
-89.1764219937
  0
LINE
  5
41E
100
AcDbEntity
  8
0
100
AcDbLine
 62
7
  6
CONTINUOUS
 10
30.7992271494
 20
-102.2916254223
 11
30.7992271494
 21
-103.1764219937
  0
LINE
  5
41F
100
AcDbEntity
  8
0
100
AcDbLine
 62
7
  6
CONTINUOUS
 10
32.7992271494
 20
-103.1764219937
 11
32.7992271494
 21
-102.2916254223
  0
LINE
  5
420
100
AcDbEntity
  8
0
100
AcDbLine
 62
7
  6
CONTINUOUS
 10
32.7992271494
 20
-89.1764219937
 11
32.7992271494
 21
-88.2916254223
  0
LINE
  5
421
100
AcDbEntity
  8
0
100
AcDbLine
 62
7
  6
CONTINUOUS
 10
34.7992271494
 20
-88.2916254223
 11
34.7992271494
 21
-89.1764219937
  0
LINE
  5
422
100
AcDbEntity
  8
0
100
AcDbLine
 62
7
  6
CONTINUOUS
 10
34.7992271494
 20
-102.2916254223
 11
34.7992271494
 21
-103.1764219937
  0
LINE
  5
423
100
AcDbEntity
  8
0
100
AcDbLine
 62
7
  6
CONTINUOUS
 10
35.7992638994
 20
-103.1764219937
 11
35.7992638994
 21
-102.2916254223
  0
LINE
  5
424
100
AcDbEntity
  8
0
100
AcDbLine
 62
7
  6
CONTINUOUS
 10
35.7992638994
 20
-89.1764219937
 11
35.7992638994
 21
-88.2916254223
  0
LINE
  5
425
100
AcDbEntity
  8
DRAFT
100
AcDbLine
 62
7
  6
CONTINUOUS
 10
36.3568288637
 20
-102.2916254223
 11
36.3568288637
 21
-96.2916254223
  0
LINE
  5
426
100
AcDbEntity
  8
DRAFT
100
AcDbLine
 62
7
  6
CONTINUOUS
 10
36.3568288637
 20
-95.1764219937
 11
36.3568288637
 21
-89.1764219937
  0
LINE
  5
427
100
AcDbEntity
  8
0
100
AcDbLine
 62
7
  6
CONTINUOUS
 10
36.7992271494
 20
-103.1764219937
 11
36.7992271494
 21
-96.2916254223
  0
LINE
  5
428
100
AcDbEntity
  8
0
100
AcDbLine
 62
7
  6
CONTINUOUS
 10
36.7992271494
 20
-95.1764219937
 11
36.7992271494
 21
-88.2916254223
  0
LINE
  5
429
100
AcDbEntity
  8
DRAFT
100
AcDbLine
 62
7
  6
CONTINUOUS
 10
37.2416254351
 20
-88.2916254223
 11
37.2416254351
 21
-92.734023708
  0
LINE
  5
42A
100
AcDbEntity
  8
DRAFT
100
AcDbLine
 62
7
  6
CONTINUOUS
 10
37.2416254351
 20
-98.734023708
 11
37.2416254351
 21
-103.1764219937
  0
LINE
  5
42B
100
AcDbEntity
  8
DRAFT
100
AcDbLine
 62
7
  6
CONTINUOUS
 10
37.2992271494
 20
-95.1764219937
 11
37.2992271494
 21
-96.2916254223
  0
LINE
  5
42C
100
AcDbEntity
  8
0
100
AcDbLine
 62
7
  6
CONTINUOUS
 10
-35.9715236891
 20
-85.4902819612
 11
-36.2010407222
 21
-85.7244157778
  0
LINE
  5
42D
100
AcDbEntity
  8
0
100
AcDbLine
 62
7
  6
CONTINUOUS
 10
-23.4978645811
 20
-73.0696712139
 11
-23.8501070052
 21
-73.4264219937
  0
LWPOLYLINE
  5
42E
100
AcDbEntity
  8
0
100
AcDbPolyline
 62
7
  6
CONTINUOUS
 90
3
 70
0
 10
-35.4955732836
 20
-85.0082144703
 10
-35.7363678762
 20
-85.2515481921
 10
-35.9715236891
 20
-85.4902819612
  0
LINE
  5
42F
100
AcDbEntity
  8
0
100
AcDbLine
 62
7
  6
CONTINUOUS
 10
-23.2007728506
 20
-72.770746069
 11
-23.4978645811
 21
-73.0696712139
  0
LINE
  5
430
100
AcDbEntity
  8
0
100
AcDbLine
 62
7
  6
CONTINUOUS
 10
-35.2007728506
 20
-84.7118039274
 11
-35.4955732836
 21
-85.0082144703
  0
LINE
  5
431
100
AcDbEntity
  8
RACCORDO
100
AcDbLine
 62
253
  6
CONTINUOUS
 10
-23.6755489732
 20
-71.5416254223
 11
-25.2007728506
 21
-73.0598632069
  0
LINE
  5
432
100
AcDbEntity
  8
RACCORDO
100
AcDbLine
 62
253
  6
CONTINUOUS
 10
-23.171780606
 20
-72.5131449293
 11
-24.0891958271
 21
-73.4264219937
  0
LINE
  5
433
100
AcDbEntity
  8
RACCORDO
100
AcDbLine
 62
253
  6
CONTINUOUS
 10
-36.2369167293
 20
-84.0416254223
 11
-37.2007728506
 21
-85.0002825651
  0
LINE
  5
434
100
AcDbEntity
  8
RACCORDO
100
AcDbLine
 62
253
  6
CONTINUOUS
 10
-35.2012926713
 20
-84.4835010504
 11
-36.652088267
 21
-85.9264219937
  0
LINE
  5
435
100
AcDbEntity
  8
0
100
AcDbLine
 62
7
  6
CONTINUOUS
 10
-36.2010407222
 20
-85.7244157778
 11
-36.4094053902
 21
-85.9264219937
  0
LWPOLYLINE
  5
436
100
AcDbEntity
  8
0
100
AcDbPolyline
 62
7
  6
CONTINUOUS
 90
9
 70
0
 10
77.1726427677
 20
-116.1540439224
 10
77.1874955913
 20
-116.1936457511
 10
77.2005506998
 20
-116.233911722
 10
77.2117855423
 20
-116.2747878236
 10
77.2211648928
 20
-116.316163988
 10
77.2286534635
 20
-116.3578711456
 10
77.2342414122
 20
-116.3997938121
 10
77.2379317478
 20
-116.441873387
 10
77.2397257459
 20
-116.484023708
  0
LWPOLYLINE
  5
437
100
AcDbEntity
  8
0
100
AcDbPolyline
 62
7
  6
CONTINUOUS
 90
18
 70
0
 10
15.6174387285
 20
108.7096098862
 10
15.6191148214
 20
108.6984104711
 10
15.6364807805
 20
108.6192931701
 10
15.6591446032
 20
108.5415276558
 10
15.6870030257
 20
108.4654682542
 10
15.719929116
 20
108.3914615174
 10
15.757772852
 20
108.3198446453
 10
15.8003618052
 20
108.2509439484
 10
15.8475019261
 20
108.1850733618
 10
15.8989784288
 20
108.1225330141
 10
15.9545567692
 20
108.0636078605
 10
16.0139837138
 20
108.0085663839
 10
16.0769884937
 20
107.9576593722
 10
16.1432840379
 20
107.9111187751
 10
16.2125682819
 20
107.8691566475
 10
16.2845255433
 20
107.8319641833
 10
16.3588279606
 20
107.7997108443
 10
16.4351369871
 20
107.7725435877
  0
LINE
  5
438
100
AcDbEntity
  8
0
100
AcDbLine
 62
7
  6
CONTINUOUS
 10
47.7992813207
 20
-114.4840153144
 11
47.7992813207
 21
-113.2372861858
  0
LINE
  5
439
100
AcDbEntity
  8
0
100
AcDbLine
 62
7
  6
CONTINUOUS
 10
48.7992271494
 20
-112.5913257482
 11
48.7992271494
 21
-113.484023708
  0
LINE
  5
43A
100
AcDbEntity
  8
RACCORDO
100
AcDbLine
 62
253
  6
CONTINUOUS
 10
49.7992271494
 20
-106.2426750764
 11
49.7992271494
 21
-107.2864650668
  0
LINE
  5
43B
100
AcDbEntity
  8
RACCORDO
100
AcDbLine
 62
253
  6
CONTINUOUS
 10
49.7992271494
 20
-123.1815823492
 11
49.7992271494
 21
-124.2253723396
  0
LINE
  5
43C
100
AcDbEntity
  8
0
100
AcDbLine
 62
7
  6
CONTINUOUS
 10
50.7992271494
 20
-112.4078978898
 11
50.7992271494
 21
-113.484023708
  0
LINE
  5
43D
100
AcDbEntity
  8
0
100
AcDbLine
 62
7
  6
CONTINUOUS
 10
52.7992271494
 20
-112.4078978898
 11
52.7992271494
 21
-113.484023708
  0
LINE
  5
43E
100
AcDbEntity
  8
0
100
AcDbLine
 62
7
  6
CONTINUOUS
 10
54.7992271494
 20
-112.4078978898
 11
54.7992271494
 21
-113.484023708
  0
LINE
  5
43F
100
AcDbEntity
  8
0
100
AcDbLine
 62
7
  6
CONTINUOUS
 10
56.7992271494
 20
-112.4078978898
 11
56.7992271494
 21
-113.484023708
  0
LINE
  5
440
100
AcDbEntity
  8
RACCORDO
100
AcDbLine
 62
253
  6
CONTINUOUS
 10
7.2470904003
 20
-58.5365412192
 11
7.2996079115
 21
-58.484023708
  0
LINE
  5
441
100
AcDbEntity
  8
RACCORDO
100
AcDbLine
 62
253
  6
CONTINUOUS
 10
7.2993033018
 20
-60.484023708
 11
7.3518208131
 21
-60.4315061968
  0
LINE
  5
442
100
AcDbEntity
  8
RACCORDO
100
AcDbLine
 62
253
  6
CONTINUOUS
 10
7.7992271494
 20
-60.9839475556
 11
7.8517446606
 21
-60.9314300443
  0
LINE
  5
443
100
AcDbEntity
  8
RACCORDO
100
AcDbLine
 62
253
  6
CONTINUOUS
 10
9.7467096382
 20
-61.0361604571
 11
9.7992271494
 21
-60.9836429459
  0
LINE
  5
444
100
AcDbEntity
  8
RACCORDO
100
AcDbLine
 62
253
  6
CONTINUOUS
 10
3.5186046218
 20
-75.0147223881
 11
3.5493033018
 21
-74.984023708
  0
LINE
  5
445
100
AcDbEntity
  8
RACCORDO
100
AcDbLine
 62
253
  6
CONTINUOUS
 10
4.0185284693
 20
-75.5146462356
 11
4.0492271494
 21
-75.4839475556
  0
LINE
  5
446
100
AcDbEntity
  8
0
100
AcDbLine
 62
7
  6
CONTINUOUS
 10
-76.1280030878
 20
-117.2642292823
 11
-76.1810799687
 21
-117.3035016531
  0
LWPOLYLINE
  5
447
100
AcDbEntity
  8
0
100
AcDbPolyline
 62
7
  6
CONTINUOUS
 90
13
 70
0
 10
-76.1810799687
 20
-117.3035016531
 10
-76.2370506661
 20
-117.3392749694
 10
-76.2955636699
 20
-117.3712585038
 10
-76.3560024665
 20
-117.3991142341
 10
-76.4178911841
 20
-117.4226870135
 10
-76.4810956533
 20
-117.4419882441
 10
-76.5454778694
 20
-117.4569998618
 10
-76.6107624318
 20
-117.4676624787
 10
-76.6766357572
 20
-117.4739297923
 10
-76.7429129447
 20
-117.4757797871
 10
-76.8093347318
 20
-117.4731859352
 10
-76.8755655537
 20
-117.4661420687
 10
-76.9413071638
 20
-117.4546643439
  0
LWPOLYLINE
  5
448
100
AcDbEntity
  8
0
100
AcDbPolyline
 62
7
  6
CONTINUOUS
 90
9
 70
0
 10
17.6726427677
 20
109.2459560776
 10
17.6874955913
 20
109.2063542489
 10
17.7005506998
 20
109.166088278
 10
17.7117855423
 20
109.1252121764
 10
17.7211648928
 20
109.083836012
 10
17.7286534635
 20
109.0421288544
 10
17.7342414122
 20
109.0002061879
 10
17.7379317478
 20
108.958126613
 10
17.7397257459
 20
108.915976292
  0
LWPOLYLINE
  5
449
100
AcDbEntity
  8
0
100
AcDbPolyline
 62
7
  6
CONTINUOUS
 90
18
 70
0
 10
75.1174387285
 20
-116.6903901138
 10
75.1191148214
 20
-116.7015895289
 10
75.1364807805
 20
-116.7807068299
 10
75.1591446032
 20
-116.8584723442
 10
75.1870030257
 20
-116.9345317458
 10
75.219929116
 20
-117.0085384826
 10
75.257772852
 20
-117.0801553547
 10
75.3003618052
 20
-117.1490560516
 10
75.3475019261
 20
-117.2149266382
 10
75.3989784288
 20
-117.2774669859
 10
75.4545567692
 20
-117.3363921395
 10
75.5139837138
 20
-117.3914336161
 10
75.5769884937
 20
-117.4423406278
 10
75.6432840379
 20
-117.4888812249
 10
75.7125682819
 20
-117.5308433525
 10
75.7845255433
 20
-117.5680358167
 10
75.8588279606
 20
-117.6002891557
 10
75.9351369871
 20
-117.6274564123
  0
LINE
  5
44A
100
AcDbEntity
  8
0
100
AcDbLine
 62
7
  6
CONTINUOUS
 10
58.7992271494
 20
-112.4078978898
 11
58.7992271494
 21
-113.484023708
  0
LINE
  5
44B
100
AcDbEntity
  8
RACCORDO
100
AcDbLine
 62
253
  6
CONTINUOUS
 10
59.7992271494
 20
-106.2426750764
 11
59.7992271494
 21
-107.2864650668
  0
LINE
  5
44C
100
AcDbEntity
  8
RACCORDO
100
AcDbLine
 62
253
  6
CONTINUOUS
 10
59.7992271494
 20
-123.1815823492
 11
59.7992271494
 21
-124.2253723396
  0
LINE
  5
44D
100
AcDbEntity
  8
0
100
AcDbLine
 62
7
  6
CONTINUOUS
 10
59.7993031827
 20
-114.4840119269
 11
59.7993031827
 21
-112.4078995649
  0
LINE
  5
44E
100
AcDbEntity
  8
0
100
AcDbLine
 62
7
  6
CONTINUOUS
 10
60.7992271494
 20
-112.5913257482
 11
60.7992271494
 21
-113.484023708
  0
LINE
  5
44F
100
AcDbEntity
  8
RACCORDO
100
AcDbLine
 62
253
  6
CONTINUOUS
 10
3.5186046218
 20
-81.0147223881
 11
3.5493033018
 21
-80.984023708
  0
LINE
  5
450
100
AcDbEntity
  8
RACCORDO
100
AcDbLine
 62
253
  6
CONTINUOUS
 10
4.0185284693
 20
-81.5146462356
 11
4.0492271494
 21
-81.4839475556
  0
LWPOLYLINE
  5
451
100
AcDbEntity
  8
0
100
AcDbPolyline
 62
7
  6
CONTINUOUS
 90
3
 70
0
 10
15.5542630167
 20
108.8094816917
 10
15.5720811216
 20
108.7779400197
 10
15.6081200243
 20
108.7219952466
  0
LINE
  5
452
100
AcDbEntity
  8
0
100
AcDbLine
 62
7
  6
CONTINUOUS
 10
17.6560253733
 20
109.284813529
 11
17.6726427677
 21
109.2459560776
  0
LINE
  5
453
100
AcDbEntity
  8
DRAFT
100
AcDbLine
 62
7
  6
CONTINUOUS
 10
81.5568288637
 20
-126.6264219937
 11
81.5568288637
 21
-121.7416254223
  0
LWPOLYLINE
  5
454
100
AcDbEntity
  8
0
100
AcDbPolyline
 62
7
  6
CONTINUOUS
 90
10
 70
0
 10
77.2397257459
 20
-116.484023708
 10
77.2396505171
 20
-116.5252535388
 10
77.2377683969
 20
-116.5664578895
 10
77.2340823036
 20
-116.6075576024
 10
77.2285995085
 20
-116.648468085
 10
77.2213294519
 20
-116.6891165742
 10
77.212281235
 20
-116.7294418931
 10
77.2014676723
 20
-116.7693717717
 10
77.188907754
 20
-116.8088233906
 10
77.1746227109
 20
-116.847720367
  0
LWPOLYLINE
  5
455
100
AcDbEntity
  8
0
100
AcDbPolyline
 62
7
  6
CONTINUOUS
 90
10
 70
0
 10
75.3588563606
 20
-116.484023708
 10
75.3591826414
 20
-116.4288895334
 10
75.3627579174
 20
-116.3736364629
 10
75.3696065376
 20
-116.3184570942
 10
75.379761827
 20
-116.2634523538
 10
75.3932158376
 20
-116.2089173716
 10
75.4098629335
 20
-116.1553283134
 10
75.4295938544
 20
-116.1029594579
 10
75.4523522666
 20
-116.0518950829
 10
75.4780459101
 20
-116.0023067009
  0
LINE
  5
456
100
AcDbEntity
  8
0
100
AcDbLine
 62
7
  6
CONTINUOUS
 10
16.0653044032
 20
108.3514182998
 11
16.0448817901
 21
108.377650912
  0
LWPOLYLINE
  5
457
100
AcDbEntity
  8
0
100
AcDbPolyline
 62
7
  6
CONTINUOUS
 90
8
 70
0
 10
15.6081200243
 20
108.7219952466
 10
15.6466220057
 20
108.6692633524
 10
15.6873582463
 20
108.6198477455
 10
15.7300958885
 20
108.5738371067
 10
15.7745989312
 20
108.5313052507
 10
15.8206291269
 20
108.4923110399
 10
15.8679468808
 20
108.4568983508
 10
15.9163121463
 20
108.4250960923
  0
LWPOLYLINE
  5
458
100
AcDbEntity
  8
0
100
AcDbPolyline
 62
7
  6
CONTINUOUS
 90
18
 70
0
 10
16.0448817901
 20
108.377650912
 10
16.0253297531
 20
108.4047197793
 10
16.0066855172
 20
108.4325986996
 10
15.9889797192
 20
108.4612698302
 10
15.9722549446
 20
108.4906939605
 10
15.9565619991
 20
108.5208083266
 10
15.9419246688
 20
108.55159374
 10
15.9283808845
 20
108.5829990181
 10
15.915989107
 20
108.6149053319
 10
15.9047746061
 20
108.6472494617
 10
15.8947459217
 20
108.6800088093
 10
15.8859232919
 20
108.7131197794
 10
15.8783148487
 20
108.7465537874
 10
15.8719349322
 20
108.7802500447
 10
15.8668009385
 20
108.814093822
 10
15.8629139905
 20
108.8480152784
 10
15.8602673153
 20
108.8819913103
 10
15.8588563606
 20
108.915976292
  0
LWPOLYLINE
  5
459
100
AcDbEntity
  8
0
100
AcDbPolyline
 62
7
  6
CONTINUOUS
 90
4
 70
0
 10
17.7846301726
 20
109.1086581194
 10
17.7556789803
 20
109.1565862214
 10
17.7244694676
 20
109.2019872908
 10
17.6911880328
 20
109.2447594653
  0
LINE
  5
45A
100
AcDbEntity
  8
RACCORDO
100
AcDbLine
 62
253
  6
CONTINUOUS
 10
101.2992271494
 20
-132.3914076192
 11
100.8906541464
 21
-125.6364094697
  0
LINE
  5
45B
100
AcDbEntity
  8
DRAFT
100
AcDbLine
 62
7
  6
CONTINUOUS
 10
97.300741349
 20
-135.6681950006
 11
97.2884631442
 21
-135.2236137118
  0
LINE
  5
45C
100
AcDbEntity
  8
DRAFT
100
AcDbLine
 62
7
  6
CONTINUOUS
 10
97.2884631442
 20
-135.2236137118
 11
97.2766654063
 21
-134.7400703316
  0
LINE
  5
45D
100
AcDbEntity
  8
DRAFT
100
AcDbLine
 62
7
  6
CONTINUOUS
 10
97.2766654063
 20
-134.7400703316
 11
97.2653622379
 21
-134.2182004671
  0
LWPOLYLINE
  5
45E
100
AcDbEntity
  8
0
100
AcDbPolyline
 62
7
  6
CONTINUOUS
 90
3
 70
0
 10
97.8542722438
 20
-132.3390688023
 10
97.7830422574
 20
-128.5775632312
 10
97.7476421545
 20
-126.6935724561
  0
LINE
  5
45F
100
AcDbEntity
  8
DRAFT
100
AcDbLine
 62
7
  6
CONTINUOUS
 10
97.2653622379
 20
-134.2182004671
 11
97.2546013641
 21
-133.660080641
  0
LINE
  5
460
100
AcDbEntity
  8
0
100
AcDbLine
 62
7
  6
CONTINUOUS
 10
97.7476421545
 20
-126.6935724561
 11
97.6772715667
 21
-122.9191058981
  0
LINE
  5
461
100
AcDbEntity
  8
0
100
AcDbLine
 62
7
  6
CONTINUOUS
 10
97.6772715667
 20
-122.9191058981
 11
97.6074748307
 21
-119.1360498442
  0
LINE
  5
462
100
AcDbEntity
  8
0
100
AcDbLine
 62
7
  6
CONTINUOUS
 10
97.6074748307
 20
-119.1360498442
 11
97.53825219
 21
-115.344417837
  0
LINE
  5
463
100
AcDbEntity
  8
DRAFT
100
AcDbLine
 62
7
  6
CONTINUOUS
 10
97.2546013641
 20
-133.660080641
 11
97.2444214976
 21
-133.0678277436
  0
LINE
  5
464
100
AcDbEntity
  8
DRAFT
100
AcDbLine
 62
7
  6
CONTINUOUS
 10
97.2444214976
 20
-133.0678277436
 11
97.2348476625
 21
-132.4429050343
  0
LINE
  5
465
100
AcDbEntity
  8
DRAFT
100
AcDbLine
 62
7
  6
CONTINUOUS
 10
97.2348476625
 20
-132.4429050343
 11
97.2259163279
 21
-131.7875922502
  0
LINE
  5
466
100
AcDbEntity
  8
DRAFT
100
AcDbLine
 62
7
  6
CONTINUOUS
 10
97.2259163279
 20
-131.7875922502
 11
97.217662529
 21
-131.1046493065
  0
LINE
  5
467
100
AcDbEntity
  8
DRAFT
100
AcDbLine
 62
7
  6
CONTINUOUS
 10
97.217662529
 20
-131.1046493065
 11
97.2100970239
 21
-130.3948935825
  0
LINE
  5
468
100
AcDbEntity
  8
DRAFT
100
AcDbLine
 62
7
  6
CONTINUOUS
 10
97.53825219
 20
-115.344417837
 11
97.5225820818
 21
-111.0091864357
  0
LINE
  5
469
100
AcDbEntity
  8
DRAFT
100
AcDbLine
 62
7
  6
CONTINUOUS
 10
97.5225820818
 20
-111.0091864357
 11
97.5148985649
 21
-108.8412757316
  0
LINE
  5
46A
100
AcDbEntity
  8
0
100
AcDbLine
 62
7
  6
CONTINUOUS
 10
92.2992271494
 20
-126.284023708
 11
92.2992271494
 21
-121.7416254223
  0
LINE
  5
46B
100
AcDbEntity
  8
0
100
AcDbLine
 62
7
  6
CONTINUOUS
 10
92.2992271494
 20
-126.284023708
 11
92.2992271494
 21
-126.6264219937
  0
LINE
  5
46C
100
AcDbEntity
  8
0
100
AcDbLine
 62
7
  6
CONTINUOUS
 10
93.2992271494
 20
-126.284023708
 11
93.2992271494
 21
-121.7416254223
  0
LINE
  5
46D
100
AcDbEntity
  8
DRAFT
100
AcDbLine
 62
7
  6
CONTINUOUS
 10
93.4416254351
 20
-121.7416254223
 11
93.4416254351
 21
-126.6264219937
  0
LINE
  5
46E
100
AcDbEntity
  8
DRAFT
100
AcDbLine
 62
7
  6
CONTINUOUS
 10
96.7416254351
 20
123.4583745777
 11
96.7416254351
 21
-92.734023708
  0
LINE
  5
46F
100
AcDbEntity
  8
DRAFT
100
AcDbLine
 62
7
  6
CONTINUOUS
 10
96.7416254351
 20
-98.734023708
 11
96.7416254351
 21
-129.9264219937
  0
LINE
  5
470
100
AcDbEntity
  8
DRAFT
100
AcDbLine
 62
7
  6
CONTINUOUS
 10
97.7992271494
 20
-84.234023708
 11
97.7992271494
 21
-85.734023708
  0
LINE
  5
471
100
AcDbEntity
  8
DRAFT
100
AcDbLine
 62
7
  6
CONTINUOUS
 10
97.7992271494
 20
-94.234023708
 11
97.7992271494
 21
-95.734023708
  0
LINE
  5
472
100
AcDbEntity
  8
RACCORDO
100
AcDbLine
 62
7
  6
CONTINUOUS
 10
98.7059715196
 20
124.015976292
 11
98.7059715196
 21
-128.925192886
  0
LINE
  5
473
100
AcDbEntity
  8
DRAFT
100
AcDbLine
 62
7
  6
CONTINUOUS
 10
97.5138130285
 20
-110.5489108646
 11
97.5147869925
 21
124.015976292
  0
LINE
  5
474
100
AcDbEntity
  8
DRAFT
100
AcDbLine
 62
7
  6
CONTINUOUS
 10
97.5108947156
 20
-112.0338315229
 11
97.5138130285
 21
-110.5489108646
  0
LINE
  5
475
100
AcDbEntity
  8
DRAFT
100
AcDbLine
 62
7
  6
CONTINUOUS
 10
97.5060533628
 20
-113.5008692948
 11
97.5108947156
 21
-112.0338315229
  0
LINE
  5
476
100
AcDbEntity
  8
DRAFT
100
AcDbLine
 62
7
  6
CONTINUOUS
 10
97.4993061206
 20
-114.9446519286
 11
97.5060533628
 21
-113.5008692948
  0
LINE
  5
477
100
AcDbEntity
  8
DRAFT
100
AcDbLine
 62
7
  6
CONTINUOUS
 10
97.4907043436
 20
-116.3541540419
 11
97.4993061206
 21
-114.9446519286
  0
LINE
  5
478
100
AcDbEntity
  8
DRAFT
100
AcDbLine
 62
7
  6
CONTINUOUS
 10
97.4802797016
 20
-117.7242265011
 11
97.4907043436
 21
-116.3541540419
  0
LINE
  5
479
100
AcDbEntity
  8
DRAFT
100
AcDbLine
 62
7
  6
CONTINUOUS
 10
97.4681029473
 20
-119.0453588542
 11
97.4802797016
 21
-117.7242265011
  0
LINE
  5
47A
100
AcDbEntity
  8
DRAFT
100
AcDbLine
 62
7
  6
CONTINUOUS
 10
97.4681029473
 20
-119.0453588542
 11
97.300741349
 21
-135.6681950006
  0
LINE
  5
47B
100
AcDbEntity
  8
RACCORDO
100
AcDbLine
 62
253
  6
CONTINUOUS
 10
97.9412066677
 20
125.9489751817
 11
98.3504642575
 21
132.7152917053
  0
LINE
  5
47C
100
AcDbEntity
  8
RACCORDO
100
AcDbLine
 62
253
  6
CONTINUOUS
 10
100.8906541464
 20
122.545321268
 11
101.2992271494
 21
129.3003194175
  0
LWPOLYLINE
  5
47D
100
AcDbEntity
  8
0
100
AcDbPolyline
 62
7
  6
CONTINUOUS
 90
12
 70
0
 10
77.4073914508
 20
-116.9444277491
 10
77.4135761228
 20
-116.8787312801
 10
77.4159554006
 20
-116.8137023014
 10
77.4146189078
 20
-116.7495571426
 10
77.4096683731
 20
-116.6865044332
 10
77.4012170614
 20
-116.6247444347
 10
77.3893891695
 20
-116.5644684116
 10
77.374319188
 20
-116.5058580431
 10
77.3561512313
 20
-116.4490848767
 10
77.3350383393
 20
-116.3943098269
 10
77.3111417541
 20
-116.3416827192
 10
77.2846301726
 20
-116.2913418806
  0
LINE
  5
47E
100
AcDbEntity
  8
0
100
AcDbLine
 62
7
  6
CONTINUOUS
 10
17.6911880328
 20
109.2447594653
 11
17.6560253733
 21
109.284813529
  0
LWPOLYLINE
  5
47F
100
AcDbEntity
  8
RACCORDO
100
AcDbPolyline
 62
7
  6
CONTINUOUS
 90
6
 70
0
 10
101.2931543796
 20
129.7117310412
 10
101.2812087861
 20
129.9427047014
 10
101.2497556693
 20
130.1873237095
 10
101.1954811845
 20
130.4434726874
 10
101.1144274692
 20
130.7114348283
 10
101.0036791
 20
130.9845665708
  0
LINE
  5
480
100
AcDbEntity
  8
RACCORDO
100
AcDbLine
 62
7
  6
CONTINUOUS
 10
100.8906541464
 20
-125.6364094697
 11
100.8906541464
 21
122.545321268
  0
LINE
  5
481
100
AcDbEntity
  8
RACCORDO
100
AcDbLine
 62
7
  6
CONTINUOUS
 10
101.2992271494
 20
129.3003194175
 11
101.2992271494
 21
-132.3914076192
  0
LINE
  5
482
100
AcDbEntity
  8
RACCORDO
100
AcDbLine
 62
7
  6
CONTINUOUS
 10
98.7059715196
 20
-128.925192886
 11
98.6733234107
 21
-129.4840110416
  0
LINE
  5
483
100
AcDbEntity
  8
RACCORDO
100
AcDbLine
 62
7
  6
CONTINUOUS
 10
98.6733234107
 20
-129.4840110416
 11
98.6421284822
 21
-130.0163643951
  0
LINE
  5
484
100
AcDbEntity
  8
RACCORDO
100
AcDbLine
 62
7
  6
CONTINUOUS
 10
98.6421284822
 20
-130.0163643951
 11
98.6123633184
 21
-130.522738775
  0
LINE
  5
485
100
AcDbEntity
  8
RACCORDO
100
AcDbLine
 62
7
  6
CONTINUOUS
 10
98.6123633184
 20
-130.522738775
 11
98.5839500328
 21
-131.0047613854
  0
LINE
  5
486
100
AcDbEntity
  8
RACCORDO
100
AcDbLine
 62
7
  6
CONTINUOUS
 10
98.5839500328
 20
-131.0047613854
 11
98.5568170749
 21
-131.4638580444
  0
LWPOLYLINE
  5
487
100
AcDbEntity
  8
RACCORDO
100
AcDbPolyline
 62
7
  6
CONTINUOUS
 90
3
 70
0
 10
98.5568170749
 20
-131.4638580444
 10
98.5309183091
 20
-131.900943774
 10
98.5184043022
 20
-132.1117667375
  0
LWPOLYLINE
  5
488
100
AcDbEntity
  8
RACCORDO
100
AcDbPolyline
 62
7
  6
CONTINUOUS
 90
3
 70
0
 10
98.5184043022
 20
-132.1117667375
 10
98.4942361301
 20
-132.5182017432
 10
98.4825657192
 20
-132.7141419972
  0
LINE
  5
489
100
AcDbEntity
  8
RACCORDO
100
AcDbLine
 62
7
  6
CONTINUOUS
 10
98.4825657192
 20
-132.7141419972
 11
98.4600402637
 21
-133.0917089806
  0
LWPOLYLINE
  5
48A
100
AcDbEntity
  8
RACCORDO
100
AcDbPolyline
 62
7
  6
CONTINUOUS
 90
3
 70
0
 10
98.4600402637
 20
-133.0917089806
 10
98.4385678215
 20
-133.4508891083
 10
98.4282100694
 20
-133.6238959604
  0
LWPOLYLINE
  5
48B
100
AcDbEntity
  8
RACCORDO
100
AcDbPolyline
 62
7
  6
CONTINUOUS
 90
4
 70
0
 10
98.4282100694
 20
-133.6238959604
 10
98.408241277
 20
-133.9569581575
 10
98.3986032609
 20
-134.1174941622
 10
98.3891887587
 20
-134.2741702954
  0
LWPOLYLINE
  5
48C
100
AcDbEntity
  8
RACCORDO
100
AcDbPolyline
 62
7
  6
CONTINUOUS
 90
3
 70
0
 10
98.3891887587
 20
-134.2741702954
 10
98.3710021804
 20
-134.5764309079
 10
98.3622039751
 20
-134.7224792751
  0
LINE
  5
48D
100
AcDbEntity
  8
RACCORDO
100
AcDbLine
 62
7
  6
CONTINUOUS
 10
98.3055154819
 20
-135.6614712079
 11
98.2980869068
 21
-135.7847098718
  0
LWPOLYLINE
  5
48E
100
AcDbEntity
  8
RACCORDO
100
AcDbPolyline
 62
7
  6
CONTINUOUS
 90
6
 70
0
 10
98.3622039751
 20
-134.7224792751
 10
98.3451714798
 20
-135.0048656806
 10
98.3369032266
 20
-135.1417337241
 10
98.3288054708
 20
-135.275669655
 10
98.3208752565
 20
-135.4069114386
 10
98.3055154819
 20
-135.6614712079
  0
LINE
  5
48F
100
AcDbEntity
  8
DRAFT
100
AcDbLine
 62
7
  6
CONTINUOUS
 10
98.2190215306
 20
-132.8005575038
 11
98.2245567932
 21
-132.7093533518
  0
LWPOLYLINE
  5
490
100
AcDbEntity
  8
RACCORDO
100
AcDbPolyline
 62
7
  6
CONTINUOUS
 90
6
 70
0
 10
101.2936821998
 20
-132.7803062773
 10
101.278408678
 20
-133.0097973329
 10
101.2482245695
 20
-133.2518750108
 10
101.1982098273
 20
-133.5051317731
 10
101.1205996636
 20
-133.7707186973
 10
101.0109476795
 20
-134.0418264034
  0
LWPOLYLINE
  5
491
100
AcDbEntity
  8
0
100
AcDbPolyline
 62
7
  6
CONTINUOUS
 90
20
 70
0
 10
16.5923765505
 20
107.7339387184
 10
16.6725906508
 20
107.722677003
 10
16.7533817516
 20
107.7168523636
 10
16.8343817411
 20
107.7164913396
 10
16.9152215561
 20
107.7215955763
 10
16.9955328627
 20
107.7321418172
 10
17.0749497355
 20
107.7480820107
 10
17.1531103241
 20
107.7693435279
 10
17.2296585021
 20
107.7958294945
 10
17.3042454901
 20
107.8274192319
 10
17.376531444
 20
107.8639688067
 10
17.4461870043
 20
107.9053116869
 10
17.5128947965
 20
107.9512595006
 10
17.5763508768
 20
108.0016028942
 10
17.6362661175
 20
108.0561124862
 10
17.6923675241
 20
108.1145399127
 10
17.744399479
 20
108.1766189587
 10
17.7921249068
 20
108.2420667709
 10
17.8353263536
 20
108.310585147
 10
17.8738069787
 20
108.381861894
  0
LINE
  5
492
100
AcDbEntity
  8
0
100
AcDbLine
 62
7
  6
CONTINUOUS
 10
16.5131049332
 20
107.7505861972
 11
16.5923765505
 21
107.7339387184
  0
LINE
  5
493
100
AcDbEntity
  8
0
100
AcDbLine
 62
7
  6
CONTINUOUS
 10
16.4351369871
 20
107.7725435877
 11
16.5131049332
 21
107.7505861972
  0
LINE
  5
494
100
AcDbEntity
  8
0
100
AcDbLine
 62
7
  6
CONTINUOUS
 10
17.6746227109
 20
108.552279633
 11
17.9073914508
 21
108.4555722509
  0
LINE
  5
495
100
AcDbEntity
  8
0
100
AcDbLine
 62
7
  6
CONTINUOUS
 10
16.0152280997
 20
108.3723641344
 11
16.0653044032
 21
108.3514182998
  0
LWPOLYLINE
  5
496
100
AcDbEntity
  8
0
100
AcDbPolyline
 62
7
  6
CONTINUOUS
 90
3
 70
0
 10
15.9163121463
 20
108.4250960923
 10
15.9654853152
 20
108.3969182752
 10
16.0152280997
 20
108.3723641344
  0
LINE
  5
497
100
AcDbEntity
  8
0
100
AcDbLine
 62
7
  6
CONTINUOUS
 10
15.9780459101
 20
109.3976932991
 11
15.7214384226
 21
109.5482230299
  0
LWPOLYLINE
  5
498
100
AcDbEntity
  8
0
100
AcDbPolyline
 62
7
  6
CONTINUOUS
 90
9
 70
0
 10
77.1746227109
 20
-116.847720367
 10
77.1500762555
 20
-116.9075669186
 10
77.1214586097
 20
-116.9657054977
 10
77.0888921375
 20
-117.021860513
 10
77.0525372201
 20
-117.075738533
 10
77.0125368567
 20
-117.1271126523
 10
76.9689975871
 20
-117.1758105046
 10
76.9220818771
 20
-117.2215993375
 10
76.8719969122
 20
-117.2642292823
  0
LINE
  5
499
100
AcDbEntity
  8
0
100
AcDbLine
 62
7
  6
CONTINUOUS
 10
77.3738069787
 20
-117.018138106
 11
77.4073914508
 21
-116.9444277491
  0
LWPOLYLINE
  5
49A
100
AcDbEntity
  8
0
100
AcDbPolyline
 62
7
  6
CONTINUOUS
 90
5
 70
0
 10
75.4780459101
 20
-116.0023067009
 10
75.5087124905
 20
-115.9493887423
 10
75.542801304
 20
-115.8984151324
 10
75.5801895887
 20
-115.8496079383
 10
75.6206880689
 20
-115.803237389
  0
LINE
  5
49B
100
AcDbEntity
  8
DRAFT
100
AcDbLine
 62
7
  6
CONTINUOUS
 10
-97.1431711363
 20
123.4583745777
 11
96.7416254351
 21
123.4583745777
  0
LINE
  5
49C
100
AcDbEntity
  8
0
100
AcDbLine
 62
7
  6
CONTINUOUS
 10
98.7059715196
 20
124.015976292
 11
-99.1075172207
 21
124.015976292
  0
LWPOLYLINE
  5
49D
100
AcDbEntity
  8
0
100
AcDbPolyline
 62
7
  6
CONTINUOUS
 90
18
 70
0
 10
75.6206880689
 20
-115.803237389
 10
75.6641903891
 20
-115.7594466324
 10
75.7107097743
 20
-115.7182841455
 10
75.7602439421
 20
-115.6798633911
 10
75.8124963764
 20
-115.6445209175
 10
75.8670110742
 20
-115.6126097987
 10
75.9235544852
 20
-115.5842738867
 10
75.9818957993
 20
-115.5596356508
 10
76.0415105702
 20
-115.5388927961
 10
76.1019433312
 20
-115.5221306553
 10
76.1631105774
 20
-115.5093007144
 10
76.225037411
 20
-115.5003739203
 10
76.2875510779
 20
-115.4953865397
 10
76.3503231763
 20
-115.4943759988
 10
76.4131564759
 20
-115.497354597
 10
76.4758158333
 20
-115.5043274041
 10
76.5380286043
 20
-115.5152803619
 10
76.5995419032
 20
-115.5301835491
  0
LINE
  5
49E
100
AcDbEntity
  8
0
100
AcDbLine
 62
7
  6
CONTINUOUS
 10
76.8719969122
 20
-117.2642292823
 11
76.8189200313
 21
-117.3035016531
  0
LWPOLYLINE
  5
49F
100
AcDbEntity
  8
0
100
AcDbPolyline
 62
7
  6
CONTINUOUS
 90
13
 70
0
 10
76.8189200313
 20
-117.3035016531
 10
76.7629493339
 20
-117.3392749694
 10
76.7044363301
 20
-117.3712585038
 10
76.6439975335
 20
-117.3991142341
 10
76.5821088159
 20
-117.4226870135
 10
76.5189043467
 20
-117.4419882441
 10
76.4545221306
 20
-117.4569998618
 10
76.3892375682
 20
-117.4676624787
 10
76.3233642428
 20
-117.4739297923
 10
76.2570870553
 20
-117.4757797871
 10
76.1906652682
 20
-117.4731859352
 10
76.1244344463
 20
-117.4661420687
 10
76.0586928362
 20
-117.4546643439
  0
LINE
  5
4A0
100
AcDbEntity
  8
RACCORDO
100
AcDbLine
 62
7
  6
CONTINUOUS
 10
97.9412066677
 20
125.9489751817
 11
-98.3427523689
 21
125.9489751817
  0
LINE
  5
4A1
100
AcDbEntity
  8
RACCORDO
100
AcDbLine
 62
7
  6
CONTINUOUS
 10
98.3003700816
 20
132.7152917053
 11
-98.7019157828
 21
132.7152917053
  0
LWPOLYLINE
  5
4A2
100
AcDbEntity
  8
RACCORDO
100
AcDbPolyline
 62
7
  6
CONTINUOUS
 90
11
 70
0
 10
101.0109476795
 20
-134.0418264034
 10
100.8734691065
 20
-134.3053767203
 10
100.711721891
 20
-134.5546914848
 10
100.5217273927
 20
-134.790887812
 10
100.3008148769
 20
-135.0133210317
 10
100.048241815
 20
-135.2187472591
 10
99.7648801308
 20
-135.4012648553
 10
99.4506023948
 20
-135.5548381171
 10
99.1071065423
 20
-135.6735057981
 10
98.7383466546
 20
-135.7519474567
 10
98.3491501304
 20
-135.7846532484
  0
LWPOLYLINE
  5
4A3
100
AcDbEntity
  8
RACCORDO
100
AcDbPolyline
 62
7
  6
CONTINUOUS
 90
4
 70
0
 10
69.9854855703
 20
-135.6681921443
 10
69.7978546005
 20
-135.7365377433
 10
69.3968646323
 20
-135.8212574558
 10
68.9890327669
 20
-135.8491483259
  0
LWPOLYLINE
  5
4A4
100
AcDbEntity
  8
RACCORDO
100
AcDbPolyline
 62
7
  6
CONTINUOUS
 90
11
 70
0
 10
101.0036791
 20
130.9845665708
 10
100.8641164406
 20
131.2503385137
 10
100.6982424101
 20
131.5014499922
 10
100.5045700227
 20
131.7388167841
 10
100.27975308
 20
131.9619999367
 10
100.023488168
 20
132.1664248555
 10
99.737097766
 20
132.3465303328
 10
99.4189900766
 20
132.4980461129
 10
99.0703099683
 20
132.6146430326
 10
98.695756125
 20
132.6892088932
 10
98.3003700816
 20
132.7152917053
  0
CIRCLE
  5
4A5
100
AcDbEntity
  8
0
100
AcDbCircle
 62
7
  6
CONTINUOUS
 10
-76.7007728506
 20
-116.484023708
 40
2.75
  0
CIRCLE
  5
4A6
100
AcDbEntity
  8
0
100
AcDbCircle
 62
7
  6
CONTINUOUS
 10
-76.7007728506
 20
-116.484023708
 40
1.25
  0
ARC
  5
4A7
100
AcDbEntity
  8
0
100
AcDbCircle
 62
7
  6
CONTINUOUS
 10
-76.7007728506
 20
-116.484023708
 40
1.0
100
AcDbArc
 50
210.1408834465
 51
256.0819219011
  0
ARC
  5
4A8
100
AcDbEntity
  8
0
100
AcDbCircle
 62
7
  6
CONTINUOUS
 10
-76.7007728506
 20
-116.484023708
 40
1.0
100
AcDbArc
 50
11.7981752508
 51
72.5234910593
  0
CIRCLE
  5
4A9
100
AcDbEntity
  8
RACCORDO
100
AcDbCircle
 62
253
  6
CONTINUOUS
 10
-76.7007728506
 20
-116.484023708
 40
0.8739590286
  0
CIRCLE
  5
4AA
100
AcDbEntity
  8
RACCORDO
100
AcDbCircle
 62
253
  6
CONTINUOUS
 10
-76.7007728506
 20
-116.484023708
 40
0.5750988056
  0
CIRCLE
  5
4AB
100
AcDbEntity
  8
RACCORDO
100
AcDbCircle
 62
253
  6
CONTINUOUS
 10
-72.2007728506
 20
-78.484023708
 40
2.9913486316
  0
CIRCLE
  5
4AC
100
AcDbEntity
  8
RACCORDO
100
AcDbCircle
 62
253
  6
CONTINUOUS
 10
-72.2007728506
 20
-78.484023708
 40
2.491424784
  0
CIRCLE
  5
4AD
100
AcDbEntity
  8
RACCORDO
100
AcDbCircle
 62
253
  6
CONTINUOUS
 10
-72.2007728506
 20
-78.484023708
 40
2.4038448265
  0
CIRCLE
  5
4AE
100
AcDbEntity
  8
RACCORDO
100
AcDbCircle
 62
253
  6
CONTINUOUS
 10
-72.2007728506
 20
-78.484023708
 40
1.9039209789
  0
ARC
  5
4AF
100
AcDbEntity
  8
RACCORDO
100
AcDbCircle
 62
253
  6
CONTINUOUS
 10
-60.2007728506
 20
-115.234023708
 40
8.9913486316
100
AcDbArc
 50
90.0
 51
270.0
  0
ARC
  5
4B0
100
AcDbEntity
  8
RACCORDO
100
AcDbCircle
 62
253
  6
CONTINUOUS
 10
-50.2007728506
 20
-115.234023708
 40
8.9913486316
100
AcDbArc
 50
270.0
 51
90.0
  0
ARC
  5
4B1
100
AcDbEntity
  8
RACCORDO
100
AcDbCircle
 62
253
  6
CONTINUOUS
 10
-60.2007728506
 20
-115.234023708
 40
8.491424784
100
AcDbArc
 50
90.0
 51
270.0
  0
ARC
  5
4B2
100
AcDbEntity
  8
RACCORDO
100
AcDbCircle
 62
253
  6
CONTINUOUS
 10
-50.2007728506
 20
-115.234023708
 40
8.491424784
100
AcDbArc
 50
270.0
 51
90.0
  0
ARC
  5
4B3
100
AcDbEntity
  8
RACCORDO
100
AcDbCircle
 62
253
  6
CONTINUOUS
 10
-60.2007728506
 20
-115.234023708
 40
8.4474824888
100
AcDbArc
 50
90.0
 51
270.0
  0
ARC
  5
4B4
100
AcDbEntity
  8
RACCORDO
100
AcDbCircle
 62
253
  6
CONTINUOUS
 10
-50.2007728506
 20
-115.234023708
 40
8.4474824888
100
AcDbArc
 50
270.0
 51
90.0
  0
ARC
  5
4B5
100
AcDbEntity
  8
RACCORDO
100
AcDbCircle
 62
253
  6
CONTINUOUS
 10
-50.2007728506
 20
-115.234023708
 40
7.9475586412
100
AcDbArc
 50
270.0
 51
90.0
  0
ARC
  5
4B6
100
AcDbEntity
  8
RACCORDO
100
AcDbCircle
 62
253
  6
CONTINUOUS
 10
-60.2007728506
 20
-115.234023708
 40
7.9475586412
100
AcDbArc
 50
90.0
 51
270.0
  0
ARC
  5
4B7
100
AcDbEntity
  8
DRAFT
100
AcDbCircle
 62
7
  6
CONTINUOUS
 10
-50.2007728506
 20
-115.234023708
 40
2.8261258182
100
AcDbArc
 50
270.0
 51
90.0
  0
ARC
  5
4B8
100
AcDbEntity
  8
DRAFT
100
AcDbCircle
 62
7
  6
CONTINUOUS
 10
-60.2007728506
 20
-115.234023708
 40
2.8261258182
100
AcDbArc
 50
90.0
 51
270.0
  0
ARC
  5
4B9
100
AcDbEntity
  8
0
100
AcDbCircle
 62
7
  6
CONTINUOUS
 10
-60.2007728506
 20
-113.484023708
 40
1.0
100
AcDbArc
 50
180.0
 51
360.0
  0
ARC
  5
4BA
100
AcDbEntity
  8
0
100
AcDbCircle
 62
7
  6
CONTINUOUS
 10
-56.2007728506
 20
-113.484023708
 40
1.0
100
AcDbArc
 50
180.0
 51
360.0
  0
ARC
  5
4BB
100
AcDbEntity
  8
0
100
AcDbCircle
 62
7
  6
CONTINUOUS
 10
-52.2007728506
 20
-113.484023708
 40
1.0
100
AcDbArc
 50
180.0
 51
360.0
  0
ARC
  5
4BC
100
AcDbEntity
  8
0
100
AcDbCircle
 62
7
  6
CONTINUOUS
 10
-48.2007728506
 20
-113.484023708
 40
1.0
100
AcDbArc
 50
180.0
 51
310.7197428995
  0
CIRCLE
  5
4BD
100
AcDbEntity
  8
0
100
AcDbCircle
 62
7
  6
CONTINUOUS
 10
-16.2007728506
 20
-88.234023708
 40
1.5
  0
CIRCLE
  5
4BE
100
AcDbEntity
  8
0
100
AcDbCircle
 62
7
  6
CONTINUOUS
 10
-16.2007728506
 20
-88.234023708
 40
1.25
  0
ARC
  5
4BF
100
AcDbEntity
  8
0
100
AcDbCircle
 62
7
  6
CONTINUOUS
 10
-40.2007728506
 20
-84.484023708
 40
1.0
100
AcDbArc
 50
153.2298666131
 51
180.0
  0
ARC
  5
4C0
100
AcDbEntity
  8
0
100
AcDbCircle
 62
7
  6
CONTINUOUS
 10
-40.2007728506
 20
-84.484023708
 40
1.0
100
AcDbArc
 50
0.0
 51
26.7701333869
  0
CIRCLE
  5
4C1
100
AcDbEntity
  8
RACCORDO
100
AcDbCircle
 62
253
  6
CONTINUOUS
 10
-43.2007728506
 20
-32.234023708
 40
5.4913486316
  0
CIRCLE
  5
4C2
100
AcDbEntity
  8
RACCORDO
100
AcDbCircle
 62
253
  6
CONTINUOUS
 10
-43.2007728506
 20
-32.234023708
 40
4.991424784
  0
CIRCLE
  5
4C3
100
AcDbEntity
  8
RACCORDO
100
AcDbCircle
 62
253
  6
CONTINUOUS
 10
-43.2007728506
 20
-32.234023708
 40
4.9474824888
  0
CIRCLE
  5
4C4
100
AcDbEntity
  8
RACCORDO
100
AcDbCircle
 62
253
  6
CONTINUOUS
 10
-43.2007728506
 20
-32.234023708
 40
4.4475586412
  0
CIRCLE
  5
4C5
100
AcDbEntity
  8
0
100
AcDbCircle
 62
7
  6
CONTINUOUS
 10
-16.2007728506
 20
-46.234023708
 40
1.5
  0
CIRCLE
  5
4C6
100
AcDbEntity
  8
0
100
AcDbCircle
 62
7
  6
CONTINUOUS
 10
-43.2007728506
 20
-32.234023708
 40
1.25
  0
CIRCLE
  5
4C7
100
AcDbEntity
  8
0
100
AcDbCircle
 62
7
  6
CONTINUOUS
 10
-16.2007728506
 20
-46.234023708
 40
1.25
  0
ARC
  5
4C8
100
AcDbEntity
  8
0
100
AcDbCircle
 62
7
  6
CONTINUOUS
 10
-28.2007728506
 20
-72.484023708
 40
1.0
100
AcDbArc
 50
107.4480384172
 51
180.0
  0
ARC
  5
4C9
100
AcDbEntity
  8
0
100
AcDbCircle
 62
7
  6
CONTINUOUS
 10
-28.2007728506
 20
-72.484023708
 40
1.0
100
AcDbArc
 50
0.0
 51
72.5519615828
  0
CIRCLE
  5
4CA
100
AcDbEntity
  8
RACCORDO
100
AcDbCircle
 62
253
  6
CONTINUOUS
 10
-0.2007728506
 20
112.765976292
 40
8.4913486316
  0
CIRCLE
  5
4CB
100
AcDbEntity
  8
RACCORDO
100
AcDbCircle
 62
253
  6
CONTINUOUS
 10
-0.2007728506
 20
112.765976292
 40
7.991424784
  0
CIRCLE
  5
4CC
100
AcDbEntity
  8
RACCORDO
100
AcDbCircle
 62
253
  6
CONTINUOUS
 10
-0.2007728506
 20
112.765976292
 40
7.9474824888
  0
CIRCLE
  5
4CD
100
AcDbEntity
  8
RACCORDO
100
AcDbCircle
 62
253
  6
CONTINUOUS
 10
-0.2007728506
 20
112.765976292
 40
7.4475586412
  0
CIRCLE
  5
4CE
100
AcDbEntity
  8
RACCORDO
100
AcDbCircle
 62
253
  6
CONTINUOUS
 10
-43.2007728506
 20
108.765976292
 40
5.4913486316
  0
CIRCLE
  5
4CF
100
AcDbEntity
  8
RACCORDO
100
AcDbCircle
 62
253
  6
CONTINUOUS
 10
-43.2007728506
 20
108.765976292
 40
4.991424784
  0
CIRCLE
  5
4D0
100
AcDbEntity
  8
RACCORDO
100
AcDbCircle
 62
253
  6
CONTINUOUS
 10
-43.2007728506
 20
108.765976292
 40
4.9474824888
  0
CIRCLE
  5
4D1
100
AcDbEntity
  8
RACCORDO
100
AcDbCircle
 62
253
  6
CONTINUOUS
 10
-43.2007728506
 20
108.765976292
 40
4.4475586412
  0
CIRCLE
  5
4D2
100
AcDbEntity
  8
0
100
AcDbCircle
 62
7
  6
CONTINUOUS
 10
-12.7007728506
 20
0.415976292
 40
3.7
  0
CIRCLE
  5
4D3
100
AcDbEntity
  8
0
100
AcDbCircle
 62
7
  6
CONTINUOUS
 10
-12.7007728506
 20
0.415976292
 40
2.9475068019
  0
CIRCLE
  5
4D4
100
AcDbEntity
  8
0
100
AcDbCircle
 62
253
  6
CONTINUOUS
 10
-12.7007728506
 20
0.415976292
 40
2.8553093663
  0
CIRCLE
  5
4D5
100
AcDbEntity
  8
DRAFT
100
AcDbCircle
 62
7
  6
CONTINUOUS
 10
-0.2007728506
 20
112.765976292
 40
2.8261258182
  0
CIRCLE
  5
4D6
100
AcDbEntity
  8
0
100
AcDbCircle
 62
253
  6
CONTINUOUS
 10
-12.7007728506
 20
0.415976292
 40
2.4812758076
  0
ARC
  5
4D7
100
AcDbEntity
  8
0
100
AcDbCircle
 62
7
  6
CONTINUOUS
 10
-12.7007728506
 20
0.415976292
 40
1.9024452362
100
AcDbArc
 50
263.1113446594
 51
276.883216197
  0
ARC
  5
4D8
100
AcDbEntity
  8
0
100
AcDbCircle
 62
7
  6
CONTINUOUS
 10
-12.7007728506
 20
0.415976292
 40
1.9024452362
100
AcDbArc
 50
173.1113446683
 51
186.883216197
  0
ARC
  5
4D9
100
AcDbEntity
  8
0
100
AcDbCircle
 62
7
  6
CONTINUOUS
 10
-12.7007728506
 20
0.415976292
 40
1.9024452362
100
AcDbArc
 50
353.1113447041
 51
6.883216197
  0
ARC
  5
4DA
100
AcDbEntity
  8
0
100
AcDbCircle
 62
7
  6
CONTINUOUS
 10
-12.7007728506
 20
0.415976292
 40
1.9024452362
100
AcDbArc
 50
83.1113447152
 51
96.883216197
  0
CIRCLE
  5
4DB
100
AcDbEntity
  8
0
100
AcDbCircle
 62
7
  6
CONTINUOUS
 10
-43.2007728506
 20
108.765976292
 40
1.25
  0
ARC
  5
4DC
100
AcDbEntity
  8
TRASH
100
AcDbCircle
 62
7
  6
CONTINUOUS
 10
-12.7007728506
 20
0.415976292
 40
1.1472328625
100
AcDbArc
 50
167.9845776281
 51
192.0153200785
  0
ARC
  5
4DD
100
AcDbEntity
  8
TRASH
100
AcDbCircle
 62
7
  6
CONTINUOUS
 10
-12.7007728506
 20
0.415976292
 40
1.1472328625
100
AcDbArc
 50
347.9845776281
 51
12.0153200785
  0
ARC
  5
4DE
100
AcDbEntity
  8
TRASH
100
AcDbCircle
 62
7
  6
CONTINUOUS
 10
-12.7007728506
 20
0.415976292
 40
1.1472328182
100
AcDbArc
 50
77.9846799215
 51
102.0154223719
  0
ARC
  5
4DF
100
AcDbEntity
  8
TRASH
100
AcDbCircle
 62
7
  6
CONTINUOUS
 10
-12.7007728506
 20
0.415976292
 40
1.1472328182
100
AcDbArc
 50
257.9846799215
 51
282.0154223719
  0
CIRCLE
  5
4E0
100
AcDbEntity
  8
ASSI
100
AcDbCircle
 62
7
  6
CONTINUOUS
 10
4.7992271494
 20
-31.484023708
 40
2.625
  0
ARC
  5
4E1
100
AcDbEntity
  8
RACCORDO
100
AcDbCircle
 62
253
  6
CONTINUOUS
 10
49.7992271494
 20
-115.234023708
 40
8.9913486316
100
AcDbArc
 50
90.0
 51
270.0
  0
ARC
  5
4E2
100
AcDbEntity
  8
RACCORDO
100
AcDbCircle
 62
253
  6
CONTINUOUS
 10
59.7992271494
 20
-115.234023708
 40
8.9913486316
100
AcDbArc
 50
270.0
 51
90.0
  0
ARC
  5
4E3
100
AcDbEntity
  8
RACCORDO
100
AcDbCircle
 62
253
  6
CONTINUOUS
 10
49.7992271494
 20
-115.234023708
 40
8.491424784
100
AcDbArc
 50
90.0
 51
270.0
  0
ARC
  5
4E4
100
AcDbEntity
  8
RACCORDO
100
AcDbCircle
 62
253
  6
CONTINUOUS
 10
59.7992271494
 20
-115.234023708
 40
8.491424784
100
AcDbArc
 50
270.0
 51
90.0
  0
ARC
  5
4E5
100
AcDbEntity
  8
RACCORDO
100
AcDbCircle
 62
253
  6
CONTINUOUS
 10
49.7992271494
 20
-115.234023708
 40
8.4474824888
100
AcDbArc
 50
90.0
 51
270.0
  0
ARC
  5
4E6
100
AcDbEntity
  8
RACCORDO
100
AcDbCircle
 62
253
  6
CONTINUOUS
 10
59.7992271494
 20
-115.234023708
 40
8.4474824888
100
AcDbArc
 50
270.0
 51
90.0
  0
ARC
  5
4E7
100
AcDbEntity
  8
RACCORDO
100
AcDbCircle
 62
253
  6
CONTINUOUS
 10
49.7992271494
 20
-115.234023708
 40
7.9475586412
100
AcDbArc
 50
90.0
 51
270.0
  0
ARC
  5
4E8
100
AcDbEntity
  8
RACCORDO
100
AcDbCircle
 62
253
  6
CONTINUOUS
 10
59.7992271494
 20
-115.234023708
 40
7.9475586412
100
AcDbArc
 50
270.0
 51
90.0
  0
ARC
  5
4E9
100
AcDbEntity
  8
DRAFT
100
AcDbCircle
 62
7
  6
CONTINUOUS
 10
59.7992271494
 20
-115.234023708
 40
2.8261258182
100
AcDbArc
 50
270.0
 51
90.0
  0
ARC
  5
4EA
100
AcDbEntity
  8
DRAFT
100
AcDbCircle
 62
7
  6
CONTINUOUS
 10
49.7992271494
 20
-115.234023708
 40
2.8261258182
100
AcDbArc
 50
90.0
 51
270.0
  0
CIRCLE
  5
4EB
100
AcDbEntity
  8
0
100
AcDbCircle
 62
7
  6
CONTINUOUS
 10
76.2992271494
 20
-116.484023708
 40
2.75
  0
CIRCLE
  5
4EC
100
AcDbEntity
  8
0
100
AcDbCircle
 62
7
  6
CONTINUOUS
 10
85.7992271494
 20
-88.234023708
 40
1.5
  0
CIRCLE
  5
4ED
100
AcDbEntity
  8
0
100
AcDbCircle
 62
7
  6
CONTINUOUS
 10
76.2992271494
 20
-116.484023708
 40
1.25
  0
CIRCLE
  5
4EE
100
AcDbEntity
  8
0
100
AcDbCircle
 62
7
  6
CONTINUOUS
 10
85.7992271494
 20
-88.234023708
 40
1.25
  0
ARC
  5
4EF
100
AcDbEntity
  8
0
100
AcDbCircle
 62
7
  6
CONTINUOUS
 10
76.2992271494
 20
-116.484023708
 40
1.0
100
AcDbArc
 50
210.1408834465
 51
256.0819219012
  0
ARC
  5
4F0
100
AcDbEntity
  8
0
100
AcDbCircle
 62
7
  6
CONTINUOUS
 10
76.2992271494
 20
-116.484023708
 40
1.0
100
AcDbArc
 50
11.7981752508
 51
72.5234910593
  0
ARC
  5
4F1
100
AcDbEntity
  8
0
100
AcDbCircle
 62
7
  6
CONTINUOUS
 10
47.7992271494
 20
-113.484023708
 40
1.0
100
AcDbArc
 50
229.2802571005
 51
360.0
  0
ARC
  5
4F2
100
AcDbEntity
  8
0
100
AcDbCircle
 62
7
  6
CONTINUOUS
 10
51.7992271494
 20
-113.484023708
 40
1.0
100
AcDbArc
 50
180.0
 51
360.0
  0
ARC
  5
4F3
100
AcDbEntity
  8
0
100
AcDbCircle
 62
7
  6
CONTINUOUS
 10
55.7992271494
 20
-113.484023708
 40
1.0
100
AcDbArc
 50
180.0
 51
360.0
  0
ARC
  5
4F4
100
AcDbEntity
  8
0
100
AcDbCircle
 62
7
  6
CONTINUOUS
 10
59.7992271494
 20
-113.484023708
 40
1.0
100
AcDbArc
 50
180.0
 51
360.0
  0
CIRCLE
  5
4F5
100
AcDbEntity
  8
RACCORDO
100
AcDbCircle
 62
253
  6
CONTINUOUS
 10
76.2992271494
 20
-116.484023708
 40
0.8739590286
  0
CIRCLE
  5
4F6
100
AcDbEntity
  8
RACCORDO
100
AcDbCircle
 62
253
  6
CONTINUOUS
 10
76.2992271494
 20
-116.484023708
 40
0.5750988056
  0
CIRCLE
  5
4F7
100
AcDbEntity
  8
0
100
AcDbCircle
 62
7
  6
CONTINUOUS
 10
85.7992271494
 20
-46.234023708
 40
1.5
  0
CIRCLE
  5
4F8
100
AcDbEntity
  8
0
100
AcDbCircle
 62
7
  6
CONTINUOUS
 10
85.7992271494
 20
-46.234023708
 40
1.25
  0
CIRCLE
  5
4F9
100
AcDbEntity
  8
ASSI
100
AcDbCircle
 62
7
  6
CONTINUOUS
 10
38.2992271494
 20
55.765976292
 40
6.0
  0
CIRCLE
  5
4FA
100
AcDbEntity
  8
0
100
AcDbCircle
 62
7
  6
CONTINUOUS
 10
16.7992271494
 20
108.915976292
 40
2.75
  0
CIRCLE
  5
4FB
100
AcDbEntity
  8
DRAFT
100
AcDbCircle
 62
7
  6
CONTINUOUS
 10
38.2992271494
 20
55.765976292
 40
2.7273084156
  0
ARC
  5
4FC
100
AcDbEntity
  8
ASSI
100
AcDbCircle
 62
7
  6
CONTINUOUS
 10
35.2992271494
 20
53.015976292
 40
1.5
100
AcDbArc
 50
22.7475303341
 51
59.6388065952
  0
ARC
  5
4FD
100
AcDbEntity
  8
ASSI
100
AcDbCircle
 62
7
  6
CONTINUOUS
 10
41.2992271494
 20
53.015976292
 40
1.5
100
AcDbArc
 50
120.3611934048
 51
157.2524696659
  0
CIRCLE
  5
4FE
100
AcDbEntity
  8
0
100
AcDbCircle
 62
7
  6
CONTINUOUS
 10
16.7992271494
 20
108.915976292
 40
1.25
  0
ARC
  5
4FF
100
AcDbEntity
  8
0
100
AcDbCircle
 62
7
  6
CONTINUOUS
 10
16.7992271494
 20
108.915976292
 40
1.0
100
AcDbArc
 50
210.1408834465
 51
256.0819219012
  0
ARC
  5
500
100
AcDbEntity
  8
0
100
AcDbCircle
 62
7
  6
CONTINUOUS
 10
16.7992271494
 20
108.915976292
 40
1.0
100
AcDbArc
 50
11.7981752508
 51
72.5234910593
  0
CIRCLE
  5
501
100
AcDbEntity
  8
RACCORDO
100
AcDbCircle
 62
253
  6
CONTINUOUS
 10
16.7992271494
 20
108.915976292
 40
0.8739590286
  0
CIRCLE
  5
502
100
AcDbEntity
  8
RACCORDO
100
AcDbCircle
 62
253
  6
CONTINUOUS
 10
16.7992271494
 20
108.915976292
 40
0.5750988056
  0
ELLIPSE
  5
503
100
AcDbEntity
  8
RACCORDO
100
AcDbEllipse
 62
7
  6
CONTINUOUS
 10
-0.2007728506
 20
-197.4430119719
 30
0.0
 11
1764.8157781337
 21
0.0
 31
0.0
 40
0.0349278691
 41
1.5315811615
 42
1.6100114921
  0
ELLIPSE
  5
504
100
AcDbEntity
  8
RACCORDO
100
AcDbEllipse
 62
7
  6
CONTINUOUS
 10
99.798312833
 20
-157.1457992597
 30
0.0
 11
1.4865372998
 21
24.9955215919
 31
0.0
 40
0.0082912999
 41
-0.2245063841
 42
-0.1385219879
  0
ELLIPSE
  5
505
100
AcDbEntity
  8
RACCORDO
100
AcDbEllipse
 62
7
  6
CONTINUOUS
 10
99.798312833
 20
154.054711058
 30
0.0
 11
-1.4865372998
 21
24.9955215919
 31
0.0
 40
0.0082912999
 41
-3.0030706657
 42
-2.9130842411
  0
ELLIPSE
  5
506
100
AcDbEntity
  8
RACCORDO
100
AcDbEllipse
 62
7
  6
CONTINUOUS
 10
-100.1998585341
 20
154.054711058
 30
0.0
 11
1.4865372998
 21
24.9955215919
 31
0.0
 40
0.0082912999
 41
-3.3701010661
 42
-3.2801146415
  0
ELLIPSE
  5
507
100
AcDbEntity
  8
RACCORDO
100
AcDbEllipse
 62
7
  6
CONTINUOUS
 10
-100.1998585341
 20
-157.1457992597
 30
0.0
 11
-1.4865372998
 21
24.9955215919
 31
0.0
 40
0.0082912999
 41
0.1385219879
 42
0.2245063841
  0
ELLIPSE
  5
508
100
AcDbEntity
  8
RACCORDO
100
AcDbEllipse
 62
7
  6
CONTINUOUS
 10
-98.2903712146
 20
-125.5759617683
 30
0.0
 11
0.2092380234
 21
3.4593633216
 31
0.0
 40
0.8656296439
 41
1.6405564143
 42
2.9356574112
  0
ELLIPSE
  5
509
100
AcDbEntity
  8
RACCORDO
100
AcDbEllipse
 62
7
  6
CONTINUOUS
 10
-98.2903712146
 20
122.4848735666
 30
0.0
 11
-0.2092380234
 21
3.4593633216
 31
0.0
 40
0.8656296439
 41
-0.0523094535
 42
1.5010362392
  0
ELLIPSE
  5
50A
100
AcDbEntity
  8
RACCORDO
100
AcDbEllipse
 62
7
  6
CONTINUOUS
 10
97.8888255135
 20
-125.5759617683
 30
0.0
 11
0.2092380234
 21
-3.4593633216
 31
0.0
 40
0.8656296439
 41
0.2059352424
 42
1.5010362392
  0
ELLIPSE
  5
50B
100
AcDbEntity
  8
RACCORDO
100
AcDbEllipse
 62
7
  6
CONTINUOUS
 10
97.8888255135
 20
122.4848735666
 30
0.0
 11
-0.2092380234
 21
-3.4593633216
 31
0.0
 40
0.8656296439
 41
1.6405564143
 42
3.1939021071
  0
ELLIPSE
  5
50C
100
AcDbEntity
  8
RACCORDO
100
AcDbEllipse
 62
7
  6
CONTINUOUS
 10
-62.0082222368
 20
-86.9265743218
 30
0.0
 11
-0.7073221892
 21
0.7073221892
 31
0.0
 40
0.9996954599
 41
-0.7852458701
 42
0.7852458701
  0
ELLIPSE
  5
50D
100
AcDbEntity
  8
RACCORDO
100
AcDbEllipse
 62
7
  6
CONTINUOUS
 10
-65.8933234644
 20
-88.0414730942
 30
0.0
 11
0.7073221892
 21
-0.7073221892
 31
0.0
 40
0.9996954599
 41
-0.7852458701
 42
0.7852458701
  0
ELLIPSE
  5
50E
100
AcDbEntity
  8
RACCORDO
100
AcDbEllipse
 62
7
  6
CONTINUOUS
 10
-78.5082222368
 20
-88.0414730942
 30
0.0
 11
-0.7073221892
 21
-0.7073221892
 31
0.0
 40
0.9996954599
 41
-0.7852458701
 42
0.7852458701
  0
ELLIPSE
  5
50F
100
AcDbEntity
  8
RACCORDO
100
AcDbEllipse
 62
7
  6
CONTINUOUS
 10
-83.5082222368
 20
-83.0414730942
 30
0.0
 11
-0.7073221892
 21
-0.7073221892
 31
0.0
 40
0.9996954599
 41
-0.7852458701
 42
0.7852458701
  0
ELLIPSE
  5
510
100
AcDbEntity
  8
RACCORDO
100
AcDbEllipse
 62
7
  6
CONTINUOUS
 10
-84.0082984008
 20
-67.4264981578
 30
0.0
 11
-0.3536610946
 21
0.3536610946
 31
0.0
 40
0.9996954599
 41
-0.7852458701
 42
0.7852458701
  0
ELLIPSE
  5
511
100
AcDbEntity
  8
RACCORDO
100
AcDbEllipse
 62
7
  6
CONTINUOUS
 10
-60.3932473003
 20
-67.4264981578
 30
0.0
 11
0.3536610946
 21
0.3536610946
 31
0.0
 40
0.9996954599
 41
-0.7852458701
 42
0.7852458701
  0
ELLIPSE
  5
512
100
AcDbEntity
  8
RACCORDO
100
AcDbEllipse
 62
7
  6
CONTINUOUS
 10
-57.0082222368
 20
-70.5414730942
 30
0.0
 11
-0.7073221892
 21
-0.7073221892
 31
0.0
 40
0.9996954599
 41
-0.7852458701
 42
0.7852458701
  0
ELLIPSE
  5
513
100
AcDbEntity
  8
RACCORDO
100
AcDbEllipse
 62
7
  6
CONTINUOUS
 10
-82.3933234644
 20
-86.9265743218
 30
0.0
 11
0.7073221892
 21
0.7073221892
 31
0.0
 40
0.9996954599
 41
-0.7852458701
 42
0.7852458701
  0
ELLIPSE
  5
514
100
AcDbEntity
  8
RACCORDO
100
AcDbEllipse
 62
7
  6
CONTINUOUS
 10
-86.8771970668
 20
-66.2575994918
 30
0.0
 11
-0.3536610946
 21
0.3536610946
 31
0.0
 40
0.9996954599
 41
-2.6094210652
 42
-2.3563467834
  0
ELLIPSE
  5
515
100
AcDbEntity
  8
RACCORDO
100
AcDbEllipse
 62
7
  6
CONTINUOUS
 10
-85.3930188083
 20
-66.0417777503
 30
0.0
 11
0.7073221892
 21
-0.7073221892
 31
0.0
 40
0.9996954599
 41
-2.53510163
 42
-2.3563467834
  0
ELLIPSE
  5
516
100
AcDbEntity
  8
RACCORDO
100
AcDbEllipse
 62
7
  6
CONTINUOUS
 10
-85.3930188083
 20
-66.0417777503
 30
0.0
 11
-0.7073221892
 21
0.7073221892
 31
0.0
 40
0.9996954599
 41
-0.7852458701
 42
0.6064910236
  0
ELLIPSE
  5
517
100
AcDbEntity
  8
RACCORDO
100
AcDbEllipse
 62
7
  6
CONTINUOUS
 10
-59.0085268929
 20
-66.0417777503
 30
0.0
 11
0.7073221892
 21
0.7073221892
 31
0.0
 40
0.9996954599
 41
-0.7852458701
 42
0.7852458701
  0
ELLIPSE
  5
518
100
AcDbEntity
  8
RACCORDO
100
AcDbEllipse
 62
7
  6
CONTINUOUS
 10
-21.0085268929
 20
-72.4262696657
 30
0.0
 11
-0.7073221892
 21
0.7073221892
 31
0.0
 40
0.9996954599
 41
-3.9268385237
 42
-2.4138195833
  0
ELLIPSE
  5
519
100
AcDbEntity
  8
RACCORDO
100
AcDbEllipse
 62
7
  6
CONTINUOUS
 10
-21.0085268929
 20
-72.5417777503
 30
0.0
 11
0.7073221892
 21
0.7073221892
 31
0.0
 40
0.9996954599
 41
-0.7277730703
 42
0.7852458701
  0
ELLIPSE
  5
51A
100
AcDbEntity
  8
RACCORDO
100
AcDbEllipse
 62
7
  6
CONTINUOUS
 10
-58.8930188083
 20
-72.4262696657
 30
0.0
 11
0.7073221892
 21
0.7073221892
 31
0.0
 40
0.9996954599
 41
-3.9268385237
 42
-2.3563467834
  0
ELLIPSE
  5
51B
100
AcDbEntity
  8
RACCORDO
100
AcDbEllipse
 62
7
  6
CONTINUOUS
 10
-63.8930188083
 20
-85.0417777503
 30
0.0
 11
0.7073221892
 21
-0.7073221892
 31
0.0
 40
0.9996954599
 41
2.3563467834
 42
3.9268385237
  0
ELLIPSE
  5
51C
100
AcDbEntity
  8
RACCORDO
100
AcDbEllipse
 62
7
  6
CONTINUOUS
 10
-21.0085268929
 20
-84.9262696657
 30
0.0
 11
0.7073221892
 21
-0.7073221892
 31
0.0
 40
0.9996954599
 41
-0.7852458701
 42
0.7277730703
  0
ELLIPSE
  5
51D
100
AcDbEntity
  8
RACCORDO
100
AcDbEllipse
 62
7
  6
CONTINUOUS
 10
-21.0085268929
 20
-85.0417777503
 30
0.0
 11
0.7073221892
 21
0.7073221892
 31
0.0
 40
0.9996954599
 41
-0.7277730703
 42
0.7852458701
  0
ELLIPSE
  5
51E
100
AcDbEntity
  8
RACCORDO
100
AcDbEllipse
 62
7
  6
CONTINUOUS
 10
-80.5085268929
 20
-85.0417777503
 30
0.0
 11
0.7073221892
 21
0.7073221892
 31
0.0
 40
0.9996954599
 41
-0.7852458701
 42
0.7852458701
  0
ELLIPSE
  5
51F
100
AcDbEntity
  8
RACCORDO
100
AcDbEllipse
 62
7
  6
CONTINUOUS
 10
-85.3930188083
 20
-84.9262696657
 30
0.0
 11
0.7073221892
 21
0.7073221892
 31
0.0
 40
0.9996954599
 41
-3.9268385237
 42
-2.3563467834
  0
ELLIPSE
  5
520
100
AcDbEntity
  8
RACCORDO
100
AcDbEllipse
 62
7
  6
CONTINUOUS
 10
-80.3930188083
 20
-89.9262696657
 30
0.0
 11
0.7073221892
 21
0.7073221892
 31
0.0
 40
0.9996954599
 41
-3.9268385237
 42
-2.3563467834
  0
ELLIPSE
  5
521
100
AcDbEntity
  8
RACCORDO
100
AcDbEllipse
 62
7
  6
CONTINUOUS
 10
-64.0085268929
 20
-89.9262696657
 30
0.0
 11
0.7073221892
 21
-0.7073221892
 31
0.0
 40
0.9996954599
 41
-0.7852458701
 42
0.7852458701
  0
ELLIPSE
  5
522
100
AcDbEntity
  8
DRAFT
100
AcDbEllipse
 62
7
  6
CONTINUOUS
 10
27.2992271494
 20
-103.1764219937
 30
0.0
 11
3.0
 21
-0.0
 31
0.0
 40
0.0174550649
 41
-3.1415926536
 42
-1.7577856466
  0
ELLIPSE
  5
523
100
AcDbEntity
  8
DRAFT
100
AcDbEllipse
 62
7
  6
CONTINUOUS
 10
27.2992271494
 20
-103.1764219937
 30
0.0
 11
3.0
 21
-0.0
 31
0.0
 40
0.0174550649
 41
-1.383807007
 42
-0.0
  0
ELLIPSE
  5
524
100
AcDbEntity
  8
DRAFT
100
AcDbEllipse
 62
7
  6
CONTINUOUS
 10
37.2416254351
 20
-95.734023708
 30
0.0
 11
-0.0
 21
3.0
 31
0.0
 40
0.0174550649
 41
-3.1415926536
 42
-1.7577856466
  0
ELLIPSE
  5
525
100
AcDbEntity
  8
DRAFT
100
AcDbEllipse
 62
7
  6
CONTINUOUS
 10
37.2416254351
 20
-95.734023708
 30
0.0
 11
-0.0
 21
3.0
 31
0.0
 40
0.0174550649
 41
-1.383807007
 42
0.0
  0
ELLIPSE
  5
526
100
AcDbEntity
  8
RACCORDO
100
AcDbEllipse
 62
7
  6
CONTINUOUS
 10
-90.7093281204
 20
-60.9844045281
 30
0.0
 11
1.7683054729
 21
-1.7683054729
 31
0.0
 40
0.9996954599
 41
2.3563467834
 42
3.9268385237
  0
ELLIPSE
  5
527
100
AcDbEntity
  8
RACCORDO
100
AcDbEllipse
 62
7
  6
CONTINUOUS
 10
-90.7093281204
 20
-95.9836428879
 30
0.0
 11
1.7683054729
 21
1.7683054729
 31
0.0
 40
0.9996954599
 41
-3.9268385237
 42
-2.3563467834
  0
ELLIPSE
  5
528
100
AcDbEntity
  8
RACCORDO
100
AcDbEllipse
 62
7
  6
CONTINUOUS
 10
7.2988463293
 20
-95.9836428879
 30
0.0
 11
1.7683054729
 21
-1.7683054729
 31
0.0
 40
0.9996954599
 41
-0.7852458701
 42
0.7852458701
  0
ELLIPSE
  5
529
100
AcDbEntity
  8
RACCORDO
100
AcDbEllipse
 62
7
  6
CONTINUOUS
 10
7.2988463293
 20
-60.9844045281
 30
0.0
 11
1.7683054729
 21
1.7683054729
 31
0.0
 40
0.9996954599
 41
-0.7852458701
 42
0.7852458701
  0
ELLIPSE
  5
52A
100
AcDbEntity
  8
RACCORDO
100
AcDbEllipse
 62
7
  6
CONTINUOUS
 10
3.5491509854
 20
-82.233947544
 30
0.0
 11
0.3536610946
 21
-0.3536610946
 31
0.0
 40
0.9996954599
 41
-0.7852458701
 42
0.7852458701
  0
ELLIPSE
  5
52B
100
AcDbEntity
  8
RACCORDO
100
AcDbEllipse
 62
7
  6
CONTINUOUS
 10
3.5491509854
 20
-81.484099872
 30
0.0
 11
0.3536610946
 21
0.3536610946
 31
0.0
 40
0.9996954599
 41
-0.7852458701
 42
0.7852458701
  0
ELLIPSE
  5
52C
100
AcDbEntity
  8
RACCORDO
100
AcDbEllipse
 62
7
  6
CONTINUOUS
 10
3.5491509854
 20
-76.233947544
 30
0.0
 11
0.3536610946
 21
-0.3536610946
 31
0.0
 40
0.9996954599
 41
-0.7852458701
 42
0.7852458701
  0
ELLIPSE
  5
52D
100
AcDbEntity
  8
RACCORDO
100
AcDbEllipse
 62
7
  6
CONTINUOUS
 10
3.5491509854
 20
-75.484099872
 30
0.0
 11
0.3536610946
 21
0.3536610946
 31
0.0
 40
0.9996954599
 41
-0.7852458701
 42
0.7852458701
  0
ELLIPSE
  5
52E
100
AcDbEntity
  8
RACCORDO
100
AcDbEllipse
 62
7
  6
CONTINUOUS
 10
-59.4506966866
 20
-75.484099872
 30
0.0
 11
0.3536610946
 21
-0.3536610946
 31
0.0
 40
0.9996954599
 41
2.3563467834
 42
3.9268385237
  0
ELLIPSE
  5
52F
100
AcDbEntity
  8
RACCORDO
100
AcDbEllipse
 62
7
  6
CONTINUOUS
 10
-59.4506966866
 20
-76.233947544
 30
0.0
 11
0.3536610946
 21
0.3536610946
 31
0.0
 40
0.9996954599
 41
-3.9268385237
 42
-2.3563467834
  0
ELLIPSE
  5
530
100
AcDbEntity
  8
RACCORDO
100
AcDbEllipse
 62
7
  6
CONTINUOUS
 10
-59.4506966866
 20
-82.233947544
 30
0.0
 11
0.3536610946
 21
0.3536610946
 31
0.0
 40
0.9996954599
 41
-3.9268385237
 42
-2.3563467834
  0
ELLIPSE
  5
531
100
AcDbEntity
  8
RACCORDO
100
AcDbEllipse
 62
7
  6
CONTINUOUS
 10
-59.4506966866
 20
-81.484099872
 30
0.0
 11
0.3536610946
 21
-0.3536610946
 31
0.0
 40
0.9996954599
 41
2.3563467834
 42
3.9268385237
  0
ELLIPSE
  5
532
100
AcDbEntity
  8
DRAFT
100
AcDbEllipse
 62
7
  6
CONTINUOUS
 10
27.2992271494
 20
-129.9264219937
 30
0.0
 11
3.0
 21
-0.0
 31
0.0
 40
0.0174550649
 41
3.1415926536
 42
6.2831853072
  0
ELLIPSE
  5
533
100
AcDbEntity
  8
DRAFT
100
AcDbEllipse
 62
7
  6
CONTINUOUS
 10
96.7416254351
 20
-95.734023708
 30
0.0
 11
0.0
 21
3.0
 31
0.0
 40
0.0174550649
 41
-3.1415926536
 42
0.0
  0
ELLIPSE
  5
534
100
AcDbEntity
  8
RACCORDO
100
AcDbEllipse
 62
7
  6
CONTINUOUS
 10
-90.7096327765
 20
-60.984099872
 30
0.0
 11
0.3536610946
 21
-0.3536610946
 31
0.0
 40
0.9996954599
 41
2.3563467834
 42
3.9268385237
  0
ELLIPSE
  5
535
100
AcDbEntity
  8
RACCORDO
100
AcDbEllipse
 62
7
  6
CONTINUOUS
 10
7.2991509854
 20
-60.984099872
 30
0.0
 11
-0.3536610946
 21
-0.3536610946
 31
0.0
 40
0.9996954599
 41
2.3563467834
 42
3.9268385237
  0
ELLIPSE
  5
536
100
AcDbEntity
  8
RACCORDO
100
AcDbEllipse
 62
7
  6
CONTINUOUS
 10
7.2991509854
 20
-95.983947544
 30
0.0
 11
-0.3536610946
 21
0.3536610946
 31
0.0
 40
0.9996954599
 41
2.3563467834
 42
3.9268385237
  0
ELLIPSE
  5
537
100
AcDbEntity
  8
RACCORDO
100
AcDbEllipse
 62
7
  6
CONTINUOUS
 10
-90.7096327765
 20
-95.983947544
 30
0.0
 11
0.3536610946
 21
0.3536610946
 31
0.0
 40
0.9996954599
 41
2.3563467834
 42
3.9268385237
  0
ENDSEC
  0
SECTION
  2
OBJECTS
  0
DICTIONARY
  5
C
100
AcDbDictionary
280
0
281
1
  3
ACAD_GROUP
350
D
  3
ACAD_MLINESTYLE
350
17
  3
ACAD_LAYOUT
350
1A
  3
ACAD_PLOTSETTINGS
350
19
  3
ACAD_PLOTSTYLENAME
350
E
  0
DICTIONARY
  5
D
102
{ACAD_REACTORS
330
C
102
}
100
AcDbDictionary
280
0
281
1
  0
ACDBDICTIONARYWDFLT
  5
E
102
{ACAD_REACTORS
330
C
102
}
100
AcDbDictionary
281
1
  3
Normal
350
F
100
AcDbDictionaryWithDefault
340
F
  0
DICTIONARY
  5
17
102
{ACAD_REACTORS
330
C
102
}
100
AcDbDictionary
280
0
281
1
  3
Standard
350
18
  0
DICTIONARY
  5
19
102
{ACAD_REACTORS
330
C
102
}
100
AcDbDictionary
281
1
  0
DICTIONARY
  5
1A
102
{ACAD_REACTORS
330
C
102
}
100
AcDbDictionary
281
1
  3
Model
350
538
  3
Layout1
350
539
  0
ACDBPLACEHOLDER
  5
F
102
{ACAD_REACTORS
330
E
102
}
  0
MLINESTYLE
  5
18
102
{ACAD_REACTORS
330
17
102
}
100
AcDbMlineStyle
  2
STANDARD
 70
0
  3

 62
256
 51
90.0
 52
90.0
 71
2
 49
0.5
 62
256
  6
BYLAYER
 49
-0.5
 62
256
  6
BYLAYER
  0
LAYOUT
  5
538
102
{ACAD_REACTORS
330
1A
102
}
100
AcDbPlotSettings
  1

  2
none_device
  4
ISO_A4_(297.00_x_210.00_MM)
  6

 40
0.0
 41
0.0
 42
0.0
 43
0.0
 44
297.0
 45
210.0
 46
0.0
 47
0.0
 48
0.0
 49
0.0
140
0.0
141
0.0
142
1.0
143
1.0
 70
1024
 72
1
 73
0
 74
0
  7

 75
0
147
1.0
148
0.0
149
0.0
100
AcDbLayout
  1
Model
 70
0
 71
0
 10
0.0
 20
0.0
 11
297.0
 21
210.0
 12
0.0
 22
0.0
 32
0.0
 14
0.0
 24
0.0
 34
0.0
 15
0.0
 25
0.0
 35
0.0
146
0.0
 13
0.0
 23
0.0
 33
0.0
 16
1.0
 26
0.0
 36
0.0
 17
0.0
 27
1.0
 37
0.0
 76
0
330
218
345
0
346
0
  0
LAYOUT
  5
539
102
{ACAD_REACTORS
330
1A
102
}
100
AcDbPlotSettings
  1

  2
none_device
  4
ISO_A4_(297.00_x_210.00_MM)
  6

 40
0.0
 41
0.0
 42
0.0
 43
0.0
 44
297.0
 45
210.0
 46
0.0
 47
0.0
 48
0.0
 49
0.0
140
0.0
141
0.0
142
1.0
143
1.0
 70
0
 72
1
 73
0
 74
0
  7

 75
0
147
1.0
148
0.0
149
0.0
100
AcDbLayout
  1
Layout1
 70
0
 71
1
 10
0.0
 20
0.0
 11
297.0
 21
210.0
 12
0.0
 22
0.0
 32
0.0
 14
0.0
 24
0.0
 34
0.0
 15
0.0
 25
0.0
 35
0.0
146
0.0
 13
0.0
 23
0.0
 33
0.0
 16
1.0
 26
0.0
 36
0.0
 17
0.0
 27
1.0
 37
0.0
 76
0
330
219
345
0
346
0
  0
ENDSEC
  0
EOF
