  0
SECTION
  2
HEADER
  9
$ACADVER
  1
AC1021
  9
$DWGCODEPAGE
  3
ANSI_1252
  9
$EXTMAX
 10
297.0
 20
210.0
 30
0.0
  9
$EXTMIN
 10
0.0
 20
0.0
 30
0.0
  9
$LIMMIN
 10
0.0
 20
0.0
  9
$LIMMAX
 10
297.0
 20
210.0
  9
$VIEWCTR
 10
148.5
 20
105.0
  9
$VIEWSIZE
 40
210.0
  9
$CLAYER
  8
0
  9
$LTSCALE
 40
16.335
  9
$CELTYPE
  6
BYLAYER
  9
$DIMSCALE
 40
1.0
  9
$DIMASZ
 40
3.0
  9
$DIMEXO
 40
0.5
  9
$DIMDLI
 40
11.286
  9
$DIMEXE
 40
1.5
  9
$DIMCEN
 40
2.673
  9
$DIMLFAC
 40
1.0
  9
$DIMBLK
  1
_FILLED
  9
$DIMALT
 70
0
  9
$DIMALTF
 40
0.0393700787
  9
$DIMTXT
 40
3.0
  9
$DIMTOL
 70
1
  9
$DIMLIM
 70
0
  9
$DIMTFAC
 40
1.0
  9
$DIMTP
 40
0.01
  9
$DIMTM
 40
0.01
  9
$DIMGAP
 40
0.625
  9
$DIMDSEP
 70
44
  9
$AUNITS
 70
0
  9
$PDMODE
 70
3
  9
$PDSIZE
 40
3.0
  9
$HANDSEED
  5
3B8
  9
$TILEMODE
 70
1
  9
$MEASUREMENT
 70
1
  9
$INSUNITS
 70
4
  0
ENDSEC
  0
SECTION
  2
CLASSES
  0
CLASS
  1
ACDBDICTIONARYWDFLT
  2
AcDbDictionaryWithDefault
  3
AutoCAD 2000
 90
0
 91
1
280
0
281
0
  0
CLASS
  1
ACDBPLACEHOLDER
  2
AcDbPlaceHolder
  3
AutoCAD 2000
 90
0
 91
1
280
0
281
0
  0
CLASS
  1
LAYOUT
  2
AcDbLayout
  3
AutoCAD 2000
 90
0
 91
0
280
0
281
0
  0
ENDSEC
  0
SECTION
  2
TABLES
  0
TABLE
  2
VPORT
  5
8
100
AcDbSymbolTable
 70
2
  0
VPORT
  5
1F4
100
AcDbSymbolTableRecord
100
AcDbViewportTableRecord
  2
*ACTIVE
 70
0
 10
0.0
 20
0.0
 11
1.0
 21
1.0
 12
148.5
 22
105.0
 13
0.0
 23
0.0
 14
1.0
 24
1.0
 15
0.0
 25
0.0
 16
0.0
 26
0.0
 36
1.0
 17
0.0
 27
0.0
 37
0.0
 40
210.0
 41
1.4142857143
 42
50.0
 43
0.0
 44
0.0
 50
0.0
 51
0.0
 71
0
 72
100
 73
1
 74
1
 75
0
 76
0
 77
0
 78
0
  0
ENDTAB
  0
TABLE
  2
LTYPE
  5
5
100
AcDbSymbolTable
 70
6
  0
LTYPE
  5
14
100
AcDbSymbolTableRecord
100
AcDbLinetypeTableRecord
  2
BYBLOCK
 70
0
  3

 72
65
 73
0
 40
0.0
  0
LTYPE
  5
15
100
AcDbSymbolTableRecord
100
AcDbLinetypeTableRecord
  2
BYLAYER
 70
0
  3

 72
65
 73
0
 40
0.0
  0
LTYPE
  5
16
100
AcDbSymbolTableRecord
100
AcDbLinetypeTableRecord
  2
CONTINUOUS
 70
64
  3
Solid line
 72
65
 73
0
 40
0.0
  0
LTYPE
  5
1F5
100
AcDbSymbolTableRecord
100
AcDbLinetypeTableRecord
  2
CENTER
 70
64
  3
____ _ ____ _ ____ _ ____ _ ____ _ ____ _ ____
 72
65
 73
4
 40
0.6
 49
0.375
 74
0
 49
-0.075
 74
0
 49
0.075
 74
0
 49
-0.075
 74
0
  0
LTYPE
  5
1F6
100
AcDbSymbolTableRecord
100
AcDbLinetypeTableRecord
  2
HIDDEN
 70
64
  3
- - - - - - - - - - - - - - - - - - - -
 72
65
 73
2
 40
0.2
 49
0.1
 74
0
 49
-0.1
 74
0
  0
LTYPE
  5
1F7
100
AcDbSymbolTableRecord
100
AcDbLinetypeTableRecord
  2
PHANTOM
 70
64
  3
_____ _ _ _____ _ _ _____ _ _ _____
 72
65
 73
6
 40
0.8
 49
0.45
 74
0
 49
-0.05
 74
0
 49
0.1
 74
0
 49
-0.05
 74
0
 49
0.1
 74
0
 49
-0.05
 74
0
  0
LTYPE
  5
1F8
100
AcDbSymbolTableRecord
100
AcDbLinetypeTableRecord
  2
DOT
 70
64
  3
. . . . . . . . . . . . . . . . . . . .
 72
65
 73
2
 40
0.2
 49
0.1
 74
0
 49
-0.1
 74
0
  0
LTYPE
  5
1F9
100
AcDbSymbolTableRecord
100
AcDbLinetypeTableRecord
  2
DASHED
 70
64
  3
- - - - - - - - - - - - - - - - - - - -
 72
65
 73
2
 40
0.2
 49
0.1
 74
0
 49
-0.1
 74
0
  0
ENDTAB
  0
TABLE
  2
LAYER
  5
2
100
AcDbSymbolTable
 70
36
  0
LAYER
  5
10
100
AcDbSymbolTableRecord
100
AcDbLayerTableRecord
  2
0
 70
0
 62
7
  6
CONTINUOUS
370
-3
390
F
  0
LAYER
  5
1FA
100
AcDbSymbolTableRecord
100
AcDbLayerTableRecord
  2
DEFAULT_1
 70
0
 62
7
  6
CENTER
370
-3
390
F
  0
LAYER
  5
1FB
100
AcDbSymbolTableRecord
100
AcDbLayerTableRecord
  2
DEFAULT_2
 70
0
 62
7
  6
HIDDEN
370
-3
390
F
  0
LAYER
  5
1FC
100
AcDbSymbolTableRecord
100
AcDbLayerTableRecord
  2
DEFAULT_3
 70
0
 62
7
  6
PHANTOM
370
-3
390
F
  0
LAYER
  5
1FD
100
AcDbSymbolTableRecord
100
AcDbLayerTableRecord
  2
ASSI
 70
0
 62
7
  6
CONTINUOUS
370
-3
390
F
  0
LAYER
  5
1FE
100
AcDbSymbolTableRecord
100
AcDbLayerTableRecord
  2
COORDINATE
 70
0
 62
7
  6
CONTINUOUS
370
-3
390
F
  0
LAYER
  5
1FF
100
AcDbSymbolTableRecord
100
AcDbLayerTableRecord
  2
COPY_PUBLISH
 70
0
 62
7
  6
CONTINUOUS
370
-3
390
F
  0
LAYER
  5
200
100
AcDbSymbolTableRecord
100
AcDbLayerTableRecord
  2
COSMETIC
 70
0
 62
7
  6
CONTINUOUS
370
-3
390
F
  0
LAYER
  5
201
100
AcDbSymbolTableRecord
100
AcDbLayerTableRecord
  2
COSMETICI
 70
0
 62
7
  6
CONTINUOUS
370
-3
390
F
  0
LAYER
  5
202
100
AcDbSymbolTableRecord
100
AcDbLayerTableRecord
  2
CURVE
 70
0
 62
7
  6
CONTINUOUS
370
-3
390
F
  0
LAYER
  5
203
100
AcDbSymbolTableRecord
100
AcDbLayerTableRecord
  2
DRAFT
 70
0
 62
7
  6
CONTINUOUS
370
-3
390
F
  0
LAYER
  5
204
100
AcDbSymbolTableRecord
100
AcDbLayerTableRecord
  2
IGES
 70
0
 62
7
  6
CONTINUOUS
370
-3
390
F
  0
LAYER
  5
205
100
AcDbSymbolTableRecord
100
AcDbLayerTableRecord
  2
IMPORT_IGES
 70
0
 62
7
  6
CONTINUOUS
370
-3
390
F
  0
LAYER
  5
206
100
AcDbSymbolTableRecord
100
AcDbLayerTableRecord
  2
INTF_1
 70
0
 62
7
  6
CONTINUOUS
370
-3
390
F
  0
LAYER
  5
207
100
AcDbSymbolTableRecord
100
AcDbLayerTableRecord
  2
INTF_11
 70
0
 62
7
  6
CONTINUOUS
370
-3
390
F
  0
LAYER
  5
208
100
AcDbSymbolTableRecord
100
AcDbLayerTableRecord
  2
INTF_12
 70
0
 62
7
  6
CONTINUOUS
370
-3
390
F
  0
LAYER
  5
209
100
AcDbSymbolTableRecord
100
AcDbLayerTableRecord
  2
INTF_13
 70
0
 62
7
  6
CONTINUOUS
370
-3
390
F
  0
LAYER
  5
20A
100
AcDbSymbolTableRecord
100
AcDbLayerTableRecord
  2
INTF_2
 70
0
 62
7
  6
CONTINUOUS
370
-3
390
F
  0
LAYER
  5
20B
100
AcDbSymbolTableRecord
100
AcDbLayerTableRecord
  2
INTF_3
 70
0
 62
7
  6
CONTINUOUS
370
-3
390
F
  0
LAYER
  5
20C
100
AcDbSymbolTableRecord
100
AcDbLayerTableRecord
  2
INTF_GREEN
 70
0
 62
7
  6
CONTINUOUS
370
-3
390
F
  0
LAYER
  5
20D
100
AcDbSymbolTableRecord
100
AcDbLayerTableRecord
  2
INTF_RED
 70
0
 62
7
  6
CONTINUOUS
370
-3
390
F
  0
LAYER
  5
20E
100
AcDbSymbolTableRecord
100
AcDbLayerTableRecord
  2
INTF_YELLOW
 70
0
 62
7
  6
CONTINUOUS
370
-3
390
F
  0
LAYER
  5
20F
100
AcDbSymbolTableRecord
100
AcDbLayerTableRecord
  2
MIXEDCOLOR
 70
0
 62
7
  6
CONTINUOUS
370
-3
390
F
  0
LAYER
  5
210
100
AcDbSymbolTableRecord
100
AcDbLayerTableRecord
  2
NOTE
 70
0
 62
7
  6
CONTINUOUS
370
-3
390
F
  0
LAYER
  5
211
100
AcDbSymbolTableRecord
100
AcDbLayerTableRecord
  2
PIANI
 70
0
 62
7
  6
CONTINUOUS
370
-3
390
F
  0
LAYER
  5
212
100
AcDbSymbolTableRecord
100
AcDbLayerTableRecord
  2
PUNTI
 70
0
 62
7
  6
CONTINUOUS
370
-3
390
F
  0
LAYER
  5
213
100
AcDbSymbolTableRecord
100
AcDbLayerTableRecord
  2
RACCORDO
 70
0
 62
7
  6
CONTINUOUS
370
-3
390
F
  0
LAYER
  5
214
100
AcDbSymbolTableRecord
100
AcDbLayerTableRecord
  2
SIMBOLI
 70
0
 62
7
  6
CONTINUOUS
370
-3
390
F
  0
LAYER
  5
215
100
AcDbSymbolTableRecord
100
AcDbLayerTableRecord
  2
SKEL
 70
0
 62
7
  6
CONTINUOUS
370
-3
390
F
  0
LAYER
  5
216
100
AcDbSymbolTableRecord
100
AcDbLayerTableRecord
  2
SMUSSO
 70
0
 62
7
  6
CONTINUOUS
370
-3
390
F
  0
LAYER
  5
217
100
AcDbSymbolTableRecord
100
AcDbLayerTableRecord
  2
SNAPLINE
 70
0
 62
7
  6
CONTINUOUS
370
-3
390
F
  0
LAYER
  5
218
100
AcDbSymbolTableRecord
100
AcDbLayerTableRecord
  2
SUPERFICI
 70
0
 62
7
  6
CONTINUOUS
370
-3
390
F
  0
LAYER
  5
219
100
AcDbSymbolTableRecord
100
AcDbLayerTableRecord
  2
TRASH
 70
0
 62
7
  6
CONTINUOUS
370
-3
390
F
  0
LAYER
  5
21A
100
AcDbSymbolTableRecord
100
AcDbLayerTableRecord
  2
XSEC_DATUMS
 70
0
 62
7
  6
CONTINUOUS
370
-3
390
F
  0
ENDTAB
  0
TABLE
  2
STYLE
  5
3
100
AcDbSymbolTable
 70
1
  0
STYLE
  5
11
100
AcDbSymbolTableRecord
100
AcDbTextStyleTableRecord
  2
STANDARD
 70
0
 40
0.0
 41
0.8
 50
0.0
 71
0
 42
0.2
  3
txt
  4

  0
STYLE
  5
21B
100
AcDbSymbolTableRecord
100
AcDbTextStyleTableRecord
  2
TEXTSTYLE_1
 70
0
 40
0.0
 41
0.8
 50
0.0
 71
0
 42
0.2
  3
gdt
  4

  0
ENDTAB
  0
TABLE
  2
VIEW
  5
6
100
AcDbSymbolTable
 70
0
  0
ENDTAB
  0
TABLE
  2
UCS
  5
7
100
AcDbSymbolTable
 70
0
  0
ENDTAB
  0
TABLE
  2
APPID
  5
9
100
AcDbSymbolTable
 70
1
  0
APPID
  5
21C
100
AcDbSymbolTableRecord
100
AcDbRegAppTableRecord
  2
ACAD
 70
0
  0
ENDTAB
  0
TABLE
  2
BLOCK_RECORD
  5
1
100
AcDbSymbolTable
 70
0
  0
BLOCK_RECORD
  5
21D
100
AcDbSymbolTableRecord
100
AcDbBlockTableRecord
  2
*Model_Space
  0
BLOCK_RECORD
  5
21E
100
AcDbSymbolTableRecord
100
AcDbBlockTableRecord
  2
*Paper_Space
  0
ENDTAB
  0
TABLE
  2
DIMSTYLE
  5
A
100
AcDbSymbolTable
 70
1
100
AcDbDimStyleTable
 71
0
  0
DIMSTYLE
105
21F
100
AcDbSymbolTableRecord
100
AcDbDimStyleTableRecord
  2
STANDARD
 70
0
  3

  4

 40
1.0
 41
3.0
 42
0.5
 43
0.38
 44
1.5
 45
0.0
 46
0.0
 47
0.01
 48
0.01
140
3.0
141
0.09
142
0.0
143
25.4
144
1.0
145
0.0
146
1.0
147
0.625
 71
1.0
 72
0.0
 73
0
 74
0
 75
0
 76
0
 77
1
 78
8
170
0
171
2
172
0
173
0
174
0
175
0
176
0
177
0
178
0
270
2
271
2
272
2
273
2
274
2
275
0
280
0
281
0
282
0
283
1
284
8
285
0
286
0
287
3
288
0
340
11
278
44
  0
ENDTAB
  0
ENDSEC
  0
SECTION
  2
BLOCKS
  0
BLOCK
  5
20
100
AcDbEntity
  8
0
100
AcDbBlockBegin
  2
*Model_Space
 70
0
 10
0.0
 20
0.0
 30
0.0
  3
*Model_Space
  1

  0
ENDBLK
  5
21
100
AcDbEntity
  8
0
100
AcDbBlockEnd
  0
BLOCK
  5
1C
100
AcDbEntity
  8
0
100
AcDbBlockBegin
  2
*Paper_Space
 70
0
 10
0.0
 20
0.0
 30
0.0
  3
*Paper_Space
  1

  0
ENDBLK
  5
1D
100
AcDbEntity
  8
0
100
AcDbBlockEnd
  0
ENDSEC
  0
SECTION
  2
ENTITIES
  0
LWPOLYLINE
  5
220
100
AcDbEntity
  8
0
100
AcDbPolyline
 62
7
  6
CONTINUOUS
 90
6
 70
0
 10
-3.8997167696
 20
21.453506059
 10
-3.9237452959
 20
21.4447034724
 10
-3.9478008199
 20
21.4347941551
 10
-3.9717713726
 20
21.4236984808
 10
-3.995859261
 20
21.4116256759
 10
-4.0200889295
 20
21.3986321398
  0
LWPOLYLINE
  5
221
100
AcDbEntity
  8
0
100
AcDbPolyline
 62
7
  6
CONTINUOUS
 90
4
 70
0
 10
-3.8104986832
 20
21.4837340324
 10
-3.8316897414
 20
21.4768365885
 10
-3.8536271593
 20
21.4695053584
 10
-3.8997167696
 20
21.453506059
  0
LWPOLYLINE
  5
222
100
AcDbEntity
  8
0
100
AcDbPolyline
 62
7
  6
CONTINUOUS
 90
14
 70
0
 10
-2.8344367807
 20
22.5940381228
 10
-2.8515569798
 20
22.580065159
 10
-2.8679590444
 20
22.5662559985
 10
-2.8836945265
 20
22.552636577
 10
-2.8988811485
 20
22.5390037304
 10
-2.9135440832
 20
22.5252429232
 10
-2.92761902
 20
22.5114424047
 10
-2.9410883996
 20
22.4977014824
 10
-2.9539425848
 20
22.4839905449
 10
-2.9661800135
 20
22.4703355155
 10
-2.9778197721
 20
22.456941176
 10
-2.9887095067
 20
22.4440236041
 10
-2.999033351
 20
22.4313914361
 10
-3.0197113019
 20
22.4056782653
  0
LWPOLYLINE
  5
223
100
AcDbEntity
  8
0
100
AcDbPolyline
 62
7
  6
CONTINUOUS
 90
3
 70
0
 10
-2.7793175557
 20
22.637832526
 10
-2.7983226583
 20
22.6228138339
 10
-2.8344367807
 20
22.5940381228
  0
LWPOLYLINE
  5
224
100
AcDbEntity
  8
0
100
AcDbPolyline
 62
7
  6
CONTINUOUS
 90
6
 70
0
 10
-4.246080945
 20
21.2517238425
 10
-4.2781932439
 20
21.2269443605
 10
-4.3080694014
 20
21.2022538817
 10
-4.3357820349
 20
21.1779243447
 10
-4.3611043264
 20
21.1543991665
 10
-4.3844354636
 20
21.1316697184
  0
LWPOLYLINE
  5
225
100
AcDbEntity
  8
0
100
AcDbPolyline
 62
7
  6
CONTINUOUS
 90
8
 70
0
 10
-2.5908102368
 20
22.7733034455
 10
-2.6213774754
 20
22.754484306
 10
-2.6494570908
 20
22.7358022282
 10
-2.6751778057
 20
22.7176149303
 10
-2.6982236065
 20
22.7005931385
 10
-2.7191896858
 20
22.6846757306
 10
-2.7395035708
 20
22.6689521406
 10
-2.7793175557
 20
22.637832526
  0
LWPOLYLINE
  5
226
100
AcDbEntity
  8
0
100
AcDbPolyline
 62
7
  6
CONTINUOUS
 90
7
 70
0
 10
-4.0200889295
 20
21.3986321398
 10
-4.0553523547
 20
21.3774852899
 10
-4.0919781173
 20
21.3551509805
 10
-4.1296546233
 20
21.3315278026
 10
-4.1681018976
 20
21.3064987471
 10
-4.2070159295
 20
21.2799402373
 10
-4.246080945
 20
21.2517238425
  0
LWPOLYLINE
  5
227
100
AcDbEntity
  8
0
100
AcDbPolyline
 62
7
  6
CONTINUOUS
 90
10
 70
0
 10
-3.8400018595
 20
20.8494512906
 10
-3.7791500065
 20
20.9161514075
 10
-3.7331819401
 20
20.9857998593
 10
-3.7016311096
 20
21.0581120539
 10
-3.6838243885
 20
21.1360085768
 10
-3.6794802122
 20
21.2163362241
 10
-3.6892454671
 20
21.29016329
 10
-3.713665988
 20
21.3549589557
 10
-3.7526405642
 20
21.4142946115
 10
-3.8063988796
 20
21.4687855
  0
LWPOLYLINE
  5
228
100
AcDbEntity
  8
0
100
AcDbPolyline
 62
7
  6
CONTINUOUS
 90
16
 70
0
 10
-4.3844354636
 20
21.1316697184
 10
-4.428800421
 20
21.0875298681
 10
-4.4501137938
 20
21.066541756
 10
-4.4706181473
 20
21.0457869117
 10
-4.4901791063
 20
21.0250261649
 10
-4.5088507564
 20
21.0044860569
 10
-4.526616714
 20
20.9841480424
 10
-4.5434132505
 20
20.9639144844
 10
-4.559298665
 20
20.9438365769
 10
-4.5744768908
 20
20.9241529454
 10
-4.5891234363
 20
20.904924336
 10
-4.6031513621
 20
20.8861233269
 10
-4.6164088368
 20
20.867884715
 10
-4.6288717539
 20
20.8502557106
 10
-4.6406398546
 20
20.8332020959
 10
-4.6517479335
 20
20.8167305268
  0
LWPOLYLINE
  5
229
100
AcDbEntity
  8
0
100
AcDbPolyline
 62
7
  6
CONTINUOUS
 90
10
 70
0
 10
-0.5610847403
 20
22.042240088
 10
-0.741271891
 20
21.8789541707
 10
-0.9326699335
 20
21.7141391946
 10
-1.1328948541
 20
21.5457173309
 10
-1.337075153
 20
21.368819298
 10
-1.5441299787
 20
21.1824541169
 10
-1.7582300191
 20
20.9914949807
 10
-1.9799440373
 20
20.7970479106
 10
-2.2047534992
 20
20.5945439917
 10
-2.4303630841
 20
20.3817527697
  0
LINE
  5
22A
100
AcDbEntity
  8
0
100
AcDbLine
 62
7
  6
CONTINUOUS
 10
-1.3379490949
 20
20.0122389085
 11
-0.7544798166
 21
20.5431858335
  0
LWPOLYLINE
  5
22B
100
AcDbEntity
  8
0
100
AcDbPolyline
 62
7
  6
CONTINUOUS
 90
16
 70
0
 10
2.6020498261
 20
22.3795915376
 10
2.5185805622
 20
22.3082800257
 10
2.4180954364
 20
22.2547306164
 10
2.3052637379
 20
22.2215959031
 10
2.1840090576
 20
22.2108390793
 10
2.0615812378
 20
22.2235143163
 10
1.9476321279
 20
22.2570442373
 10
1.8473757798
 20
22.3070138206
 10
1.762455806
 20
22.3704638587
 10
1.6949967235
 20
22.444019412
 10
1.6465424662
 20
22.522773163
 10
1.6160654136
 20
22.6044877819
 10
1.6032629542
 20
22.6904692589
 10
1.6100136316
 20
22.7792437233
 10
1.6373807043
 20
22.8661112157
 10
1.6855031548
 20
22.9475207738
  0
LWPOLYLINE
  5
22C
100
AcDbEntity
  8
0
100
AcDbPolyline
 62
7
  6
CONTINUOUS
 90
3
 70
0
 10
-3.0197113019
 20
22.4056782653
 10
-3.0300517635
 20
22.392618682
 10
-3.0403290338
 20
22.3794832473
  0
LWPOLYLINE
  5
22D
100
AcDbEntity
  8
0
100
AcDbPolyline
 62
7
  6
CONTINUOUS
 90
7
 70
0
 10
-0.2191884654
 20
21.6844240924
 10
-0.2428560368
 20
21.6546944431
 10
-0.2655141785
 20
21.6230919518
 10
-0.287170051
 20
21.5895859417
 10
-0.3074902218
 20
21.5538984774
 10
-0.3268343113
 20
21.5162271018
 10
-0.3660257711
 20
21.4372254965
  0
LWPOLYLINE
  5
22E
100
AcDbEntity
  8
0
100
AcDbPolyline
 62
7
  6
CONTINUOUS
 90
16
 70
0
 10
-2.4303630841
 20
20.3817527697
 10
-2.5022986649
 20
20.2964165377
 10
-2.5543386624
 20
20.2086388448
 10
-2.5854250969
 20
20.1177781593
 10
-2.5940834752
 20
20.0197811217
 10
-2.5797595424
 20
19.918274483
 10
-2.5435434685
 20
19.8247840479
 10
-2.4837852493
 20
19.7412461891
 10
-2.4024078941
 20
19.6674795476
 10
-2.3073532023
 20
19.6120397539
 10
-2.1980172355
 20
19.5775551194
 10
-2.077422136
 20
19.5632408036
 10
-1.9594111157
 20
19.5712317839
 10
-1.8490475393
 20
19.6016337401
 10
-1.7428537343
 20
19.653617908
 10
-1.641378304
 20
19.7268313879
  0
LWPOLYLINE
  5
22F
100
AcDbEntity
  8
0
100
AcDbPolyline
 62
7
  6
CONTINUOUS
 90
10
 70
0
 10
4.2132361481
 20
20.8057270114
 10
4.4058708029
 20
21.0039222985
 10
4.5867308999
 20
21.2149585879
 10
4.7541302705
 20
21.4378051904
 10
4.9059017942
 20
21.6722425317
 10
5.0406782841
 20
21.9160432367
 10
5.1584055684
 20
22.1652761767
 10
5.2584170776
 20
22.4179800895
 10
5.3389334535
 20
22.6738646369
 10
5.3986939192
 20
22.9317043925
  0
LWPOLYLINE
  5
230
100
AcDbEntity
  8
0
100
AcDbPolyline
 62
7
  6
CONTINUOUS
 90
3
 70
0
 10
-1.641378304
 20
19.7268313879
 10
-1.4891196579
 20
19.871692068
 10
-1.3379490949
 20
20.0122389085
  0
LWPOLYLINE
  5
231
100
AcDbEntity
  8
0
100
AcDbPolyline
 62
7
  6
CONTINUOUS
 90
10
 70
0
 10
4.2132361481
 20
20.8057270114
 10
4.1391459104
 20
20.7471680904
 10
4.0568020933
 20
20.7043284874
 10
3.9668278305
 20
20.6775135678
 10
3.8654799453
 20
20.6669760253
 10
3.7575555908
 20
20.6729392181
 10
3.6561029669
 20
20.6948943169
 10
3.565261846
 20
20.7319835785
 10
3.4805598148
 20
20.7837103137
 10
3.401624407
 20
20.8494512906
  0
LWPOLYLINE
  5
232
100
AcDbEntity
  8
0
100
AcDbPolyline
 62
7
  6
CONTINUOUS
 90
10
 70
0
 10
2.602042449
 20
22.3795871932
 10
2.7184965183
 20
22.5336744743
 10
2.823709868
 20
22.694424941
 10
2.9164232015
 20
22.860842021
 10
2.9939905423
 20
23.0314944043
 10
3.056619644
 20
23.2054971629
 10
3.1070031851
 20
23.3831131476
 10
3.1447003874
 20
23.5641270502
 10
3.1665026225
 20
23.7472395941
 10
3.1703946745
 20
23.9314518162
  0
LWPOLYLINE
  5
233
100
AcDbEntity
  8
SUPERFICI
100
AcDbPolyline
 62
253
  6
CONTINUOUS
 90
10
 70
0
 10
1.2451131604
 20
19.7697610186
 10
1.2817355457
 20
19.8151171957
 10
1.3198688707
 20
19.8602791101
 10
1.3593243003
 20
19.9050323466
 10
1.4005169805
 20
19.9497734151
 10
1.4426798294
 20
19.9936427845
 10
1.4837618325
 20
20.0346866464
 10
1.5229015129
 20
20.0723107139
 10
1.5604598384
 20
20.1070703567
 10
1.5961991705
 20
20.1389413164
  0
LINE
  5
234
100
AcDbEntity
  8
RACCORDO
100
AcDbLine
 62
7
  6
CONTINUOUS
 10
-9.9572551952
 20
24.1200079248
 11
-10.1136852064
 21
23.011297587
  0
LWPOLYLINE
  5
235
100
AcDbEntity
  8
RACCORDO
100
AcDbPolyline
 62
253
  6
CONTINUOUS
 90
40
 70
0
 10
-9.4946027218
 20
24.1178176715
 10
-9.4254490849
 20
24.476637176
 10
-9.3376341521
 20
24.8442979881
 10
-9.2312425206
 20
25.2166790069
 10
-9.1052135583
 20
25.5929922319
 10
-8.9587924622
 20
25.9717193681
 10
-8.7933802225
 20
26.3479546297
 10
-8.6077531292
 20
26.7224036012
 10
-8.4023848754
 20
27.0921422029
 10
-8.1829299977
 20
27.4478015069
 10
-7.9505360342
 20
27.788917927
 10
-7.7060569018
 20
28.1153770972
 10
-7.4567569668
 20
28.4199674712
 10
-7.2070423905
 20
28.7005437795
 10
-6.9560802816
 20
28.9608634533
 10
-6.7038261572
 20
29.203304124
 10
-6.4515668257
 20
29.4284933227
 10
-6.2003401488
 20
29.6371746886
 10
-5.9492176371
 20
29.8315700692
 10
-5.6984019697
 20
30.0126686377
 10
-5.4492771412
 20
30.1805484194
 10
-5.2024039373
 20
30.335863305
 10
-4.958301753
 20
30.4792654205
 10
-4.7176879664
 20
30.6112403923
 10
-4.48134818
 20
30.7322086045
 10
-4.2502142542
 20
30.8425832109
 10
-4.0243480169
 20
30.9431776898
 10
-3.803143495
 20
31.0349489629
 10
-3.5870388528
 20
31.1183846704
 10
-3.3762969807
 20
31.1940260451
 10
-3.1699371164
 20
31.262727337
 10
-2.9680463422
 20
31.324949132
 10
-2.7710406336
 20
31.3810406611
 10
-2.57834797
 20
31.4315323735
 10
-2.3900150243
 20
31.4767958058
 10
-2.2063486856
 20
31.5171354932
 10
-2.0271250383
 20
31.5528973713
 10
-1.8524878063
 20
31.5843865603
 10
-1.682554533
 20
31.6119044023
 10
-1.5170384306
 20
31.635737194
  0
LWPOLYLINE
  5
236
100
AcDbEntity
  8
RACCORDO
100
AcDbPolyline
 62
253
  6
CONTINUOUS
 90
8
 70
0
 10
-10.1315485998
 20
22.708133346
 10
-10.1152288034
 20
22.7884281654
 10
-10.0764453849
 20
22.8609652693
 10
-10.0160969619
 20
22.9281186132
 10
-9.9359322319
 20
22.9879421907
 10
-9.8382741013
 20
23.0387023854
 10
-9.7259523763
 20
23.0789282047
 10
-9.6022217638
 20
23.1074539032
  0
LWPOLYLINE
  5
237
100
AcDbEntity
  8
0
100
AcDbPolyline
 62
7
  6
CONTINUOUS
 90
10
 70
0
 10
-2.4814048513
 20
22.8467462947
 10
-2.4845731344
 20
22.8371095238
 10
-2.4907766182
 20
22.8285795362
 10
-2.4996141908
 20
22.821074948
 10
-2.5108012247
 20
22.8147119535
 10
-2.5238537859
 20
22.8086641746
 10
-2.5383959093
 20
22.8016412419
 10
-2.5544104634
 20
22.7933264096
 10
-2.5719009464
 20
22.7839206599
 10
-2.5908102368
 20
22.7733034455
  0
LWPOLYLINE
  5
238
100
AcDbEntity
  8
0
100
AcDbPolyline
 62
7
  6
CONTINUOUS
 90
4
 70
0
 10
-0.6515323938
 20
20.797171723
 10
-0.6765602006
 20
20.7366037918
 10
-0.7019933502
 20
20.6740431233
 10
-0.7544798166
 20
20.5431858335
  0
LWPOLYLINE
  5
239
100
AcDbEntity
  8
0
100
AcDbPolyline
 62
7
  6
CONTINUOUS
 90
3
 70
0
 10
-0.5792048114
 20
20.9677470567
 10
-0.6027948944
 20
20.9126619321
 10
-0.6515323938
 20
20.797171723
  0
LINE
  5
23A
100
AcDbEntity
  8
0
100
AcDbLine
 62
7
  6
CONTINUOUS
 10
-0.5333933985
 20
21.0728343084
 11
-0.5792048114
 21
20.9677470567
  0
LINE
  5
23B
100
AcDbEntity
  8
0
100
AcDbLine
 62
7
  6
CONTINUOUS
 10
-0.4894161991
 20
21.1717328134
 11
-0.5333933985
 21
21.0728343084
  0
LWPOLYLINE
  5
23C
100
AcDbEntity
  8
0
100
AcDbPolyline
 62
7
  6
CONTINUOUS
 90
3
 70
0
 10
-0.4263871164
 20
21.3098245065
 10
-0.4470252557
 20
21.2651082797
 10
-0.4894161991
 20
21.1717328134
  0
LWPOLYLINE
  5
23D
100
AcDbEntity
  8
0
100
AcDbPolyline
 62
7
  6
CONTINUOUS
 90
3
 70
0
 10
-0.3660257711
 20
21.4372254965
 10
-0.3858949397
 20
21.3958725187
 10
-0.4263871164
 20
21.3098245065
  0
LWPOLYLINE
  5
23E
100
AcDbEntity
  8
0
100
AcDbPolyline
 62
253
  6
CONTINUOUS
 90
7
 70
0
 10
1.2029591654
 20
19.7268995902
 10
1.2083191521
 20
19.7356126762
 10
1.2143468644
 20
19.743699609
 10
1.2210411928
 20
19.7511591459
 10
1.2284010538
 20
19.7579900489
 10
1.2364253883
 20
19.7641910834
 10
1.2451131604
 20
19.7697610186
  0
LINE
  5
23F
100
AcDbEntity
  8
SUPERFICI
100
AcDbLine
 62
7
  6
CONTINUOUS
 10
-2.2191387262
 20
5.2731173679
 11
-0.2821671517
 21
7.2100889424
  0
LINE
  5
240
100
AcDbEntity
  8
SUPERFICI
100
AcDbLine
 62
7
  6
CONTINUOUS
 10
-0.2191887262
 20
6.5659750457
 11
-2.2191387262
 21
4.5660250457
  0
LWPOLYLINE
  5
241
100
AcDbEntity
  8
SUPERFICI
100
AcDbPolyline
 62
7
  6
CONTINUOUS
 90
7
 70
0
 10
-1.7558573656
 20
-30.8989920602
 10
-1.1678968422
 20
-31.0500599975
 10
-0.564968442
 20
-31.129018022
 10
0.0440523587
 20
-31.1340739076
 10
0.6482000571
 20
-31.0650813791
 10
1.2385773405
 20
-30.9237380046
 10
1.529332926
 20
-30.8253225156
  0
LINE
  5
242
100
AcDbEntity
  8
SUPERFICI
100
AcDbLine
 62
7
  6
CONTINUOUS
 10
-1.9677108108
 20
-30.8253216388
 11
-1.7558573656
 21
-30.8989920602
  0
LWPOLYLINE
  5
243
100
AcDbEntity
  8
SUPERFICI
100
AcDbPolyline
 62
7
  6
CONTINUOUS
 90
10
 70
0
 10
-1.9677090381
 20
-30.8253238365
 10
-2.0218722678
 20
-30.801373108
 10
-2.0726196629
 20
-30.7713106016
 10
-2.1194899647
 20
-30.735447988
 10
-2.1618774018
 20
-30.6942747372
 10
-2.1991164846
 20
-30.6483675851
 10
-2.2306655429
 20
-30.598391793
 10
-2.2560949027
 20
-30.5451163158
 10
-2.2750475593
 20
-30.4892344494
 10
-2.2873106528
 20
-30.4312615985
  0
LWPOLYLINE
  5
244
100
AcDbEntity
  8
RACCORDO
100
AcDbPolyline
 62
253
  6
CONTINUOUS
 90
10
 70
0
 10
-10.0468118245
 20
21.1528211006
 10
-10.0479639927
 20
21.2170910571
 10
-10.0324376079
 20
21.2825131912
 10
-10.0005595332
 20
21.3477102326
 10
-9.9530008684
 20
21.4113096501
 10
-9.8907628224
 20
21.4719725454
 10
-9.8151556355
 20
21.5284218405
 10
-9.7277709964
 20
21.5794691621
 10
-9.6304485334
 20
21.62403986
 10
-9.5252370867
 20
21.6611956301
  0
LWPOLYLINE
  5
245
100
AcDbEntity
  8
RACCORDO
100
AcDbPolyline
 62
7
  6
CONTINUOUS
 90
4
 70
0
 10
-10.1315229663
 20
22.7081344134
 10
-10.1382787314
 20
22.3689070323
 10
-10.1300307772
 20
22.0085788614
 10
-10.1064801624
 20
21.6543252421
  0
LINE
  5
246
100
AcDbEntity
  8
RACCORDO
100
AcDbLine
 62
253
  6
CONTINUOUS
 10
-9.607810639
 20
22.9884432281
 11
-9.603665968
 21
23.1071454576
  0
LINE
  5
247
100
AcDbEntity
  8
RACCORDO
100
AcDbLine
 62
7
  6
CONTINUOUS
 10
-10.131583546
 20
22.7072541118
 11
-10.1315485998
 21
22.708133346
  0
LINE
  5
248
100
AcDbEntity
  8
RACCORDO
100
AcDbLine
 62
7
  6
CONTINUOUS
 10
-10.1136852064
 20
23.011297587
 11
-10.131583546
 21
22.7072541118
  0
LWPOLYLINE
  5
249
100
AcDbEntity
  8
RACCORDO
100
AcDbPolyline
 62
253
  6
CONTINUOUS
 90
4
 70
0
 10
-9.6022223355
 20
23.1074522866
 10
-9.5815289552
 20
23.4328776781
 10
-9.546079058
 20
23.7699335245
 10
-9.4946027218
 20
24.1178176715
  0
LWPOLYLINE
  5
24A
100
AcDbEntity
  8
SUPERFICI
100
AcDbPolyline
 62
253
  6
CONTINUOUS
 90
10
 70
0
 10
-0.2191886613
 20
-28.9763566435
 10
-0.4002639054
 20
-29.017386893
 10
-0.5648627284
 20
-29.0782938163
 10
-0.7128988785
 20
-29.1587722281
 10
-0.8412271671
 20
-29.2623398978
 10
-0.9530449818
 20
-29.3833353599
 10
-1.0577858383
 20
-29.5077497756
 10
-1.1576181902
 20
-29.6310936575
 10
-1.2504071896
 20
-29.755941085
 10
-1.4249052826
 20
-29.9997431503
  0
LINE
  5
24B
100
AcDbEntity
  8
SUPERFICI
100
AcDbLine
 62
253
  6
CONTINUOUS
 10
-2.6219921048
 20
-25.1984845405
 11
-2.5921173823
 21
-25.1940306374
  0
LINE
  5
24C
100
AcDbEntity
  8
RACCORDO
100
AcDbLine
 62
253
  6
CONTINUOUS
 10
-2.6411108544
 20
-25.3826730525
 11
-2.6197211848
 21
-25.3797350014
  0
LINE
  5
24D
100
AcDbEntity
  8
RACCORDO
100
AcDbLine
 62
253
  6
CONTINUOUS
 10
-2.6416625889
 20
-25.3786680609
 11
-2.6595298749
 21
-25.3810183813
  0
LWPOLYLINE
  5
24E
100
AcDbEntity
  8
SUPERFICI
100
AcDbPolyline
 62
253
  6
CONTINUOUS
 90
11
 70
0
 10
-0.2191887262
 20
-28.7189797357
 10
0.0172610266
 20
-28.7409739764
 10
0.2396048082
 20
-28.7881830063
 10
0.4424377498
 20
-28.8606068254
 10
0.6259801119
 20
-28.9643732834
 10
0.7907882064
 20
-29.0933545306
 10
0.9395344165
 20
-29.2291670184
 10
1.072400318
 20
-29.3697067335
 10
1.1912939922
 20
-29.5170776892
 10
1.3036953079
 20
-29.6592083768
 10
1.4078086587
 20
-29.7941252931
  0
LINE
  5
24F
100
AcDbEntity
  8
RACCORDO
100
AcDbLine
 62
253
  6
CONTINUOUS
 10
2.2032844922
 20
-25.378663001
 11
2.2211050685
 21
-25.3810092812
  0
LINE
  5
250
100
AcDbEntity
  8
RACCORDO
100
AcDbLine
 62
253
  6
CONTINUOUS
 10
2.2027818822
 20
-25.3826829171
 11
2.1813691873
 21
-25.3797384995
  0
LINE
  5
251
100
AcDbEntity
  8
SUPERFICI
100
AcDbLine
 62
253
  6
CONTINUOUS
 10
2.1836344117
 20
-25.1985033863
 11
2.1537399299
 21
-25.1940306374
  0
LWPOLYLINE
  5
252
100
AcDbEntity
  8
SUPERFICI
100
AcDbPolyline
 62
253
  6
CONTINUOUS
 90
8
 70
0
 10
1.5293329612
 20
-30.8253225024
 10
1.5203247557
 20
-30.8165281529
 10
1.5024430906
 20
-30.7885115875
 10
1.4756548204
 20
-30.7437481954
 10
1.4391483776
 20
-30.6847528429
 10
1.3936199043
 20
-30.6132518056
 10
1.3412976488
 20
-30.5302814486
 10
1.2823565589
 20
-30.4377183037
  0
LINE
  5
253
100
AcDbEntity
  8
RACCORDO
100
AcDbLine
 62
7
  6
CONTINUOUS
 10
-10.1064801624
 20
21.6543252421
 11
-10.0685106686
 21
21.3071787382
  0
LWPOLYLINE
  5
254
100
AcDbEntity
  8
RACCORDO
100
AcDbPolyline
 62
253
  6
CONTINUOUS
 90
5
 70
0
 10
-9.6059000551
 20
22.5483709328
 10
-9.6085158453
 20
22.6530664144
 10
-9.60986335
 20
22.7612852421
 10
-9.6097696388
 20
22.8731406492
 10
-9.607810639
 20
22.9884432281
  0
LWPOLYLINE
  5
255
100
AcDbEntity
  8
0
100
AcDbPolyline
 62
7
  6
CONTINUOUS
 90
13
 70
0
 10
-2.5137663869
 20
23.9933677815
 10
-2.490290051
 20
24.2429405105
 10
-2.4289226435
 20
24.4914096503
 10
-2.3298028078
 20
24.7324788995
 10
-2.1919824025
 20
24.9579043187
 10
-2.02022776
 20
25.1627172533
 10
-1.8223965137
 20
25.3474602913
 10
-1.6001167995
 20
25.5076535614
 10
-1.3563275011
 20
25.6392390785
 10
-1.0961756388
 20
25.7465754141
 10
-0.8199110947
 20
25.8290884248
 10
-0.5272146431
 20
25.8798105512
 10
-0.2191887262
 20
25.8934661157
  0
LWPOLYLINE
  5
256
100
AcDbEntity
  8
0
100
AcDbPolyline
 62
7
  6
CONTINUOUS
 90
13
 70
0
 10
-4.8137587272
 20
23.8285167085
 10
-4.7640963813
 20
24.3374491636
 10
-4.6385607773
 20
24.8402965783
 10
-4.4386672687
 20
25.3247691495
 10
-4.1651235036
 20
25.7730697864
 10
-3.8273817382
 20
26.1786068069
 10
-3.4361713938
 20
26.5482965034
 10
-2.9898647897
 20
26.8748691769
 10
-2.4966406879
 20
27.1454118247
 10
-1.971955387
 20
27.3647276374
 10
-1.4184188646
 20
27.531903591
 10
-0.8335211928
 20
27.6348462214
 10
-0.2191887262
 20
27.6637473701
  0
LWPOLYLINE
  5
257
100
AcDbEntity
  8
0
100
AcDbPolyline
 62
7
  6
CONTINUOUS
 90
7
 70
0
 10
4.2532656186
 20
22.9746331734
 10
4.2920257575
 20
23.1170799928
 10
4.3243363263
 20
23.2598486793
 10
4.3498577848
 20
23.4027604677
 10
4.3682338235
 20
23.5456274819
 10
4.3790906345
 20
23.6882521524
 10
4.382036161
 20
23.8304266115
  0
LWPOLYLINE
  5
258
100
AcDbEntity
  8
0
100
AcDbPolyline
 62
7
  6
CONTINUOUS
 90
7
 70
0
 10
4.2532656186
 20
22.9746331734
 10
4.1650809098
 20
22.7157162312
 10
4.0515262566
 20
22.4574145396
 10
3.9137425444
 20
22.2016259144
 10
3.7529790338
 20
21.9502827057
 10
3.5705883981
 20
21.7053436795
 10
3.3680214271
 20
21.4687855
  0
LINE
  5
259
100
AcDbEntity
  8
SUPERFICI
100
AcDbLine
 62
253
  6
CONTINUOUS
 10
-3.0426427386
 20
-22.3999698767
 11
-3.0425168246
 21
-22.3999458991
  0
LINE
  5
25A
100
AcDbEntity
  8
SUPERFICI
100
AcDbLine
 62
253
  6
CONTINUOUS
 10
-2.6301688454
 20
-25.1997404645
 11
-2.6219921048
 21
-25.1984845405
  0
LINE
  5
25B
100
AcDbEntity
  8
SUPERFICI
100
AcDbLine
 62
253
  6
CONTINUOUS
 10
-3.0425168246
 20
-22.3999458991
 11
-3.001761232
 21
-22.393861245
  0
LINE
  5
25C
100
AcDbEntity
  8
RACCORDO
100
AcDbLine
 62
253
  6
CONTINUOUS
 10
-3.0368683242
 20
-22.5460157721
 11
-3.0123316588
 21
-22.5425514399
  0
LINE
  5
25D
100
AcDbEntity
  8
RACCORDO
100
AcDbLine
 62
253
  6
CONTINUOUS
 10
2.5984216489
 20
-22.5460132849
 11
2.5739185489
 21
-22.5425464002
  0
LINE
  5
25E
100
AcDbEntity
  8
SUPERFICI
100
AcDbLine
 62
253
  6
CONTINUOUS
 10
2.6042542888
 20
-22.4000386487
 11
2.5633837795
 21
-22.393861245
  0
LINE
  5
25F
100
AcDbEntity
  8
SUPERFICI
100
AcDbLine
 62
253
  6
CONTINUOUS
 10
2.1917879863
 20
-25.1997631048
 11
2.1836344117
 21
-25.1985033863
  0
LWPOLYLINE
  5
260
100
AcDbEntity
  8
SUPERFICI
100
AcDbPolyline
 62
253
  6
CONTINUOUS
 90
9
 70
0
 10
0.8115566369
 20
-29.7553197108
 10
0.7181401892
 20
-29.6296518662
 10
0.6176498821
 20
-29.5056057103
 10
0.5120297728
 20
-29.3807126937
 10
0.3993016297
 20
-29.2594186596
 10
0.2707091467
 20
-29.1558865364
 10
0.1232867849
 20
-29.0758919807
 10
-0.0400413055
 20
-29.0159330639
 10
-0.2191886613
 20
-28.9763566435
  0
LWPOLYLINE
  5
261
100
AcDbEntity
  8
SUPERFICI
100
AcDbPolyline
 62
253
  6
CONTINUOUS
 90
8
 70
0
 10
1.4078086587
 20
-29.7941252931
 10
1.5868469867
 20
-30.0420873222
 10
1.6604213771
 20
-30.1494872926
 10
1.7223090005
 20
-30.2454959957
 10
1.7754219747
 20
-30.3224448634
 10
1.8167292101
 20
-30.3777777061
 10
1.8415867737
 20
-30.4140507133
 10
1.8489328588
 20
-30.431263885
  0
LINE
  5
262
100
AcDbEntity
  8
RACCORDO
100
AcDbLine
 62
253
  6
CONTINUOUS
 10
-3.7810251851
 20
-20.4991935826
 11
-3.7814228974
 21
-20.4986107864
  0
LWPOLYLINE
  5
263
100
AcDbEntity
  8
SUPERFICI
100
AcDbPolyline
 62
253
  6
CONTINUOUS
 90
6
 70
0
 10
1.2823565589
 20
-30.4377183037
 10
1.216500612
 20
-30.3373633715
 10
1.1452854433
 20
-30.2299893509
 10
1.068802809
 20
-30.1171379579
 10
0.9868749561
 20
-30.0002212542
 10
0.8115566369
 20
-29.7553197108
  0
LWPOLYLINE
  5
264
100
AcDbEntity
  8
RACCORDO
100
AcDbPolyline
 62
253
  6
CONTINUOUS
 90
3
 70
0
 10
-3.7706599137
 20
-20.5158252929
 10
-3.7776368113
 20
-20.504714914
 10
-3.7810251851
 20
-20.4991935826
  0
LINE
  5
265
100
AcDbEntity
  8
RACCORDO
100
AcDbLine
 62
253
  6
CONTINUOUS
 10
-3.7525231221
 20
-20.5452227597
 11
-3.7706599137
 21
-20.5158252929
  0
LWPOLYLINE
  5
266
100
AcDbEntity
  8
RACCORDO
100
AcDbPolyline
 62
7
  6
CONTINUOUS
 90
5
 70
0
 10
-3.7451227566
 20
-20.6030157959
 10
-3.7263982879
 20
-20.63453161
 10
-3.6701252262
 20
-20.7328698316
 10
-3.5858490092
 20
-20.8895998961
 10
-3.4839903363
 20
-21.095120161
  0
LWPOLYLINE
  5
267
100
AcDbEntity
  8
RACCORDO
100
AcDbPolyline
 62
253
  6
CONTINUOUS
 90
3
 70
0
 10
-3.7107172535
 20
-20.6149212566
 10
-3.7233415475
 20
-20.5935513818
 10
-3.7525231221
 20
-20.5452227597
  0
LWPOLYLINE
  5
268
100
AcDbEntity
  8
RACCORDO
100
AcDbPolyline
 62
253
  6
CONTINUOUS
 90
3
 70
0
 10
-3.6629518887
 20
-20.6976283277
 10
-3.6806031431
 20
-20.6665962786
 10
-3.7107172535
 20
-20.6149212566
  0
LWPOLYLINE
  5
269
100
AcDbEntity
  8
SUPERFICI
100
AcDbPolyline
 62
7
  6
CONTINUOUS
 90
4
 70
0
 10
-3.8559327524
 20
-19.4736874051
 10
-3.7995082094
 20
-19.5809029053
 10
-3.7240084585
 20
-19.7202332986
 10
-3.6349560115
 20
-19.8906726414
  0
LINE
  5
26A
100
AcDbEntity
  8
SUPERFICI
100
AcDbLine
 62
7
  6
CONTINUOUS
 10
-3.6349560115
 20
-19.8906726414
 11
-3.2920050052
 21
-20.575112344
  0
LWPOLYLINE
  5
26B
100
AcDbEntity
  8
SUPERFICI
100
AcDbPolyline
 62
253
  6
CONTINUOUS
 90
3
 70
0
 10
-3.4879065547
 20
-20.8217967494
 10
-3.5706629764
 20
-20.6449593053
 10
-3.7080789788
 20
-20.3631433118
  0
LWPOLYLINE
  5
26C
100
AcDbEntity
  8
SUPERFICI
100
AcDbPolyline
 62
253
  6
CONTINUOUS
 90
3
 70
0
 10
-3.7080789788
 20
-20.3631433118
 10
-3.7546228828
 20
-20.2632848662
 10
-3.7810069718
 20
-20.1923706949
  0
LWPOLYLINE
  5
26D
100
AcDbEntity
  8
RACCORDO
100
AcDbPolyline
 62
253
  6
CONTINUOUS
 90
10
 70
0
 10
-3.4244747064
 20
-21.1647082066
 10
-3.4574042137
 20
-21.0936820152
 10
-3.4889439373
 20
-21.0282543831
 10
-3.5189174763
 20
-20.9676185736
 10
-3.5472838445
 20
-20.9116979036
 10
-3.5739937549
 20
-20.8605690563
 10
-3.598926982
 20
-20.8136553438
 10
-3.622081345
 20
-20.7709355098
 10
-3.643443931
 20
-20.7324308107
 10
-3.6629518887
 20
-20.6976283277
  0
LWPOLYLINE
  5
26E
100
AcDbEntity
  8
SUPERFICI
100
AcDbPolyline
 62
7
  6
CONTINUOUS
 90
6
 70
0
 10
-3.2920050052
 20
-20.575112344
 10
-3.2072717062
 20
-20.7597502168
 10
-3.1280916068
 20
-20.9501363449
 10
-3.0544647071
 20
-21.1448874578
 10
-2.9856190531
 20
-21.342528054
 10
-2.9223265987
 20
-21.5419406266
  0
LINE
  5
26F
100
AcDbEntity
  8
RACCORDO
100
AcDbLine
 62
7
  6
CONTINUOUS
 10
-3.4839903363
 20
-21.095120161
 11
-3.3745152572
 21
-21.341228034
  0
LINE
  5
270
100
AcDbEntity
  8
SUPERFICI
100
AcDbLine
 62
7
  6
CONTINUOUS
 10
-3.5601906833
 20
-20.7434319313
 11
-3.5220864951
 21
-20.8297828368
  0
LWPOLYLINE
  5
271
100
AcDbEntity
  8
SUPERFICI
100
AcDbPolyline
 62
7
  6
CONTINUOUS
 90
3
 70
0
 10
-3.5220864951
 20
-20.8297828368
 10
-3.4783737711
 20
-20.9315694908
 10
-3.4321780127
 20
-21.0429203466
  0
LWPOLYLINE
  5
272
100
AcDbEntity
  8
RACCORDO
100
AcDbPolyline
 62
253
  6
CONTINUOUS
 90
4
 70
0
 10
-3.3183316806
 20
-21.4121848734
 10
-3.3546523674
 20
-21.32342551
 10
-3.3901773864
 20
-21.2412675787
 10
-3.4244747064
 20
-21.1647082066
  0
LINE
  5
273
100
AcDbEntity
  8
SUPERFICI
100
AcDbLine
 62
7
  6
CONTINUOUS
 10
-3.4321780127
 20
-21.0429203466
 11
-3.384139538
 21
-21.1637209766
  0
LINE
  5
274
100
AcDbEntity
  8
RACCORDO
100
AcDbLine
 62
7
  6
CONTINUOUS
 10
-3.3745152572
 20
-21.341228034
 11
-3.2682714743
 21
-21.6159117203
  0
LINE
  5
275
100
AcDbEntity
  8
SUPERFICI
100
AcDbLine
 62
7
  6
CONTINUOUS
 10
-3.384139538
 20
-21.1637209766
 11
-3.3346247573
 21
-21.2947646512
  0
LWPOLYLINE
  5
276
100
AcDbEntity
  8
SUPERFICI
100
AcDbPolyline
 62
7
  6
CONTINUOUS
 90
3
 70
0
 10
-3.3346247573
 20
-21.2947646512
 10
-3.2844454756
 20
-21.435987275
 10
-3.2345502218
 20
-21.5871935973
  0
LWPOLYLINE
  5
277
100
AcDbEntity
  8
SUPERFICI
100
AcDbPolyline
 62
253
  6
CONTINUOUS
 90
4
 70
0
 10
-3.2225834772
 20
-21.4850088288
 10
-3.3098873287
 20
-21.2388145868
 10
-3.3999326391
 20
-21.0191156994
 10
-3.4879065547
 20
-20.8217967494
  0
LINE
  5
278
100
AcDbEntity
  8
RACCORDO
100
AcDbLine
 62
7
  6
CONTINUOUS
 10
-3.2682714743
 20
-21.6159117203
 11
-3.1742362541
 21
-21.9078735488
  0
LWPOLYLINE
  5
279
100
AcDbEntity
  8
SUPERFICI
100
AcDbPolyline
 62
7
  6
CONTINUOUS
 90
6
 70
0
 10
-3.2345502218
 20
-21.5871935973
 10
-3.1857525776
 20
-21.7491239552
 10
-3.1388701236
 20
-21.9239755013
 10
-3.0961959364
 20
-22.1093856478
 10
-3.0597633639
 20
-22.3013234608
 10
-3.0437796579
 20
-22.4000549108
  0
LINE
  5
27A
100
AcDbEntity
  8
SUPERFICI
100
AcDbLine
 62
253
  6
CONTINUOUS
 10
-3.1413192783
 20
-21.7596375627
 11
-3.2225834772
 21
-21.4850088288
  0
LWPOLYLINE
  5
27B
100
AcDbEntity
  8
RACCORDO
100
AcDbPolyline
 62
253
  6
CONTINUOUS
 90
6
 70
0
 10
-3.1327355964
 20
-21.960708895
 10
-3.1691762088
 20
-21.8361363598
 10
-3.2062463742
 20
-21.7190744293
 10
-3.2435726488
 20
-21.6095703635
 10
-3.2812261484
 20
-21.5075769024
 10
-3.3183316806
 20
-21.4121848734
  0
LWPOLYLINE
  5
27C
100
AcDbEntity
  8
SUPERFICI
100
AcDbPolyline
 62
7
  6
CONTINUOUS
 90
3
 70
0
 10
-2.9223265987
 20
-21.5419406266
 10
-2.8669032056
 20
-21.742403693
 10
-2.8201208276
 20
-21.942976777
  0
LINE
  5
27D
100
AcDbEntity
  8
RACCORDO
100
AcDbLine
 62
7
  6
CONTINUOUS
 10
-3.1742362541
 20
-21.9078735488
 11
-3.0976752605
 21
-22.2091881873
  0
LINE
  5
27E
100
AcDbEntity
  8
SUPERFICI
100
AcDbLine
 62
253
  6
CONTINUOUS
 10
-3.0670708959
 20
-22.062216194
 11
-3.1413192783
 21
-21.7596375627
  0
LWPOLYLINE
  5
27F
100
AcDbEntity
  8
RACCORDO
100
AcDbPolyline
 62
253
  6
CONTINUOUS
 90
3
 70
0
 10
-3.0672971337
 20
-22.234943755
 10
-3.0985602516
 20
-22.0935594276
 10
-3.1327355964
 20
-21.960708895
  0
LINE
  5
280
100
AcDbEntity
  8
RACCORDO
100
AcDbLine
 62
7
  6
CONTINUOUS
 10
-2.6091305189
 20
-28.2918478115
 11
-2.7377994842
 21
-27.4364743885
  0
LINE
  5
281
100
AcDbEntity
  8
SUPERFICI
100
AcDbLine
 62
7
  6
CONTINUOUS
 10
-2.6091305189
 20
-28.2918478115
 11
-2.2873104102
 21
-30.4312632275
  0
LINE
  5
282
100
AcDbEntity
  8
RACCORDO
100
AcDbLine
 62
7
  6
CONTINUOUS
 10
-3.7814229195
 20
-20.4986106392
 11
-10.0471283037
 21
21.1549317596
  0
LINE
  5
283
100
AcDbEntity
  8
RACCORDO
100
AcDbLine
 62
7
  6
CONTINUOUS
 10
-10.0685106686
 20
21.3071787382
 11
-10.0471240361
 21
21.1548995602
  0
LWPOLYLINE
  5
284
100
AcDbEntity
  8
RACCORDO
100
AcDbPolyline
 62
253
  6
CONTINUOUS
 90
10
 70
0
 10
-9.5363116416
 20
21.7382096407
 10
-9.5469972293
 20
21.8177385339
 10
-9.5571758365
 20
21.8997654718
 10
-9.5666524212
 20
21.9841388198
 10
-9.5753743981
 20
22.0709702795
 10
-9.5834087647
 20
22.1606365632
 10
-9.5905667983
 20
22.2531054541
 10
-9.5967054598
 20
22.3483579395
 10
-9.6019022877
 20
22.4467912565
 10
-9.6059000551
 20
22.5483709328
  0
LWPOLYLINE
  5
285
100
AcDbEntity
  8
SUPERFICI
100
AcDbPolyline
 62
7
  6
CONTINUOUS
 90
4
 70
0
 10
-2.6052008403
 20
-25.3960231368
 10
-2.5945056387
 20
-25.5091074652
 10
-2.5865679694
 20
-25.6204440248
 10
-2.5811765068
 20
-25.7289956245
  0
LINE
  5
286
100
AcDbEntity
  8
SUPERFICI
100
AcDbLine
 62
253
  6
CONTINUOUS
 10
-2.5422188997
 20
-25.7209528375
 11
-2.5590047707
 21
-25.4605939389
  0
LWPOLYLINE
  5
287
100
AcDbEntity
  8
RACCORDO
100
AcDbPolyline
 62
253
  6
CONTINUOUS
 90
6
 70
0
 10
-2.5762903382
 20
-25.9233193167
 10
-2.5803953316
 20
-25.8124820387
 10
-2.5867026542
 20
-25.7023393069
 10
-2.5952720613
 20
-25.5941099926
 10
-2.6062547273
 20
-25.4865752245
 10
-2.6197211933
 20
-25.3797350025
  0
LINE
  5
288
100
AcDbEntity
  8
SUPERFICI
100
AcDbLine
 62
7
  6
CONTINUOUS
 10
-2.3052327296
 20
-25.6042038682
 11
-2.2974474674
 21
-25.8430024638
  0
LWPOLYLINE
  5
289
100
AcDbEntity
  8
SUPERFICI
100
AcDbPolyline
 62
7
  6
CONTINUOUS
 90
3
 70
0
 10
-2.5811765068
 20
-25.7289956245
 10
-2.5780372604
 20
-25.8344670161
 10
-2.576853858
 20
-25.9368915381
  0
LWPOLYLINE
  5
28A
100
AcDbEntity
  8
0
100
AcDbPolyline
 62
7
  6
CONTINUOUS
 90
10
 70
0
 10
-3.608772127
 20
23.9314518162
 10
-3.604880075
 20
23.7472395941
 10
-3.5830778399
 20
23.5641270502
 10
-3.5453806376
 20
23.3831131476
 10
-3.4950000395
 20
23.2055049439
 10
-3.4323751041
 20
23.031509908
 10
-3.354800654
 20
22.860842021
 10
-3.2620593663
 20
22.6943795207
 10
-3.1567967114
 20
22.533563175
 10
-3.0402686666
 20
22.3793918901
  0
LWPOLYLINE
  5
28B
100
AcDbEntity
  8
0
100
AcDbPolyline
 62
7
  6
CONTINUOUS
 90
7
 70
0
 10
-4.8204136135
 20
23.8304266115
 10
-4.817468087
 20
23.6882521524
 10
-4.806611276
 20
23.5456274819
 10
-4.7882352373
 20
23.4027604677
 10
-4.7627137788
 20
23.2598486793
 10
-4.73040321
 20
23.1170799928
 10
-4.6916430711
 20
22.9746331734
  0
LINE
  5
28C
100
AcDbEntity
  8
RACCORDO
100
AcDbLine
 62
7
  6
CONTINUOUS
 10
-2.6192190292
 20
-25.8593595544
 11
-2.6160168913
 21
-26.185611766
  0
LINE
  5
28D
100
AcDbEntity
  8
SUPERFICI
100
AcDbLine
 62
253
  6
CONTINUOUS
 10
-2.4191337575
 20
7.8721569486
 11
-2.419982138
 21
7.993999001
  0
LINE
  5
28E
100
AcDbEntity
  8
0
100
AcDbLine
 62
253
  6
CONTINUOUS
 10
-0.2195296591
 20
22.1660184289
 11
-0.2192608658
 21
22.125906856
  0
LINE
  5
28F
100
AcDbEntity
  8
SUPERFICI
100
AcDbLine
 62
7
  6
CONTINUOUS
 10
-2.8381190507
 20
7.5723641548
 11
-2.827728194
 21
2.822032804
  0
LINE
  5
290
100
AcDbEntity
  8
0
100
AcDbLine
 62
7
  6
CONTINUOUS
 10
-0.7544798166
 20
20.5431858335
 11
-0.7501059456
 21
18.4651104835
  0
LINE
  5
291
100
AcDbEntity
  8
SUPERFICI
100
AcDbLine
 62
7
  6
CONTINUOUS
 10
-2.2191387262
 20
7.3707549257
 11
-2.2191387262
 21
5.2731173679
  0
LINE
  5
292
100
AcDbEntity
  8
SUPERFICI
100
AcDbLine
 62
7
  6
CONTINUOUS
 10
-2.2191387262
 20
4.5660250457
 11
-2.2191387262
 21
2.9708649257
  0
LINE
  5
293
100
AcDbEntity
  8
SUPERFICI
100
AcDbLine
 62
253
  6
CONTINUOUS
 10
-0.2191886631
 20
-28.9764843978
 11
-0.2191887262
 21
-28.7189786212
  0
LINE
  5
294
100
AcDbEntity
  8
RACCORDO
100
AcDbLine
 62
253
  6
CONTINUOUS
 10
-0.2191887262
 20
17.9938498762
 11
-0.2191887262
 21
-28.7189797357
  0
LINE
  5
295
100
AcDbEntity
  8
SUPERFICI
100
AcDbLine
 62
253
  6
CONTINUOUS
 10
-0.2191887265
 20
2.4722851027
 11
-0.2191887263
 21
2.3528409047
  0
LINE
  5
296
100
AcDbEntity
  8
0
100
AcDbLine
 62
7
  6
CONTINUOUS
 10
-0.2191887726
 20
21.8620589627
 11
-0.2191889871
 21
21.6844240924
  0
LINE
  5
297
100
AcDbEntity
  8
0
100
AcDbLine
 62
253
  6
CONTINUOUS
 10
-0.2190833605
 20
21.6838707014
 11
-0.219083385
 21
18.5497603046
  0
LINE
  5
298
100
AcDbEntity
  8
SUPERFICI
100
AcDbLine
 62
7
  6
CONTINUOUS
 10
-2.7191686461
 20
2.8222785476
 11
-2.719165272
 21
7.5726197935
  0
LINE
  5
299
100
AcDbEntity
  8
0
100
AcDbLine
 62
253
  6
CONTINUOUS
 10
-0.2191887262
 20
22.1660183941
 11
-0.2194617336
 21
26.1557904799
  0
LINE
  5
29A
100
AcDbEntity
  8
0
100
AcDbLine
 62
253
  6
CONTINUOUS
 10
-0.2192608658
 20
22.125906856
 11
-0.2191887262
 21
21.8620929514
  0
LINE
  5
29B
100
AcDbEntity
  8
0
100
AcDbLine
 62
253
  6
CONTINUOUS
 10
-0.2194617336
 20
26.1557904799
 11
-0.2191887262
 21
28.482801091
  0
LINE
  5
29C
100
AcDbEntity
  8
0
100
AcDbLine
 62
7
  6
CONTINUOUS
 10
0.3117284814
 20
18.4651092058
 11
0.3161023641
 21
20.5431858335
  0
LWPOLYLINE
  5
29D
100
AcDbEntity
  8
SUPERFICI
100
AcDbPolyline
 62
7
  6
CONTINUOUS
 90
5
 70
0
 10
-2.576853858
 20
-25.9368915381
 10
-2.5773449095
 20
-26.0357983215
 10
-2.5792456706
 20
-26.130987997
 10
-2.5823549074
 20
-26.2224817576
 10
-2.5864875628
 20
-26.3101802113
  0
LINE
  5
29E
100
AcDbEntity
  8
RACCORDO
100
AcDbLine
 62
7
  6
CONTINUOUS
 10
-2.5965047291
 20
-25.9482030123
 11
-2.598764277
 21
-26.2614358669
  0
LINE
  5
29F
100
AcDbEntity
  8
SUPERFICI
100
AcDbLine
 62
253
  6
CONTINUOUS
 10
-2.3700407596
 20
2.3613718169
 11
-2.3691350033
 21
2.4722840285
  0
LWPOLYLINE
  5
2A0
100
AcDbEntity
  8
RACCORDO
100
AcDbPolyline
 62
253
  6
CONTINUOUS
 90
3
 70
0
 10
-0.2184400258
 20
31.9119186669
 10
-0.2185707172
 20
31.8985661046
 10
-0.2191887262
 20
28.482801091
  0
LWPOLYLINE
  5
2A1
100
AcDbEntity
  8
SUPERFICI
100
AcDbPolyline
 62
7
  6
CONTINUOUS
 90
3
 70
0
 10
-2.2974474674
 20
-25.8430024638
 10
-2.3006320572
 20
-26.0797197867
 10
-2.3134578604
 20
-26.3123585477
  0
LWPOLYLINE
  5
2A2
100
AcDbEntity
  8
RACCORDO
100
AcDbPolyline
 62
253
  6
CONTINUOUS
 90
4
 70
0
 10
-2.5774397161
 20
-26.2371184601
 10
-2.5749551757
 20
-26.1356375274
 10
-2.5744426145
 20
-26.0311945272
 10
-2.5762903382
 20
-25.9233193167
  0
LWPOLYLINE
  5
2A3
100
AcDbEntity
  8
SUPERFICI
100
AcDbPolyline
 62
253
  6
CONTINUOUS
 90
3
 70
0
 10
-2.5480745041
 20
-26.2356990798
 10
-2.5393747601
 20
-25.9763567771
 10
-2.5422188997
 20
-25.7209528375
  0
LINE
  5
2A4
100
AcDbEntity
  8
RACCORDO
100
AcDbLine
 62
7
  6
CONTINUOUS
 10
-2.6160168913
 20
-26.185611766
 11
-2.6298584694
 21
-26.4971677232
  0
LINE
  5
2A5
100
AcDbEntity
  8
SUPERFICI
100
AcDbLine
 62
7
  6
CONTINUOUS
 10
-2.5864875628
 20
-26.3101802113
 11
-2.591469183
 21
-26.3940284496
  0
LINE
  5
2A6
100
AcDbEntity
  8
RACCORDO
100
AcDbLine
 62
7
  6
CONTINUOUS
 10
-2.598764277
 20
-26.2614358669
 11
-2.6164280106
 21
-26.5489925441
  0
LINE
  5
2A7
100
AcDbEntity
  8
SUPERFICI
100
AcDbLine
 62
253
  6
CONTINUOUS
 10
-2.5651480045
 20
-26.4928619061
 11
-2.5480745041
 21
-26.2356990798
  0
LWPOLYLINE
  5
2A8
100
AcDbEntity
  8
RACCORDO
100
AcDbPolyline
 62
253
  6
CONTINUOUS
 90
4
 70
0
 10
-2.59287396
 20
-26.5088820551
 10
-2.5864708818
 20
-26.423740724
 10
-2.5812826805
 20
-26.3333911406
 10
-2.5774397161
 20
-26.2371184601
  0
LWPOLYLINE
  5
2A9
100
AcDbEntity
  8
SUPERFICI
100
AcDbPolyline
 62
7
  6
CONTINUOUS
 90
5
 70
0
 10
-2.3134578604
 20
-26.3123585477
 10
-2.3319389619
 20
-26.5386201538
 10
-2.3547467233
 20
-26.7564643008
 10
-2.3832097829
 20
-26.9640819296
 10
-2.4173281407
 20
-27.1595330008
  0
LINE
  5
2AA
100
AcDbEntity
  8
RACCORDO
100
AcDbLine
 62
7
  6
CONTINUOUS
 10
-2.6298584694
 20
-26.4971677232
 11
-2.6546458561
 21
-26.7781674365
  0
LINE
  5
2AB
100
AcDbEntity
  8
SUPERFICI
100
AcDbLine
 62
253
  6
CONTINUOUS
 10
-2.5879576004
 20
-26.7257999262
 11
-2.5651480045
 21
-26.4928619061
  0
LINE
  5
2AC
100
AcDbEntity
  8
RACCORDO
100
AcDbLine
 62
7
  6
CONTINUOUS
 10
-2.6164280106
 20
-26.5489925441
 11
-2.6434818395
 21
-26.8032524771
  0
LWPOLYLINE
  5
2AD
100
AcDbEntity
  8
RACCORDO
100
AcDbPolyline
 62
253
  6
CONTINUOUS
 90
4
 70
0
 10
-2.6147857152
 20
-26.7319291716
 10
-2.6070711706
 20
-26.6629762789
 10
-2.5997813453
 20
-26.5887134844
 10
-2.59287396
 20
-26.5088820551
  0
LWPOLYLINE
  5
2AE
100
AcDbEntity
  8
RACCORDO
100
AcDbPolyline
 62
7
  6
CONTINUOUS
 90
4
 70
0
 10
-2.6546458561
 20
-26.7781674365
 10
-2.6836663429
 20
-27.01275618
 10
-2.7102819686
 20
-27.1904246505
 10
-2.7292228425
 20
-27.3010015592
  0
LINE
  5
2AF
100
AcDbEntity
  8
SUPERFICI
100
AcDbLine
 62
253
  6
CONTINUOUS
 10
-2.6147039294
 20
-26.9309010456
 11
-2.5879576004
 21
-26.7257999262
  0
LWPOLYLINE
  5
2B0
100
AcDbEntity
  8
RACCORDO
100
AcDbPolyline
 62
7
  6
CONTINUOUS
 90
4
 70
0
 10
-2.6434818395
 20
-26.8032524771
 10
-2.6746996579
 20
-27.0191262479
 10
-2.7043794874
 20
-27.1871480063
 10
-2.7262126345
 20
-27.2931732685
  0
LWPOLYLINE
  5
2B1
100
AcDbEntity
  8
SUPERFICI
100
AcDbPolyline
 62
253
  6
CONTINUOUS
 90
3
 70
0
 10
-2.6518387166
 20
-27.1788743578
 10
-2.6412965107
 20
-27.1122735688
 10
-2.6147039294
 20
-26.9309010456
  0
LWPOLYLINE
  5
2B2
100
AcDbEntity
  8
RACCORDO
100
AcDbPolyline
 62
253
  6
CONTINUOUS
 90
8
 70
0
 10
-2.6671429453
 20
-27.0935151734
 10
-2.6602957362
 20
-27.0530932467
 10
-2.653106355
 20
-27.0094864814
 10
-2.6457255445
 20
-26.9620617572
 10
-2.6381168084
 20
-26.9108804988
 10
-2.6303013798
 20
-26.8558812815
 10
-2.6225398016
 20
-26.7962467109
 10
-2.6147857152
 20
-26.7319291716
  0
LINE
  5
2B3
100
AcDbEntity
  8
RACCORDO
100
AcDbLine
 62
253
  6
CONTINUOUS
 10
-2.6736687374
 20
-27.130783855
 11
-2.6671429453
 21
-27.0935151734
  0
LINE
  5
2B4
100
AcDbEntity
  8
SUPERFICI
100
AcDbLine
 62
7
  6
CONTINUOUS
 10
-2.4173281407
 20
-27.1595330008
 11
-2.4838461184
 21
-27.5128690853
  0
LWPOLYLINE
  5
2B5
100
AcDbEntity
  8
RACCORDO
100
AcDbPolyline
 62
253
  6
CONTINUOUS
 90
3
 70
0
 10
-2.6913296989
 20
-27.225096469
 10
-2.6858035547
 20
-27.1963050417
 10
-2.6736687374
 20
-27.130783855
  0
LINE
  5
2B6
100
AcDbEntity
  8
SUPERFICI
100
AcDbLine
 62
7
  6
CONTINUOUS
 10
-2.4838461184
 20
-27.5128690853
 11
-2.5124760389
 21
-27.6600306275
  0
LWPOLYLINE
  5
2B7
100
AcDbEntity
  8
RACCORDO
100
AcDbPolyline
 62
253
  6
CONTINUOUS
 90
3
 70
0
 10
-2.7059170604
 20
-27.2972350261
 10
-2.7013954144
 20
-27.2752764156
 10
-2.6913296989
 20
-27.225096469
  0
LWPOLYLINE
  5
2B8
100
AcDbEntity
  8
SUPERFICI
100
AcDbPolyline
 62
7
  6
CONTINUOUS
 90
3
 70
0
 10
-2.5124760389
 20
-27.6600306275
 10
-2.538642538
 20
-27.7860711805
 10
-2.5617229915
 20
-27.8901746259
  0
LWPOLYLINE
  5
2B9
100
AcDbEntity
  8
RACCORDO
100
AcDbPolyline
 62
253
  6
CONTINUOUS
 90
3
 70
0
 10
-2.7177356655
 20
-27.3518427528
 10
-2.7140821034
 20
-27.3352586057
 10
-2.7059170604
 20
-27.2972350261
  0
LINE
  5
2BA
100
AcDbEntity
  8
RACCORDO
100
AcDbLine
 62
253
  6
CONTINUOUS
 10
-2.7241731903
 20
-27.3801763911
 11
-2.7177356655
 21
-27.3518427528
  0
LWPOLYLINE
  5
2BB
100
AcDbEntity
  8
RACCORDO
100
AcDbPolyline
 62
253
  6
CONTINUOUS
 90
4
 70
0
 10
-2.7334814444
 20
-27.4193224717
 10
-2.7316115232
 20
-27.4117110844
 10
-2.7294328315
 20
-27.4026549502
 10
-2.7241731903
 20
-27.3801763911
  0
LINE
  5
2BC
100
AcDbEntity
  8
RACCORDO
100
AcDbLine
 62
253
  6
CONTINUOUS
 10
-2.737624885
 20
-27.4357895483
 11
-2.7334814444
 21
-27.4193224717
  0
LWPOLYLINE
  5
2BD
100
AcDbEntity
  8
RACCORDO
100
AcDbPolyline
 62
253
  6
CONTINUOUS
 90
48
 70
0
 10
8.6651835265
 20
19.7625263682
 10
8.6254354807
 20
19.6321399091
 10
8.5831221712
 20
19.4986372048
 10
8.5381461206
 20
19.3620481719
 10
8.4903312371
 20
19.2223428105
 10
8.4394113926
 20
19.079501554
 10
8.3852984426
 20
18.9336208696
 10
8.3277916365
 20
18.7846361279
 10
8.2664331272
 20
18.6323033666
 10
8.2011074267
 20
18.4766647807
 10
8.1315931241
 20
18.3177557898
 10
8.0572333394
 20
18.1553523895
 10
7.9778865016
 20
17.9895057029
 10
7.8933076433
 20
17.8203182297
 10
7.8026451094
 20
17.6476948296
 10
7.7057683997
 20
17.4717316383
 10
7.6023841937
 20
17.2926034695
 10
7.4913665071
 20
17.1104175819
 10
7.3726210806
 20
16.925401242
 10
7.2458083735
 20
16.7377792087
 10
7.1094121161
 20
16.5477885572
 10
6.9634789814
 20
16.3558635379
 10
6.8075453162
 20
16.1622928585
 10
6.6392972806
 20
15.9673170582
 10
6.4589441893
 20
15.7717017048
 10
6.2658988812
 20
15.5758516593
 10
6.0565856676
 20
15.3798594825
 10
5.8298078817
 20
15.1840460007
 10
5.586409242
 20
14.9901246817
 10
5.3259824049
 20
14.800651037
 10
5.047072016
 20
14.6165346979
 10
4.7513790036
 20
14.4395412103
 10
4.4436336548
 20
14.2732919535
 10
4.1239155888
 20
14.1192917888
 10
3.7932246158
 20
13.9782270633
 10
3.4579606353
 20
13.8515578093
 10
3.1183918011
 20
13.7400767259
 10
2.7755606385
 20
13.6440164734
 10
2.4369202919
 20
13.5626306351
 10
2.1035067117
 20
13.4957787303
 10
1.7752038818
 20
13.4429074575
 10
1.4573213686
 20
13.4013120557
 10
1.1515731185
 20
13.3698061108
 10
0.856427767
 20
13.3476381703
 10
0.5719154188
 20
13.3322096834
 10
0.2979064443
 20
13.322070179
 10
0.0342554331
 20
13.3169209121
 10
-0.2191887262
 20
13.3159167816
  0
LINE
  5
2BE
100
AcDbEntity
  8
RACCORDO
100
AcDbLine
 62
253
  6
CONTINUOUS
 10
2.2965657622
 20
-27.4252315426
 11
2.2992438397
 21
-27.435733091
  0
LINE
  5
2BF
100
AcDbEntity
  8
RACCORDO
100
AcDbLine
 62
253
  6
CONTINUOUS
 10
2.2949979792
 20
-27.4189979839
 11
2.2965657622
 21
-27.4252315426
  0
LINE
  5
2C0
100
AcDbEntity
  8
RACCORDO
100
AcDbLine
 62
253
  6
CONTINUOUS
 10
2.2992438397
 20
-27.435733091
 11
2.2994220317
 21
-27.4364743888
  0
LINE
  5
2C1
100
AcDbEntity
  8
RACCORDO
100
AcDbLine
 62
253
  6
CONTINUOUS
 10
2.2881912444
 20
-27.3906402197
 11
2.2949979792
 21
-27.4189979839
  0
LWPOLYLINE
  5
2C2
100
AcDbEntity
  8
RACCORDO
100
AcDbPolyline
 62
7
  6
CONTINUOUS
 90
4
 70
0
 10
2.295448973
 20
-27.3260257486
 10
2.2872203226
 20
-27.2903826685
 10
2.2639226769
 20
-27.1763460635
 10
2.2324797384
 20
-26.99503537
  0
LINE
  5
2C3
100
AcDbEntity
  8
RACCORDO
100
AcDbLine
 62
253
  6
CONTINUOUS
 10
2.2779074169
 20
-27.3454282573
 11
2.2881912444
 21
-27.3906402197
  0
LWPOLYLINE
  5
2C4
100
AcDbEntity
  8
SUPERFICI
100
AcDbPolyline
 62
7
  6
CONTINUOUS
 90
3
 70
0
 10
2.1002127647
 20
-27.7858281444
 10
2.073966984
 20
-27.6597419864
 10
2.0453348917
 20
-27.5125987742
  0
LWPOLYLINE
  5
2C5
100
AcDbEntity
  8
RACCORDO
100
AcDbPolyline
 62
253
  6
CONTINUOUS
 90
4
 70
0
 10
2.2577948812
 20
-27.2495338786
 10
2.2635454492
 20
-27.2781973434
 10
2.2688400603
 20
-27.3032753354
 10
2.2779074169
 20
-27.3454282573
  0
LINE
  5
2C6
100
AcDbEntity
  8
SUPERFICI
100
AcDbLine
 62
253
  6
CONTINUOUS
 10
-3.0008223935
 20
-22.3937614557
 11
-3.0670708959
 21
-22.062216194
  0
LWPOLYLINE
  5
2C7
100
AcDbEntity
  8
SUPERFICI
100
AcDbPolyline
 62
7
  6
CONTINUOUS
 90
3
 70
0
 10
-2.8201208276
 20
-21.942976777
 10
-2.781207511
 20
-22.1424725428
 10
-2.7501632556
 20
-22.339925504
  0
LWPOLYLINE
  5
2C8
100
AcDbEntity
  8
RACCORDO
100
AcDbPolyline
 62
7
  6
CONTINUOUS
 90
5
 70
0
 10
2.2975457493
 20
-27.3361610493
 10
2.2917000618
 20
-27.3056269858
 10
2.2749127152
 20
-27.208811186
 10
2.2506032909
 20
-27.0504989827
 10
2.2229593678
 20
-26.8375319199
  0
LINE
  5
2C9
100
AcDbEntity
  8
SUPERFICI
100
AcDbLine
 62
7
  6
CONTINUOUS
 10
2.0453348917
 20
-27.5125987742
 11
1.9789499576
 21
-27.1595325716
  0
LWPOLYLINE
  5
2CA
100
AcDbEntity
  8
SUPERFICI
100
AcDbPolyline
 62
7
  6
CONTINUOUS
 90
5
 70
0
 10
1.9789499576
 20
-27.1595325716
 10
1.9445456094
 20
-26.9639093222
 10
1.9159489582
 20
-26.7561411582
 10
1.893160004
 20
-26.5381796146
 10
1.8749588781
 20
-26.3118406923
  0
LWPOLYLINE
  5
2CB
100
AcDbEntity
  8
RACCORDO
100
AcDbPolyline
 62
253
  6
CONTINUOUS
 90
5
 70
0
 10
2.2208499154
 20
-27.0472163179
 10
2.2293106387
 20
-27.0964125563
 10
2.2372097774
 20
-27.141138575
 10
2.2445762085
 20
-27.181445647
 10
2.2577948812
 20
-27.2495338786
  0
LWPOLYLINE
  5
2CC
100
AcDbEntity
  8
RACCORDO
100
AcDbPolyline
 62
253
  6
CONTINUOUS
 90
3
 70
0
 10
-3.012296014
 20
-22.542546402
 10
-3.0385303756
 20
-22.3846060798
 10
-3.0672971337
 20
-22.234943755
  0
LINE
  5
2CD
100
AcDbEntity
  8
RACCORDO
100
AcDbLine
 62
253
  6
CONTINUOUS
 10
-9.5135988882
 20
21.5856122128
 11
-9.5252370839
 21
21.6611956261
  0
LINE
  5
2CE
100
AcDbEntity
  8
SUPERFICI
100
AcDbLine
 62
7
  6
CONTINUOUS
 10
-2.6301700244
 20
-25.1997413172
 11
-3.0426427386
 21
-22.3999698767
  0
LINE
  5
2CF
100
AcDbEntity
  8
SUPERFICI
100
AcDbLine
 62
7
  6
CONTINUOUS
 10
-3.001761232
 20
-22.393861245
 11
-2.5921173823
 21
-25.1940306374
  0
LINE
  5
2D0
100
AcDbEntity
  8
RACCORDO
100
AcDbLine
 62
253
  6
CONTINUOUS
 10
-9.5252370839
 20
21.6611956261
 11
-9.5363116416
 21
21.7382096407
  0
LWPOLYLINE
  5
2D1
100
AcDbEntity
  8
SUPERFICI
100
AcDbPolyline
 62
7
  6
CONTINUOUS
 90
3
 70
0
 10
-2.6304931575
 20
-25.1996481922
 10
-2.6189038178
 20
-25.2813159265
 10
-2.6052008403
 20
-25.3960231368
  0
LINE
  5
2D2
100
AcDbEntity
  8
RACCORDO
100
AcDbLine
 62
7
  6
CONTINUOUS
 10
-2.7821856849
 20
-24.3615597215
 11
-2.6411108581
 21
-25.3826730531
  0
LINE
  5
2D3
100
AcDbEntity
  8
RACCORDO
100
AcDbLine
 62
253
  6
CONTINUOUS
 10
-2.6197211933
 20
-25.3797350025
 11
-3.012296014
 21
-22.542546402
  0
LINE
  5
2D4
100
AcDbEntity
  8
RACCORDO
100
AcDbLine
 62
7
  6
CONTINUOUS
 10
-2.9487497903
 20
-23.2078525069
 11
-2.73937212
 21
-24.7761337159
  0
LINE
  5
2D5
100
AcDbEntity
  8
RACCORDO
100
AcDbLine
 62
7
  6
CONTINUOUS
 10
-2.73937212
 20
-24.7761337159
 11
-2.6594821171
 21
-25.3810123488
  0
LINE
  5
2D6
100
AcDbEntity
  8
SUPERFICI
100
AcDbLine
 62
253
  6
CONTINUOUS
 10
-2.5590047707
 20
-25.4605939389
 11
-2.5914132125
 21
-25.1939554697
  0
LWPOLYLINE
  5
2D7
100
AcDbEntity
  8
RACCORDO
100
AcDbPolyline
 62
7
  6
CONTINUOUS
 90
3
 70
0
 10
-2.6595297696
 20
-25.3810183623
 10
-2.6420505984
 20
-25.5308774118
 10
-2.6192190292
 20
-25.8593595544
  0
LWPOLYLINE
  5
2D8
100
AcDbEntity
  8
SUPERFICI
100
AcDbPolyline
 62
7
  6
CONTINUOUS
 90
3
 70
0
 10
-2.3497268944
 20
-25.1269627464
 10
-2.3226592053
 20
-25.3649635725
 10
-2.3052327296
 20
-25.6042038682
  0
LWPOLYLINE
  5
2D9
100
AcDbEntity
  8
SUPERFICI
100
AcDbPolyline
 62
7
  6
CONTINUOUS
 90
10
 70
0
 10
-2.8277416759
 20
2.8222351555
 10
-2.8179913493
 20
2.7358320641
 10
-2.795901989
 20
2.6569609568
 10
-2.761473595
 20
2.5856218334
 10
-2.7131009256
 20
2.5204617104
 10
-2.6523892225
 20
2.4628335715
 10
-2.5841542106
 20
2.4167963672
 10
-2.5100011317
 20
2.3837030811
 10
-2.428324744
 20
2.3622007297
 10
-2.3391250476
 20
2.352289313
  0
LWPOLYLINE
  5
2DA
100
AcDbEntity
  8
RACCORDO
100
AcDbPolyline
 62
7
  6
CONTINUOUS
 90
3
 70
0
 10
-2.6411110283
 20
-25.3826730799
 10
-2.6141118411
 20
-25.6244207814
 10
-2.5965047291
 20
-25.9482030123
  0
LWPOLYLINE
  5
2DB
100
AcDbEntity
  8
SUPERFICI
100
AcDbPolyline
 62
7
  6
CONTINUOUS
 90
3
 70
0
 10
2.1831966551
 20
-26.7357254412
 10
2.1773166765
 20
-26.6805682668
 10
2.1715272872
 20
-26.6227443402
  0
LINE
  5
2DC
100
AcDbEntity
  8
SUPERFICI
100
AcDbLine
 62
253
  6
CONTINUOUS
 10
2.1279640254
 20
-26.5100269491
 11
2.1509124485
 21
-26.7376708615
  0
LWPOLYLINE
  5
2DD
100
AcDbEntity
  8
0
100
AcDbPolyline
 62
7
  6
CONTINUOUS
 90
10
 70
0
 10
-1.3166270927
 20
24.0373305324
 10
-1.3007837979
 20
23.8774531296
 10
-1.2421966268
 20
23.7212676554
 10
-1.1503922545
 20
23.5765627259
 10
-1.0375061947
 20
23.4551955421
 10
-0.9103496999
 20
23.3556995258
 10
-0.7633212562
 20
23.2672193882
 10
-0.594079651
 20
23.1937477249
 10
-0.4106697683
 20
23.1503097217
 10
-0.2191887262
 20
23.1483254952
  0
LINE
  5
2DE
100
AcDbEntity
  8
RACCORDO
100
AcDbLine
 62
7
  6
CONTINUOUS
 10
2.2229593678
 20
-26.8375319199
 11
2.19737789
 21
-26.5771465274
  0
LINE
  5
2DF
100
AcDbEntity
  8
RACCORDO
100
AcDbLine
 62
7
  6
CONTINUOUS
 10
2.1997705454
 20
-26.7604337238
 11
2.1728567609
 21
-26.4839225751
  0
LINE
  5
2E0
100
AcDbEntity
  8
SUPERFICI
100
AcDbLine
 62
7
  6
CONTINUOUS
 10
2.1715272872
 20
-26.6227443402
 11
2.1659106291
 21
-26.5622794885
  0
LINE
  5
2E1
100
AcDbEntity
  8
SUPERFICI
100
AcDbLine
 62
7
  6
CONTINUOUS
 10
2.1659106291
 20
-26.5622794885
 11
2.1605505134
 21
-26.4991573836
  0
LWPOLYLINE
  5
2E2
100
AcDbEntity
  8
SUPERFICI
100
AcDbPolyline
 62
7
  6
CONTINUOUS
 90
3
 70
0
 10
2.1605505134
 20
-26.4991573836
 10
2.1555382746
 20
-26.4333972854
 10
2.1509689923
 20
-26.3650133313
  0
LINE
  5
2E3
100
AcDbEntity
  8
SUPERFICI
100
AcDbLine
 62
253
  6
CONTINUOUS
 10
2.1103045099
 20
-26.2582480582
 11
2.1279640254
 21
-26.5100269491
  0
LINE
  5
2E4
100
AcDbEntity
  8
RACCORDO
100
AcDbLine
 62
7
  6
CONTINUOUS
 10
2.19737789
 20
-26.5771465274
 11
2.1802519457
 21
-26.2815149532
  0
LINE
  5
2E5
100
AcDbEntity
  8
SUPERFICI
100
AcDbLine
 62
7
  6
CONTINUOUS
 10
2.1509689923
 20
-26.3650133313
 11
2.1469403294
 21
-26.2939816217
  0
LWPOLYLINE
  5
2E6
100
AcDbEntity
  8
SUPERFICI
100
AcDbPolyline
 62
7
  6
CONTINUOUS
 90
4
 70
0
 10
1.8749588781
 20
-26.3118406923
 10
1.8625654492
 20
-26.0791743197
 10
1.8596393237
 20
-25.8424921501
 10
1.8674003702
 20
-25.6037974183
  0
LINE
  5
2E7
100
AcDbEntity
  8
RACCORDO
100
AcDbLine
 62
7
  6
CONTINUOUS
 10
2.1728567609
 20
-26.4839225751
 11
2.157951457
 21
-26.1773342969
  0
LWPOLYLINE
  5
2E8
100
AcDbEntity
  8
SUPERFICI
100
AcDbPolyline
 62
7
  6
CONTINUOUS
 90
7
 70
0
 10
2.1469403294
 20
-26.2939816217
 10
2.1435583091
 20
-26.2203224162
 10
2.1409344436
 20
-26.1440681751
 10
2.1391846719
 20
-26.0652200111
 10
2.138431939
 20
-25.9837731505
 10
2.1388081811
 20
-25.8998127759
 10
2.1404493939
 20
-25.8135011002
  0
LWPOLYLINE
  5
2E9
100
AcDbEntity
  8
RACCORDO
100
AcDbPolyline
 62
253
  6
CONTINUOUS
 90
11
 70
0
 10
2.1382179061
 20
-26.2143699327
 10
2.1426001149
 20
-26.3289638912
 10
2.1491532326
 20
-26.4363273527
 10
2.1567518305
 20
-26.5365356545
 10
2.1652112898
 20
-26.6294348907
 10
2.1745150431
 20
-26.7151789672
 10
2.1839216345
 20
-26.7943049402
 10
2.1933580931
 20
-26.8666220556
 10
2.202892286
 20
-26.9323210676
 10
2.2120639436
 20
-26.9925112937
 10
2.2208499154
 20
-27.0472163179
  0
LINE
  5
2EA
100
AcDbEntity
  8
SUPERFICI
100
AcDbLine
 62
253
  6
CONTINUOUS
 10
1.930757551
 20
2.4722839953
 11
1.931663214
 21
2.3613832204
  0
LINE
  5
2EB
100
AcDbEntity
  8
RACCORDO
100
AcDbLine
 62
7
  6
CONTINUOUS
 10
2.1802519457
 20
-26.2815149532
 11
2.1777725695
 21
-25.9627919244
  0
LINE
  5
2EC
100
AcDbEntity
  8
SUPERFICI
100
AcDbLine
 62
7
  6
CONTINUOUS
 10
1.7807612738
 20
2.9708649257
 11
1.7807612738
 21
4.5660350454
  0
LINE
  5
2ED
100
AcDbEntity
  8
SUPERFICI
100
AcDbLine
 62
7
  6
CONTINUOUS
 10
1.7807612738
 20
5.2885869812
 11
1.7807612738
 21
7.3707549257
  0
LINE
  5
2EE
100
AcDbEntity
  8
SUPERFICI
100
AcDbLine
 62
7
  6
CONTINUOUS
 10
2.2807877541
 20
7.5726197936
 11
2.280791259
 21
2.8222785475
  0
LINE
  5
2EF
100
AcDbEntity
  8
SUPERFICI
100
AcDbLine
 62
7
  6
CONTINUOUS
 10
2.3893522772
 20
2.8220328006
 11
2.3997428656
 21
7.5723641521
  0
LWPOLYLINE
  5
2F0
100
AcDbEntity
  8
RACCORDO
100
AcDbPolyline
 62
253
  6
CONTINUOUS
 90
3
 70
0
 10
2.1367444039
 20
-25.9630758599
 10
2.1362051886
 20
-26.0923381449
 10
2.1382179061
 20
-26.2143699327
  0
LINE
  5
2F1
100
AcDbEntity
  8
SUPERFICI
100
AcDbLine
 62
253
  6
CONTINUOUS
 10
1.9807563046
 20
7.8721568761
 11
1.9816046963
 21
7.9940005548
  0
LINE
  5
2F2
100
AcDbEntity
  8
RACCORDO
100
AcDbLine
 62
7
  6
CONTINUOUS
 10
2.157951457
 20
-26.1773342969
 11
2.1611450054
 21
-25.8540275123
  0
LWPOLYLINE
  5
2F3
100
AcDbEntity
  8
SUPERFICI
100
AcDbPolyline
 62
253
  6
CONTINUOUS
 90
3
 70
0
 10
2.103910163
 20
-25.7407875284
 10
2.101176733
 20
-26.0002271127
 10
2.1103045099
 20
-26.2582480582
  0
LWPOLYLINE
  5
2F4
100
AcDbEntity
  8
0
100
AcDbPolyline
 62
7
  6
CONTINUOUS
 90
7
 70
0
 10
5.4700064156
 20
23.7126455074
 10
5.4684643822
 20
23.5817247611
 10
5.4624073755
 20
23.4510465234
 10
5.4521317802
 20
23.3206635033
 10
5.4379160604
 20
23.1906209511
 10
5.4200216683
 20
23.0609572358
 10
5.3986939192
 20
22.9317043925
  0
LWPOLYLINE
  5
2F5
100
AcDbEntity
  8
0
100
AcDbPolyline
 62
7
  6
CONTINUOUS
 90
10
 70
0
 10
2.0814696251
 20
23.9955724165
 10
2.0780143044
 20
23.8731656252
 10
2.062629203
 20
23.7510135302
 10
2.0364788954
 20
23.6297779043
 10
2.0014602858
 20
23.5103745334
 10
1.9578330659
 20
23.3929479296
 10
1.9039620452
 20
23.2772273221
 10
1.8396936879
 20
23.1637695633
 10
1.7666140074
 20
23.0536034325
 10
1.68548821
 20
22.9474426601
  0
LINE
  5
2F6
100
AcDbEntity
  8
SUPERFICI
100
AcDbLine
 62
7
  6
CONTINUOUS
 10
2.1404493939
 20
-25.8135011002
 11
2.1434966478
 21
-25.7248645657
  0
LINE
  5
2F7
100
AcDbEntity
  8
RACCORDO
100
AcDbLine
 62
7
  6
CONTINUOUS
 10
2.1777725695
 20
-25.9627919244
 11
2.1942675024
 21
-25.6340021745
  0
LWPOLYLINE
  5
2F8
100
AcDbEntity
  8
SUPERFICI
100
AcDbPolyline
 62
7
  6
CONTINUOUS
 90
6
 70
0
 10
2.1434966478
 20
-25.7248645657
 10
2.1480932391
 20
-25.634024747
 10
2.1543666536
 20
-25.5413358059
 10
2.1624548506
 20
-25.4468823469
 10
2.1724931236
 20
-25.350804542
 10
2.1845688379
 20
-25.2535959712
  0
LINE
  5
2F9
100
AcDbEntity
  8
SUPERFICI
100
AcDbLine
 62
253
  6
CONTINUOUS
 10
2.1206224985
 20
-25.4725074486
 11
2.103910163
 21
-25.7407875284
  0
LWPOLYLINE
  5
2FA
100
AcDbEntity
  8
SUPERFICI
100
AcDbPolyline
 62
7
  6
CONTINUOUS
 90
13
 70
0
 10
2.3893772312
 20
2.8334411881
 10
2.3852698373
 20
2.768922643
 10
2.373895136
 20
2.7079934067
 10
2.3552531274
 20
2.6506534792
 10
2.3287537903
 20
2.5962985913
 10
2.2949871459
 20
2.5455330122
 10
2.2557232572
 20
2.50016955
 10
2.2115418953
 20
2.4603425786
 10
2.1618632891
 20
2.425917724
 10
2.1067181887
 20
2.398304672
 10
2.0461168439
 20
2.3779733177
 10
1.9800490047
 20
2.364453766
 10
1.9085146712
 20
2.3577460168
  0
LINE
  5
2FB
100
AcDbEntity
  8
SUPERFICI
100
AcDbLine
 62
7
  6
CONTINUOUS
 10
1.8674003702
 20
-25.6037974183
 11
1.8846287202
 21
-25.364727772
  0
LWPOLYLINE
  5
2FC
100
AcDbEntity
  8
RACCORDO
100
AcDbPolyline
 62
7
  6
CONTINUOUS
 90
3
 70
0
 10
2.1611450054
 20
-25.8540275123
 10
2.1850705937
 20
-25.5277343852
 10
2.2027818822
 20
-25.3826829171
  0
LINE
  5
2FD
100
AcDbEntity
  8
RACCORDO
100
AcDbLine
 62
7
  6
CONTINUOUS
 10
2.1942675024
 20
-25.6340021745
 11
2.2211051344
 21
-25.3810092899
  0
LINE
  5
2FE
100
AcDbEntity
  8
SUPERFICI
100
AcDbLine
 62
7
  6
CONTINUOUS
 10
1.8846287202
 20
-25.364727772
 11
1.9113243735
 21
-25.1269626111
  0
LWPOLYLINE
  5
2FF
100
AcDbEntity
  8
RACCORDO
100
AcDbPolyline
 62
253
  6
CONTINUOUS
 90
5
 70
0
 10
2.1813437408
 20
-25.3797350025
 10
2.1634954666
 20
-25.5355504185
 10
2.1501629265
 20
-25.6846819968
 10
2.1411843836
 20
-25.8271297373
 10
2.1367444039
 20
-25.9630758599
  0
LINE
  5
300
100
AcDbEntity
  8
SUPERFICI
100
AcDbLine
 62
253
  6
CONTINUOUS
 10
2.1530182778
 20
-25.1940831837
 11
2.1206224985
 21
-25.4725074486
  0
LINE
  5
301
100
AcDbEntity
  8
RACCORDO
100
AcDbLine
 62
7
  6
CONTINUOUS
 10
2.2211050685
 20
-25.3810092812
 11
2.4284372666
 21
-23.8187600723
  0
LINE
  5
302
100
AcDbEntity
  8
RACCORDO
100
AcDbLine
 62
7
  6
CONTINUOUS
 10
2.4284372666
 20
-23.8187600723
 11
2.4995567974
 21
-23.2882952337
  0
LWPOLYLINE
  5
303
100
AcDbEntity
  8
RACCORDO
100
AcDbPolyline
 62
7
  6
CONTINUOUS
 90
3
 70
0
 10
9.6088991697
 20
21.1559179203
 10
9.639799121
 20
21.3838717908
 10
9.6745623698
 20
21.7317791888
  0
LINE
  5
304
100
AcDbEntity
  8
RACCORDO
100
AcDbLine
 62
7
  6
CONTINUOUS
 10
2.2027329403
 20
-25.3826764409
 11
2.3549547879
 21
-24.281368038
  0
LINE
  5
305
100
AcDbEntity
  8
SUPERFICI
100
AcDbLine
 62
7
  6
CONTINUOUS
 10
2.1845688379
 20
-25.2535959712
 11
2.1921204433
 21
-25.1996941965
  0
LINE
  5
306
100
AcDbEntity
  8
RACCORDO
100
AcDbLine
 62
253
  6
CONTINUOUS
 10
2.5739185615
 20
-22.542546402
 11
2.1813437408
 21
-25.3797350025
  0
LINE
  5
307
100
AcDbEntity
  8
RACCORDO
100
AcDbLine
 62
253
  6
CONTINUOUS
 10
9.0977367788
 20
21.7367885583
 11
9.0868596314
 21
21.6611956261
  0
LWPOLYLINE
  5
308
100
AcDbEntity
  8
SUPERFICI
100
AcDbPolyline
 62
7
  6
CONTINUOUS
 90
3
 70
0
 10
2.1537399299
 20
-25.1940306374
 10
2.3356349341
 20
-23.9492896853
 10
2.5633837795
 20
-22.393861245
  0
LINE
  5
309
100
AcDbEntity
  8
SUPERFICI
100
AcDbLine
 62
7
  6
CONTINUOUS
 10
2.6042550532
 20
-22.4000393356
 11
2.1917892239
 21
-25.199764043
  0
LINE
  5
30A
100
AcDbEntity
  8
SUPERFICI
100
AcDbLine
 62
7
  6
CONTINUOUS
 10
1.8489328396
 20
-30.4312640132
 11
2.1707530664
 21
-28.2918478115
  0
LINE
  5
30B
100
AcDbEntity
  8
RACCORDO
100
AcDbLine
 62
7
  6
CONTINUOUS
 10
2.1707530664
 20
-28.2918478115
 11
2.2994220318
 21
-27.4364743885
  0
LINE
  5
30C
100
AcDbEntity
  8
RACCORDO
100
AcDbLine
 62
7
  6
CONTINUOUS
 10
3.343045467
 20
-20.4986106392
 11
9.608903811
 21
21.1559517908
  0
LINE
  5
30D
100
AcDbEntity
  8
SUPERFICI
100
AcDbLine
 62
7
  6
CONTINUOUS
 10
2.3117858031
 20
-22.339925504
 11
2.3428299308
 21
-22.1424732916
  0
LWPOLYLINE
  5
30E
100
AcDbEntity
  8
RACCORDO
100
AcDbPolyline
 62
253
  6
CONTINUOUS
 90
6
 70
0
 10
9.0868596314
 20
21.6611956261
 10
9.0632081557
 20
21.5097566357
 10
9.0501663649
 20
21.430034416
 10
9.036159458
 20
21.3476431864
 10
9.0211309039
 20
21.2625426365
 10
9.0050908268
 20
21.1746431886
  0
LWPOLYLINE
  5
30F
100
AcDbEntity
  8
RACCORDO
100
AcDbPolyline
 62
253
  6
CONTINUOUS
 90
66
 70
0
 10
9.597308153
 20
21.0803585216
 10
9.58530145
 20
21.0052521604
 10
9.5723636963
 20
20.9275021076
 10
9.5584527947
 20
20.8471514368
 10
9.5435076082
 20
20.7641570744
 10
9.527439717
 20
20.6783898004
 10
9.5101850549
 20
20.5898395568
 10
9.4916774297
 20
20.4985164015
 10
9.4718037438
 20
20.4043212876
 10
9.4504786245
 20
20.307259442
 10
9.4276190948
 20
20.2073256379
 10
9.4030934226
 20
20.104405148
 10
9.3768154396
 20
19.9984884101
 10
9.3486892507
 20
19.8895849865
 10
9.3185561284
 20
19.7776088369
 10
9.2862965929
 20
19.6625411749
 10
9.251795626
 20
19.5444007871
 10
9.2148745309
 20
19.4231579922
 10
9.1754029367
 20
19.2987835567
 10
9.1332355849
 20
19.1713067142
 10
9.0881728812
 20
19.0407854851
 10
9.0400831388
 20
18.9072370706
 10
8.9887998472
 20
18.7706442696
 10
8.934024509
 20
18.6310134991
 10
8.8756209665
 20
18.4884041299
 10
8.8133450234
 20
18.3427567913
 10
8.7467057162
 20
18.1938997881
 10
8.6755623674
 20
18.0418044755
 10
8.5996751425
 20
17.8864994982
 10
8.5183843707
 20
17.7278990955
 10
8.4314254675
 20
17.5659272485
 10
8.338523303
 20
17.4006599761
 10
8.2389710082
 20
17.2322395749
 10
8.132461221
 20
17.0605634037
 10
8.0186181796
 20
16.8857341036
 10
7.8963534343
 20
16.7082018949
 10
7.7655438285
 20
16.5278338995
 10
7.6257979208
 20
16.3447629956
 10
7.4757603705
 20
16.1598380375
 10
7.3153684092
 20
15.9729416164
 10
7.1445570897
 20
15.7841911411
 10
6.9610785677
 20
15.5947876931
 10
6.7644231874
 20
15.4045903217
 10
6.5540062322
 20
15.2137399775
 10
6.3270609599
 20
15.0238605938
 10
6.0821212534
 20
14.8339212107
 10
5.8202388684
 20
14.644952788
 10
5.5417960994
 20
14.4616721386
 10
5.2445642493
 20
14.2837236357
 10
4.9304462427
 20
14.111462906
 10
4.6054442536
 20
13.9506736426
 10
4.268796653
 20
13.8023025984
 10
3.9216506614
 20
13.6654030205
 10
3.5715963163
 20
13.5429183425
 10
3.2178628788
 20
13.436066029
 10
2.8607450266
 20
13.3436286153
 10
2.5086722405
 20
13.2648971417
 10
2.1633998664
 20
13.2009149018
 10
1.8241460625
 20
13.150638602
 10
1.4957975658
 20
13.1102294019
 10
1.180870586
 20
13.0798277001
 10
0.8783211932
 20
13.059293098
 10
0.5870410345
 20
13.0443655595
 10
0.3065929588
 20
13.0336250727
 10
0.0377970274
 20
13.0284916495
 10
-0.4817986593
 20
13.028456318
  0
LINE
  5
310
100
AcDbEntity
  8
RACCORDO
100
AcDbLine
 62
253
  6
CONTINUOUS
 10
2.5943750541
 20
-22.4150115997
 11
2.5739185615
 21
-22.542546402
  0
LINE
  5
311
100
AcDbEntity
  8
SUPERFICI
100
AcDbLine
 62
7
  6
CONTINUOUS
 10
2.6055647065
 20
-22.4000768658
 11
2.6291788379
 21
-22.256209557
  0
LWPOLYLINE
  5
312
100
AcDbEntity
  8
RACCORDO
100
AcDbPolyline
 62
253
  6
CONTINUOUS
 90
14
 70
0
 10
9.0050908268
 20
21.1746431886
 10
8.987945424
 20
21.083915927
 10
8.9695884535
 20
20.9903506083
 10
8.9500048252
 20
20.8938805682
 10
8.9290941213
 20
20.7944870401
 10
8.9067401993
 20
20.692148566
 10
8.8828978097
 20
20.5867905255
 10
8.8574537135
 20
20.4783863734
 10
8.8302857553
 20
20.3669241619
 10
8.8013285746
 20
20.2523485594
 10
8.7704686535
 20
20.1346274662
 10
8.7375661836
 20
20.0137597285
 10
8.7025117851
 20
19.8897366127
 10
8.6651835265
 20
19.7625263682
  0
LINE
  5
313
100
AcDbEntity
  8
SUPERFICI
100
AcDbLine
 62
7
  6
CONTINUOUS
 10
2.3428299308
 20
-22.1424732916
 11
2.3817430931
 21
-21.9429780904
  0
LINE
  5
314
100
AcDbEntity
  8
RACCORDO
100
AcDbLine
 62
7
  6
CONTINUOUS
 10
2.6221943291
 20
-22.4035813504
 11
2.6434582163
 21
-22.295885939
  0
LINE
  5
315
100
AcDbEntity
  8
SUPERFICI
100
AcDbLine
 62
7
  6
CONTINUOUS
 10
2.6291788379
 20
-22.256209557
 11
2.6660041451
 21
-22.071367152
  0
LWPOLYLINE
  5
316
100
AcDbEntity
  8
RACCORDO
100
AcDbPolyline
 62
253
  6
CONTINUOUS
 90
3
 70
0
 10
2.6408400094
 20
-22.1762176213
 10
2.6166855517
 20
-22.2929020062
 10
2.5943750541
 20
-22.4150115997
  0
LINE
  5
317
100
AcDbEntity
  8
RACCORDO
100
AcDbLine
 62
7
  6
CONTINUOUS
 10
2.6210786663
 20
-22.4035367985
 11
2.6816016838
 21
-22.1124069567
  0
LWPOLYLINE
  5
318
100
AcDbEntity
  8
SUPERFICI
100
AcDbPolyline
 62
7
  6
CONTINUOUS
 90
3
 70
0
 10
2.3817430931
 20
-21.9429780904
 10
2.4285252902
 20
-21.7424053816
 10
2.4839485098
 20
-21.5419425142
  0
LINE
  5
319
100
AcDbEntity
  8
RACCORDO
100
AcDbLine
 62
253
  6
CONTINUOUS
 10
2.6671330633
 20
-22.0649843219
 11
2.6408400094
 21
-22.1762176213
  0
LWPOLYLINE
  5
31A
100
AcDbEntity
  8
SUPERFICI
100
AcDbPolyline
 62
7
  6
CONTINUOUS
 90
4
 70
0
 10
2.6660041451
 20
-22.071367152
 10
2.7074785289
 20
-21.8966967004
 10
2.752683085
 20
-21.7309967711
 10
2.800374382
 20
-21.5743439821
  0
LWPOLYLINE
  5
31B
100
AcDbEntity
  8
SUPERFICI
100
AcDbPolyline
 62
253
  6
CONTINUOUS
 90
4
 70
0
 10
3.3467528898
 20
-20.1716489077
 10
3.3432580806
 20
-20.1861053064
 10
3.3149991192
 20
-20.256854132
 10
3.1963434674
 20
-20.506778189
  0
LWPOLYLINE
  5
31C
100
AcDbEntity
  8
SUPERFICI
100
AcDbPolyline
 62
253
  6
CONTINUOUS
 90
3
 70
0
 10
2.7040073048
 20
-21.7629730275
 10
2.6304052567
 20
-22.0624753187
 10
2.5624449157
 20
-22.3937616414
  0
LINE
  5
31D
100
AcDbEntity
  8
RACCORDO
100
AcDbLine
 62
7
  6
CONTINUOUS
 10
2.6816016838
 20
-22.1124069567
 11
2.7609035219
 21
-21.8239172264
  0
LINE
  5
31E
100
AcDbEntity
  8
SUPERFICI
100
AcDbLine
 62
253
  6
CONTINUOUS
 10
2.7823766858
 20
-21.4944857768
 11
2.7040073048
 21
-21.7629730275
  0
LWPOLYLINE
  5
31F
100
AcDbEntity
  8
SUPERFICI
100
AcDbPolyline
 62
7
  6
CONTINUOUS
 90
6
 70
0
 10
2.4839485098
 20
-21.5419425142
 10
2.5472407642
 20
-21.3425299549
 10
2.6160860896
 20
-21.1448891576
 10
2.6897124983
 20
-20.9501376354
 10
2.7688919781
 20
-20.7597509296
 10
2.8536245289
 20
-20.575112344
  0
LWPOLYLINE
  5
320
100
AcDbEntity
  8
SUPERFICI
100
AcDbPolyline
 62
7
  6
CONTINUOUS
 90
4
 70
0
 10
2.800374382
 20
-21.5743439821
 10
2.8493140308
 20
-21.427165758
 10
2.8987225651
 20
-21.2889709062
 10
2.9479356155
 20
-21.1593604068
  0
LINE
  5
321
100
AcDbEntity
  8
RACCORDO
100
AcDbLine
 62
7
  6
CONTINUOUS
 10
2.7609035219
 20
-21.8239172264
 11
2.8539774013
 21
-21.5496043223
  0
LINE
  5
322
100
AcDbEntity
  8
SUPERFICI
100
AcDbLine
 62
253
  6
CONTINUOUS
 10
2.8629454618
 20
-21.2619751143
 11
2.7823766858
 21
-21.4944857768
  0
LWPOLYLINE
  5
323
100
AcDbEntity
  8
SUPERFICI
100
AcDbPolyline
 62
7
  6
CONTINUOUS
 90
5
 70
0
 10
2.9479356155
 20
-21.1593604068
 10
2.9960083058
 20
-21.0388854612
 10
3.0419579158
 20
-20.9282543328
 10
3.0852336115
 20
-20.8272513093
 10
3.1219819629
 20
-20.7433900612
  0
LWPOLYLINE
  5
324
100
AcDbEntity
  8
RACCORDO
100
AcDbPolyline
 62
7
  6
CONTINUOUS
 90
3
 70
0
 10
2.8539774013
 20
-21.5496043223
 10
2.9547991065
 20
-21.297015852
 10
3.0562039028
 20
-21.072819518
  0
LWPOLYLINE
  5
325
100
AcDbEntity
  8
RACCORDO
100
AcDbPolyline
 62
253
  6
CONTINUOUS
 90
9
 70
0
 10
2.9010701377
 20
-21.3601955625
 10
2.8715118098
 20
-21.433264687
 10
2.8421296652
 20
-21.5090685077
 10
2.8126410749
 20
-21.5893420215
 10
2.7828543492
 20
-21.6743709324
 10
2.7531021826
 20
-21.7638695364
 10
2.7239041636
 20
-21.8587157188
 10
2.6951701815
 20
-21.9591762312
 10
2.6671330633
 20
-22.0649843219
  0
LINE
  5
326
100
AcDbEntity
  8
SUPERFICI
100
AcDbLine
 62
253
  6
CONTINUOUS
 10
2.9449533916
 20
-21.0596415668
 11
2.8629454618
 21
-21.2619751143
  0
LWPOLYLINE
  5
327
100
AcDbEntity
  8
SUPERFICI
100
AcDbPolyline
 62
253
  6
CONTINUOUS
 90
5
 70
0
 10
-2.2873104295
 20
-30.4312630991
 10
-2.279964176
 20
-30.4140514841
 10
-2.2551064541
 20
-30.3777779721
 10
-2.2137983059
 20
-30.3224425632
 10
-2.1606826824
 20
-30.2454890271
  0
LWPOLYLINE
  5
328
100
AcDbEntity
  8
RACCORDO
100
AcDbPolyline
 62
253
  6
CONTINUOUS
 90
3
 70
0
 10
2.9604617876
 20
-21.2214692688
 10
2.9307687733
 20
-21.2894650676
 10
2.9010701377
 20
-21.3601955625
  0
LINE
  5
329
100
AcDbEntity
  8
SUPERFICI
100
AcDbLine
 62
253
  6
CONTINUOUS
 10
3.0293328816
 20
-20.8704659328
 11
2.9449533916
 21
-21.0596415668
  0
LINE
  5
32A
100
AcDbEntity
  8
RACCORDO
100
AcDbLine
 62
253
  6
CONTINUOUS
 10
2.9902342285
 20
-21.1556613684
 11
2.9604617876
 21
-21.2214692688
  0
LINE
  5
32B
100
AcDbEntity
  8
SUPERFICI
100
AcDbLine
 62
253
  6
CONTINUOUS
 10
3.1963434674
 20
-20.506778189
 11
3.0293328816
 21
-20.8704659328
  0
LWPOLYLINE
  5
32C
100
AcDbEntity
  8
RACCORDO
100
AcDbPolyline
 62
7
  6
CONTINUOUS
 90
4
 70
0
 10
3.0562039028
 20
-21.072819518
 10
3.1517401423
 20
-20.8813990462
 10
3.2328668942
 20
-20.7308664266
 10
3.2880797755
 20
-20.6344276017
  0
LINE
  5
32D
100
AcDbEntity
  8
SUPERFICI
100
AcDbLine
 62
7
  6
CONTINUOUS
 10
2.8536245289
 20
-20.575112344
 11
3.1972639766
 21
-19.8893777993
  0
LWPOLYLINE
  5
32E
100
AcDbEntity
  8
SUPERFICI
100
AcDbPolyline
 62
7
  6
CONTINUOUS
 90
4
 70
0
 10
3.1972639766
 20
-19.8893777993
 10
3.2862749362
 20
-19.7190108972
 10
3.3616165148
 20
-19.579908954
 10
3.417878995
 20
-19.4730099593
  0
LWPOLYLINE
  5
32F
100
AcDbEntity
  8
RACCORDO
100
AcDbPolyline
 62
253
  6
CONTINUOUS
 90
19
 70
0
 10
-9.0902808102
 20
19.7184062788
 10
-9.1293188192
 20
19.8497936435
 10
-9.1658800729
 20
19.9776695388
 10
-9.2001014486
 20
20.1020535638
 10
-9.2321330969
 20
20.2230606799
 10
-9.2621335736
 20
20.3407161401
 10
-9.2902237329
 20
20.4550302402
 10
-9.3164848668
 20
20.5660948911
 10
-9.3410508813
 20
20.6739233172
 10
-9.3640444817
 20
20.778543658
 10
-9.3855195967
 20
20.8800669183
 10
-9.4055997175
 20
20.9785165211
 10
-9.4243941056
 20
21.0739118334
 10
-9.4419253707
 20
21.166353093
 10
-9.4583053065
 20
21.2558503706
 10
-9.4736342046
 20
21.3424349537
 10
-9.4879076881
 20
21.4262330957
 10
-9.5011862453
 20
21.5072977086
 10
-9.5135988882
 20
21.5856122128
  0
LWPOLYLINE
  5
330
100
AcDbEntity
  8
0
100
AcDbPolyline
 62
7
  6
CONTINUOUS
 90
7
 70
0
 10
-5.8370713717
 20
22.9317043925
 10
-5.8583989767
 20
23.060956406
 10
-5.8762933357
 20
23.1906196291
 10
-5.8905090952
 20
23.3206620233
 10
-5.9007847624
 20
23.4510452153
 10
-5.9068418302
 20
23.5817239489
 10
-5.9083838681
 20
23.7126455074
  0
LINE
  5
331
100
AcDbEntity
  8
RACCORDO
100
AcDbLine
 62
7
  6
CONTINUOUS
 10
2.2324797384
 20
-26.99503537
 11
2.1997705454
 21
-26.7604337238
  0
LWPOLYLINE
  5
332
100
AcDbEntity
  8
SUPERFICI
100
AcDbPolyline
 62
253
  6
CONTINUOUS
 90
4
 70
0
 10
2.1509124485
 20
-26.7376708615
 10
2.1771244785
 20
-26.9385913907
 10
2.2031627963
 20
-27.1157589551
 10
2.2132509984
 20
-27.178628309
  0
LWPOLYLINE
  5
333
100
AcDbEntity
  8
0
100
AcDbPolyline
 62
7
  6
CONTINUOUS
 90
10
 70
0
 10
-0.7501059456
 20
18.4651104835
 10
-0.739700255
 20
18.3801172264
 10
-0.7160741974
 20
18.3014575146
 10
-0.678885571
 20
18.229362057
 10
-0.6259585703
 20
18.162836711
 10
-0.5589972642
 20
18.1037443918
 10
-0.4838954253
 20
18.0565413226
 10
-0.402953399
 20
18.022871498
 10
-0.3145732015
 20
18.0018307135
 10
-0.2191887262
 20
17.9938498762
  0
LWPOLYLINE
  5
334
100
AcDbEntity
  8
SUPERFICI
100
AcDbPolyline
 62
7
  6
CONTINUOUS
 90
10
 70
0
 10
2.2807560818
 20
7.5737734844
 10
2.2746209853
 20
7.6274634876
 10
2.2610722761
 20
7.6767760292
 10
2.2401001472
 20
7.7217110507
 10
2.2107605904
 20
7.7632780104
 10
2.1739633545
 20
7.8004673305
 10
2.1324824426
 20
7.8302504204
 10
2.08723697
 20
7.8516177464
 10
2.0372810609
 20
7.8655788088
 10
1.9825989568
 20
7.8721336076
  0
LWPOLYLINE
  5
335
100
AcDbEntity
  8
SUPERFICI
100
AcDbPolyline
 62
7
  6
CONTINUOUS
 90
10
 70
0
 10
2.3997663873
 20
7.5831177426
 10
2.3918475152
 20
7.6544242674
 10
2.3731356652
 20
7.7207477549
 10
2.3436308374
 20
7.782088205
 10
2.3022267568
 20
7.8403494926
 10
2.2500296984
 20
7.8936277429
 10
2.1903584872
 20
7.9362113309
 10
2.1243193984
 20
7.9661963819
 10
2.0508061569
 20
7.9854867707
 10
1.9698187626
 20
7.9940824973
  0
LWPOLYLINE
  5
336
100
AcDbEntity
  8
0
100
AcDbPolyline
 62
7
  6
CONTINUOUS
 90
13
 70
0
 10
4.3753812747
 20
23.8285167085
 10
4.3257189288
 20
24.3374491636
 10
4.2001833248
 20
24.8402965783
 10
4.0002898162
 20
25.3247691495
 10
3.7267460511
 20
25.7730697864
 10
3.3890042858
 20
26.1786068069
 10
2.9977939413
 20
26.5482965034
 10
2.5514873373
 20
26.8748691769
 10
2.0582632354
 20
27.1454118247
 10
1.5335779345
 20
27.3647276374
 10
0.9800414121
 20
27.531903591
 10
0.3951437403
 20
27.6348462214
 10
-0.2191887262
 20
27.6637473701
  0
LWPOLYLINE
  5
337
100
AcDbEntity
  8
0
100
AcDbPolyline
 62
7
  6
CONTINUOUS
 90
13
 70
0
 10
2.0753889344
 20
23.9933677815
 10
2.0519125986
 20
24.2429405105
 10
1.990545191
 20
24.4914096503
 10
1.8914253553
 20
24.7324788995
 10
1.75360495
 20
24.9579043187
 10
1.5818503075
 20
25.1627172533
 10
1.3840190612
 20
25.3474602913
 10
1.161739347
 20
25.5076535614
 10
0.9179500486
 20
25.6392390785
 10
0.6577981863
 20
25.7465754141
 10
0.3815336422
 20
25.8290884248
 10
0.0888371906
 20
25.8798105512
 10
-0.2191887262
 20
25.8934661157
  0
LINE
  5
338
100
AcDbEntity
  8
RACCORDO
100
AcDbLine
 62
7
  6
CONTINUOUS
 10
9.6947581403
 20
22.0859939624
 11
9.6996140369
 21
22.445417633
  0
LWPOLYLINE
  5
339
100
AcDbEntity
  8
RACCORDO
100
AcDbPolyline
 62
253
  6
CONTINUOUS
 90
10
 70
0
 10
9.6084339126
 20
21.1528211697
 10
9.6095860969
 20
21.2170910639
 10
9.5940597405
 20
21.2825131488
 10
9.5621817056
 20
21.347710155
 10
9.5146230904
 20
21.4113095515
 10
9.4523851023
 20
21.4719724401
 10
9.3767779793
 20
21.5284217423
 10
9.2893934077
 20
21.5794690843
 10
9.192071013
 20
21.6240398146
 10
9.0868596327
 20
21.661195628
  0
LWPOLYLINE
  5
33A
100
AcDbEntity
  8
RACCORDO
100
AcDbPolyline
 62
253
  6
CONTINUOUS
 90
5
 70
0
 10
9.1672551031
 20
22.5403725576
 10
9.1631393869
 20
22.438518044
 10
9.1578366113
 20
22.3401588651
 10
9.1516297387
 20
22.2453337417
 10
9.1444339066
 20
22.1535124691
  0
LINE
  5
33B
100
AcDbEntity
  8
RACCORDO
100
AcDbLine
 62
7
  6
CONTINUOUS
 10
9.6745623698
 20
21.7317791888
 11
9.6947581403
 21
22.0859939624
  0
LWPOLYLINE
  5
33C
100
AcDbEntity
  8
RACCORDO
100
AcDbPolyline
 62
253
  6
CONTINUOUS
 90
6
 70
0
 10
9.1444339066
 20
22.1535124691
 10
9.1363972845
 20
22.0647136231
 10
9.1277211541
 20
21.9789725791
 10
9.1183281827
 20
21.8957830989
 10
9.1082660675
 20
21.8149900263
 10
9.0977367788
 20
21.7367885583
  0
LWPOLYLINE
  5
33D
100
AcDbEntity
  8
RACCORDO
100
AcDbPolyline
 62
253
  6
CONTINUOUS
 90
11
 70
0
 10
3.2420509608
 20
-20.6668624961
 10
3.2243768092
 20
-20.6979784215
 10
3.204622039
 20
-20.7332844107
 10
3.1828633579
 20
-20.7725214807
 10
3.1593576408
 20
-20.8158748761
 10
3.1340357415
 20
-20.8636710566
 10
3.1070027734
 20
-20.9155835625
 10
3.0789321921
 20
-20.97081826
 10
3.0499803495
 20
-21.0294885356
 10
3.0202008683
 20
-21.0914810028
 10
2.9902342285
 20
-21.1556613684
  0
LWPOLYLINE
  5
33E
100
AcDbEntity
  8
RACCORDO
100
AcDbPolyline
 62
253
  6
CONTINUOUS
 90
3
 70
0
 10
3.2846144303
 20
-20.5941316017
 10
3.2720207211
 20
-20.6154616934
 10
3.2420509608
 20
-20.6668624961
  0
LINE
  5
33F
100
AcDbEntity
  8
RACCORDO
100
AcDbLine
 62
253
  6
CONTINUOUS
 10
3.3138389028
 20
-20.5457334463
 11
3.2846144303
 21
-20.5941316017
  0
LWPOLYLINE
  5
340
100
AcDbEntity
  8
RACCORDO
100
AcDbPolyline
 62
253
  6
CONTINUOUS
 90
3
 70
0
 10
3.3392266886
 20
-20.5047671766
 10
3.3321646579
 20
-20.5160197549
 10
3.3138389028
 20
-20.5457334463
  0
LWPOLYLINE
  5
341
100
AcDbEntity
  8
SUPERFICI
100
AcDbPolyline
 62
253
  6
CONTINUOUS
 90
3
 70
0
 10
-2.1606826824
 20
-30.2454890271
 10
-2.0987902373
 20
-30.1494735941
 10
-2.0252090722
 20
-30.0420649552
  0
LWPOLYLINE
  5
342
100
AcDbEntity
  8
RACCORDO
100
AcDbPolyline
 62
253
  6
CONTINUOUS
 90
3
 70
0
 10
3.3430454449
 20
-20.4986107864
 10
3.3426459407
 20
-20.4991910934
 10
3.3392266886
 20
-20.5047671766
  0
LWPOLYLINE
  5
343
100
AcDbEntity
  8
SUPERFICI
100
AcDbPolyline
 62
253
  6
CONTINUOUS
 90
11
 70
0
 10
-1.4249052826
 20
-29.9997431503
 10
-1.5066375897
 20
-30.1163405752
 10
-1.5830084603
 20
-30.2290173838
 10
-1.6541993481
 20
-30.3363472033
 10
-1.7201127356
 20
-30.4367490976
 10
-1.7791368028
 20
-30.5294320436
 10
-1.8315630819
 20
-30.6125729735
 10
-1.8772206704
 20
-30.6842623271
 10
-1.9138390773
 20
-30.7434419134
 10
-1.9407084233
 20
-30.7883661873
 10
-1.9586545659
 20
-30.8164937038
  0
LWPOLYLINE
  5
344
100
AcDbEntity
  8
SUPERFICI
100
AcDbPolyline
 62
253
  6
CONTINUOUS
 90
12
 70
0
 10
-2.0252090722
 20
-30.0420649552
 10
-1.8461520493
 20
-29.7940779208
 10
-1.7420264566
 20
-29.6591484947
 10
-1.6296125485
 20
-29.5170051736
 10
-1.5107048744
 20
-29.3696225465
 10
-1.3778252002
 20
-29.2290782809
 10
-1.2290637244
 20
-29.0932721133
 10
-1.0642422179
 20
-28.9643043072
 10
-0.8806983995
 20
-28.8605533206
 10
-0.677885011
 20
-28.7881453062
 10
-0.4555787609
 20
-28.7409541112
 10
-0.2191887262
 20
-28.7189797357
  0
LINE
  5
345
100
AcDbEntity
  8
SUPERFICI
100
AcDbLine
 62
253
  6
CONTINUOUS
 10
-1.9586545659
 20
-30.8164937038
 11
-1.9677108178
 21
-30.8253216362
  0
LWPOLYLINE
  5
346
100
AcDbEntity
  8
0
100
AcDbPolyline
 62
7
  6
CONTINUOUS
 90
7
 70
0
 10
-4.6916430711
 20
22.9746331734
 10
-4.6034583623
 20
22.7157162312
 10
-4.4899037091
 20
22.4574145396
 10
-4.3521199969
 20
22.2016259144
 10
-4.1913564863
 20
21.9502827057
 10
-4.0089658506
 20
21.7053436795
 10
-3.8063988796
 20
21.4687855
  0
LINE
  5
347
100
AcDbEntity
  8
RACCORDO
100
AcDbLine
 62
7
  6
CONTINUOUS
 10
9.6931869882
 20
22.7076798728
 11
9.6696092696
 21
23.0817891282
  0
LINE
  5
348
100
AcDbEntity
  8
RACCORDO
100
AcDbLine
 62
7
  6
CONTINUOUS
 10
9.6931629347
 20
22.7076804213
 11
9.6931305648
 21
22.7084937937
  0
LWPOLYLINE
  5
349
100
AcDbEntity
  8
RACCORDO
100
AcDbPolyline
 62
253
  6
CONTINUOUS
 90
6
 70
0
 10
9.1652885172
 20
23.1071454124
 10
9.1695227046
 20
22.9858871202
 10
9.1714570247
 20
22.8684907469
 10
9.171453965
 20
22.7550110521
 10
9.1699867884
 20
22.6456896694
 10
9.1672551031
 20
22.5403725576
  0
LINE
  5
34A
100
AcDbEntity
  8
RACCORDO
100
AcDbLine
 62
7
  6
CONTINUOUS
 10
9.6996140369
 20
22.445417633
 11
9.6931305648
 21
22.7084937937
  0
LWPOLYLINE
  5
34B
100
AcDbEntity
  8
SUPERFICI
100
AcDbPolyline
 62
7
  6
CONTINUOUS
 90
10
 70
0
 10
1.5293311754
 20
-30.8253247305
 10
1.5834944494
 20
-30.8013740216
 10
1.6342418887
 20
-30.7713115253
 10
1.6811122335
 20
-30.7354489126
 10
1.7234997114
 20
-30.6942756537
 10
1.7607388312
 20
-30.6483684852
 10
1.7922879209
 20
-30.5983926703
 10
1.8177173054
 20
-30.5451171656
 10
1.8366699793
 20
-30.4892352683
 10
1.8489330821
 20
-30.4312623843
  0
LWPOLYLINE
  5
34C
100
AcDbEntity
  8
0
100
AcDbPolyline
 62
7
  6
CONTINUOUS
 90
3
 70
0
 10
0.2382409724
 20
20.73646228
 10
0.2895876943
 20
20.6095099303
 10
0.3161023641
 20
20.5431858335
  0
LWPOLYLINE
  5
34D
100
AcDbEntity
  8
SUPERFICI
100
AcDbPolyline
 62
7
  6
CONTINUOUS
 90
10
 70
0
 10
2.0430273988
 20
22.8467462947
 10
2.0461956819
 20
22.8371095238
 10
2.0523991657
 20
22.8285795362
 10
2.0612367383
 20
22.821074948
 10
2.0724237722
 20
22.8147119535
 10
2.0854763334
 20
22.8086641746
 10
2.1000184568
 20
22.8016412419
 10
2.1160330109
 20
22.7933264096
 10
2.1335234939
 20
22.7839206599
 10
2.1524327843
 20
22.7733034455
  0
LWPOLYLINE
  5
34E
100
AcDbEntity
  8
SUPERFICI
100
AcDbPolyline
 62
7
  6
CONTINUOUS
 90
10
 70
0
 10
1.9326092971
 20
2.4722886538
 10
1.9975304801
 20
2.4802876993
 10
2.0565922571
 20
2.4969033983
 10
2.1098264699
 20
2.5221356919
 10
2.1582913036
 20
2.5572337075
 10
2.2009834554
 20
2.6009482777
 10
2.2348521427
 20
2.649531959
 10
2.2589037744
 20
2.7017356563
 10
2.2741869345
 20
2.7588086063
 10
2.280714922
 20
2.8207509067
  0
LWPOLYLINE
  5
34F
100
AcDbEntity
  8
SUPERFICI
100
AcDbPolyline
 62
7
  6
CONTINUOUS
 90
3
 70
0
 10
-2.3391250476
 20
2.352289313
 10
-1.8709375695
 20
2.3558737718
 10
-1.635970738
 20
2.3565008712
  0
LINE
  5
350
100
AcDbEntity
  8
SUPERFICI
100
AcDbLine
 62
7
  6
CONTINUOUS
 10
-0.6914495034
 20
2.3539523702
 11
-0.2191966383
 21
2.3561495031
  0
LINE
  5
351
100
AcDbEntity
  8
SUPERFICI
100
AcDbLine
 62
253
  6
CONTINUOUS
 10
-2.827728194
 20
2.822032804
 11
-2.7191686461
 21
2.8222785476
  0
LINE
  5
352
100
AcDbEntity
  8
SUPERFICI
100
AcDbLine
 62
7
  6
CONTINUOUS
 10
1.9085146712
 20
2.3577460168
 11
-0.2191966383
 21
2.3561495031
  0
LINE
  5
353
100
AcDbEntity
  8
SUPERFICI
100
AcDbLine
 62
7
  6
CONTINUOUS
 10
1.930757551
 20
2.4722839953
 11
-2.3691350033
 21
2.4722840285
  0
LINE
  5
354
100
AcDbEntity
  8
SUPERFICI
100
AcDbLine
 62
253
  6
CONTINUOUS
 10
2.280791259
 20
2.8222785475
 11
2.3893522772
 21
2.8220328006
  0
LINE
  5
355
100
AcDbEntity
  8
SUPERFICI
100
AcDbLine
 62
7
  6
CONTINUOUS
 10
-1.635970738
 20
2.3565008712
 11
-0.6914495034
 21
2.3539523702
  0
LWPOLYLINE
  5
356
100
AcDbEntity
  8
SUPERFICI
100
AcDbPolyline
 62
7
  6
CONTINUOUS
 90
10
 70
0
 10
-2.3764536833
 20
2.4725852341
 10
-2.4365252862
 20
2.4794536835
 10
-2.4922142598
 20
2.4952243738
 10
-2.5435429649
 20
2.5198969273
 10
-2.5920942193
 20
2.5547383483
 10
-2.6363226999
 20
2.5984809439
 10
-2.6715775664
 20
2.6473218824
 10
-2.6963360667
 20
2.6999929824
 10
-2.7121800272
 20
2.7577611725
 10
-2.7191235172
 20
2.8206260958
  0
LINE
  5
357
100
AcDbEntity
  8
SUPERFICI
100
AcDbLine
 62
7
  6
CONTINUOUS
 10
1.7807612738
 20
4.5660350454
 11
-0.2191887262
 21
6.5659750457
  0
LINE
  5
358
100
AcDbEntity
  8
SUPERFICI
100
AcDbLine
 62
7
  6
CONTINUOUS
 10
-0.1407506872
 20
7.2100889424
 11
1.7807612738
 21
5.2885869812
  0
LWPOLYLINE
  5
359
100
AcDbEntity
  8
0
100
AcDbPolyline
 62
253
  6
CONTINUOUS
 90
7
 70
0
 10
-1.6413366179
 20
19.7268995902
 10
-1.6466966046
 20
19.7356126762
 10
-1.6527243169
 20
19.743699609
 10
-1.6594186453
 20
19.7511591459
 10
-1.6667785063
 20
19.7579900489
 10
-1.6748028408
 20
19.7641910834
 10
-1.6834906129
 20
19.7697610186
  0
LWPOLYLINE
  5
35A
100
AcDbEntity
  8
0
100
AcDbPolyline
 62
7
  6
CONTINUOUS
 90
16
 70
0
 10
-2.1238806073
 20
22.9475207738
 10
-2.0757583986
 20
22.8661122108
 10
-2.0483923102
 20
22.7792511341
 10
-2.0416396347
 20
22.6904887212
 10
-2.0544333294
 20
22.604524774
 10
-2.0848920011
 20
22.5228302134
 10
-2.1333178138
 20
22.4440938995
 10
-2.2007379318
 20
22.3705503472
 10
-2.2856098181
 20
22.307102732
 10
-2.3858159257
 20
22.2571205166
 10
-2.499711217
 20
22.223563334
 10
-2.622093959
 20
22.2108421282
 10
-2.7433438253
 20
22.2215411056
 10
-2.8562182225
 20
22.2546276619
 10
-2.9567753499
 20
22.3081550537
 10
-3.0403290338
 20
22.3794832473
  0
LWPOLYLINE
  5
35B
100
AcDbEntity
  8
0
100
AcDbPolyline
 62
7
  6
CONTINUOUS
 90
3
 70
0
 10
-0.1114032464
 20
21.5159592781
 10
-0.0722275191
 20
21.4369695569
 10
-0.0523629466
 20
21.3956220656
  0
LWPOLYLINE
  5
35C
100
AcDbEntity
  8
0
100
AcDbPolyline
 62
7
  6
CONTINUOUS
 90
3
 70
0
 10
-0.0523629466
 20
21.3956220656
 10
-0.011873074
 20
21.3095717251
 10
0.0087673999
 20
21.2648475849
  0
LINE
  5
35D
100
AcDbEntity
  8
0
100
AcDbLine
 62
7
  6
CONTINUOUS
 10
0.0087673999
 20
21.2648475849
 11
0.0511599773
 21
21.1714629474
  0
LINE
  5
35E
100
AcDbEntity
  8
0
100
AcDbLine
 62
7
  6
CONTINUOUS
 10
0.0511599773
 20
21.1714629474
 11
0.0951338323
 21
21.0725665279
  0
LINE
  5
35F
100
AcDbEntity
  8
0
100
AcDbLine
 62
7
  6
CONTINUOUS
 10
0.0951338323
 20
21.0725665279
 11
0.1409334433
 21
20.9675008367
  0
LWPOLYLINE
  5
360
100
AcDbEntity
  8
0
100
AcDbPolyline
 62
7
  6
CONTINUOUS
 90
4
 70
0
 10
0.1409334433
 20
20.9675008367
 10
0.1886154932
 20
20.8555950149
 10
0.2132281873
 20
20.7969955717
 10
0.2382409724
 20
20.73646228
  0
LWPOLYLINE
  5
361
100
AcDbEntity
  8
RACCORDO
100
AcDbPolyline
 62
253
  6
CONTINUOUS
 90
8
 70
0
 10
9.6931305648
 20
22.7084937937
 10
9.6769278708
 20
22.7884017842
 10
9.6383005189
 20
22.8607858928
 10
9.5781524664
 20
22.9278194526
 10
9.4982223771
 20
22.9875646931
 10
9.4008207414
 20
23.0382945218
 10
9.2887630886
 20
23.0785424481
 10
9.1652885998
 20
23.1071449731
  0
LINE
  5
362
100
AcDbEntity
  8
RACCORDO
100
AcDbLine
 62
7
  6
CONTINUOUS
 10
9.6696092696
 20
23.0817891282
 11
9.503920881
 21
24.1913672215
  0
LWPOLYLINE
  5
363
100
AcDbEntity
  8
RACCORDO
100
AcDbPolyline
 62
253
  6
CONTINUOUS
 90
4
 70
0
 10
9.0598493383
 20
24.096344316
 10
9.1092780691
 20
23.7573008299
 10
9.1435904316
 20
23.4274270024
 10
9.1638448845
 20
23.1074522415
  0
LINE
  5
364
100
AcDbEntity
  8
SUPERFICI
100
AcDbLine
 62
7
  6
CONTINUOUS
 10
-2.2191387262
 20
2.9708649257
 11
1.7807612738
 21
2.9708649257
  0
LINE
  5
365
100
AcDbEntity
  8
SUPERFICI
100
AcDbLine
 62
7
  6
CONTINUOUS
 10
1.7807612738
 20
7.3707549257
 11
-2.2191387262
 21
7.3707549257
  0
LWPOLYLINE
  5
366
100
AcDbEntity
  8
0
100
AcDbPolyline
 62
7
  6
CONTINUOUS
 90
10
 70
0
 10
-4.6516136006
 20
20.8057270114
 10
-4.8442482554
 20
21.0039222985
 10
-5.0251083523
 20
21.2149585879
 10
-5.192507723
 20
21.4378051904
 10
-5.3442792467
 20
21.6722425317
 10
-5.4790557366
 20
21.9160432367
 10
-5.5967830209
 20
22.1652761767
 10
-5.6967945301
 20
22.4179800895
 10
-5.777310906
 20
22.6738646369
 10
-5.8370713717
 20
22.9317043925
  0
LWPOLYLINE
  5
367
100
AcDbEntity
  8
0
100
AcDbPolyline
 62
253
  6
CONTINUOUS
 90
10
 70
0
 10
-1.6834906129
 20
19.7697610186
 10
-1.7201129982
 20
19.8151171957
 10
-1.7582463232
 20
19.8602791101
 10
-1.7977017528
 20
19.9050323466
 10
-1.8388944329
 20
19.9497734151
 10
-1.8810572819
 20
19.9936427845
 10
-1.922139285
 20
20.0346866464
 10
-1.9612789654
 20
20.0723107139
 10
-1.9988372909
 20
20.1070703567
 10
-2.034576623
 20
20.1389413164
  0
LWPOLYLINE
  5
368
100
AcDbEntity
  8
0
100
AcDbPolyline
 62
7
  6
CONTINUOUS
 90
6
 70
0
 10
-0.2191889871
 20
21.6844240924
 10
-0.1954555159
 20
21.6545829936
 10
-0.1727492296
 20
21.6228961152
 10
-0.1510629579
 20
21.5893329005
 10
-0.130736177
 20
21.5536242098
 10
-0.1114032464
 20
21.5159592781
  0
LWPOLYLINE
  5
369
100
AcDbEntity
  8
0
100
AcDbPolyline
 62
7
  6
CONTINUOUS
 90
10
 70
0
 10
-2.1238656675
 20
22.9474426665
 10
-2.2049914625
 20
23.0536034362
 10
-2.2780711414
 20
23.1637695648
 10
-2.3423394977
 20
23.2772273221
 10
-2.3962105182
 20
23.3929479291
 10
-2.4398377382
 20
23.5103745331
 10
-2.4748563479
 20
23.6297779043
 10
-2.5010066555
 20
23.7510135302
 10
-2.5163917569
 20
23.8731656252
 10
-2.5198470776
 20
23.9955724165
  0
LWPOLYLINE
  5
36A
100
AcDbEntity
  8
RACCORDO
100
AcDbPolyline
 62
7
  6
CONTINUOUS
 90
12
 70
0
 10
9.503920881
 20
24.1913672215
 10
9.2053737899
 20
25.2673011869
 10
8.7823460637
 20
26.3002048407
 10
8.241994943
 20
27.2787135359
 10
7.5928745228
 20
28.1895476745
 10
6.8430177419
 20
29.0223988671
 10
6.0010611911
 20
29.76702194
 10
5.0800514344
 20
30.4115835221
 10
4.0939067146
 20
30.9473300231
 10
3.0579560456
 20
31.3674215655
 10
1.9913997346
 20
31.6674290688
 10
0.9138105468
 20
31.8474913249
  0
LWPOLYLINE
  5
36B
100
AcDbEntity
  8
SUPERFICI
100
AcDbPolyline
 62
7
  6
CONTINUOUS
 90
10
 70
0
 10
-2.4098953148
 20
7.9968272201
 10
-2.4900415313
 20
7.9871151977
 10
-2.5629655149
 20
7.9669216885
 10
-2.6286672655
 20
7.9362466926
 10
-2.6883756996
 20
7.8935908468
 10
-2.7408619009
 20
7.8404535143
 10
-2.7824391194
 20
7.7813327839
 10
-2.8118784386
 20
7.7177280186
 10
-2.8304087751
 20
7.6481398554
 10
-2.838030129
 20
7.5725682943
  0
LWPOLYLINE
  5
36C
100
AcDbEntity
  8
SUPERFICI
100
AcDbPolyline
 62
7
  6
CONTINUOUS
 90
10
 70
0
 10
-2.4185408819
 20
7.8722042978
 10
-2.4739369669
 20
7.8658103725
 10
-2.5244863103
 20
7.8519463892
 10
-2.5702056936
 20
7.8306122886
 10
-2.6120259031
 20
7.8007753058
 10
-2.6490448183
 20
7.7634680041
 10
-2.6785374536
 20
7.7217880556
 10
-2.6996107217
 20
7.6767676746
 10
-2.7131929585
 20
7.6273738403
 10
-2.7192941623
 20
7.5736061869
  0
LINE
  5
36D
100
AcDbEntity
  8
SUPERFICI
100
AcDbLine
 62
253
  6
CONTINUOUS
 10
-2.719165272
 20
7.5726197935
 11
-2.8381190507
 21
7.5723641548
  0
LINE
  5
36E
100
AcDbEntity
  8
SUPERFICI
100
AcDbLine
 62
7
  6
CONTINUOUS
 10
-2.4191337575
 20
7.8721569486
 11
1.9807563046
 21
7.8721568761
  0
LINE
  5
36F
100
AcDbEntity
  8
SUPERFICI
100
AcDbLine
 62
253
  6
CONTINUOUS
 10
2.3997428656
 20
7.5723641521
 11
2.2807877541
 21
7.5726197936
  0
LINE
  5
370
100
AcDbEntity
  8
SUPERFICI
100
AcDbLine
 62
7
  6
CONTINUOUS
 10
0.7531890202
 20
8.0001411059
 11
-2.4098953148
 21
7.9968272201
  0
LINE
  5
371
100
AcDbEntity
  8
SUPERFICI
100
AcDbLine
 62
7
  6
CONTINUOUS
 10
1.9698187626
 20
7.9940824973
 11
0.7531890202
 21
8.0001411059
  0
LWPOLYLINE
  5
372
100
AcDbEntity
  8
0
100
AcDbPolyline
 62
7
  6
CONTINUOUS
 90
10
 70
0
 10
-4.6516136006
 20
20.8057270114
 10
-4.5775233629
 20
20.7471680904
 10
-4.4951795458
 20
20.7043284874
 10
-4.405205283
 20
20.6775135678
 10
-4.3038573978
 20
20.6669760253
 10
-4.1959330433
 20
20.6729392181
 10
-4.0944804194
 20
20.6948943169
 10
-4.0036392985
 20
20.7319835785
 10
-3.9189372673
 20
20.7837103137
 10
-3.8400018595
 20
20.8494512906
  0
LINE
  5
373
100
AcDbEntity
  8
0
100
AcDbLine
 62
7
  6
CONTINUOUS
 10
0.3161023641
 20
20.5431858335
 11
0.7500404032
 21
20.1490936048
  0
LWPOLYLINE
  5
374
100
AcDbEntity
  8
0
100
AcDbPolyline
 62
7
  6
CONTINUOUS
 90
4
 70
0
 10
0.7500404032
 20
20.1490936048
 10
0.8995719192
 20
20.0122386397
 10
1.0507429338
 20
19.8716914195
 10
1.2030022256
 20
19.7268302624
  0
LWPOLYLINE
  5
375
100
AcDbEntity
  8
0
100
AcDbPolyline
 62
7
  6
CONTINUOUS
 90
10
 70
0
 10
1.9919742698
 20
20.3817608784
 10
1.7655594436
 20
20.5952092041
 10
1.5402053211
 20
20.7982126371
 10
1.3181865557
 20
20.9929876441
 10
1.103978772
 20
21.1840286461
 10
0.8969994102
 20
21.3702697586
 10
0.6930838266
 20
21.5469741218
 10
0.4932763651
 20
21.7151426388
 10
0.3023769117
 20
21.8795502945
 10
0.1227074219
 20
22.0422399126
  0
LWPOLYLINE
  5
376
100
AcDbEntity
  8
0
100
AcDbPolyline
 62
7
  6
CONTINUOUS
 90
10
 70
0
 10
3.401624407
 20
20.8494512906
 10
3.340772554
 20
20.9161514075
 10
3.2948044876
 20
20.9857998593
 10
3.2632536571
 20
21.0581120539
 10
3.245446936
 20
21.1360085768
 10
3.2411027597
 20
21.2163362241
 10
3.2508680146
 20
21.29016329
 10
3.2752885355
 20
21.3549589557
 10
3.3142631117
 20
21.4142946115
 10
3.3680214271
 20
21.4687855
  0
LINE
  5
377
100
AcDbEntity
  8
0
100
AcDbLine
 62
7
  6
CONTINUOUS
 10
2.5579932713
 20
22.4347017847
 11
2.5760349651
 21
22.4122597493
  0
LINE
  5
378
100
AcDbEntity
  8
0
100
AcDbLine
 62
7
  6
CONTINUOUS
 10
2.5760349651
 20
22.4122597493
 11
2.6020498261
 21
22.3795915376
  0
LWPOLYLINE
  5
379
100
AcDbEntity
  8
RACCORDO
100
AcDbPolyline
 62
253
  6
CONTINUOUS
 90
45
 70
0
 10
-0.2191887262
 20
13.3159167755
 10
-0.4782010637
 20
13.3169247024
 10
-0.7475380229
 20
13.3223197845
 10
-1.0273561867
 20
13.332969083
 10
-1.3180713711
 20
13.3491499893
 10
-1.6195534813
 20
13.3723980829
 10
-1.9309627855
 20
13.4054080571
 10
-2.2525317767
 20
13.4486806283
 10
-2.58381407
 20
13.5034234016
 10
-2.9225008668
 20
13.5730863879
 10
-3.2687441906
 20
13.6583652434
 10
-3.6213552556
 20
13.7597718111
 10
-3.9754582513
 20
13.879748912
 10
-4.3315017692
 20
14.0190999216
 10
-4.6871950542
 20
14.1770688825
 10
-5.0332873196
 20
14.3523023748
 10
-5.3697944272
 20
14.5455105588
 10
-5.6948383717
 20
14.7539381377
 10
-5.9970408737
 20
14.9690756623
 10
-6.2723518748
 20
15.18704626
 10
-6.52495766
 20
15.4077830951
 10
-6.7567798901
 20
15.6278499487
 10
-6.9669428403
 20
15.8446408695
 10
-7.1572353179
 20
16.0582335258
 10
-7.3336021753
 20
16.2699060786
 10
-7.4974071139
 20
16.4796996706
 10
-7.6478965671
 20
16.6863702696
 10
-7.7876195528
 20
16.8898090304
 10
-7.9171463631
 20
17.0897536005
 10
-8.0365378948
 20
17.2857506589
 10
-8.1475208696
 20
17.4776468739
 10
-8.250551232
 20
17.6651784465
 10
-8.3457909489
 20
17.8482054008
 10
-8.4344741157
 20
18.0269005532
 10
-8.5169586257
 20
18.2011089
 10
-8.5934390555
 20
18.3707691345
 10
-8.664836601
 20
18.5362736538
 10
-8.7314519986
 20
18.6975629915
 10
-8.7934503028
 20
18.854593211
 10
-8.8514780696
 20
19.0078222492
 10
-8.905792629
 20
19.1573094257
 10
-8.9565172993
 20
19.3029556119
 10
-9.0040455879
 20
19.4450023334
 10
-9.0485949588
 20
19.5835045132
 10
-9.0902808102
 20
19.7184062788
  0
LWPOLYLINE
  5
37A
100
AcDbEntity
  8
RACCORDO
100
AcDbPolyline
 62
253
  6
CONTINUOUS
 90
62
 70
0
 10
-0.4817986593
 20
13.028456318
 10
-0.7564123074
 20
13.0338292171
 10
-1.0428620209
 20
13.0450839871
 10
-1.3405842204
 20
13.06078388
 10
-1.6497064889
 20
13.0823656439
 10
-1.9704869377
 20
13.114139523
 10
-2.3026725832
 20
13.1559623249
 10
-2.6451206868
 20
13.207977242
 10
-2.9960112309
 20
13.2749240956
 10
-3.3561231898
 20
13.3573743318
 10
-3.7235952141
 20
13.4547565045
 10
-4.0926253565
 20
13.5700960976
 10
-4.4647682461
 20
13.7051501172
 10
-4.8387806023
 20
13.8581615571
 10
-5.2034447526
 20
14.0268848831
 10
-5.5591940657
 20
14.2142744973
 10
-5.9057862814
 20
14.4173759975
 10
-6.2291055396
 20
14.625080643
 10
-6.5248788726
 20
14.8357735891
 10
-6.7983061271
 20
15.0510696805
 10
-7.0495802125
 20
15.2647047101
 10
-7.2780002313
 20
15.4748159321
 10
-7.4861812181
 20
15.6832660923
 10
-7.6794327794
 20
15.889379222
 10
-7.8591417017
 20
16.0932764209
 10
-8.0247402791
 20
16.2948365892
 10
-8.1782540339
 20
16.493020458
 10
-8.3206239865
 20
16.6877299233
 10
-8.4522754352
 20
16.879063089
 10
-8.5744646457
 20
17.0662749975
 10
-8.6876670399
 20
17.2491710961
 10
-8.7923468094
 20
17.4279459376
 10
-8.8897413978
 20
17.6024382228
 10
-8.9800921415
 20
17.7725274539
 10
-9.0637275525
 20
17.9383341288
 10
-9.1415992807
 20
18.1000584417
 10
-9.2140248359
 20
18.2576459104
 10
-9.281274443
 20
18.4111510172
 10
-9.3440135562
 20
18.5609374032
 10
-9.4025421436
 20
18.7070589486
 10
-9.4570283281
 20
18.8494617732
 10
-9.5079189722
 20
18.9883478765
 10
-9.5554211665
 20
19.1237562085
 10
-9.5996990567
 20
19.2556478191
 10
-9.6410342694
 20
19.3841078583
 10
-9.6795917644
 20
19.509120198
 10
-9.715513567
 20
19.6307009662
 10
-9.7490327985
 20
19.7489836965
 10
-9.7802834223
 20
19.8639703172
 10
-9.8093897099
 20
19.9756589
 10
-9.8365350167
 20
20.0841771935
 10
-9.8618264614
 20
20.1895184182
 10
-9.8853562565
 20
20.2916893537
 10
-9.9072715764
 20
20.3908380867
 10
-9.9276615049
 20
20.4869682284
 10
-9.9466181669
 20
20.5800761676
 10
-9.9642689219
 20
20.670299158
 10
-9.9806843054
 20
20.7576276354
 10
-9.9959322269
 20
20.8420711639
 10
-10.0101115677
 20
20.9237956891
 10
-10.0232880487
 20
21.0028565264
 10
-10.0355038398
 20
21.0791983605
  0
LWPOLYLINE
  5
37B
100
AcDbEntity
  8
0
100
AcDbPolyline
 62
7
  6
CONTINUOUS
 90
7
 70
0
 10
0.1227074219
 20
22.0422399126
 10
0.0678964337
 20
22.0815152421
 10
0.0129016573
 20
22.1130352647
 10
-0.0427272742
 20
22.1369922382
 10
-0.099525859
 20
22.1536125208
 10
-0.1581130411
 20
22.1631727319
 10
-0.2191887262
 20
22.1660183941
  0
LWPOLYLINE
  5
37C
100
AcDbEntity
  8
0
100
AcDbPolyline
 62
7
  6
CONTINUOUS
 90
16
 70
0
 10
1.2030022256
 20
19.7268302624
 10
1.3010624033
 20
19.6547973505
 10
1.4046540096
 20
19.6032481183
 10
1.5133159613
 20
19.5725882659
 10
1.6308428127
 20
19.5634565542
 10
1.7520197281
 20
19.5760864368
 10
1.8623052162
 20
19.6091449892
 10
1.9584974986
 20
19.6637867467
 10
2.0413246815
 20
19.7370367369
 10
2.1025443578
 20
19.8199785106
 10
2.1403321572
 20
19.9122160127
 10
2.1562444597
 20
20.0123695807
 10
2.1485693721
 20
20.1101975169
 10
2.1176178556
 20
20.2024662847
 10
2.0650595117
 20
20.2927747832
 10
1.9919742698
 20
20.3817608784
  0
LWPOLYLINE
  5
37D
100
AcDbEntity
  8
0
100
AcDbPolyline
 62
7
  6
CONTINUOUS
 90
8
 70
0
 10
3.8077034925
 20
21.2517238425
 10
3.8398157914
 20
21.2269443605
 10
3.8696919489
 20
21.2022538817
 10
3.8974045824
 20
21.1779243447
 10
3.9227268739
 20
21.1543991665
 10
3.9460580111
 20
21.1316697184
 10
3.9684561603
 20
21.1093103384
 10
4.0117363413
 20
21.066541756
  0
LINE
  5
37E
100
AcDbEntity
  8
0
100
AcDbLine
 62
7
  6
CONTINUOUS
 10
2.2899965728
 20
22.67759157
 11
2.326757068
 21
22.6489539811
  0
LINE
  5
37F
100
AcDbEntity
  8
0
100
AcDbLine
 62
7
  6
CONTINUOUS
 10
2.326757068
 20
22.6489539811
 11
2.3782275082
 21
22.6083507834
  0
LWPOLYLINE
  5
380
100
AcDbEntity
  8
0
100
AcDbPolyline
 62
7
  6
CONTINUOUS
 90
15
 70
0
 10
2.3782275082
 20
22.6083507834
 10
2.3944064158
 20
22.5953854064
 10
2.409994256
 20
22.5826423056
 10
2.4250409373
 20
22.5701334542
 10
2.4396011426
 20
22.5576754812
 10
2.4536610117
 20
22.54520734
 10
2.4672059253
 20
22.5327717812
 10
2.480277704
 20
22.5203264987
 10
2.4928848985
 20
22.5078123294
 10
2.504996664
 20
22.4952744484
 10
2.5166048329
 20
22.4828362275
 10
2.5277076474
 20
22.4704922691
 10
2.538308504
 20
22.4582531586
 10
2.54842659
 20
22.4462832976
 10
2.5579932713
 20
22.4347017847
  0
LWPOLYLINE
  5
381
100
AcDbEntity
  8
0
100
AcDbPolyline
 62
7
  6
CONTINUOUS
 90
14
 70
0
 10
4.0117363413
 20
21.066541756
 10
4.0322406948
 20
21.0457869117
 10
4.0518016538
 20
21.0250261649
 10
4.0704733039
 20
21.0044860569
 10
4.0882392615
 20
20.9841480424
 10
4.105035798
 20
20.9639144844
 10
4.1209212125
 20
20.9438365769
 10
4.1360994383
 20
20.9241529454
 10
4.1507459838
 20
20.904924336
 10
4.1647739096
 20
20.8861233269
 10
4.1780313844
 20
20.867884715
 10
4.1904943014
 20
20.8502557106
 10
4.2022624021
 20
20.8332020959
 10
4.213370481
 20
20.8167305268
  0
LWPOLYLINE
  5
382
100
AcDbEntity
  8
0
100
AcDbPolyline
 62
253
  6
CONTINUOUS
 90
10
 70
0
 10
0.1227547586
 20
22.0421933383
 10
0.0910498824
 20
22.0337645352
 10
0.0574058125
 20
22.0223621943
 10
0.0219385466
 20
22.0080073322
 10
-0.0153256295
 20
21.9907180767
 10
-0.0541610566
 20
21.9705215568
 10
-0.094134879
 20
21.9474916859
 10
-0.1350139283
 20
21.9216991557
 10
-0.1767649928
 20
21.893181632
 10
-0.2191887726
 20
21.8620589627
  0
LWPOLYLINE
  5
383
100
AcDbEntity
  8
0
100
AcDbPolyline
 62
253
  6
CONTINUOUS
 90
10
 70
0
 10
1.9929847588
 20
20.3811423395
 10
1.9538827049
 20
20.3724104292
 10
1.9122987619
 20
20.3586027344
 10
1.8685500061
 20
20.3399766743
 10
1.8222589403
 20
20.3169580529
 10
1.7743534029
 20
20.2895448512
 10
1.7271883223
 20
20.2575765326
 10
1.681824031
 20
20.2214028301
 10
1.6380119101
 20
20.1816864201
 10
1.5961991705
 20
20.1389413164
  0
LWPOLYLINE
  5
384
100
AcDbEntity
  8
0
100
AcDbPolyline
 62
7
  6
CONTINUOUS
 90
10
 70
0
 10
-0.2191887262
 20
17.9938498762
 10
-0.1219521662
 20
18.0025380111
 10
-0.0323726947
 20
18.0242114965
 10
0.0491209435
 20
18.0583955013
 10
0.1239197168
 20
18.1060047139
 10
0.189962969
 20
18.1653122063
 10
0.2420301684
 20
18.2317199723
 10
0.2786411923
 20
18.3033369474
 10
0.3017594718
 20
18.3812080549
 10
0.3117284814
 20
18.4651092058
  0
LWPOLYLINE
  5
385
100
AcDbEntity
  8
0
100
AcDbPolyline
 62
253
  6
CONTINUOUS
 90
10
 70
0
 10
-0.2191885582
 20
18.5497603046
 10
-0.2835695532
 20
18.5486659689
 10
-0.3472923117
 20
18.5453987296
 10
-0.4100799336
 20
18.5399933598
 10
-0.4717085265
 20
18.5324772416
 10
-0.5318370568
 20
18.5228900877
 10
-0.5900232005
 20
18.5113025231
 10
-0.6459473363
 20
18.4977803724
 10
-0.6993966755
 20
18.4823660815
 10
-0.7501062288
 20
18.465111452
  0
LWPOLYLINE
  5
386
100
AcDbEntity
  8
0
100
AcDbPolyline
 62
253
  6
CONTINUOUS
 90
10
 70
0
 10
-0.2191885582
 20
18.5497603046
 10
-0.1547935827
 20
18.548665492
 10
-0.0910619988
 20
18.5453971652
 10
-0.0282706213
 20
18.539990601
 10
0.0333551822
 20
18.5324739024
 10
0.0934764924
 20
18.5228871251
 10
0.1516562097
 20
18.511300295
 10
0.2075762668
 20
18.4977787729
 10
0.2610222388
 20
18.4823652413
 10
0.3117291234
 20
18.465111448
  0
LWPOLYLINE
  5
387
100
AcDbEntity
  8
0
100
AcDbPolyline
 62
253
  6
CONTINUOUS
 90
10
 70
0
 10
-2.4313622066
 20
20.3811423386
 10
-2.3922601545
 20
20.3724104284
 10
-2.3506762132
 20
20.3586027339
 10
-2.3069274586
 20
20.3399766743
 10
-2.2606363932
 20
20.3169580531
 10
-2.2127308556
 20
20.2895448513
 10
-2.1655657748
 20
20.2575765326
 10
-2.1202014834
 20
20.2214028301
 10
-2.0763893626
 20
20.1816864201
 10
-2.034576623
 20
20.1389413164
  0
LWPOLYLINE
  5
388
100
AcDbEntity
  8
0
100
AcDbPolyline
 62
253
  6
CONTINUOUS
 90
10
 70
0
 10
-0.5611322112
 20
22.0421933383
 10
-0.529427335
 20
22.0337645352
 10
-0.495783265
 20
22.0223621943
 10
-0.4603159991
 20
22.0080073322
 10
-0.423051823
 20
21.9907180767
 10
-0.3842163959
 20
21.9705215568
 10
-0.3442425735
 20
21.9474916859
 10
-0.3033635242
 20
21.9216991557
 10
-0.2616124597
 20
21.893181632
 10
-0.2191886799
 20
21.8620589627
  0
LWPOLYLINE
  5
389
100
AcDbEntity
  8
0
100
AcDbPolyline
 62
7
  6
CONTINUOUS
 90
3
 70
0
 10
3.3721212307
 20
21.4837340324
 10
3.3933122889
 20
21.4768365885
 10
3.4152497068
 20
21.4695053584
  0
LWPOLYLINE
  5
38A
100
AcDbEntity
  8
0
100
AcDbPolyline
 62
7
  6
CONTINUOUS
 90
7
 70
0
 10
3.4152497068
 20
21.4695053584
 10
3.4613393171
 20
21.453506059
 10
3.4853678434
 20
21.4447034724
 10
3.5094233674
 20
21.4347941551
 10
3.5333939201
 20
21.4236984808
 10
3.5574818085
 20
21.4116256759
 10
3.581711477
 20
21.3986321398
  0
LWPOLYLINE
  5
38B
100
AcDbEntity
  8
SUPERFICI
100
AcDbPolyline
 62
7
  6
CONTINUOUS
 90
7
 70
0
 10
3.581711477
 20
21.3986321398
 10
3.6169749022
 20
21.3774852899
 10
3.6536006648
 20
21.3551509805
 10
3.6912771708
 20
21.3315278026
 10
3.7297244451
 20
21.3064987471
 10
3.768638477
 20
21.2799402373
 10
3.8077034925
 20
21.2517238425
  0
LWPOLYLINE
  5
38C
100
AcDbEntity
  8
0
100
AcDbPolyline
 62
7
  6
CONTINUOUS
 90
7
 70
0
 10
2.1524327843
 20
22.7733034455
 10
2.180402979
 20
22.7561463445
 10
2.206221034
 20
22.7391270229
 10
2.2299867765
 20
22.7225275464
 10
2.2514359281
 20
22.7068806315
 10
2.2710492931
 20
22.6921398926
 10
2.2899965728
 20
22.67759157
  0
LINE
  5
38D
100
AcDbEntity
  8
RACCORDO
100
AcDbLine
 62
253
  6
CONTINUOUS
 10
-9.603665968
 20
23.1071454576
 11
-9.0297288984
 21
23.2244436137
  0
LWPOLYLINE
  5
38E
100
AcDbEntity
  8
RACCORDO
100
AcDbPolyline
 62
253
  6
CONTINUOUS
 90
6
 70
0
 10
-9.0297288984
 20
23.2244436137
 10
-8.4389451926
 20
23.3357222747
 10
-7.8313401822
 20
23.4405883966
 10
-7.2069738217
 20
23.5386400016
 10
-6.5659429941
 20
23.6294659177
 10
-5.9083838681
 20
23.7126455074
  0
LINE
  5
38F
100
AcDbEntity
  8
0
100
AcDbLine
 62
253
  6
CONTINUOUS
 10
-4.5496908643
 20
23.8557338253
 11
-4.8204136135
 21
23.8304266115
  0
LINE
  5
390
100
AcDbEntity
  8
0
100
AcDbLine
 62
253
  6
CONTINUOUS
 10
-4.2817028198
 20
23.8792304032
 11
-4.5496908643
 21
23.8557338253
  0
LINE
  5
391
100
AcDbEntity
  8
0
100
AcDbLine
 62
253
  6
CONTINUOUS
 10
-4.0151859413
 20
23.9010698776
 11
-4.2817028198
 21
23.8792304032
  0
LWPOLYLINE
  5
392
100
AcDbEntity
  8
0
100
AcDbPolyline
 62
253
  6
CONTINUOUS
 90
3
 70
0
 10
-3.608772127
 20
23.9314518162
 10
-3.7449522296
 20
23.9216637191
 10
-4.0151859413
 20
23.9010698776
  0
LWPOLYLINE
  5
393
100
AcDbEntity
  8
0
100
AcDbPolyline
 62
7
  6
CONTINUOUS
 90
10
 70
0
 10
-2.1238806073
 20
22.9475207738
 10
-2.1593755759
 20
22.9453517737
 10
-2.1957107036
 20
22.9402018631
 10
-2.2328880359
 20
22.9322081479
 10
-2.2700874084
 20
22.9203784622
 10
-2.308395399
 20
22.9062945922
 10
-2.3496072753
 20
22.8928262749
 10
-2.3932096671
 20
22.8796643624
 10
-2.4375022891
 20
22.8646697662
 10
-2.4814048513
 20
22.8467462947
  0
LWPOLYLINE
  5
394
100
AcDbEntity
  8
0
100
AcDbPolyline
 62
7
  6
CONTINUOUS
 90
7
 70
0
 10
-0.2191887262
 20
22.1660183941
 10
-0.2805872291
 20
22.163032703
 10
-0.3393786852
 20
22.1534087651
 10
-0.3962568106
 20
22.1367849077
 10
-0.4518320614
 20
22.1128698384
 10
-0.5066290426
 20
22.0814234236
 10
-0.5610847403
 20
22.042240088
  0
LINE
  5
395
100
AcDbEntity
  8
0
100
AcDbLine
 62
253
  6
CONTINUOUS
 10
-2.251126928
 20
24.0075420834
 11
-2.5198470776
 21
23.9955724165
  0
LWPOLYLINE
  5
396
100
AcDbEntity
  8
0
100
AcDbPolyline
 62
7
  6
CONTINUOUS
 90
10
 70
0
 10
-0.2191887262
 20
24.931964907
 10
-0.4116315934
 20
24.9238520796
 10
-0.5937285594
 20
24.883827755
 10
-0.7628683455
 20
24.8163581671
 10
-0.920224297
 20
24.7274998006
 10
-1.0620521286
 20
24.6172154982
 10
-1.1763665168
 20
24.4850530226
 10
-1.2567386135
 20
24.3382662744
 10
-1.3060268988
 20
24.1860099665
 10
-1.325417606
 20
24.0351121434
  0
LINE
  5
397
100
AcDbEntity
  8
0
100
AcDbLine
 62
253
  6
CONTINUOUS
 10
-1.9855423947
 20
24.017877404
 11
-2.251126928
 21
24.0075420834
  0
LINE
  5
398
100
AcDbEntity
  8
0
100
AcDbLine
 62
253
  6
CONTINUOUS
 10
-1.7215022505
 20
24.0266808
 11
-1.9855423947
 21
24.017877404
  0
LWPOLYLINE
  5
399
100
AcDbEntity
  8
0
100
AcDbPolyline
 62
253
  6
CONTINUOUS
 90
3
 70
0
 10
-1.3166270927
 20
24.0373305324
 10
-1.4525413172
 20
24.0341400272
 10
-1.7215022505
 20
24.0266808
  0
LWPOLYLINE
  5
39A
100
AcDbEntity
  8
0
100
AcDbPolyline
 62
253
  6
CONTINUOUS
 90
10
 70
0
 10
-0.2191918304
 20
24.1624356689
 10
-0.3530313706
 20
24.1607200074
 10
-0.4846499636
 20
24.1555877445
 10
-0.613827717
 20
24.1471911451
 10
-0.7403215113
 20
24.1356833724
 10
-0.8639787983
 20
24.1212076214
 10
-0.9846145613
 20
24.1038724241
 10
-1.1019170417
 20
24.0837731707
 10
-1.2155786878
 20
24.0608917689
 10
-1.3254207549
 20
24.0350871225
  0
LWPOLYLINE
  5
39B
100
AcDbEntity
  8
0
100
AcDbPolyline
 62
7
  6
CONTINUOUS
 90
10
 70
0
 10
-0.2191887262
 20
23.1483254952
 10
-0.0276870591
 20
23.1503085327
 10
0.1557489586
 20
23.1937581297
 10
0.3250183189
 20
23.2672543275
 10
0.47208329
 20
23.3557805476
 10
0.5992678525
 20
23.4553351456
 10
0.7121417112
 20
23.5767341196
 10
0.8038978853
 20
23.7214210645
 10
0.8624327273
 20
23.877547344
 10
0.8782496402
 20
24.0373305324
  0
LWPOLYLINE
  5
39C
100
AcDbEntity
  8
0
100
AcDbPolyline
 62
253
  6
CONTINUOUS
 90
10
 70
0
 10
-0.2191856221
 20
24.1624356689
 10
-0.0853460819
 20
24.1607200074
 10
0.0462725111
 20
24.1555877445
 10
0.1754502645
 20
24.1471911451
 10
0.3019440588
 20
24.1356833724
 10
0.4256013458
 20
24.1212076214
 10
0.5462371088
 20
24.1038724241
 10
0.6635395893
 20
24.0837731707
 10
0.7772012353
 20
24.0608917689
 10
0.8870433024
 20
24.0350871225
  0
LINE
  5
39D
100
AcDbEntity
  8
0
100
AcDbLine
 62
253
  6
CONTINUOUS
 10
0.8782496402
 20
24.0373305324
 11
1.1491231089
 21
24.0305873784
  0
LINE
  5
39E
100
AcDbEntity
  8
0
100
AcDbLine
 62
253
  6
CONTINUOUS
 10
1.1491231089
 20
24.0305873784
 11
1.4156258773
 21
24.0224464621
  0
LINE
  5
39F
100
AcDbEntity
  8
0
100
AcDbLine
 62
253
  6
CONTINUOUS
 10
1.4156258773
 20
24.0224464621
 11
1.6793606677
 21
24.0129186019
  0
LWPOLYLINE
  5
3A0
100
AcDbEntity
  8
0
100
AcDbPolyline
 62
7
  6
CONTINUOUS
 90
10
 70
0
 10
-0.2191887262
 20
24.9319917948
 10
-0.0267364558
 20
24.9238662964
 10
0.1553635275
 20
24.8838306904
 10
0.3245021157
 20
24.8163530301
 10
0.4818549603
 20
24.727491765
 10
0.6236800449
 20
24.6172087692
 10
0.7379924652
 20
24.4850482717
 10
0.8183628461
 20
24.3382629019
 10
0.867650005
 20
24.1860082418
 10
0.8870401535
 20
24.0351121434
  0
LWPOLYLINE
  5
3A1
100
AcDbEntity
  8
0
100
AcDbPolyline
 62
253
  6
CONTINUOUS
 90
3
 70
0
 10
1.6793606677
 20
24.0129186019
 10
1.9467871003
 20
24.0017618605
 10
2.0814696251
 20
23.9955724165
  0
LWPOLYLINE
  5
3A2
100
AcDbEntity
  8
0
100
AcDbPolyline
 62
7
  6
CONTINUOUS
 90
10
 70
0
 10
1.6855031548
 20
22.9475207738
 10
1.7209981234
 20
22.9453517737
 10
1.7573332511
 20
22.9402018631
 10
1.7945105834
 20
22.9322081479
 10
1.8317099559
 20
22.9203784622
 10
1.8700179465
 20
22.9062945922
 10
1.9112298228
 20
22.8928262749
 10
1.9548322146
 20
22.8796643624
 10
1.9991248366
 20
22.8646697662
 10
2.0430273988
 20
22.8467462947
  0
LINE
  5
3A3
100
AcDbEntity
  8
0
100
AcDbLine
 62
253
  6
CONTINUOUS
 10
3.1703946745
 20
23.9314518162
 11
3.4420467528
 21
23.9115345161
  0
LINE
  5
3A4
100
AcDbEntity
  8
0
100
AcDbLine
 62
253
  6
CONTINUOUS
 10
3.4420467528
 20
23.9115345161
 11
3.7104237274
 21
23.8903110264
  0
LINE
  5
3A5
100
AcDbEntity
  8
0
100
AcDbLine
 62
253
  6
CONTINUOUS
 10
3.7104237274
 20
23.8903110264
 11
3.9768123998
 21
23.8677195376
  0
LWPOLYLINE
  5
3A6
100
AcDbEntity
  8
0
100
AcDbPolyline
 62
253
  6
CONTINUOUS
 90
3
 70
0
 10
3.9768123998
 20
23.8677195376
 10
4.2463896457
 20
23.843304657
 10
4.382036161
 20
23.8304266115
  0
LWPOLYLINE
  5
3A7
100
AcDbEntity
  8
RACCORDO
100
AcDbPolyline
 62
253
  6
CONTINUOUS
 90
6
 70
0
 10
8.5913520818
 20
23.2244434687
 10
8.0005687638
 20
23.3357220848
 10
7.392963889
 20
23.4405882081
 10
6.7685974063
 20
23.5386398516
 10
6.1275661936
 20
23.6294658338
 10
5.4700064156
 20
23.7126455074
  0
LINE
  5
3A8
100
AcDbEntity
  8
RACCORDO
100
AcDbLine
 62
253
  6
CONTINUOUS
 10
9.1652885172
 20
23.1071454124
 11
8.5913520818
 21
23.2244434687
  0
LWPOLYLINE
  5
3A9
100
AcDbEntity
  8
0
100
AcDbPolyline
 62
7
  6
CONTINUOUS
 90
10
 70
0
 10
-0.2191887262
 20
26.7484355741
 10
-0.7976980138
 20
26.7193693422
 10
-1.3507692528
 20
26.5955614309
 10
-1.8703338834
 20
26.386498936
 10
-2.3614326388
 20
26.1038055681
 10
-2.8069305475
 20
25.7464592431
 10
-3.1620233984
 20
25.3235234267
 10
-3.4075499646
 20
24.8635732917
 10
-3.5563810037
 20
24.3915534026
 10
-3.6140711847
 20
23.9284551435
  0
LWPOLYLINE
  5
3AA
100
AcDbEntity
  8
0
100
AcDbPolyline
 62
7
  6
CONTINUOUS
 90
13
 70
0
 10
-0.2191887262
 20
28.482801091
 10
-0.9796498542
 20
28.4471203388
 10
-1.7083712674
 20
28.3186637205
 10
-2.4025818878
 20
28.1075239538
 10
-3.0674822383
 20
27.8252706886
 10
-3.6955497425
 20
27.4720416926
 10
-4.2585142406
 20
27.0475313468
 10
-4.7460016074
 20
26.570610479
 10
-5.1616197763
 20
26.0516083932
 10
-5.4898006523
 20
25.4905030179
 10
-5.7217878911
 20
24.9002070108
 10
-5.8621063435
 20
24.3015851916
 10
-5.9129987052
 20
23.7097565374
  0
LWPOLYLINE
  5
3AB
100
AcDbEntity
  8
0
100
AcDbPolyline
 62
7
  6
CONTINUOUS
 90
13
 70
0
 10
-0.2191887262
 20
28.482801091
 10
0.5412724017
 20
28.4471203388
 10
1.2699938149
 20
28.3186637205
 10
1.9642044353
 20
28.1075239538
 10
2.6291047858
 20
27.8252706886
 10
3.25717229
 20
27.4720416926
 10
3.8201367881
 20
27.0475313468
 10
4.3076241549
 20
26.570610479
 10
4.7232423238
 20
26.0516083932
 10
5.0514231998
 20
25.4905030179
 10
5.2834104386
 20
24.9002070108
 10
5.423728891
 20
24.3015851916
 10
5.4746212527
 20
23.7097565374
  0
LWPOLYLINE
  5
3AC
100
AcDbEntity
  8
0
100
AcDbPolyline
 62
7
  6
CONTINUOUS
 90
10
 70
0
 10
-0.2191887262
 20
26.7484355741
 10
0.3593205613
 20
26.7193693422
 10
0.9123918003
 20
26.5955614309
 10
1.4319564309
 20
26.386498936
 10
1.9230551863
 20
26.1038055681
 10
2.368553095
 20
25.7464592431
 10
2.7236459459
 20
25.3235234267
 10
2.9691725121
 20
24.8635732917
 10
3.1180035512
 20
24.3915534026
 10
3.1756937322
 20
23.9284551435
  0
LWPOLYLINE
  5
3AD
100
AcDbEntity
  8
RACCORDO
100
AcDbPolyline
 62
7
  6
CONTINUOUS
 90
12
 70
0
 10
-1.4302838508
 20
31.8384014008
 10
-2.505987523
 20
31.6501364391
 10
-3.5701195254
 20
31.3418888392
 10
-4.6028946982
 20
30.9136403304
 10
-5.5847375545
 20
30.3701814814
 10
-6.500620433
 20
29.7184642112
 10
-7.3365370841
 20
28.9673222638
 10
-8.0794457171
 20
28.1289799726
 10
-8.7210149398
 20
27.2135501677
 10
-9.2533170694
 20
26.2315156381
 10
-9.6676899228
 20
25.1965410556
 10
-9.9572551952
 20
24.1200079248
  0
LWPOLYLINE
  5
3AE
100
AcDbEntity
  8
RACCORDO
100
AcDbPolyline
 62
253
  6
CONTINUOUS
 90
10
 70
0
 10
-1.5170384306
 20
31.635737194
 10
-1.3560804791
 20
31.656147502
 10
-1.1997315628
 20
31.6734049949
 10
-1.0475513998
 20
31.6877486978
 10
-0.899636341
 20
31.6993991012
 10
-0.7560284654
 20
31.7085843823
 10
-0.6161905291
 20
31.715491919
 10
-0.4799747413
 20
31.7202935627
 10
-0.3476263553
 20
31.7231777857
 10
-0.2191876484
 20
31.7243226186
  0
LINE
  5
3AF
100
AcDbEntity
  8
RACCORDO
100
AcDbLine
 62
7
  6
CONTINUOUS
 10
-0.3611817632
 20
31.9106840479
 11
-1.4302838508
 21
31.8384014008
  0
LINE
  5
3B0
100
AcDbEntity
  8
RACCORDO
100
AcDbLine
 62
7
  6
CONTINUOUS
 10
-0.2184435623
 20
31.9119214231
 11
-0.3611817632
 21
31.9106840479
  0
LWPOLYLINE
  5
3B1
100
AcDbEntity
  8
RACCORDO
100
AcDbPolyline
 62
253
  6
CONTINUOUS
 90
5
 70
0
 10
-0.2191876485
 20
31.7243226196
 10
-0.0941063577
 20
31.723229835
 10
0.0347373931
 20
31.7204882796
 10
0.1673041609
 20
31.7159311728
 10
0.3034472877
 20
31.7093777251
  0
LINE
  5
3B2
100
AcDbEntity
  8
RACCORDO
100
AcDbLine
 62
7
  6
CONTINUOUS
 10
0.9138105468
 20
31.8474913249
 11
-0.2184400258
 21
31.9119186669
  0
LWPOLYLINE
  5
3B3
100
AcDbEntity
  8
RACCORDO
100
AcDbPolyline
 62
253
  6
CONTINUOUS
 90
7
 70
0
 10
0.3034472877
 20
31.7093777251
 10
0.4432222156
 20
31.7006684365
 10
0.5868859765
 20
31.6896489192
 10
0.7343956077
 20
31.6761215073
 10
0.8856723601
 20
31.6598906033
 10
1.0409109977
 20
31.6407715054
 10
1.2000720699
 20
31.6185401984
  0
LWPOLYLINE
  5
3B4
100
AcDbEntity
  8
RACCORDO
100
AcDbPolyline
 62
253
  6
CONTINUOUS
 90
42
 70
0
 10
1.2000720699
 20
31.6185401984
 10
1.36303408
 20
31.5929786864
 10
1.5298590617
 20
31.5638840612
 10
1.7004575045
 20
31.5310202697
 10
1.8747105631
 20
31.4941453966
 10
2.0526243759
 20
31.4530271174
 10
2.2339884883
 20
31.4074315963
 10
2.4187445376
 20
31.3570862171
 10
2.6071053268
 20
31.3016656053
 10
2.7987435766
 20
31.2409338609
 10
2.9936289088
 20
31.1745617293
 10
3.1923722813
 20
31.1020001693
 10
3.3947028628
 20
31.0229155119
 10
3.6004027976
 20
30.9369488977
 10
3.8100879627
 20
30.8433893544
 10
4.0236050711
 20
30.7417524196
 10
4.24045891
 20
30.6316937385
 10
4.4606705959
 20
30.5126147357
 10
4.6839631398
 20
30.3839993843
 10
4.9097548555
 20
30.2454782334
 10
5.13754651
 20
30.0966468905
 10
5.3665307409
 20
29.9372864406
 10
5.5964527484
 20
29.7667904032
 10
5.8275251523
 20
29.5841065767
 10
6.0588319972
 20
29.3889479184
 10
6.2898175387
 20
29.180675247
 10
6.5209977829
 20
28.9575166049
 10
6.7517948543
 20
28.7186040658
 10
6.980802125
 20
28.4637217749
 10
7.207047064
 20
28.1919723257
 10
7.4306699976
 20
27.9010785352
 10
7.6488436294
 20
27.5923537784
 10
7.8565737542
 20
27.2708443078
 10
8.0531341671
 20
26.9366069643
 10
8.2375268166
 20
26.5900085229
 10
8.4056741342
 20
26.2376015699
 10
8.5572891533
 20
25.8809660861
 10
8.6927482986
 20
25.5200681856
 10
8.8102987511
 20
25.1597926758
 10
8.9104366789
 20
24.8011901647
 10
8.9938086746
 20
24.4450726745
 10
9.0598493383
 20
24.096344316
  0
ARC
  5
3B5
100
AcDbEntity
  8
SUPERFICI
100
AcDbCircle
 62
7
  6
CONTINUOUS
 10
-0.2114489197
 20
7.1393795701
 40
0.1000030849
100
AcDbArc
 50
45.0015905413
 51
135.0010177651
  0
ENDSEC
  0
SECTION
  2
OBJECTS
  0
DICTIONARY
  5
C
100
AcDbDictionary
280
0
281
1
  3
ACAD_GROUP
350
D
  3
ACAD_MLINESTYLE
350
17
  3
ACAD_LAYOUT
350
1A
  3
ACAD_PLOTSETTINGS
350
19
  3
ACAD_PLOTSTYLENAME
350
E
  0
DICTIONARY
  5
D
102
{ACAD_REACTORS
330
C
102
}
100
AcDbDictionary
280
0
281
1
  0
ACDBDICTIONARYWDFLT
  5
E
102
{ACAD_REACTORS
330
C
102
}
100
AcDbDictionary
281
1
  3
Normal
350
F
100
AcDbDictionaryWithDefault
340
F
  0
DICTIONARY
  5
17
102
{ACAD_REACTORS
330
C
102
}
100
AcDbDictionary
280
0
281
1
  3
Standard
350
18
  0
DICTIONARY
  5
19
102
{ACAD_REACTORS
330
C
102
}
100
AcDbDictionary
281
1
  0
DICTIONARY
  5
1A
102
{ACAD_REACTORS
330
C
102
}
100
AcDbDictionary
281
1
  3
Model
350
3B6
  3
Layout1
350
3B7
  0
ACDBPLACEHOLDER
  5
F
102
{ACAD_REACTORS
330
E
102
}
  0
MLINESTYLE
  5
18
102
{ACAD_REACTORS
330
17
102
}
100
AcDbMlineStyle
  2
STANDARD
 70
0
  3

 62
256
 51
90.0
 52
90.0
 71
2
 49
0.5
 62
256
  6
BYLAYER
 49
-0.5
 62
256
  6
BYLAYER
  0
LAYOUT
  5
3B6
102
{ACAD_REACTORS
330
1A
102
}
100
AcDbPlotSettings
  1

  2
none_device
  4
ISO_A4_(297.00_x_210.00_MM)
  6

 40
0.0
 41
0.0
 42
0.0
 43
0.0
 44
297.0
 45
210.0
 46
0.0
 47
0.0
 48
0.0
 49
0.0
140
0.0
141
0.0
142
1.0
143
1.0
 70
1024
 72
1
 73
0
 74
0
  7

 75
0
147
1.0
148
0.0
149
0.0
100
AcDbLayout
  1
Model
 70
0
 71
0
 10
0.0
 20
0.0
 11
297.0
 21
210.0
 12
0.0
 22
0.0
 32
0.0
 14
0.0
 24
0.0
 34
0.0
 15
0.0
 25
0.0
 35
0.0
146
0.0
 13
0.0
 23
0.0
 33
0.0
 16
1.0
 26
0.0
 36
0.0
 17
0.0
 27
1.0
 37
0.0
 76
0
330
21D
345
0
346
0
  0
LAYOUT
  5
3B7
102
{ACAD_REACTORS
330
1A
102
}
100
AcDbPlotSettings
  1

  2
none_device
  4
ISO_A4_(297.00_x_210.00_MM)
  6

 40
0.0
 41
0.0
 42
0.0
 43
0.0
 44
297.0
 45
210.0
 46
0.0
 47
0.0
 48
0.0
 49
0.0
140
0.0
141
0.0
142
1.0
143
1.0
 70
0
 72
1
 73
0
 74
0
  7

 75
0
147
1.0
148
0.0
149
0.0
100
AcDbLayout
  1
Layout1
 70
0
 71
1
 10
0.0
 20
0.0
 11
297.0
 21
210.0
 12
0.0
 22
0.0
 32
0.0
 14
0.0
 24
0.0
 34
0.0
 15
0.0
 25
0.0
 35
0.0
146
0.0
 13
0.0
 23
0.0
 33
0.0
 16
1.0
 26
0.0
 36
0.0
 17
0.0
 27
1.0
 37
0.0
 76
0
330
21E
345
0
346
0
  0
ENDSEC
  0
EOF
