  0
SECTION
  2
HEADER
  9
$ACADVER
  1
AC1021
  9
$DWGCODEPAGE
  3
ANSI_1252
  9
$EXTMAX
 10
297.0
 20
210.0
 30
0.0
  9
$EXTMIN
 10
0.0
 20
0.0
 30
0.0
  9
$LIMMIN
 10
0.0
 20
0.0
  9
$LIMMAX
 10
297.0
 20
210.0
  9
$VIEWCTR
 10
148.5
 20
105.0
  9
$VIEWSIZE
 40
210.0
  9
$CLAYER
  8
0
  9
$LTSCALE
 40
16.335
  9
$CELTYPE
  6
BYLAYER
  9
$DIMSCALE
 40
1.0
  9
$DIMASZ
 40
3.0
  9
$DIMEXO
 40
0.5
  9
$DIMDLI
 40
11.286
  9
$DIMEXE
 40
1.5
  9
$DIMCEN
 40
2.673
  9
$DIMLFAC
 40
1.0
  9
$DIMBLK
  1
_FILLED
  9
$DIMALT
 70
0
  9
$DIMALTF
 40
0.0393700787
  9
$DIMTXT
 40
3.0
  9
$DIMTOL
 70
1
  9
$DIMLIM
 70
0
  9
$DIMTFAC
 40
1.0
  9
$DIMTP
 40
0.01
  9
$DIMTM
 40
0.01
  9
$DIMGAP
 40
0.625
  9
$DIMDSEP
 70
44
  9
$AUNITS
 70
0
  9
$PDMODE
 70
3
  9
$PDSIZE
 40
3.0
  9
$HANDSEED
  5
246
  9
$TILEMODE
 70
1
  9
$MEASUREMENT
 70
1
  9
$INSUNITS
 70
4
  0
ENDSEC
  0
SECTION
  2
CLASSES
  0
CLASS
  1
ACDBDICTIONARYWDFLT
  2
AcDbDictionaryWithDefault
  3
AutoCAD 2000
 90
0
 91
1
280
0
281
0
  0
CLASS
  1
ACDBPLACEHOLDER
  2
AcDbPlaceHolder
  3
AutoCAD 2000
 90
0
 91
1
280
0
281
0
  0
CLASS
  1
LAYOUT
  2
AcDbLayout
  3
AutoCAD 2000
 90
0
 91
0
280
0
281
0
  0
ENDSEC
  0
SECTION
  2
TABLES
  0
TABLE
  2
VPORT
  5
8
100
AcDbSymbolTable
 70
2
  0
VPORT
  5
1F4
100
AcDbSymbolTableRecord
100
AcDbViewportTableRecord
  2
*ACTIVE
 70
0
 10
0.0
 20
0.0
 11
1.0
 21
1.0
 12
148.5
 22
105.0
 13
0.0
 23
0.0
 14
1.0
 24
1.0
 15
0.0
 25
0.0
 16
0.0
 26
0.0
 36
1.0
 17
0.0
 27
0.0
 37
0.0
 40
210.0
 41
1.4142857143
 42
50.0
 43
0.0
 44
0.0
 50
0.0
 51
0.0
 71
0
 72
100
 73
1
 74
1
 75
0
 76
0
 77
0
 78
0
  0
ENDTAB
  0
TABLE
  2
LTYPE
  5
5
100
AcDbSymbolTable
 70
6
  0
LTYPE
  5
14
100
AcDbSymbolTableRecord
100
AcDbLinetypeTableRecord
  2
BYBLOCK
 70
0
  3

 72
65
 73
0
 40
0.0
  0
LTYPE
  5
15
100
AcDbSymbolTableRecord
100
AcDbLinetypeTableRecord
  2
BYLAYER
 70
0
  3

 72
65
 73
0
 40
0.0
  0
LTYPE
  5
16
100
AcDbSymbolTableRecord
100
AcDbLinetypeTableRecord
  2
CONTINUOUS
 70
64
  3
Solid line
 72
65
 73
0
 40
0.0
  0
LTYPE
  5
1F5
100
AcDbSymbolTableRecord
100
AcDbLinetypeTableRecord
  2
CENTER
 70
64
  3
____ _ ____ _ ____ _ ____ _ ____ _ ____ _ ____
 72
65
 73
4
 40
0.6
 49
0.375
 74
0
 49
-0.075
 74
0
 49
0.075
 74
0
 49
-0.075
 74
0
  0
LTYPE
  5
1F6
100
AcDbSymbolTableRecord
100
AcDbLinetypeTableRecord
  2
HIDDEN
 70
64
  3
- - - - - - - - - - - - - - - - - - - -
 72
65
 73
2
 40
0.2
 49
0.1
 74
0
 49
-0.1
 74
0
  0
LTYPE
  5
1F7
100
AcDbSymbolTableRecord
100
AcDbLinetypeTableRecord
  2
PHANTOM
 70
64
  3
_____ _ _ _____ _ _ _____ _ _ _____
 72
65
 73
6
 40
0.8
 49
0.45
 74
0
 49
-0.05
 74
0
 49
0.1
 74
0
 49
-0.05
 74
0
 49
0.1
 74
0
 49
-0.05
 74
0
  0
LTYPE
  5
1F8
100
AcDbSymbolTableRecord
100
AcDbLinetypeTableRecord
  2
DOT
 70
64
  3
. . . . . . . . . . . . . . . . . . . .
 72
65
 73
2
 40
0.2
 49
0.1
 74
0
 49
-0.1
 74
0
  0
LTYPE
  5
1F9
100
AcDbSymbolTableRecord
100
AcDbLinetypeTableRecord
  2
DASHED
 70
64
  3
- - - - - - - - - - - - - - - - - - - -
 72
65
 73
2
 40
0.2
 49
0.1
 74
0
 49
-0.1
 74
0
  0
ENDTAB
  0
TABLE
  2
LAYER
  5
2
100
AcDbSymbolTable
 70
36
  0
LAYER
  5
10
100
AcDbSymbolTableRecord
100
AcDbLayerTableRecord
  2
0
 70
0
 62
7
  6
CONTINUOUS
370
-3
390
F
  0
LAYER
  5
1FA
100
AcDbSymbolTableRecord
100
AcDbLayerTableRecord
  2
DEFAULT_1
 70
0
 62
7
  6
CENTER
370
-3
390
F
  0
LAYER
  5
1FB
100
AcDbSymbolTableRecord
100
AcDbLayerTableRecord
  2
DEFAULT_2
 70
0
 62
7
  6
HIDDEN
370
-3
390
F
  0
LAYER
  5
1FC
100
AcDbSymbolTableRecord
100
AcDbLayerTableRecord
  2
DEFAULT_3
 70
0
 62
7
  6
PHANTOM
370
-3
390
F
  0
LAYER
  5
1FD
100
AcDbSymbolTableRecord
100
AcDbLayerTableRecord
  2
ASSI
 70
0
 62
7
  6
CONTINUOUS
370
-3
390
F
  0
LAYER
  5
1FE
100
AcDbSymbolTableRecord
100
AcDbLayerTableRecord
  2
COLOR5
 70
0
 62
7
  6
CONTINUOUS
370
-3
390
F
  0
LAYER
  5
1FF
100
AcDbSymbolTableRecord
100
AcDbLayerTableRecord
  2
COORDINATE
 70
0
 62
7
  6
CONTINUOUS
370
-3
390
F
  0
LAYER
  5
200
100
AcDbSymbolTableRecord
100
AcDbLayerTableRecord
  2
COORD_ORIGINE
 70
0
 62
7
  6
CONTINUOUS
370
-3
390
F
  0
LAYER
  5
201
100
AcDbSymbolTableRecord
100
AcDbLayerTableRecord
  2
COSMETICI
 70
0
 62
7
  6
CONTINUOUS
370
-3
390
F
  0
LAYER
  5
202
100
AcDbSymbolTableRecord
100
AcDbLayerTableRecord
  2
CURVE
 70
0
 62
7
  6
CONTINUOUS
370
-3
390
F
  0
LAYER
  5
203
100
AcDbSymbolTableRecord
100
AcDbLayerTableRecord
  2
DRAFT
 70
0
 62
7
  6
CONTINUOUS
370
-3
390
F
  0
LAYER
  5
204
100
AcDbSymbolTableRecord
100
AcDbLayerTableRecord
  2
NOTE
 70
0
 62
7
  6
CONTINUOUS
370
-3
390
F
  0
LAYER
  5
205
100
AcDbSymbolTableRecord
100
AcDbLayerTableRecord
  2
PIANI
 70
0
 62
7
  6
CONTINUOUS
370
-3
390
F
  0
LAYER
  5
206
100
AcDbSymbolTableRecord
100
AcDbLayerTableRecord
  2
PIANI_ORIGINE
 70
0
 62
7
  6
CONTINUOUS
370
-3
390
F
  0
LAYER
  5
207
100
AcDbSymbolTableRecord
100
AcDbLayerTableRecord
  2
PUNTI
 70
0
 62
7
  6
CONTINUOUS
370
-3
390
F
  0
LAYER
  5
208
100
AcDbSymbolTableRecord
100
AcDbLayerTableRecord
  2
RACCORDO
 70
0
 62
7
  6
CONTINUOUS
370
-3
390
F
  0
LAYER
  5
209
100
AcDbSymbolTableRecord
100
AcDbLayerTableRecord
  2
SIMBOLI
 70
0
 62
7
  6
CONTINUOUS
370
-3
390
F
  0
LAYER
  5
20A
100
AcDbSymbolTableRecord
100
AcDbLayerTableRecord
  2
SNAPLINE
 70
0
 62
7
  6
CONTINUOUS
370
-3
390
F
  0
LAYER
  5
20B
100
AcDbSymbolTableRecord
100
AcDbLayerTableRecord
  2
SUPERFICI
 70
0
 62
7
  6
CONTINUOUS
370
-3
390
F
  0
LAYER
  5
20C
100
AcDbSymbolTableRecord
100
AcDbLayerTableRecord
  2
TRASH
 70
0
 62
7
  6
CONTINUOUS
370
-3
390
F
  0
ENDTAB
  0
TABLE
  2
STYLE
  5
3
100
AcDbSymbolTable
 70
1
  0
STYLE
  5
11
100
AcDbSymbolTableRecord
100
AcDbTextStyleTableRecord
  2
STANDARD
 70
0
 40
0.0
 41
0.8
 50
0.0
 71
0
 42
0.2
  3
txt
  4

  0
STYLE
  5
20D
100
AcDbSymbolTableRecord
100
AcDbTextStyleTableRecord
  2
TEXTSTYLE_1
 70
0
 40
0.0
 41
0.8
 50
0.0
 71
0
 42
0.2
  3
gdt
  4

  0
ENDTAB
  0
TABLE
  2
VIEW
  5
6
100
AcDbSymbolTable
 70
0
  0
ENDTAB
  0
TABLE
  2
UCS
  5
7
100
AcDbSymbolTable
 70
0
  0
ENDTAB
  0
TABLE
  2
APPID
  5
9
100
AcDbSymbolTable
 70
1
  0
APPID
  5
20E
100
AcDbSymbolTableRecord
100
AcDbRegAppTableRecord
  2
ACAD
 70
0
  0
ENDTAB
  0
TABLE
  2
BLOCK_RECORD
  5
1
100
AcDbSymbolTable
 70
0
  0
BLOCK_RECORD
  5
20F
100
AcDbSymbolTableRecord
100
AcDbBlockTableRecord
  2
*Model_Space
  0
BLOCK_RECORD
  5
210
100
AcDbSymbolTableRecord
100
AcDbBlockTableRecord
  2
*Paper_Space
  0
ENDTAB
  0
TABLE
  2
DIMSTYLE
  5
A
100
AcDbSymbolTable
 70
1
100
AcDbDimStyleTable
 71
0
  0
DIMSTYLE
105
211
100
AcDbSymbolTableRecord
100
AcDbDimStyleTableRecord
  2
STANDARD
 70
0
  3

  4

 40
1.0
 41
3.0
 42
0.5
 43
0.38
 44
1.5
 45
0.0
 46
0.0
 47
0.01
 48
0.01
140
3.0
141
0.09
142
0.0
143
25.4
144
1.0
145
0.0
146
1.0
147
0.625
 71
1.0
 72
0.0
 73
0
 74
0
 75
0
 76
0
 77
1
 78
8
170
0
171
2
172
0
173
0
174
0
175
0
176
0
177
0
178
0
270
2
271
2
272
2
273
2
274
2
275
0
280
0
281
0
282
0
283
1
284
8
285
0
286
0
287
3
288
0
340
11
278
44
  0
ENDTAB
  0
ENDSEC
  0
SECTION
  2
BLOCKS
  0
BLOCK
  5
20
100
AcDbEntity
  8
0
100
AcDbBlockBegin
  2
*Model_Space
 70
0
 10
0.0
 20
0.0
 30
0.0
  3
*Model_Space
  1

  0
ENDBLK
  5
21
100
AcDbEntity
  8
0
100
AcDbBlockEnd
  0
BLOCK
  5
1C
100
AcDbEntity
  8
0
100
AcDbBlockBegin
  2
*Paper_Space
 70
0
 10
0.0
 20
0.0
 30
0.0
  3
*Paper_Space
  1

  0
ENDBLK
  5
1D
100
AcDbEntity
  8
0
100
AcDbBlockEnd
  0
ENDSEC
  0
SECTION
  2
ENTITIES
  0
LWPOLYLINE
  5
212
100
AcDbEntity
  8
0
100
AcDbPolyline
 62
7
  6
CONTINUOUS
 90
19
 70
0
 10
9.7337164167
 20
-54.3354624478
 10
9.9557540929
 20
-54.3236634552
 10
10.1726227723
 20
-54.2938296506
 10
10.3843224552
 20
-54.2459610339
 10
10.5922643517
 20
-54.1795148316
 10
10.7950372515
 20
-54.0950338173
 10
10.9884075237
 20
-53.994146312
 10
11.1725307696
 20
-53.876421444
 10
11.3472513878
 20
-53.742290085
 10
11.5078689429
 20
-53.5946731719
 10
11.6536179143
 20
-53.4329980813
 10
11.7852638226
 20
-53.2578374367
 10
11.9004027943
 20
-53.0738300453
 10
11.9986105082
 20
-52.8808076502
 10
12.0803112855
 20
-52.6789385083
 10
12.1443742164
 20
-52.4733661988
 10
12.190422331
 20
-52.265805248
 10
12.2188325992
 20
-52.0545411296
 10
12.2296050209
 20
-51.8395738435
  0
LINE
  5
213
100
AcDbEntity
  8
0
100
AcDbLine
 62
7
  6
CONTINUOUS
 10
-10.2746770979
 20
-54.8354624478
 11
-2.7703949791
 21
-54.8354624478
  0
LINE
  5
214
100
AcDbEntity
  8
0
100
AcDbLine
 62
7
  6
CONTINUOUS
 10
2.2296050209
 20
-54.8354624478
 11
9.7337164167
 21
-54.8354624478
  0
LWPOLYLINE
  5
215
100
AcDbEntity
  8
0
100
AcDbPolyline
 62
7
  6
CONTINUOUS
 90
19
 70
0
 10
-0.2703977086
 20
-54.5984720298
 10
-0.0669775778
 20
-54.5990043719
 10
0.1321867811
 20
-54.6003903622
 10
0.3270953679
 20
-54.6026300007
 10
0.5190626746
 20
-54.6057506927
 10
0.7067742093
 20
-54.6097250329
 10
0.8862864962
 20
-54.6144708052
 10
1.0574258498
 20
-54.6200044512
 10
1.2203659555
 20
-54.6263095293
 10
1.3716843938
 20
-54.6332544991
 10
1.5111334375
 20
-54.6408526395
 10
1.6389608138
 20
-54.6490906716
 10
1.7524872847
 20
-54.657797218
 10
1.8514161066
 20
-54.6669820998
 10
1.9360440231
 20
-54.6766354959
 10
2.004582027
 20
-54.6865565663
 10
2.0564337826
 20
-54.6966783642
 10
2.0921956257
 20
-54.7070678365
 10
2.1118675562
 20
-54.7177249831
  0
LINE
  5
216
100
AcDbEntity
  8
0
100
AcDbLine
 62
7
  6
CONTINUOUS
 10
12.7296050209
 20
-51.8395738435
 11
12.229605021
 21
-51.8395738436
  0
LINE
  5
217
100
AcDbEntity
  8
0
100
AcDbLine
 62
7
  6
CONTINUOUS
 10
-12.7709454504
 20
-51.8401243149
 11
-13.2703929356
 21
-51.8395697455
  0
LWPOLYLINE
  5
218
100
AcDbEntity
  8
0
100
AcDbPolyline
 62
7
  6
CONTINUOUS
 90
19
 70
0
 10
2.0630605078
 20
51.9979930391
 10
2.0438218682
 20
51.9874974149
 10
2.0089090174
 20
51.9772581463
 10
1.9583219552
 20
51.9672752332
 10
1.8914972389
 20
51.9574841432
 10
1.8089983114
 20
51.9479494086
 10
1.712515501
 20
51.9388646268
 10
1.6017645941
 20
51.9302390043
 10
1.4770298043
 20
51.9220633344
 10
1.3408541021
 20
51.9145035952
 10
1.1930018537
 20
51.9075723002
 10
1.0337086929
 20
51.9012569358
 10
0.8662244902
 20
51.8956859392
 10
0.6903807625
 20
51.8908746464
 10
0.5063459931
 20
51.8868077214
 10
0.3178755021
 20
51.8835675946
 10
0.1262210632
 20
51.8811817425
 10
-0.0698690972
 20
51.8796226885
 10
-0.270394979
 20
51.8788904325
  0
LINE
  5
219
100
AcDbEntity
  8
0
100
AcDbLine
 62
7
  6
CONTINUOUS
 10
2.2296050209
 20
52.1645375522
 11
2.0630605078
 21
51.9979930391
  0
LINE
  5
21A
100
AcDbEntity
  8
0
100
AcDbLine
 62
7
  6
CONTINUOUS
 10
2.1118675562
 20
-54.7177249831
 11
2.2296050209
 21
-54.8354624478
  0
LWPOLYLINE
  5
21B
100
AcDbEntity
  8
0
100
AcDbPolyline
 62
7
  6
CONTINUOUS
 90
19
 70
0
 10
-12.7709885056
 20
-51.8390989519
 10
-12.7614676428
 20
-52.0564063511
 10
-12.7335312079
 20
-52.269906155
 10
-12.6871792011
 20
-52.4795983637
 10
-12.6217937224
 20
-52.687409715
 10
-12.5379926717
 20
-52.8914134711
 10
-12.4376297482
 20
-53.085829418
 10
-12.3203093137
 20
-53.2700475863
 10
-12.1864270064
 20
-53.4446779454
 10
-12.0390234403
 20
-53.60577019
 10
-11.8777246724
 20
-53.7530367398
 10
-11.7029046457
 20
-53.8867651749
 10
-11.5187258025
 20
-54.0038679305
 10
-11.3247521196
 20
-54.1038846733
 10
-11.1214196202
 20
-54.1872757366
 10
-10.9141988171
 20
-54.2523345552
 10
-10.7049132145
 20
-54.2984922741
 10
-10.4917393081
 20
-54.3263177485
 10
-10.2746770979
 20
-54.3358109782
  0
LINE
  5
21C
100
AcDbEntity
  8
0
100
AcDbLine
 62
7
  6
CONTINUOUS
 10
-13.2703949791
 20
52.1686489479
 11
-13.2703949791
 21
-51.8390989519
  0
LINE
  5
21D
100
AcDbEntity
  8
0
100
AcDbLine
 62
7
  6
CONTINUOUS
 10
-10.2745063748
 20
-54.8354624478
 11
-10.2748478211
 21
-54.3358038941
  0
LINE
  5
21E
100
AcDbEntity
  8
0
100
AcDbLine
 62
7
  6
CONTINUOUS
 10
-10.2745063748
 20
55.1645375522
 11
-10.2745063748
 21
54.6645375522
  0
LINE
  5
21F
100
AcDbEntity
  8
0
100
AcDbLine
 62
7
  6
CONTINUOUS
 10
-2.7703949791
 20
-54.8354624478
 11
-2.7703949791
 21
52.1645375522
  0
LINE
  5
220
100
AcDbEntity
  8
0
100
AcDbLine
 62
7
  6
CONTINUOUS
 10
-2.2703949791
 20
52.0387588819
 11
-2.2703949791
 21
51.9758695468
  0
LWPOLYLINE
  5
221
100
AcDbEntity
  8
0
100
AcDbPolyline
 62
7
  6
CONTINUOUS
 90
3
 70
0
 10
-0.2704001766
 20
-54.5984720257
 10
-0.2704202706
 20
45.2056824497
 10
-0.2703854811
 20
45.3026627405
  0
LINE
  5
222
100
AcDbEntity
  8
0
100
AcDbLine
 62
253
  6
CONTINUOUS
 10
-2.6526575143
 20
-54.7177249831
 11
-2.6038504659
 21
51.9979930391
  0
LINE
  5
223
100
AcDbEntity
  8
0
100
AcDbLine
 62
7
  6
CONTINUOUS
 10
-0.2705192054
 20
51.8788903524
 11
-0.2706740353
 21
51.167402558
  0
LINE
  5
224
100
AcDbEntity
  8
0
100
AcDbLine
 62
7
  6
CONTINUOUS
 10
-0.2703854811
 20
45.3026627405
 11
-0.2703949794
 21
45.9966446675
  0
LINE
  5
225
100
AcDbEntity
  8
0
100
AcDbLine
 62
7
  6
CONTINUOUS
 10
-0.2706740353
 20
51.167402558
 11
-0.2722288728
 21
50.6204358715
  0
LINE
  5
226
100
AcDbEntity
  8
0
100
AcDbLine
 62
7
  6
CONTINUOUS
 10
-0.2722288728
 20
50.6204358715
 11
-0.2730858414
 21
50.5117096462
  0
LWPOLYLINE
  5
227
100
AcDbEntity
  8
0
100
AcDbPolyline
 62
7
  6
CONTINUOUS
 90
13
 70
0
 10
-0.2730858414
 20
50.5117096462
 10
-0.2739468097
 20
50.4547198575
 10
-0.274502384
 20
50.4310348651
 10
-0.2752473236
 20
50.4104843077
 10
-0.2760403371
 20
50.3929327988
 10
-0.2770467758
 20
50.3780625142
 10
-0.2788415255
 20
50.3655756942
 10
-0.2829936229
 20
50.3552639885
 10
-0.2880419673
 20
50.3469104107
 10
-0.2898781289
 20
50.3403003159
 10
-0.2869659494
 20
50.3352917398
 10
-0.2805214351
 20
50.3317370046
 10
-0.2703949791
 20
50.3294630156
  0
LWPOLYLINE
  5
228
100
AcDbEntity
  8
0
100
AcDbPolyline
 62
253
  6
CONTINUOUS
 90
25
 70
0
 10
-2.6056031232
 20
48.1645375726
 10
-2.5901306322
 20
47.9180627768
 10
-2.5627022209
 20
47.6810630125
 10
-2.5242962763
 20
47.4535450905
 10
-2.476080099
 20
47.2355039204
 10
-2.4189448937
 20
47.026954843
 10
-2.3531694664
 20
46.8279346296
 10
-2.2793592034
 20
46.6384663076
 10
-2.1983024932
 20
46.4585341548
 10
-2.1101092647
 20
46.2881175553
 10
-2.015286421
 20
46.126981172
 10
-1.9144520706
 20
45.9753662169
 10
-1.8076369169
 20
45.8339678416
 10
-1.6951720972
 20
45.7026684488
 10
-1.5777002003
 20
45.5815910361
 10
-1.4556231465
 20
45.4717921067
 10
-1.3291436357
 20
45.3734339915
 10
-1.1990559514
 20
45.2863584678
 10
-1.0667163873
 20
45.2111396883
 10
-0.9325390693
 20
45.1480803727
 10
-0.7972308611
 20
45.0968774099
 10
-0.6626972474
 20
45.0571924531
 10
-0.5299495243
 20
45.0289096836
 10
-0.3990307745
 20
45.0121381112
 10
-0.2703849243
 20
45.0068742434
  0
LINE
  5
229
100
AcDbEntity
  8
0
100
AcDbLine
 62
253
  6
CONTINUOUS
 10
2.1118675562
 20
-54.7177249831
 11
2.0630605078
 21
51.9979930391
  0
LINE
  5
22A
100
AcDbEntity
  8
0
100
AcDbLine
 62
7
  6
CONTINUOUS
 10
1.7296050209
 20
51.9758695468
 11
1.7296050209
 21
52.0387588819
  0
LINE
  5
22B
100
AcDbEntity
  8
0
100
AcDbLine
 62
7
  6
CONTINUOUS
 10
2.2296050209
 20
52.1645375522
 11
2.2296050209
 21
-54.8354624478
  0
LWPOLYLINE
  5
22C
100
AcDbEntity
  8
0
100
AcDbPolyline
 62
253
  6
CONTINUOUS
 90
25
 70
0
 10
2.0648132501
 20
48.1645375541
 10
2.0492109199
 20
48.4112015953
 10
2.0217636981
 20
48.6484372876
 10
1.9834382035
 20
48.8762513571
 10
1.9353919665
 20
49.0946831768
 10
1.8785026833
 20
49.3037035032
 10
1.8130278333
 20
49.5032154822
 10
1.7395520887
 20
49.6931960492
 10
1.6588534274
 20
49.8736755702
 10
1.5710345635
 20
50.0446380938
 10
1.4765964353
 20
50.206297143
 10
1.3761413932
 20
50.358445111
 10
1.269678345
 20
50.5004353136
 10
1.1575500179
 20
50.6323814988
 10
1.0403674194
 20
50.7541754339
 10
0.9184335632
 20
50.8648380837
 10
0.7918945018
 20
50.9643320621
 10
0.6615664659
 20
51.0526993865
 10
0.5288211145
 20
51.1290787213
 10
0.3939668955
 20
51.1930748157
 10
0.2578071201
 20
51.245083097
 10
0.1225909962
 20
51.2854239372
 10
-0.0105396173
 20
51.3142006644
 10
-0.1416436592
 20
51.3313024432
 10
-0.2702712432
 20
51.3367254939
  0
LINE
  5
22D
100
AcDbEntity
  8
0
100
AcDbLine
 62
7
  6
CONTINUOUS
 10
9.7337164167
 20
-54.8354624478
 11
9.7337164167
 21
-54.3354624478
  0
LINE
  5
22E
100
AcDbEntity
  8
0
100
AcDbLine
 62
7
  6
CONTINUOUS
 10
9.7337164167
 20
54.6645375522
 11
9.7337164167
 21
55.1645375522
  0
LWPOLYLINE
  5
22F
100
AcDbEntity
  8
0
100
AcDbPolyline
 62
7
  6
CONTINUOUS
 90
19
 70
0
 10
12.2296050209
 20
52.1686489479
 10
12.2194725488
 20
52.3897366793
 10
12.191086227
 20
52.6056921428
 10
12.1444460555
 20
52.8165153387
 10
12.0788919732
 20
53.0236770522
 10
11.9950840413
 20
53.225706498
 10
11.8950024429
 20
53.4181913195
 10
11.7783220259
 20
53.6009178744
 10
11.6453679425
 20
53.7740998049
 10
11.4990958326
 20
53.9339656816
 10
11.3392340796
 20
54.0802441063
 10
11.1660543001
 20
54.2132064772
 10
10.9833269838
 20
54.3298955595
 10
10.7908381966
 20
54.429986311
 10
10.5888018726
 20
54.5138037738
 10
10.3816303035
 20
54.5793658402
 10
10.170794253
 20
54.6260118074
 10
9.9548229574
 20
54.654402378
 10
9.7337164167
 20
54.6645375522
  0
LINE
  5
230
100
AcDbEntity
  8
0
100
AcDbLine
 62
7
  6
CONTINUOUS
 10
12.7296050209
 20
-51.8395738435
 11
12.7296050209
 21
52.1686489479
  0
LINE
  5
231
100
AcDbEntity
  8
0
100
AcDbLine
 62
7
  6
CONTINUOUS
 10
-2.6526575143
 20
-54.7177249831
 11
-2.7703949791
 21
-54.8354624478
  0
LINE
  5
232
100
AcDbEntity
  8
0
100
AcDbLine
 62
7
  6
CONTINUOUS
 10
-2.7703949791
 20
52.1645375522
 11
-2.6038504659
 21
51.9979930391
  0
LWPOLYLINE
  5
233
100
AcDbEntity
  8
0
100
AcDbPolyline
 62
253
  6
CONTINUOUS
 90
25
 70
0
 10
-0.270405692
 20
45.0068742424
 10
-0.1415053972
 20
45.0122583141
 10
-0.0103400841
 20
45.0291271751
 10
0.1226439958
 20
45.0574843144
 10
0.2574275911
 20
45.0971780598
 10
0.3929698145
 20
45.1483669069
 10
0.5272867833
 20
45.2115170845
 10
0.6596236195
 20
45.2870507449
 10
0.7896253415
 20
45.374545818
 10
0.9160179796
 20
45.4731984496
 10
1.03803627
 20
45.5830498271
 10
1.1554470219
 20
45.7040546862
 10
1.267836249
 20
45.8352780768
 10
1.3745629966
 20
45.9766222738
 10
1.475299274
 20
46.1281795671
 10
1.5700085703
 20
46.2893004583
 10
1.6580793625
 20
46.4598564063
 10
1.739008446
 20
46.6399700369
 10
1.8126818803
 20
46.8293695198
 10
1.8782958078
 20
47.0277945872
 10
1.9352898675
 20
47.2354981461
 10
1.9834442727
 20
47.4529789574
 10
2.0218567542
 20
47.6804002755
 10
2.0493150448
 20
47.9175887393
 10
2.064813208
 20
48.1645375542
  0
LWPOLYLINE
  5
234
100
AcDbEntity
  8
0
100
AcDbPolyline
 62
7
  6
CONTINUOUS
 90
19
 70
0
 10
-2.6526575143
 20
-54.7177249831
 10
-2.6329841009
 20
-54.7070675601
 10
-2.5972211554
 20
-54.696677904
 10
-2.545368678
 20
-54.686556015
 10
-2.4768301707
 20
-54.6766349688
 10
-2.3922021313
 20
-54.6669816896
 10
-2.2932740541
 20
-54.6577969495
 10
-2.1797495246
 20
-54.6490905652
 10
-2.0519249572
 20
-54.64085272
 10
-1.9124790894
 20
-54.6332547361
 10
-1.7611644137
 20
-54.6263098792
 10
-1.5982284376
 20
-54.6200048836
 10
-1.427092421
 20
-54.6144712732
 10
-1.24758272
 20
-54.6097254718
 10
-1.0598729785
 20
-54.6057510557
 10
-0.8679053874
 20
-54.6026302781
 10
-0.6729940106
 20
-54.6003905568
 10
-0.4738247844
 20
-54.599004474
 10
-0.2703977086
 20
-54.5984720298
  0
LWPOLYLINE
  5
235
100
AcDbEntity
  8
0
100
AcDbPolyline
 62
7
  6
CONTINUOUS
 90
37
 70
0
 10
-0.2703968427
 20
46.0523612407
 10
-0.0868890036
 20
46.0598641517
 10
0.0942360106
 20
46.0827842991
 10
0.2726878384
 20
46.1211192332
 10
0.4490414489
 20
46.1747505916
 10
0.6221894812
 20
46.2437922514
 10
0.7894096437
 20
46.3285874315
 10
0.951734312
 20
46.430005739
 10
1.1078796104
 20
46.5471682232
 10
1.2519804057
 20
46.6777872098
 10
1.384416874
 20
46.823616718
 10
1.5052661318
 20
46.9828842754
 10
1.6087286562
 20
47.1480033467
 10
1.6935117049
 20
47.3182724937
 10
1.761936731
 20
47.4943727218
 10
1.8138331293
 20
47.670788935
 10
1.8489143321
 20
47.8463381276
 10
1.8680613908
 20
48.0221939409
 10
1.8727187151
 20
48.1963787821
 10
1.8632140858
 20
48.3684190932
 10
1.8391893087
 20
48.5387888817
 10
1.8009139186
 20
48.7069341156
 10
1.7482567971
 20
48.8735371865
 10
1.6808119386
 20
49.0379242672
 10
1.5983356188
 20
49.1975089766
 10
1.4992055508
 20
49.3535417744
 10
1.3841525193
 20
49.5047900504
 10
1.2565639281
 20
49.6449423529
 10
1.115656392
 20
49.7732002281
 10
0.9616493854
 20
49.8903822047
 10
0.7998271744
 20
49.9925959875
 10
0.6303323915
 20
50.0788883398
 10
0.4531521772
 20
50.1502260229
 10
0.2737369979
 20
50.2055865379
 10
0.0941513436
 20
50.244627568
 10
-0.0870713938
 20
50.2676931473
 10
-0.2696307846
 20
50.2747846167
  0
LWPOLYLINE
  5
236
100
AcDbEntity
  8
0
100
AcDbPolyline
 62
253
  6
CONTINUOUS
 90
25
 70
0
 10
-0.270394979
 20
45.996721134
 10
-0.1418325618
 20
46.0001392104
 10
-0.0110957716
 20
46.0108575897
 10
0.1214113311
 20
46.0293104914
 10
0.2558032163
 20
46.0560647922
 10
0.3909795907
 20
46.0914520102
 10
0.5247214269
 20
46.1351977993
 10
0.6562537705
 20
46.187175446
 10
0.7853614335
 20
46.2475014396
 10
0.9107924707
 20
46.3157457517
 10
1.0318160299
 20
46.3915023157
 10
1.1482932328
 20
46.474709589
 10
1.2599030426
 20
46.5652927426
 10
1.3660832031
 20
46.6628909142
 10
1.4665180897
 20
46.7673246798
 10
1.5611427115
 20
46.8788635042
 10
1.6493214413
 20
46.9971003893
 10
1.7306617488
 20
47.1218836077
 10
1.8051634056
 20
47.2540308468
 10
1.8725683068
 20
47.3943349618
 10
1.9315128118
 20
47.5414914941
 10
1.9805250395
 20
47.6929832368
 10
2.0191049167
 20
47.8474316036
 10
2.0472750042
 20
48.0048460863
 10
2.0648159022
 20
48.1645375522
  0
LWPOLYLINE
  5
237
100
AcDbEntity
  8
0
100
AcDbPolyline
 62
253
  6
CONTINUOUS
 90
25
 70
0
 10
-0.2703949791
 20
45.996721134
 10
-0.3975392827
 20
46.0000653418
 10
-0.5269831935
 20
46.0105604599
 10
-0.6583334281
 20
46.0286576182
 10
-0.7917300165
 20
46.05494373
 10
-0.9260639817
 20
46.0897698613
 10
-1.0590736197
 20
46.1328727571
 10
-1.1899975257
 20
46.1841499262
 10
-1.318613425
 20
46.2437238429
 10
-1.4436019276
 20
46.3111279177
 10
-1.5642201995
 20
46.3859376098
 10
-1.6803630534
 20
46.4681115264
 10
-1.7917176529
 20
46.557583465
 10
-1.8977283891
 20
46.6539974356
 10
-1.9980909849
 20
46.7571778469
 10
-2.0927550028
 20
46.8674026014
 10
-2.1811520915
 20
46.9843632859
 10
-2.2628283138
 20
47.1078331933
 10
-2.3376587637
 20
47.2383440768
 10
-2.4049192171
 20
47.3754621677
 10
-2.4640173132
 20
47.5189968635
 10
-2.5145963492
 20
47.6699664362
 10
-2.555768973
 20
47.8284640778
 10
-2.5864288003
 20
47.9935264123
 10
-2.6056058603
 20
48.1645375522
  0
LWPOLYLINE
  5
238
100
AcDbEntity
  8
0
100
AcDbPolyline
 62
253
  6
CONTINUOUS
 90
25
 70
0
 10
-0.2705187149
 20
51.3367254939
 10
-0.3996830013
 20
51.3311946837
 10
-0.531164607
 20
51.3140162202
 10
-0.6645126501
 20
51.2851936703
 10
-0.7997595952
 20
51.2448570721
 10
-0.9357975956
 20
51.1928834199
 10
-1.0704675983
 20
51.1288939295
 10
-1.2029580787
 20
51.0524447316
 10
-1.3329826023
 20
50.9639793213
 10
-1.459292172
 20
50.8644459757
 10
-1.5811186553
 20
50.7538512158
 10
-1.6982550458
 20
50.6321841376
 10
-1.8103506178
 20
50.5003655873
 10
-1.9167833593
 20
50.3585113494
 10
-2.0172207878
 20
50.2065001461
 10
-2.1116455032
 20
50.0448977688
 10
-2.199455513
 20
49.8737949935
 10
-2.2801503765
 20
49.6930951341
 10
-2.3536226522
 20
49.50308373
 10
-2.4190800865
 20
49.3039759211
 10
-2.4759625977
 20
49.0955492478
 10
-2.5240470803
 20
48.8774336641
 10
-2.5624434576
 20
48.6495028314
 10
-2.5899589583
 20
48.4118730391
 10
-2.6056032082
 20
48.1645375541
  0
LWPOLYLINE
  5
239
100
AcDbEntity
  8
0
100
AcDbPolyline
 62
7
  6
CONTINUOUS
 90
37
 70
0
 10
-0.2703827152
 20
50.2747841662
 10
-0.4531455178
 20
50.2673373958
 10
-0.633551845
 20
50.2446086454
 10
-0.8113149605
 20
50.2065954895
 10
-0.9869558067
 20
50.1534423625
 10
-1.1594284375
 20
50.0850003542
 10
-1.3261824683
 20
50.0008245192
 10
-1.48829806
 20
49.9000529115
 10
-1.6444344793
 20
49.7835385582
 10
-1.7887335565
 20
49.6534011048
 10
-1.9216362866
 20
49.5078018148
 10
-2.043141086
 20
49.3485613106
 10
-2.1472526984
 20
49.1832789705
 10
-2.2326636161
 20
49.0125499497
 10
-2.3017134791
 20
48.8357585464
 10
-2.3540979729
 20
48.6586854082
 10
-2.3894630699
 20
48.4825493627
 10
-2.4087658934
 20
48.3061220804
 10
-2.4135333142
 20
48.1315159986
 10
-2.4040885884
 20
47.9592678323
 10
-2.380076995
 20
47.7888413318
 10
-2.3418620001
 20
47.6207417085
 10
-2.2893351906
 20
47.4543269019
 10
-2.222069563
 20
47.2902475129
 10
-2.1398525513
 20
47.1309496811
 10
-2.0411225337
 20
46.9752082067
 10
-1.9265579411
 20
46.8242659801
 10
-1.7994037499
 20
46.6842708773
 10
-1.6588580503
 20
46.555974758
 10
-1.5051541079
 20
46.4386458896
 10
-1.3434728077
 20
46.3362006577
 10
-1.1739416013
 20
46.2495699832
 10
-0.9965531943
 20
46.1778367853
 10
-0.8166824727
 20
46.1221354302
 10
-0.6363676337
 20
46.0828427541
 10
-0.4541667143
 20
46.0595841565
 10
-0.2703830834
 20
46.0523612362
  0
LWPOLYLINE
  5
23A
100
AcDbEntity
  8
0
100
AcDbPolyline
 62
253
  6
CONTINUOUS
 90
25
 70
0
 10
-0.2703949791
 20
50.3294616546
 10
-0.3992125202
 20
50.3260374453
 10
-0.5302056294
 20
50.3152851468
 10
-0.6629688344
 20
50.2967686076
 10
-0.7976528363
 20
50.2699105493
 10
-0.9331160279
 20
50.2343807584
 10
-1.0670263889
 20
50.1904923194
 10
-1.1985717964
 20
50.1384129353
 10
-1.3275888957
 20
50.0780317966
 10
-1.4528528277
 20
50.0097834411
 10
-1.5736388536
 20
49.9340906956
 10
-1.689823365
 20
49.8510270951
 10
-1.8011222502
 20
49.7606543943
 10
-1.9069838925
 20
49.6633379487
 10
-2.0071027376
 20
49.5592633592
 10
-2.1014431046
 20
49.448139767
 10
-2.1893869209
 20
49.3303581656
 10
-2.270538139
 20
49.206081735
 10
-2.3448948451
 20
49.0745100618
 10
-2.4121480755
 20
48.9349948133
 10
-2.4710319741
 20
48.7887008317
 10
-2.520213371
 20
48.6376948913
 10
-2.5591442914
 20
48.4831657659
 10
-2.587711193
 20
48.3252218145
 10
-2.6056058603
 20
48.1645375522
  0
LINE
  5
23B
100
AcDbEntity
  8
0
100
AcDbLine
 62
7
  6
CONTINUOUS
 10
-2.2703949791
 20
51.9758695468
 11
1.7296050209
 21
51.9758695468
  0
LINE
  5
23C
100
AcDbEntity
  8
0
100
AcDbLine
 62
7
  6
CONTINUOUS
 10
1.7296050209
 20
52.0387588819
 11
-2.2703949791
 21
52.0387588819
  0
LINE
  5
23D
100
AcDbEntity
  8
0
100
AcDbLine
 62
7
  6
CONTINUOUS
 10
-2.7703949791
 20
52.1645375522
 11
2.2296050209
 21
52.1645375522
  0
LINE
  5
23E
100
AcDbEntity
  8
0
100
AcDbLine
 62
7
  6
CONTINUOUS
 10
-13.2703949791
 20
52.1686489479
 11
-12.7703949791
 21
52.1686489479
  0
LINE
  5
23F
100
AcDbEntity
  8
0
100
AcDbLine
 62
7
  6
CONTINUOUS
 10
12.2296050209
 20
52.1686489479
 11
12.7296050211
 21
52.1686489479
  0
LINE
  5
240
100
AcDbEntity
  8
0
100
AcDbLine
 62
7
  6
CONTINUOUS
 10
9.7337164167
 20
55.1645375522
 11
-10.2745063748
 21
55.1645375522
  0
LWPOLYLINE
  5
241
100
AcDbEntity
  8
0
100
AcDbPolyline
 62
7
  6
CONTINUOUS
 90
19
 70
0
 10
-0.270394979
 20
51.8788904325
 10
-0.4709169964
 20
51.8796226441
 10
-0.6670043425
 20
51.8811816566
 10
-0.8586570173
 20
51.8835674698
 10
-1.0471269998
 20
51.8868075542
 10
-1.2311623111
 20
51.8908744395
 10
-1.4070070139
 20
51.8956857144
 10
-1.5744926073
 20
51.9012567234
 10
-1.7337875923
 20
51.907572122
 10
-1.8816415343
 20
51.9145034664
 10
-2.0178186983
 20
51.9220632763
 10
-2.1425548192
 20
51.930239032
 10
-2.253306668
 20
51.9388647302
 10
-2.3497898762
 20
51.9479495794
 10
-2.4322888123
 20
51.9574843711
 10
-2.4991133517
 20
51.9672754758
 10
-2.5497001197
 20
51.9772583505
 10
-2.5846124911
 20
51.9874975382
 10
-2.6038504659
 20
51.9979930391
  0
LWPOLYLINE
  5
242
100
AcDbEntity
  8
0
100
AcDbPolyline
 62
253
  6
CONTINUOUS
 90
25
 70
0
 10
-0.2703956747
 20
50.3294616546
 10
-0.1431261457
 20
50.3261141029
 10
-0.0135159392
 20
50.3156001769
 10
0.1180408392
 20
50.297459964
 10
0.2517496259
 20
50.2710817521
 10
0.3864287659
 20
50.2361119346
 10
0.5196164211
 20
50.1928780074
 10
0.6504188948
 20
50.1415781743
 10
0.7787741955
 20
50.0820716713
 10
0.9035951686
 20
50.0147119731
 10
1.0242479275
 20
49.939819752
 10
1.140491598
 20
49.8574920665
 10
1.2518742802
 20
49.7679054467
 10
1.3578274571
 20
49.6714608082
 10
1.4580845624
 20
49.5683155076
 10
1.5525612833
 20
49.4582430715
 10
1.6406533405
 20
49.3416475448
 10
1.7219999031
 20
49.2187001313
 10
1.7966102736
 20
49.0886731101
 10
1.8637979764
 20
48.9518735337
 10
1.9228958249
 20
48.8085825859
 10
1.973498152
 20
48.6578978644
 10
2.0147194589
 20
48.4997678653
 10
2.0454783829
 20
48.3351109486
 10
2.0648159022
 20
48.1645375522
  0
ELLIPSE
  5
243
100
AcDbEntity
  8
0
100
AcDbEllipse
 62
7
  6
CONTINUOUS
 10
-10.2679354125
 20
52.1620779856
 30
0.0
 11
1.7719278683
 21
-1.7719278683
 31
0.0
 40
0.9972646886
 41
2.3574507669
 42
3.9257345403
  0
ENDSEC
  0
SECTION
  2
OBJECTS
  0
DICTIONARY
  5
C
100
AcDbDictionary
280
0
281
1
  3
ACAD_GROUP
350
D
  3
ACAD_MLINESTYLE
350
17
  3
ACAD_LAYOUT
350
1A
  3
ACAD_PLOTSETTINGS
350
19
  3
ACAD_PLOTSTYLENAME
350
E
  0
DICTIONARY
  5
D
102
{ACAD_REACTORS
330
C
102
}
100
AcDbDictionary
280
0
281
1
  0
ACDBDICTIONARYWDFLT
  5
E
102
{ACAD_REACTORS
330
C
102
}
100
AcDbDictionary
281
1
  3
Normal
350
F
100
AcDbDictionaryWithDefault
340
F
  0
DICTIONARY
  5
17
102
{ACAD_REACTORS
330
C
102
}
100
AcDbDictionary
280
0
281
1
  3
Standard
350
18
  0
DICTIONARY
  5
19
102
{ACAD_REACTORS
330
C
102
}
100
AcDbDictionary
281
1
  0
DICTIONARY
  5
1A
102
{ACAD_REACTORS
330
C
102
}
100
AcDbDictionary
281
1
  3
Model
350
244
  3
Layout1
350
245
  0
ACDBPLACEHOLDER
  5
F
102
{ACAD_REACTORS
330
E
102
}
  0
MLINESTYLE
  5
18
102
{ACAD_REACTORS
330
17
102
}
100
AcDbMlineStyle
  2
STANDARD
 70
0
  3

 62
256
 51
90.0
 52
90.0
 71
2
 49
0.5
 62
256
  6
BYLAYER
 49
-0.5
 62
256
  6
BYLAYER
  0
LAYOUT
  5
244
102
{ACAD_REACTORS
330
1A
102
}
100
AcDbPlotSettings
  1

  2
none_device
  4
ISO_A4_(297.00_x_210.00_MM)
  6

 40
0.0
 41
0.0
 42
0.0
 43
0.0
 44
297.0
 45
210.0
 46
0.0
 47
0.0
 48
0.0
 49
0.0
140
0.0
141
0.0
142
1.0
143
1.0
 70
1024
 72
1
 73
0
 74
0
  7

 75
0
147
1.0
148
0.0
149
0.0
100
AcDbLayout
  1
Model
 70
0
 71
0
 10
0.0
 20
0.0
 11
297.0
 21
210.0
 12
0.0
 22
0.0
 32
0.0
 14
0.0
 24
0.0
 34
0.0
 15
0.0
 25
0.0
 35
0.0
146
0.0
 13
0.0
 23
0.0
 33
0.0
 16
1.0
 26
0.0
 36
0.0
 17
0.0
 27
1.0
 37
0.0
 76
0
330
20F
345
0
346
0
  0
LAYOUT
  5
245
102
{ACAD_REACTORS
330
1A
102
}
100
AcDbPlotSettings
  1

  2
none_device
  4
ISO_A4_(297.00_x_210.00_MM)
  6

 40
0.0
 41
0.0
 42
0.0
 43
0.0
 44
297.0
 45
210.0
 46
0.0
 47
0.0
 48
0.0
 49
0.0
140
0.0
141
0.0
142
1.0
143
1.0
 70
0
 72
1
 73
0
 74
0
  7

 75
0
147
1.0
148
0.0
149
0.0
100
AcDbLayout
  1
Layout1
 70
0
 71
1
 10
0.0
 20
0.0
 11
297.0
 21
210.0
 12
0.0
 22
0.0
 32
0.0
 14
0.0
 24
0.0
 34
0.0
 15
0.0
 25
0.0
 35
0.0
146
0.0
 13
0.0
 23
0.0
 33
0.0
 16
1.0
 26
0.0
 36
0.0
 17
0.0
 27
1.0
 37
0.0
 76
0
330
210
345
0
346
0
  0
ENDSEC
  0
EOF
