  0
SECTION
  2
HEADER
  9
$ACADVER
  1
AC1021
  9
$DWGCODEPAGE
  3
ANSI_1252
  9
$EXTMAX
 10
297.0
 20
210.0
 30
0.0
  9
$EXTMIN
 10
0.0
 20
0.0
 30
0.0
  9
$LIMMIN
 10
0.0
 20
0.0
  9
$LIMMAX
 10
297.0
 20
210.0
  9
$VIEWCTR
 10
148.5
 20
105.0
  9
$VIEWSIZE
 40
210.0
  9
$CLAYER
  8
0
  9
$LTSCALE
 40
16.335
  9
$CELTYPE
  6
BYLAYER
  9
$DIMSCALE
 40
1.0
  9
$DIMASZ
 40
3.0
  9
$DIMEXO
 40
0.5
  9
$DIMDLI
 40
11.286
  9
$DIMEXE
 40
1.5
  9
$DIMCEN
 40
2.673
  9
$DIMLFAC
 40
1.0
  9
$DIMBLK
  1
_FILLED
  9
$DIMALT
 70
0
  9
$DIMALTF
 40
0.0393700787
  9
$DIMTXT
 40
3.0
  9
$DIMTOL
 70
1
  9
$DIMLIM
 70
0
  9
$DIMTFAC
 40
1.0
  9
$DIMTP
 40
0.01
  9
$DIMTM
 40
0.01
  9
$DIMGAP
 40
0.625
  9
$DIMDSEP
 70
44
  9
$AUNITS
 70
0
  9
$PDMODE
 70
3
  9
$PDSIZE
 40
3.0
  9
$HANDSEED
  5
2B5
  9
$TILEMODE
 70
1
  9
$MEASUREMENT
 70
1
  9
$INSUNITS
 70
4
  0
ENDSEC
  0
SECTION
  2
CLASSES
  0
CLASS
  1
ACDBDICTIONARYWDFLT
  2
AcDbDictionaryWithDefault
  3
AutoCAD 2000
 90
0
 91
1
280
0
281
0
  0
CLASS
  1
ACDBPLACEHOLDER
  2
AcDbPlaceHolder
  3
AutoCAD 2000
 90
0
 91
1
280
0
281
0
  0
CLASS
  1
LAYOUT
  2
AcDbLayout
  3
AutoCAD 2000
 90
0
 91
0
280
0
281
0
  0
ENDSEC
  0
SECTION
  2
TABLES
  0
TABLE
  2
VPORT
  5
8
100
AcDbSymbolTable
 70
2
  0
VPORT
  5
1F4
100
AcDbSymbolTableRecord
100
AcDbViewportTableRecord
  2
*ACTIVE
 70
0
 10
0.0
 20
0.0
 11
1.0
 21
1.0
 12
148.5
 22
105.0
 13
0.0
 23
0.0
 14
1.0
 24
1.0
 15
0.0
 25
0.0
 16
0.0
 26
0.0
 36
1.0
 17
0.0
 27
0.0
 37
0.0
 40
210.0
 41
1.4142857143
 42
50.0
 43
0.0
 44
0.0
 50
0.0
 51
0.0
 71
0
 72
100
 73
1
 74
1
 75
0
 76
0
 77
0
 78
0
  0
ENDTAB
  0
TABLE
  2
LTYPE
  5
5
100
AcDbSymbolTable
 70
6
  0
LTYPE
  5
14
100
AcDbSymbolTableRecord
100
AcDbLinetypeTableRecord
  2
BYBLOCK
 70
0
  3

 72
65
 73
0
 40
0.0
  0
LTYPE
  5
15
100
AcDbSymbolTableRecord
100
AcDbLinetypeTableRecord
  2
BYLAYER
 70
0
  3

 72
65
 73
0
 40
0.0
  0
LTYPE
  5
16
100
AcDbSymbolTableRecord
100
AcDbLinetypeTableRecord
  2
CONTINUOUS
 70
64
  3
Solid line
 72
65
 73
0
 40
0.0
  0
LTYPE
  5
1F5
100
AcDbSymbolTableRecord
100
AcDbLinetypeTableRecord
  2
CENTER
 70
64
  3
____ _ ____ _ ____ _ ____ _ ____ _ ____ _ ____
 72
65
 73
4
 40
0.6
 49
0.375
 74
0
 49
-0.075
 74
0
 49
0.075
 74
0
 49
-0.075
 74
0
  0
LTYPE
  5
1F6
100
AcDbSymbolTableRecord
100
AcDbLinetypeTableRecord
  2
HIDDEN
 70
64
  3
- - - - - - - - - - - - - - - - - - - -
 72
65
 73
2
 40
0.2
 49
0.1
 74
0
 49
-0.1
 74
0
  0
LTYPE
  5
1F7
100
AcDbSymbolTableRecord
100
AcDbLinetypeTableRecord
  2
PHANTOM
 70
64
  3
_____ _ _ _____ _ _ _____ _ _ _____
 72
65
 73
6
 40
0.8
 49
0.45
 74
0
 49
-0.05
 74
0
 49
0.1
 74
0
 49
-0.05
 74
0
 49
0.1
 74
0
 49
-0.05
 74
0
  0
LTYPE
  5
1F8
100
AcDbSymbolTableRecord
100
AcDbLinetypeTableRecord
  2
DOT
 70
64
  3
. . . . . . . . . . . . . . . . . . . .
 72
65
 73
2
 40
0.2
 49
0.1
 74
0
 49
-0.1
 74
0
  0
LTYPE
  5
1F9
100
AcDbSymbolTableRecord
100
AcDbLinetypeTableRecord
  2
DASHED
 70
64
  3
- - - - - - - - - - - - - - - - - - - -
 72
65
 73
2
 40
0.2
 49
0.1
 74
0
 49
-0.1
 74
0
  0
ENDTAB
  0
TABLE
  2
LAYER
  5
2
100
AcDbSymbolTable
 70
36
  0
LAYER
  5
10
100
AcDbSymbolTableRecord
100
AcDbLayerTableRecord
  2
0
 70
0
 62
7
  6
CONTINUOUS
370
-3
390
F
  0
LAYER
  5
1FA
100
AcDbSymbolTableRecord
100
AcDbLayerTableRecord
  2
DEFAULT_1
 70
0
 62
7
  6
CENTER
370
-3
390
F
  0
LAYER
  5
1FB
100
AcDbSymbolTableRecord
100
AcDbLayerTableRecord
  2
DEFAULT_2
 70
0
 62
7
  6
HIDDEN
370
-3
390
F
  0
LAYER
  5
1FC
100
AcDbSymbolTableRecord
100
AcDbLayerTableRecord
  2
DEFAULT_3
 70
0
 62
7
  6
PHANTOM
370
-3
390
F
  0
LAYER
  5
1FD
100
AcDbSymbolTableRecord
100
AcDbLayerTableRecord
  2
ASSI
 70
0
 62
7
  6
CONTINUOUS
370
-3
390
F
  0
LAYER
  5
1FE
100
AcDbSymbolTableRecord
100
AcDbLayerTableRecord
  2
COORDINATE
 70
0
 62
7
  6
CONTINUOUS
370
-3
390
F
  0
LAYER
  5
1FF
100
AcDbSymbolTableRecord
100
AcDbLayerTableRecord
  2
COSMETICI
 70
0
 62
7
  6
CONTINUOUS
370
-3
390
F
  0
LAYER
  5
200
100
AcDbSymbolTableRecord
100
AcDbLayerTableRecord
  2
CURVE
 70
0
 62
7
  6
CONTINUOUS
370
-3
390
F
  0
LAYER
  5
201
100
AcDbSymbolTableRecord
100
AcDbLayerTableRecord
  2
INTFCLR_1091
 70
0
 62
7
  6
CONTINUOUS
370
-3
390
F
  0
LAYER
  5
202
100
AcDbSymbolTableRecord
100
AcDbLayerTableRecord
  2
INTFCLR_14682
 70
0
 62
7
  6
CONTINUOUS
370
-3
390
F
  0
LAYER
  5
203
100
AcDbSymbolTableRecord
100
AcDbLayerTableRecord
  2
INTFCLR_16367
 70
0
 62
7
  6
CONTINUOUS
370
-3
390
F
  0
LAYER
  5
204
100
AcDbSymbolTableRecord
100
AcDbLayerTableRecord
  2
INTFCLR_19717
 70
0
 62
7
  6
CONTINUOUS
370
-3
390
F
  0
LAYER
  5
205
100
AcDbSymbolTableRecord
100
AcDbLayerTableRecord
  2
INTFCLR_21422
 70
0
 62
7
  6
CONTINUOUS
370
-3
390
F
  0
LAYER
  5
206
100
AcDbSymbolTableRecord
100
AcDbLayerTableRecord
  2
INTFCLR_23160
 70
0
 62
7
  6
CONTINUOUS
370
-3
390
F
  0
LAYER
  5
207
100
AcDbSymbolTableRecord
100
AcDbLayerTableRecord
  2
INTFCLR_38495
 70
0
 62
7
  6
CONTINUOUS
370
-3
390
F
  0
LAYER
  5
208
100
AcDbSymbolTableRecord
100
AcDbLayerTableRecord
  2
INTFCLR_40183
 70
0
 62
7
  6
CONTINUOUS
370
-3
390
F
  0
LAYER
  5
209
100
AcDbSymbolTableRecord
100
AcDbLayerTableRecord
  2
INTFCLR_41847
 70
0
 62
7
  6
CONTINUOUS
370
-3
390
F
  0
LAYER
  5
20A
100
AcDbSymbolTableRecord
100
AcDbLayerTableRecord
  2
INTFCLR_43320
 70
0
 62
7
  6
CONTINUOUS
370
-3
390
F
  0
LAYER
  5
20B
100
AcDbSymbolTableRecord
100
AcDbLayerTableRecord
  2
INTFCLR_45217
 70
0
 62
7
  6
CONTINUOUS
370
-3
390
F
  0
LAYER
  5
20C
100
AcDbSymbolTableRecord
100
AcDbLayerTableRecord
  2
INTFCLR_46926
 70
0
 62
7
  6
CONTINUOUS
370
-3
390
F
  0
LAYER
  5
20D
100
AcDbSymbolTableRecord
100
AcDbLayerTableRecord
  2
INTFCLR_48550
 70
0
 62
7
  6
CONTINUOUS
370
-3
390
F
  0
LAYER
  5
20E
100
AcDbSymbolTableRecord
100
AcDbLayerTableRecord
  2
INTFCLR_51479
 70
0
 62
7
  6
CONTINUOUS
370
-3
390
F
  0
LAYER
  5
20F
100
AcDbSymbolTableRecord
100
AcDbLayerTableRecord
  2
INTFCLR_63744
 70
0
 62
7
  6
CONTINUOUS
370
-3
390
F
  0
LAYER
  5
210
100
AcDbSymbolTableRecord
100
AcDbLayerTableRecord
  2
INTFCLR_65423
 70
0
 62
7
  6
CONTINUOUS
370
-3
390
F
  0
LAYER
  5
211
100
AcDbSymbolTableRecord
100
AcDbLayerTableRecord
  2
INTFCLR_68828
 70
0
 62
7
  6
CONTINUOUS
370
-3
390
F
  0
LAYER
  5
212
100
AcDbSymbolTableRecord
100
AcDbLayerTableRecord
  2
INTFCLR_70481
 70
0
 62
7
  6
CONTINUOUS
370
-3
390
F
  0
LAYER
  5
213
100
AcDbSymbolTableRecord
100
AcDbLayerTableRecord
  2
INTFCLR_72157
 70
0
 62
7
  6
CONTINUOUS
370
-3
390
F
  0
LAYER
  5
214
100
AcDbSymbolTableRecord
100
AcDbLayerTableRecord
  2
INTFCLR_9102
 70
0
 62
7
  6
CONTINUOUS
370
-3
390
F
  0
LAYER
  5
215
100
AcDbSymbolTableRecord
100
AcDbLayerTableRecord
  2
NONE
 70
0
 62
7
  6
CONTINUOUS
370
-3
390
F
  0
LAYER
  5
216
100
AcDbSymbolTableRecord
100
AcDbLayerTableRecord
  2
NOTE
 70
0
 62
7
  6
CONTINUOUS
370
-3
390
F
  0
LAYER
  5
217
100
AcDbSymbolTableRecord
100
AcDbLayerTableRecord
  2
PIANI
 70
0
 62
7
  6
CONTINUOUS
370
-3
390
F
  0
LAYER
  5
218
100
AcDbSymbolTableRecord
100
AcDbLayerTableRecord
  2
PUNTI
 70
0
 62
7
  6
CONTINUOUS
370
-3
390
F
  0
LAYER
  5
219
100
AcDbSymbolTableRecord
100
AcDbLayerTableRecord
  2
SIMBOLI
 70
0
 62
7
  6
CONTINUOUS
370
-3
390
F
  0
LAYER
  5
21A
100
AcDbSymbolTableRecord
100
AcDbLayerTableRecord
  2
SNAPLINE
 70
0
 62
7
  6
CONTINUOUS
370
-3
390
F
  0
LAYER
  5
21B
100
AcDbSymbolTableRecord
100
AcDbLayerTableRecord
  2
SUPERFICI
 70
0
 62
7
  6
CONTINUOUS
370
-3
390
F
  0
LAYER
  5
21C
100
AcDbSymbolTableRecord
100
AcDbLayerTableRecord
  2
_12283
 70
0
 62
7
  6
CONTINUOUS
370
-3
390
F
  0
LAYER
  5
21D
100
AcDbSymbolTableRecord
100
AcDbLayerTableRecord
  2
_12880
 70
0
 62
7
  6
CONTINUOUS
370
-3
390
F
  0
LAYER
  5
21E
100
AcDbSymbolTableRecord
100
AcDbLayerTableRecord
  2
_14133
 70
0
 62
7
  6
CONTINUOUS
370
-3
390
F
  0
LAYER
  5
21F
100
AcDbSymbolTableRecord
100
AcDbLayerTableRecord
  2
_1568
 70
0
 62
7
  6
CONTINUOUS
370
-3
390
F
  0
LAYER
  5
220
100
AcDbSymbolTableRecord
100
AcDbLayerTableRecord
  2
_18940
 70
0
 62
7
  6
CONTINUOUS
370
-3
390
F
  0
LAYER
  5
221
100
AcDbSymbolTableRecord
100
AcDbLayerTableRecord
  2
_19205
 70
0
 62
7
  6
CONTINUOUS
370
-3
390
F
  0
LAYER
  5
222
100
AcDbSymbolTableRecord
100
AcDbLayerTableRecord
  2
_19569
 70
0
 62
7
  6
CONTINUOUS
370
-3
390
F
  0
LAYER
  5
223
100
AcDbSymbolTableRecord
100
AcDbLayerTableRecord
  2
_19718
 70
0
 62
7
  6
CONTINUOUS
370
-3
390
F
  0
LAYER
  5
224
100
AcDbSymbolTableRecord
100
AcDbLayerTableRecord
  2
_20634
 70
0
 62
7
  6
CONTINUOUS
370
-3
390
F
  0
LAYER
  5
225
100
AcDbSymbolTableRecord
100
AcDbLayerTableRecord
  2
_20814
 70
0
 62
7
  6
CONTINUOUS
370
-3
390
F
  0
LAYER
  5
226
100
AcDbSymbolTableRecord
100
AcDbLayerTableRecord
  2
_20968
 70
0
 62
7
  6
CONTINUOUS
370
-3
390
F
  0
LAYER
  5
227
100
AcDbSymbolTableRecord
100
AcDbLayerTableRecord
  2
_21039
 70
0
 62
7
  6
CONTINUOUS
370
-3
390
F
  0
LAYER
  5
228
100
AcDbSymbolTableRecord
100
AcDbLayerTableRecord
  2
_25508
 70
0
 62
7
  6
CONTINUOUS
370
-3
390
F
  0
LAYER
  5
229
100
AcDbSymbolTableRecord
100
AcDbLayerTableRecord
  2
_26495
 70
0
 62
7
  6
CONTINUOUS
370
-3
390
F
  0
LAYER
  5
22A
100
AcDbSymbolTableRecord
100
AcDbLayerTableRecord
  2
_2655
 70
0
 62
7
  6
CONTINUOUS
370
-3
390
F
  0
LAYER
  5
22B
100
AcDbSymbolTableRecord
100
AcDbLayerTableRecord
  2
_29304
 70
0
 62
7
  6
CONTINUOUS
370
-3
390
F
  0
LAYER
  5
22C
100
AcDbSymbolTableRecord
100
AcDbLayerTableRecord
  2
_33869
 70
0
 62
7
  6
CONTINUOUS
370
-3
390
F
  0
LAYER
  5
22D
100
AcDbSymbolTableRecord
100
AcDbLayerTableRecord
  2
_34640
 70
0
 62
7
  6
CONTINUOUS
370
-3
390
F
  0
LAYER
  5
22E
100
AcDbSymbolTableRecord
100
AcDbLayerTableRecord
  2
_4261
 70
0
 62
7
  6
CONTINUOUS
370
-3
390
F
  0
LAYER
  5
22F
100
AcDbSymbolTableRecord
100
AcDbLayerTableRecord
  2
_45763
 70
0
 62
7
  6
CONTINUOUS
370
-3
390
F
  0
LAYER
  5
230
100
AcDbSymbolTableRecord
100
AcDbLayerTableRecord
  2
_46698
 70
0
 62
7
  6
CONTINUOUS
370
-3
390
F
  0
LAYER
  5
231
100
AcDbSymbolTableRecord
100
AcDbLayerTableRecord
  2
_47310
 70
0
 62
7
  6
CONTINUOUS
370
-3
390
F
  0
LAYER
  5
232
100
AcDbSymbolTableRecord
100
AcDbLayerTableRecord
  2
_48104
 70
0
 62
7
  6
CONTINUOUS
370
-3
390
F
  0
LAYER
  5
233
100
AcDbSymbolTableRecord
100
AcDbLayerTableRecord
  2
_48796
 70
0
 62
7
  6
CONTINUOUS
370
-3
390
F
  0
LAYER
  5
234
100
AcDbSymbolTableRecord
100
AcDbLayerTableRecord
  2
_49094
 70
0
 62
7
  6
CONTINUOUS
370
-3
390
F
  0
LAYER
  5
235
100
AcDbSymbolTableRecord
100
AcDbLayerTableRecord
  2
_5212
 70
0
 62
7
  6
CONTINUOUS
370
-3
390
F
  0
LAYER
  5
236
100
AcDbSymbolTableRecord
100
AcDbLayerTableRecord
  2
_52428
 70
0
 62
7
  6
CONTINUOUS
370
-3
390
F
  0
LAYER
  5
237
100
AcDbSymbolTableRecord
100
AcDbLayerTableRecord
  2
_55702
 70
0
 62
7
  6
CONTINUOUS
370
-3
390
F
  0
LAYER
  5
238
100
AcDbSymbolTableRecord
100
AcDbLayerTableRecord
  2
_59266
 70
0
 62
7
  6
CONTINUOUS
370
-3
390
F
  0
LAYER
  5
239
100
AcDbSymbolTableRecord
100
AcDbLayerTableRecord
  2
_59927
 70
0
 62
7
  6
CONTINUOUS
370
-3
390
F
  0
LAYER
  5
23A
100
AcDbSymbolTableRecord
100
AcDbLayerTableRecord
  2
_62068
 70
0
 62
7
  6
CONTINUOUS
370
-3
390
F
  0
LAYER
  5
23B
100
AcDbSymbolTableRecord
100
AcDbLayerTableRecord
  2
_6518
 70
0
 62
7
  6
CONTINUOUS
370
-3
390
F
  0
LAYER
  5
23C
100
AcDbSymbolTableRecord
100
AcDbLayerTableRecord
  2
_72293
 70
0
 62
7
  6
CONTINUOUS
370
-3
390
F
  0
ENDTAB
  0
TABLE
  2
STYLE
  5
3
100
AcDbSymbolTable
 70
1
  0
STYLE
  5
11
100
AcDbSymbolTableRecord
100
AcDbTextStyleTableRecord
  2
STANDARD
 70
0
 40
0.0
 41
0.8
 50
0.0
 71
0
 42
0.2
  3
txt
  4

  0
STYLE
  5
23D
100
AcDbSymbolTableRecord
100
AcDbTextStyleTableRecord
  2
TEXTSTYLE_1
 70
0
 40
0.0
 41
0.8
 50
0.0
 71
0
 42
0.2
  3
gdt
  4

  0
ENDTAB
  0
TABLE
  2
VIEW
  5
6
100
AcDbSymbolTable
 70
0
  0
ENDTAB
  0
TABLE
  2
UCS
  5
7
100
AcDbSymbolTable
 70
0
  0
ENDTAB
  0
TABLE
  2
APPID
  5
9
100
AcDbSymbolTable
 70
1
  0
APPID
  5
23E
100
AcDbSymbolTableRecord
100
AcDbRegAppTableRecord
  2
ACAD
 70
0
  0
ENDTAB
  0
TABLE
  2
BLOCK_RECORD
  5
1
100
AcDbSymbolTable
 70
0
  0
BLOCK_RECORD
  5
23F
100
AcDbSymbolTableRecord
100
AcDbBlockTableRecord
  2
*Model_Space
  0
BLOCK_RECORD
  5
240
100
AcDbSymbolTableRecord
100
AcDbBlockTableRecord
  2
*Paper_Space
  0
ENDTAB
  0
TABLE
  2
DIMSTYLE
  5
A
100
AcDbSymbolTable
 70
1
100
AcDbDimStyleTable
 71
0
  0
DIMSTYLE
105
241
100
AcDbSymbolTableRecord
100
AcDbDimStyleTableRecord
  2
STANDARD
 70
0
  3

  4

 40
1.0
 41
3.0
 42
0.5
 43
0.38
 44
1.5
 45
0.0
 46
0.0
 47
0.01
 48
0.01
140
3.0
141
0.09
142
0.0
143
25.4
144
1.0
145
0.0
146
1.0
147
0.625
 71
1.0
 72
0.0
 73
0
 74
0
 75
0
 76
0
 77
1
 78
8
170
0
171
2
172
0
173
0
174
0
175
0
176
0
177
0
178
0
270
2
271
2
272
2
273
2
274
2
275
0
280
0
281
0
282
0
283
1
284
8
285
0
286
0
287
3
288
0
340
11
278
44
  0
ENDTAB
  0
ENDSEC
  0
SECTION
  2
BLOCKS
  0
BLOCK
  5
20
100
AcDbEntity
  8
0
100
AcDbBlockBegin
  2
*Model_Space
 70
0
 10
0.0
 20
0.0
 30
0.0
  3
*Model_Space
  1

  0
ENDBLK
  5
21
100
AcDbEntity
  8
0
100
AcDbBlockEnd
  0
BLOCK
  5
1C
100
AcDbEntity
  8
0
100
AcDbBlockBegin
  2
*Paper_Space
 70
0
 10
0.0
 20
0.0
 30
0.0
  3
*Paper_Space
  1

  0
ENDBLK
  5
1D
100
AcDbEntity
  8
0
100
AcDbBlockEnd
  0
ENDSEC
  0
SECTION
  2
ENTITIES
  0
LWPOLYLINE
  5
242
100
AcDbEntity
  8
_55702
100
AcDbPolyline
 62
7
  6
CONTINUOUS
 90
25
 70
0
 10
13.3205783164
 20
-77.3697877685
 10
14.0923890991
 20
-77.3461666582
 10
14.8589831282
 20
-77.2722648952
 10
15.6203604036
 20
-77.1480824797
 10
16.3820243255
 20
-76.9722655083
 10
17.1384714938
 20
-76.7461678844
 10
17.8731917079
 20
-76.4738513177
 10
18.5846884648
 20
-76.1534439248
 10
19.2744582675
 20
-75.7868175892
 10
19.930480424
 20
-75.383649671
 10
20.5482793271
 20
-74.9468127469
 10
21.1323305839
 20
-74.4734342402
 10
21.684040324
 20
-73.9645737817
 10
22.2049551245
 20
-73.4210715174
 10
22.6935284082
 20
-72.8420873013
 10
23.1465265733
 20
-72.2261603259
 10
23.5664837942
 20
-71.569755749
 10
23.9508658966
 20
-70.8764084128
 10
24.288836756
 20
-70.1552620364
 10
24.5791800914
 20
-69.4032750266
 10
24.8231121837
 20
-68.6234889765
 10
25.013445751
 20
-67.8341723857
 10
25.1477850324
 20
-67.0414147537
 10
25.2285257887
 20
-66.2391265809
 10
25.2556680198
 20
-65.4273078672
  0
LINE
  5
243
100
AcDbEntity
  8
_29304
100
AcDbLine
 62
7
  6
CONTINUOUS
 10
-14.2328229008
 20
-77.9478610625
 11
13.8986516103
 21
-77.9478610625
  0
LINE
  5
244
100
AcDbEntity
  8
_29304
100
AcDbLine
 62
7
  6
CONTINUOUS
 10
-13.7073017245
 20
-77.4223398862
 11
13.373130434
 21
-77.4223398862
  0
LINE
  5
245
100
AcDbEntity
  8
_55702
100
AcDbLine
 62
7
  6
CONTINUOUS
 10
-13.6547496069
 20
-77.3697877685
 11
13.3205783164
 21
-77.3697877685
  0
LWPOLYLINE
  5
246
100
AcDbEntity
  8
_55702
100
AcDbPolyline
 62
253
  6
CONTINUOUS
 90
13
 70
0
 10
9.1775676042
 20
-69.2486894749
 10
9.7018279342
 20
-69.2317440876
 10
10.219512663
 20
-69.1814323305
 10
10.7306217906
 20
-69.0977542035
 10
11.2372901192
 20
-68.9800664239
 10
11.7373828465
 20
-68.8290122745
 10
12.2244955661
 20
-68.6465216034
 10
12.6984602471
 20
-68.4321874534
 10
13.1594449202
 20
-68.1864167816
 10
13.6015492717
 20
-67.9123603074
 10
14.0228065301
 20
-67.6110682705
 10
14.4251834668
 20
-67.2814904312
 10
14.8086800817
 20
-66.9236267895
  0
LINE
  5
247
100
AcDbEntity
  8
_55702
100
AcDbLine
 62
253
  6
CONTINUOUS
 10
-9.5117388947
 20
-73.2267770564
 11
9.1775676042
 21
-73.2267770564
  0
LINE
  5
248
100
AcDbEntity
  8
_55702
100
AcDbLine
 62
253
  6
CONTINUOUS
 10
9.1775676042
 20
-69.2486894749
 11
-9.5117388947
 21
-69.2486894749
  0
LWPOLYLINE
  5
249
100
AcDbEntity
  8
_55702
100
AcDbPolyline
 62
253
  6
CONTINUOUS
 90
13
 70
0
 10
-9.5117388947
 20
-73.2267770564
 10
-10.2931350287
 20
-73.1985538742
 10
-11.0707103064
 20
-73.1195603027
 10
-11.8411992051
 20
-72.9901718488
 10
-12.6013962659
 20
-72.8109864438
 10
-13.3480798443
 20
-72.5827855735
 10
-14.0780283417
 20
-72.30653994
 10
-14.7881891238
 20
-71.9834442759
 10
-15.4755784082
 20
-71.6149123434
 10
-16.1372149017
 20
-71.2025581351
 10
-16.7703058735
 20
-70.7481774738
 10
-17.3722494158
 20
-70.2537229684
 10
-17.9405415393
 20
-69.7213169565
  0
LINE
  5
24A
100
AcDbEntity
  8
_55702
100
AcDbLine
 62
7
  6
CONTINUOUS
 10
29.1940788324
 20
-66.8757587913
 11
27.7060461247
 21
-66.8757587913
  0
LINE
  5
24B
100
AcDbEntity
  8
_55702
100
AcDbLine
 62
7
  6
CONTINUOUS
 10
-28.0402174152
 20
-66.8757587913
 11
-29.5265070661
 21
-66.8757587913
  0
LINE
  5
24C
100
AcDbEntity
  8
_55702
100
AcDbLine
 62
7
  6
CONTINUOUS
 10
30.8431962123
 20
-66.8664757983
 11
29.1940788324
 21
-66.8664757983
  0
LINE
  5
24D
100
AcDbEntity
  8
_55702
100
AcDbLine
 62
7
  6
CONTINUOUS
 10
-29.5282501229
 20
-66.8664757983
 11
-31.1773675028
 21
-66.8664757983
  0
LINE
  5
24E
100
AcDbEntity
  8
_55702
100
AcDbLine
 62
7
  6
CONTINUOUS
 10
29.1923357756
 20
-66.864802582
 11
27.6840733563
 21
-66.864802582
  0
LINE
  5
24F
100
AcDbEntity
  8
_55702
100
AcDbLine
 62
7
  6
CONTINUOUS
 10
-28.0182446468
 20
-66.864802582
 11
-29.5265070661
 21
-66.864802582
  0
LINE
  5
250
100
AcDbEntity
  8
_55702
100
AcDbLine
 62
7
  6
CONTINUOUS
 10
-26.580749932
 20
-65.4273078672
 11
-25.589009553
 21
-65.4273078672
  0
LINE
  5
251
100
AcDbEntity
  8
_55702
100
AcDbLine
 62
7
  6
CONTINUOUS
 10
25.2548382625
 20
-65.4273078672
 11
26.2465786414
 21
-65.4273078672
  0
LINE
  5
252
100
AcDbEntity
  8
_55702
100
AcDbLine
 62
7
  6
CONTINUOUS
 10
-27.9313559984
 20
-65.2696515143
 11
-25.4313559984
 21
-65.2696515143
  0
LINE
  5
253
100
AcDbEntity
  8
_55702
100
AcDbLine
 62
7
  6
CONTINUOUS
 10
25.0971847079
 20
-65.2696515143
 11
27.5971847079
 21
-65.2696515143
  0
LINE
  5
254
100
AcDbEntity
  8
_55702
100
AcDbLine
 62
253
  6
CONTINUOUS
 10
21.1118303486
 20
-61.292514312
 11
17.1337427672
 21
-61.292514312
  0
LINE
  5
255
100
AcDbEntity
  8
_55702
100
AcDbLine
 62
253
  6
CONTINUOUS
 10
-17.4679140577
 20
-61.292514312
 11
-21.4460016392
 21
-61.292514312
  0
LWPOLYLINE
  5
256
100
AcDbEntity
  8
_55702
100
AcDbPolyline
 62
253
  6
CONTINUOUS
 90
13
 70
0
 10
-15.1428513723
 20
-66.9236267895
 10
-14.7593547573
 20
-67.2814904312
 10
-14.3569778206
 20
-67.6110682705
 10
-13.9357205622
 20
-67.9123603074
 10
-13.4936162108
 20
-68.1864167816
 10
-13.0326315376
 20
-68.4321874534
 10
-12.5586668566
 20
-68.6465216034
 10
-12.071554137
 20
-68.8290122745
 10
-11.5714614097
 20
-68.9800664239
 10
-11.0647930811
 20
-69.0977542035
 10
-10.5536839535
 20
-69.1814323305
 10
-10.0359992247
 20
-69.2317440876
 10
-9.5117388947
 20
-69.2486894749
  0
LWPOLYLINE
  5
257
100
AcDbEntity
  8
_55702
100
AcDbPolyline
 62
253
  6
CONTINUOUS
 90
13
 70
0
 10
-17.9405415393
 20
-69.7213169565
 10
-18.4729475513
 20
-69.1530248329
 10
-18.9674020568
 20
-68.5510812905
 10
-19.4217827181
 20
-67.9179903187
 10
-19.8341369264
 20
-67.2563538251
 10
-20.2026688589
 20
-66.5689645406
 10
-20.5257645229
 20
-65.8588037585
 10
-20.8020101564
 20
-65.1288552612
 10
-21.0302110266
 20
-64.3821716828
 10
-21.2093964317
 20
-63.621974622
 10
-21.3387848855
 20
-62.8514857234
 10
-21.417778457
 20
-62.0739104458
 10
-21.4460016392
 20
-61.292514312
  0
LWPOLYLINE
  5
258
100
AcDbEntity
  8
_55702
100
AcDbPolyline
 62
253
  6
CONTINUOUS
 90
13
 70
0
 10
-17.9405415393
 20
59.8255948315
 10
-17.3722494157
 20
60.3580008436
 10
-16.7703058733
 20
60.852455349
 10
-16.1372149015
 20
61.3068360103
 10
-15.4755784079
 20
61.7191902187
 10
-14.7881891234
 20
62.0877221511
 10
-14.0780283413
 20
62.4108178151
 10
-13.348079844
 20
62.6870634487
 10
-12.6013962656
 20
62.9152643189
 10
-11.8411992048
 20
63.0944497239
 10
-11.0707103062
 20
63.2238381778
 10
-10.2931350286
 20
63.3028317492
 10
-9.5117388947
 20
63.3310549314
  0
LWPOLYLINE
  5
259
100
AcDbEntity
  8
_55702
100
AcDbPolyline
 62
253
  6
CONTINUOUS
 90
13
 70
0
 10
-15.1428513723
 20
57.0279046645
 10
-15.500715014
 20
56.6444080496
 10
-15.8302928533
 20
56.2420311129
 10
-16.1315848902
 20
55.8207738545
 10
-16.4056413644
 20
55.378669503
 10
-16.6514120362
 20
54.9176848298
 10
-16.8657461862
 20
54.4437201489
 10
-17.0482368573
 20
53.9566074293
 10
-17.1992910067
 20
53.4565147019
 10
-17.3169787862
 20
52.9498463734
 10
-17.4006569132
 20
52.4387372458
 10
-17.4509686704
 20
51.921052517
 10
-17.4679140577
 20
51.396792187
  0
LINE
  5
25A
100
AcDbEntity
  8
_29304
100
AcDbLine
 62
253
  6
CONTINUOUS
 10
13.8986516103
 20
-77.9478610625
 11
13.373130434
 21
-77.4223398862
  0
LINE
  5
25B
100
AcDbEntity
  8
_55702
100
AcDbLine
 62
253
  6
CONTINUOUS
 10
13.3205783164
 20
-77.3697877685
 11
9.1775676042
 21
-73.2267770564
  0
LINE
  5
25C
100
AcDbEntity
  8
_55702
100
AcDbLine
 62
7
  6
CONTINUOUS
 10
-35.8233418845
 20
54.5816244884
 11
-31.1773675028
 21
-66.8664757983
  0
LINE
  5
25D
100
AcDbEntity
  8
_55702
100
AcDbLine
 62
253
  6
CONTINUOUS
 10
9.1775676042
 20
63.3310549314
 11
13.1629219635
 21
67.3164092907
  0
LINE
  5
25E
100
AcDbEntity
  8
_55702
100
AcDbLine
 62
253
  6
CONTINUOUS
 10
14.8086800817
 20
-66.9236267895
 11
17.6063741663
 21
-69.721320874
  0
LINE
  5
25F
100
AcDbEntity
  8
_55702
100
AcDbLine
 62
7
  6
CONTINUOUS
 10
-29.5282501229
 20
-66.8664757983
 11
-34.1742245046
 21
54.5816244884
  0
LWPOLYLINE
  5
260
100
AcDbEntity
  8
_55702
100
AcDbPolyline
 62
7
  6
CONTINUOUS
 90
10
 70
0
 10
-34.2157748608
 20
55.9740656436
 10
-34.2192305157
 20
56.1963727622
 10
-34.2195880667
 20
56.4197283713
 10
-34.2168475139
 20
56.6440191772
 10
-34.2110099965
 20
56.8691730415
 10
-34.2020743752
 20
57.095033386
 10
-34.1900372325
 20
57.3213582733
 10
-34.1748974293
 20
57.5479888453
 10
-34.1566561047
 20
57.7748503612
 10
-34.1353132587
 20
58.0018259217
  0
LINE
  5
261
100
AcDbEntity
  8
_55702
100
AcDbLine
 62
253
  6
CONTINUOUS
 10
14.8086800817
 20
57.0279046645
 11
17.6063741663
 21
59.8255987491
  0
LINE
  5
262
100
AcDbEntity
  8
_55702
100
AcDbLine
 62
253
  6
CONTINUOUS
 10
21.1118303486
 20
-61.292514312
 11
25.0971847079
 21
-65.2778686712
  0
LINE
  5
263
100
AcDbEntity
  8
_29304
100
AcDbLine
 62
253
  6
CONTINUOUS
 10
25.3073931784
 20
-65.4880771417
 11
25.8329143547
 21
-66.0135983181
  0
LINE
  5
264
100
AcDbEntity
  8
_55702
100
AcDbLine
 62
7
  6
CONTINUOUS
 10
25.0971819096
 20
-65.2696515143
 11
25.2548382625
 21
-65.4273078672
  0
LWPOLYLINE
  5
265
100
AcDbEntity
  8
_55702
100
AcDbPolyline
 62
7
  6
CONTINUOUS
 90
25
 70
0
 10
-25.5898045077
 20
-65.4273078672
 10
-25.5658313279
 20
-66.2027707197
 10
-25.4916655128
 20
-66.9721038011
 10
-25.3673070625
 20
-67.7353071114
 10
-25.1914314129
 20
-68.4975797116
 10
-24.965363128
 20
-69.2537225407
 10
-24.6930759004
 20
-69.9881384156
 10
-24.3726685075
 20
-70.6996351725
 10
-24.0060421719
 20
-71.3894049753
 10
-23.6028742538
 20
-72.0454271317
 10
-23.1660373296
 20
-72.6632260348
 10
-22.6926588229
 20
-73.2472772917
 10
-22.1837983644
 20
-73.7989870318
 10
-21.6402961002
 20
-74.3199018322
 10
-21.0613118841
 20
-74.8084751159
 10
-20.4453849087
 20
-75.2614732811
 10
-19.7889803318
 20
-75.681430502
 10
-19.0956329956
 20
-76.0658126044
 10
-18.3744866192
 20
-76.4037834637
 10
-17.6221952702
 20
-76.6941574273
 10
-16.842104881
 20
-76.9381201477
 10
-16.0533969684
 20
-77.1283924587
 10
-15.2624653714
 20
-77.2625479714
 10
-14.4629162508
 20
-77.3430130747
 10
-13.6547496069
 20
-77.3697877685
  0
LINE
  5
266
100
AcDbEntity
  8
_55702
100
AcDbLine
 62
7
  6
CONTINUOUS
 10
-27.9313559984
 20
55.9740656436
 11
-27.9313559984
 21
-65.2696515143
  0
LINE
  5
267
100
AcDbEntity
  8
_29304
100
AcDbLine
 62
7
  6
CONTINUOUS
 10
-26.1670856453
 20
-65.4273078672
 11
-26.1670856453
 21
-66.0135983181
  0
LINE
  5
268
100
AcDbEntity
  8
_29304
100
AcDbLine
 62
7
  6
CONTINUOUS
 10
-25.6415644689
 20
-65.4273078672
 11
-25.6415644689
 21
-65.4880771417
  0
LINE
  5
269
100
AcDbEntity
  8
_55702
100
AcDbLine
 62
7
  6
CONTINUOUS
 10
-25.4313559984
 20
55.3821465462
 11
-25.4313559984
 21
-65.2778686712
  0
LWPOLYLINE
  5
26A
100
AcDbEntity
  8
_55702
100
AcDbPolyline
 62
253
  6
CONTINUOUS
 90
13
 70
0
 10
-21.4460016392
 20
51.396792187
 10
-21.4177784569
 20
52.178188321
 10
-21.3387848855
 20
52.9557635987
 10
-21.2093964316
 20
53.7262524974
 10
-21.0302110265
 20
54.4864495582
 10
-20.8020101563
 20
55.2331331366
 10
-20.5257645227
 20
55.9630816339
 10
-20.2026688587
 20
56.673242416
 10
-19.8341369262
 20
57.3606317004
 10
-19.4217827179
 20
58.022268194
 10
-18.9674020566
 20
58.6553591657
 10
-18.4729475512
 20
59.2573027081
 10
-17.9405415393
 20
59.8255948315
  0
LINE
  5
26B
100
AcDbEntity
  8
_55702
100
AcDbLine
 62
7
  6
CONTINUOUS
 10
27.6840733563
 20
-66.864802582
 11
26.2465786414
 21
-65.4273078672
  0
LINE
  5
26C
100
AcDbEntity
  8
_55702
100
AcDbLine
 62
7
  6
CONTINUOUS
 10
29.1923357756
 20
-66.864802582
 11
27.5971847079
 21
-65.2696515143
  0
LWPOLYLINE
  5
26D
100
AcDbEntity
  8
_55702
100
AcDbPolyline
 62
253
  6
CONTINUOUS
 90
13
 70
0
 10
-17.4679140577
 20
-61.292514312
 10
-17.4509686704
 20
-61.816774642
 10
-17.4006569132
 20
-62.3344593707
 10
-17.3169787862
 20
-62.8455684983
 10
-17.1992910067
 20
-63.3522368269
 10
-17.0482368573
 20
-63.8523295543
 10
-16.8657461862
 20
-64.3394422739
 10
-16.6514120362
 20
-64.8134069548
 10
-16.4056413644
 20
-65.274391628
 10
-16.1315848902
 20
-65.7164959794
 10
-15.8302928533
 20
-66.1377532379
 10
-15.500715014
 20
-66.5401301745
 10
-15.1428513723
 20
-66.9236267895
  0
LINE
  5
26E
100
AcDbEntity
  8
_55702
100
AcDbLine
 62
253
  6
CONTINUOUS
 10
-21.4460016392
 20
51.396792187
 11
-21.4460016392
 21
-61.292514312
  0
LINE
  5
26F
100
AcDbEntity
  8
_55702
100
AcDbLine
 62
253
  6
CONTINUOUS
 10
-17.4679140577
 20
-61.292514312
 11
-17.4679140577
 21
51.396792187
  0
LINE
  5
270
100
AcDbEntity
  8
_55702
100
AcDbLine
 62
253
  6
CONTINUOUS
 10
25.0971847079
 20
55.3821465462
 11
21.1118303486
 21
51.396792187
  0
LINE
  5
271
100
AcDbEntity
  8
_55702
100
AcDbLine
 62
253
  6
CONTINUOUS
 10
-14.0890123513
 20
69.8164092907
 11
-14.0890123513
 21
76.1226634066
  0
LINE
  5
272
100
AcDbEntity
  8
_55702
100
AcDbLine
 62
253
  6
CONTINUOUS
 10
-9.5117388947
 20
-73.2267770564
 11
-9.5117388947
 21
-69.2486894749
  0
LINE
  5
273
100
AcDbEntity
  8
_55702
100
AcDbLine
 62
253
  6
CONTINUOUS
 10
-9.5117388947
 20
59.3529673499
 11
-9.5117388947
 21
63.3310549314
  0
LINE
  5
274
100
AcDbEntity
  8
_55702
100
AcDbLine
 62
253
  6
CONTINUOUS
 10
9.1775676042
 20
63.3310549314
 11
9.1775676042
 21
59.3529673499
  0
LINE
  5
275
100
AcDbEntity
  8
_55702
100
AcDbLine
 62
253
  6
CONTINUOUS
 10
9.1775676042
 20
-69.2486894749
 11
9.1775676042
 21
-73.2267770564
  0
LINE
  5
276
100
AcDbEntity
  8
_55702
100
AcDbLine
 62
253
  6
CONTINUOUS
 10
13.7548410608
 20
76.1226634066
 11
13.7548410608
 21
69.8164092907
  0
LINE
  5
277
100
AcDbEntity
  8
_55702
100
AcDbLine
 62
253
  6
CONTINUOUS
 10
17.1337427672
 20
51.396792187
 11
17.1337427672
 21
-61.292514312
  0
LWPOLYLINE
  5
278
100
AcDbEntity
  8
_55702
100
AcDbPolyline
 62
253
  6
CONTINUOUS
 90
13
 70
0
 10
17.1337427672
 20
51.396792187
 10
17.1167973799
 20
51.921052517
 10
17.0664856227
 20
52.4387372458
 10
16.9828074957
 20
52.9498463734
 10
16.8651197162
 20
53.4565147019
 10
16.7140655668
 20
53.9566074293
 10
16.5315748956
 20
54.4437201489
 10
16.3172407456
 20
54.9176848298
 10
16.0714700739
 20
55.378669503
 10
15.7974135996
 20
55.8207738545
 10
15.4961215628
 20
56.2420311129
 10
15.1665437235
 20
56.6444080496
 10
14.8086800817
 20
57.0279046645
  0
LINE
  5
279
100
AcDbEntity
  8
_55702
100
AcDbLine
 62
253
  6
CONTINUOUS
 10
21.1118303486
 20
-61.292514312
 11
21.1118303486
 21
51.396792187
  0
LWPOLYLINE
  5
27A
100
AcDbEntity
  8
_55702
100
AcDbPolyline
 62
253
  6
CONTINUOUS
 90
13
 70
0
 10
21.1118303486
 20
-61.292514312
 10
21.0836071664
 20
-62.0739104459
 10
21.004613595
 20
-62.8514857236
 10
20.8752251411
 20
-63.6219746223
 10
20.696039736
 20
-64.3821716831
 10
20.4678388657
 20
-65.1288552616
 10
20.1915932322
 20
-65.8588037589
 10
19.8684975682
 20
-66.568964541
 10
19.4999656357
 20
-67.2563538254
 10
19.0876114274
 20
-67.917990319
 10
18.6332307661
 20
-68.5510812907
 10
18.1387762607
 20
-69.153024833
 10
17.6063702488
 20
-69.7213169565
  0
LINE
  5
27B
100
AcDbEntity
  8
_55702
100
AcDbLine
 62
253
  6
CONTINUOUS
 10
-21.4460016392
 20
51.396792187
 11
-25.4313559984
 21
55.3821465462
  0
LINE
  5
27C
100
AcDbEntity
  8
_55702
100
AcDbLine
 62
7
  6
CONTINUOUS
 10
25.0971847079
 20
-65.2778686712
 11
25.0971847079
 21
55.3821465462
  0
LINE
  5
27D
100
AcDbEntity
  8
_29304
100
AcDbLine
 62
7
  6
CONTINUOUS
 10
25.3073931784
 20
-65.4880771417
 11
25.3073931784
 21
-65.4273078672
  0
LINE
  5
27E
100
AcDbEntity
  8
_29304
100
AcDbLine
 62
7
  6
CONTINUOUS
 10
25.8329143547
 20
-66.0135983181
 11
25.8329143547
 21
-65.4273078672
  0
LINE
  5
27F
100
AcDbEntity
  8
_55702
100
AcDbLine
 62
7
  6
CONTINUOUS
 10
27.5971847079
 20
-65.2696515143
 11
27.5971847079
 21
55.9740656436
  0
LINE
  5
280
100
AcDbEntity
  8
_55702
100
AcDbLine
 62
7
  6
CONTINUOUS
 10
-29.5282475496
 20
-66.8665430655
 11
-27.9313559984
 21
-65.2696515143
  0
LINE
  5
281
100
AcDbEntity
  8
_55702
100
AcDbLine
 62
7
  6
CONTINUOUS
 10
-28.0182446468
 20
-66.864802582
 11
-26.580749932
 21
-65.4273078672
  0
LINE
  5
282
100
AcDbEntity
  8
_55702
100
AcDbLine
 62
7
  6
CONTINUOUS
 10
-25.589009553
 20
-65.4273078672
 11
-25.4313532001
 21
-65.2696515143
  0
LINE
  5
283
100
AcDbEntity
  8
_29304
100
AcDbLine
 62
253
  6
CONTINUOUS
 10
-26.1670856453
 20
-66.0135983181
 11
-25.6415644689
 21
-65.4880771417
  0
LINE
  5
284
100
AcDbEntity
  8
_55702
100
AcDbLine
 62
253
  6
CONTINUOUS
 10
-25.4313559984
 20
-65.2778686712
 11
-21.4460016392
 21
-61.292514312
  0
LINE
  5
285
100
AcDbEntity
  8
_55702
100
AcDbLine
 62
7
  6
CONTINUOUS
 10
33.8400532141
 20
54.5816244884
 11
29.1940788324
 21
-66.8664757983
  0
LINE
  5
286
100
AcDbEntity
  8
_55702
100
AcDbLine
 62
7
  6
CONTINUOUS
 10
30.8431962123
 20
-66.8664757983
 11
35.489170594
 21
54.5816244884
  0
LINE
  5
287
100
AcDbEntity
  8
_55702
100
AcDbLine
 62
253
  6
CONTINUOUS
 10
-15.1428513723
 20
57.0279046645
 11
-17.9405454568
 21
59.8255987491
  0
LWPOLYLINE
  5
288
100
AcDbEntity
  8
_55702
100
AcDbPolyline
 62
7
  6
CONTINUOUS
 90
10
 70
0
 10
33.8011419682
 20
58.0018259217
 10
33.8224848142
 20
57.7748503611
 10
33.8407261388
 20
57.5479888453
 10
33.855865942
 20
57.3213582733
 10
33.8679030847
 20
57.095033386
 10
33.876838706
 20
56.8691730414
 10
33.8826762234
 20
56.6440191772
 10
33.8854167762
 20
56.4197283712
 10
33.8850592251
 20
56.1963727621
 10
33.8816035702
 20
55.9740656436
  0
LINE
  5
289
100
AcDbEntity
  8
_55702
100
AcDbLine
 62
253
  6
CONTINUOUS
 10
-15.1428513723
 20
-66.9236267895
 11
-17.9405454568
 21
-69.721320874
  0
LINE
  5
28A
100
AcDbEntity
  8
_55702
100
AcDbLine
 62
253
  6
CONTINUOUS
 10
-13.497093254
 20
67.3164092907
 11
-9.5117388947
 21
63.3310549314
  0
LINE
  5
28B
100
AcDbEntity
  8
_55702
100
AcDbLine
 62
253
  6
CONTINUOUS
 10
-9.5117388947
 20
-73.2267770564
 11
-13.6547496069
 21
-77.3697877685
  0
LINE
  5
28C
100
AcDbEntity
  8
_29304
100
AcDbLine
 62
253
  6
CONTINUOUS
 10
-13.7073017245
 20
-77.4223398862
 11
-14.2328229008
 21
-77.9478610625
  0
LINE
  5
28D
100
AcDbEntity
  8
_55702
100
AcDbLine
 62
253
  6
CONTINUOUS
 10
-21.4460016392
 20
51.396792187
 11
-17.4679140577
 21
51.396792187
  0
LINE
  5
28E
100
AcDbEntity
  8
_55702
100
AcDbLine
 62
253
  6
CONTINUOUS
 10
17.1337427672
 20
51.396792187
 11
21.1118303486
 21
51.396792187
  0
LWPOLYLINE
  5
28F
100
AcDbEntity
  8
_55702
100
AcDbPolyline
 62
253
  6
CONTINUOUS
 90
13
 70
0
 10
14.8086800817
 20
57.0279046645
 10
14.4251834668
 20
57.3857683063
 10
14.0228065301
 20
57.7153461456
 10
13.6015492717
 20
58.0166381824
 10
13.1594449202
 20
58.2906946566
 10
12.6984602471
 20
58.5364653284
 10
12.2244955661
 20
58.7507994784
 10
11.7373828465
 20
58.9332901496
 10
11.2372901192
 20
59.0843442989
 10
10.7306217906
 20
59.2020320785
 10
10.219512663
 20
59.2857102055
 10
9.7018279342
 20
59.3360219626
 10
9.1775676042
 20
59.3529673499
  0
LWPOLYLINE
  5
290
100
AcDbEntity
  8
_55702
100
AcDbPolyline
 62
253
  6
CONTINUOUS
 90
13
 70
0
 10
14.8086800817
 20
-66.9236267895
 10
15.1665437235
 20
-66.5401301745
 10
15.4961215628
 20
-66.1377532379
 10
15.7974135996
 20
-65.7164959794
 10
16.0714700739
 20
-65.274391628
 10
16.3172407456
 20
-64.8134069548
 10
16.5315748956
 20
-64.3394422739
 10
16.7140655668
 20
-63.8523295543
 10
16.8651197162
 20
-63.3522368269
 10
16.9828074957
 20
-62.8455684983
 10
17.0664856227
 20
-62.3344593707
 10
17.1167973799
 20
-61.816774642
 10
17.1337427672
 20
-61.292514312
  0
LINE
  5
291
100
AcDbEntity
  8
_55702
100
AcDbLine
 62
253
  6
CONTINUOUS
 10
-35.8233418845
 20
54.5816244884
 11
-34.1742245046
 21
54.5816244884
  0
LINE
  5
292
100
AcDbEntity
  8
_55702
100
AcDbLine
 62
253
  6
CONTINUOUS
 10
33.8400532141
 20
54.5816244884
 11
35.489170594
 21
54.5816244884
  0
LINE
  5
293
100
AcDbEntity
  8
_55702
100
AcDbLine
 62
253
  6
CONTINUOUS
 10
-34.2157748608
 20
55.9740656436
 11
-27.9313559984
 21
55.9740656436
  0
LINE
  5
294
100
AcDbEntity
  8
_55702
100
AcDbLine
 62
253
  6
CONTINUOUS
 10
27.5971847079
 20
55.9740656436
 11
33.8816035702
 21
55.9740656436
  0
LWPOLYLINE
  5
295
100
AcDbEntity
  8
_55702
100
AcDbPolyline
 62
253
  6
CONTINUOUS
 90
13
 70
0
 10
17.6063702488
 20
59.8255948315
 10
18.1387762608
 20
59.257302708
 10
18.6332307662
 20
58.6553591656
 10
19.0876114276
 20
58.0222681937
 10
19.4999656359
 20
57.3606317001
 10
19.8684975684
 20
56.6732424157
 10
20.1915932324
 20
55.9630816335
 10
20.4678388659
 20
55.2331331362
 10
20.6960397361
 20
54.4864495578
 10
20.8752251411
 20
53.7262524971
 10
21.004613595
 20
52.9557635984
 10
21.0836071664
 20
52.1781883208
 10
21.1118303486
 20
51.396792187
  0
LWPOLYLINE
  5
296
100
AcDbEntity
  8
_55702
100
AcDbPolyline
 62
253
  6
CONTINUOUS
 90
13
 70
0
 10
17.6063702488
 20
-69.7213169565
 10
17.0380781252
 20
-70.2537229685
 10
16.4361345828
 20
-70.748177474
 10
15.803043611
 20
-71.2025581353
 10
15.1414071173
 20
-71.6149123436
 10
14.4540178329
 20
-71.9834442761
 10
13.7438570507
 20
-72.3065399401
 10
13.0139085534
 20
-72.5827855736
 10
12.267224975
 20
-72.8109864439
 10
11.5070279143
 20
-72.9901718489
 10
10.7365390157
 20
-73.1195603028
 10
9.958963738
 20
-73.1985538742
 10
9.1775676042
 20
-73.2267770564
  0
LWPOLYLINE
  5
297
100
AcDbEntity
  8
_55702
100
AcDbPolyline
 62
253
  6
CONTINUOUS
 90
13
 70
0
 10
-9.5117388947
 20
59.3529673499
 10
-10.0359992247
 20
59.3360219626
 10
-10.5536839535
 20
59.2857102055
 10
-11.0647930811
 20
59.2020320785
 10
-11.5714614097
 20
59.0843442989
 10
-12.0715541371
 20
58.9332901496
 10
-12.5586668566
 20
58.7507994784
 10
-13.0326315376
 20
58.5364653284
 10
-13.4936162108
 20
58.2906946566
 10
-13.9357205622
 20
58.0166381824
 10
-14.3569778206
 20
57.7153461456
 10
-14.7593547573
 20
57.3857683063
 10
-15.1428513723
 20
57.0279046645
  0
LINE
  5
298
100
AcDbEntity
  8
_55702
100
AcDbLine
 62
253
  6
CONTINUOUS
 10
35.466609916
 20
58.0018259217
 11
33.8011419682
 21
58.0018259217
  0
LINE
  5
299
100
AcDbEntity
  8
_55702
100
AcDbLine
 62
253
  6
CONTINUOUS
 10
-34.1353132587
 20
58.0018259217
 11
-35.8007812065
 21
58.0018259217
  0
LINE
  5
29A
100
AcDbEntity
  8
_55702
100
AcDbLine
 62
253
  6
CONTINUOUS
 10
-9.5117388947
 20
59.3529673499
 11
9.1775676042
 21
59.3529673499
  0
LINE
  5
29B
100
AcDbEntity
  8
_55702
100
AcDbLine
 62
253
  6
CONTINUOUS
 10
9.1775676042
 20
63.3310549314
 11
-9.5117388947
 21
63.3310549314
  0
LINE
  5
29C
100
AcDbEntity
  8
_55702
100
AcDbLine
 62
7
  6
CONTINUOUS
 10
13.1629219635
 20
67.3164092907
 11
-13.497093254
 21
67.3164092907
  0
LWPOLYLINE
  5
29D
100
AcDbEntity
  8
_55702
100
AcDbPolyline
 62
253
  6
CONTINUOUS
 90
13
 70
0
 10
9.1775676042
 20
63.3310549314
 10
9.9589637382
 20
63.3028317492
 10
10.7365390159
 20
63.2238381778
 10
11.5070279146
 20
63.0944497239
 10
12.2672249754
 20
62.9152643188
 10
13.0139085538
 20
62.6870634485
 10
13.7438570511
 20
62.410817815
 10
14.4540178333
 20
62.087722151
 10
15.1414071177
 20
61.7191902185
 10
15.8030436112
 20
61.3068360102
 10
16.436134583
 20
60.8524553489
 10
17.0380781253
 20
60.3580008435
 10
17.6063702488
 20
59.8255948315
  0
LINE
  5
29E
100
AcDbEntity
  8
_55702
100
AcDbLine
 62
7
  6
CONTINUOUS
 10
13.7548410608
 20
69.8164092907
 11
-14.0890123513
 21
69.8164092907
  0
LINE
  5
29F
100
AcDbEntity
  8
_55702
100
AcDbLine
 62
7
  6
CONTINUOUS
 10
13.7548410608
 20
76.1226634066
 11
-14.0890123513
 21
76.1226634066
  0
LINE
  5
2A0
100
AcDbEntity
  8
_55702
100
AcDbLine
 62
7
  6
CONTINUOUS
 10
-14.0890123513
 20
77.7803197595
 11
13.7548410608
 21
77.7803197595
  0
ARC
  5
2A1
100
AcDbEntity
  8
_55702
100
AcDbCircle
 62
7
  6
CONTINUOUS
 10
13.7548410608
 20
55.9740656436
 40
21.8062541159
100
AcDbArc
 50
1.1434846302
 51
90.0
  0
ARC
  5
2A2
100
AcDbEntity
  8
_55702
100
AcDbCircle
 62
7
  6
CONTINUOUS
 10
-14.0890123513
 20
55.9740656436
 40
21.8062541159
100
AcDbArc
 50
90.0
 51
178.8565153698
  0
ARC
  5
2A3
100
AcDbEntity
  8
_55702
100
AcDbCircle
 62
7
  6
CONTINUOUS
 10
-14.0890123513
 20
55.9740656436
 40
20.148597763
100
AcDbArc
 50
90.0
 51
174.2239588648
  0
ARC
  5
2A4
100
AcDbEntity
  8
_55702
100
AcDbCircle
 62
7
  6
CONTINUOUS
 10
13.7548410608
 20
55.9740656436
 40
20.148597763
100
AcDbArc
 50
5.7760411352
 51
90.0
  0
ARC
  5
2A5
100
AcDbEntity
  8
_55702
100
AcDbCircle
 62
7
  6
CONTINUOUS
 10
13.7548410608
 20
55.9740656436
 40
13.8423436471
100
AcDbArc
 50
0.0
 51
90.0
  0
ARC
  5
2A6
100
AcDbEntity
  8
_55702
100
AcDbCircle
 62
7
  6
CONTINUOUS
 10
-14.0890123513
 20
55.9740656436
 40
13.8423436471
100
AcDbArc
 50
90.0
 51
180.0
  0
ELLIPSE
  5
2A7
100
AcDbEntity
  8
_29304
100
AcDbEllipse
 62
7
  6
CONTINUOUS
 10
-14.1009862905
 20
-65.8817617077
 30
0.0
 11
-8.5785053266
 21
-8.5785053266
 31
0.0
 40
0.9891328444
 41
-0.7799349549
 42
0.7799349549
  0
ELLIPSE
  5
2A8
100
AcDbEntity
  8
_29304
100
AcDbEllipse
 62
7
  6
CONTINUOUS
 10
13.766815
 20
-65.8817617077
 30
0.0
 11
8.5785053266
 21
-8.5785053266
 31
0.0
 40
0.9891328444
 41
-0.7799349549
 42
0.7799349549
  0
ELLIPSE
  5
2A9
100
AcDbEntity
  8
_29304
100
AcDbEllipse
 62
7
  6
CONTINUOUS
 10
-13.5754651142
 20
-65.3562405314
 30
0.0
 11
-8.5785053266
 21
-8.5785053266
 31
0.0
 40
0.9891328444
 41
-0.7799349549
 42
0.7799349549
  0
ELLIPSE
  5
2AA
100
AcDbEntity
  8
_29304
100
AcDbEllipse
 62
7
  6
CONTINUOUS
 10
13.2412938236
 20
-65.3562405314
 30
0.0
 11
8.5785053266
 21
-8.5785053266
 31
0.0
 40
0.9891328444
 41
-0.7799349549
 42
0.7799349549
  0
ELLIPSE
  5
2AB
100
AcDbEntity
  8
_55702
100
AcDbEllipse
 62
7
  6
CONTINUOUS
 10
-28.0402174152
 20
-64.8757587913
 30
0.0
 11
0.0
 21
2.0
 31
0.0
 40
0.1051042353
 41
-3.1415926536
 42
-3.0368728985
  0
ELLIPSE
  5
2AC
100
AcDbEntity
  8
_55702
100
AcDbEllipse
 62
7
  6
CONTINUOUS
 10
27.7060461247
 20
-64.8757587913
 30
0.0
 11
0.0
 21
2.0
 31
0.0
 40
0.1051042353
 41
-3.2463124087
 42
-3.1415926536
  0
ELLIPSE
  5
2AD
100
AcDbEntity
  8
_55702
100
AcDbEllipse
 62
7
  6
CONTINUOUS
 10
-13.3652566436
 20
55.2503099359
 30
0.0
 11
8.5785053266
 21
-8.5785053266
 31
0.0
 40
0.9891328444
 41
2.3616576987
 42
3.9215276085
  0
ELLIPSE
  5
2AE
100
AcDbEntity
  8
_55702
100
AcDbEllipse
 62
7
  6
CONTINUOUS
 10
13.0310853531
 20
55.2503099359
 30
0.0
 11
-8.5785053266
 21
-8.5785053266
 31
0.0
 40
0.9891328444
 41
2.3616576987
 42
3.9215276085
  0
ELLIPSE
  5
2AF
100
AcDbEntity
  8
_55702
100
AcDbEllipse
 62
7
  6
CONTINUOUS
 10
-33.1865677617
 20
58.0018259217
 30
0.0
 11
-0.0
 21
10.0
 31
0.0
 40
0.1051042353
 41
-4.5081969645
 42
-4.36332313
  0
ELLIPSE
  5
2B0
100
AcDbEntity
  8
_55702
100
AcDbEllipse
 62
7
  6
CONTINUOUS
 10
-35.8233418845
 20
58.0018259217
 30
0.0
 11
-0.337849484
 21
9.9999991393
 31
0.0
 40
0.0122808444
 41
-4.5528639327
 42
-4.3637380377
  0
ELLIPSE
  5
2B1
100
AcDbEntity
  8
_55702
100
AcDbEllipse
 62
7
  6
CONTINUOUS
 10
35.489170594
 20
58.0018259217
 30
0.0
 11
0.337849484
 21
9.9999991393
 31
0.0
 40
0.0122808444
 41
-1.9194472695
 42
-1.7303213745
  0
ELLIPSE
  5
2B2
100
AcDbEntity
  8
_55702
100
AcDbEllipse
 62
7
  6
CONTINUOUS
 10
32.8523964712
 20
58.0018259217
 30
0.0
 11
0.0
 21
10.0
 31
0.0
 40
0.1051042353
 41
-1.9198621772
 42
-1.7749883427
  0
ENDSEC
  0
SECTION
  2
OBJECTS
  0
DICTIONARY
  5
C
100
AcDbDictionary
280
0
281
1
  3
ACAD_GROUP
350
D
  3
ACAD_MLINESTYLE
350
17
  3
ACAD_LAYOUT
350
1A
  3
ACAD_PLOTSETTINGS
350
19
  3
ACAD_PLOTSTYLENAME
350
E
  0
DICTIONARY
  5
D
102
{ACAD_REACTORS
330
C
102
}
100
AcDbDictionary
280
0
281
1
  0
ACDBDICTIONARYWDFLT
  5
E
102
{ACAD_REACTORS
330
C
102
}
100
AcDbDictionary
281
1
  3
Normal
350
F
100
AcDbDictionaryWithDefault
340
F
  0
DICTIONARY
  5
17
102
{ACAD_REACTORS
330
C
102
}
100
AcDbDictionary
280
0
281
1
  3
Standard
350
18
  0
DICTIONARY
  5
19
102
{ACAD_REACTORS
330
C
102
}
100
AcDbDictionary
281
1
  0
DICTIONARY
  5
1A
102
{ACAD_REACTORS
330
C
102
}
100
AcDbDictionary
281
1
  3
Model
350
2B3
  3
Layout1
350
2B4
  0
ACDBPLACEHOLDER
  5
F
102
{ACAD_REACTORS
330
E
102
}
  0
MLINESTYLE
  5
18
102
{ACAD_REACTORS
330
17
102
}
100
AcDbMlineStyle
  2
STANDARD
 70
0
  3

 62
256
 51
90.0
 52
90.0
 71
2
 49
0.5
 62
256
  6
BYLAYER
 49
-0.5
 62
256
  6
BYLAYER
  0
LAYOUT
  5
2B3
102
{ACAD_REACTORS
330
1A
102
}
100
AcDbPlotSettings
  1

  2
none_device
  4
ISO_A4_(297.00_x_210.00_MM)
  6

 40
0.0
 41
0.0
 42
0.0
 43
0.0
 44
297.0
 45
210.0
 46
0.0
 47
0.0
 48
0.0
 49
0.0
140
0.0
141
0.0
142
1.0
143
1.0
 70
1024
 72
1
 73
0
 74
0
  7

 75
0
147
1.0
148
0.0
149
0.0
100
AcDbLayout
  1
Model
 70
0
 71
0
 10
0.0
 20
0.0
 11
297.0
 21
210.0
 12
0.0
 22
0.0
 32
0.0
 14
0.0
 24
0.0
 34
0.0
 15
0.0
 25
0.0
 35
0.0
146
0.0
 13
0.0
 23
0.0
 33
0.0
 16
1.0
 26
0.0
 36
0.0
 17
0.0
 27
1.0
 37
0.0
 76
0
330
23F
345
0
346
0
  0
LAYOUT
  5
2B4
102
{ACAD_REACTORS
330
1A
102
}
100
AcDbPlotSettings
  1

  2
none_device
  4
ISO_A4_(297.00_x_210.00_MM)
  6

 40
0.0
 41
0.0
 42
0.0
 43
0.0
 44
297.0
 45
210.0
 46
0.0
 47
0.0
 48
0.0
 49
0.0
140
0.0
141
0.0
142
1.0
143
1.0
 70
0
 72
1
 73
0
 74
0
  7

 75
0
147
1.0
148
0.0
149
0.0
100
AcDbLayout
  1
Layout1
 70
0
 71
1
 10
0.0
 20
0.0
 11
297.0
 21
210.0
 12
0.0
 22
0.0
 32
0.0
 14
0.0
 24
0.0
 34
0.0
 15
0.0
 25
0.0
 35
0.0
146
0.0
 13
0.0
 23
0.0
 33
0.0
 16
1.0
 26
0.0
 36
0.0
 17
0.0
 27
1.0
 37
0.0
 76
0
330
240
345
0
346
0
  0
ENDSEC
  0
EOF
