  0
SECTION
  2
HEADER
  9
$ACADVER
  1
AC1021
  9
$DWGCODEPAGE
  3
ANSI_1252
  9
$EXTMAX
 10
297.0
 20
210.0
 30
0.0
  9
$EXTMIN
 10
0.0
 20
0.0
 30
0.0
  9
$LIMMIN
 10
0.0
 20
0.0
  9
$LIMMAX
 10
297.0
 20
210.0
  9
$VIEWCTR
 10
148.5
 20
105.0
  9
$VIEWSIZE
 40
210.0
  9
$CLAYER
  8
0
  9
$LTSCALE
 40
16.335
  9
$CELTYPE
  6
BYLAYER
  9
$DIMSCALE
 40
1.0
  9
$DIMASZ
 40
3.0
  9
$DIMEXO
 40
0.5
  9
$DIMDLI
 40
11.286
  9
$DIMEXE
 40
1.5
  9
$DIMCEN
 40
2.673
  9
$DIMLFAC
 40
1.0
  9
$DIMBLK
  1
_FILLED
  9
$DIMALT
 70
0
  9
$DIMALTF
 40
0.0393700787
  9
$DIMTXT
 40
3.0
  9
$DIMTOL
 70
1
  9
$DIMLIM
 70
0
  9
$DIMTFAC
 40
1.0
  9
$DIMTP
 40
0.01
  9
$DIMTM
 40
0.01
  9
$DIMGAP
 40
0.625
  9
$DIMDSEP
 70
44
  9
$AUNITS
 70
0
  9
$PDMODE
 70
3
  9
$PDSIZE
 40
3.0
  9
$HANDSEED
  5
2C6
  9
$TILEMODE
 70
1
  9
$MEASUREMENT
 70
1
  9
$INSUNITS
 70
4
  0
ENDSEC
  0
SECTION
  2
CLASSES
  0
CLASS
  1
ACDBDICTIONARYWDFLT
  2
AcDbDictionaryWithDefault
  3
AutoCAD 2000
 90
0
 91
1
280
0
281
0
  0
CLASS
  1
ACDBPLACEHOLDER
  2
AcDbPlaceHolder
  3
AutoCAD 2000
 90
0
 91
1
280
0
281
0
  0
CLASS
  1
LAYOUT
  2
AcDbLayout
  3
AutoCAD 2000
 90
0
 91
0
280
0
281
0
  0
ENDSEC
  0
SECTION
  2
TABLES
  0
TABLE
  2
VPORT
  5
8
100
AcDbSymbolTable
 70
2
  0
VPORT
  5
1F4
100
AcDbSymbolTableRecord
100
AcDbViewportTableRecord
  2
*ACTIVE
 70
0
 10
0.0
 20
0.0
 11
1.0
 21
1.0
 12
148.5
 22
105.0
 13
0.0
 23
0.0
 14
1.0
 24
1.0
 15
0.0
 25
0.0
 16
0.0
 26
0.0
 36
1.0
 17
0.0
 27
0.0
 37
0.0
 40
210.0
 41
1.4142857143
 42
50.0
 43
0.0
 44
0.0
 50
0.0
 51
0.0
 71
0
 72
100
 73
1
 74
1
 75
0
 76
0
 77
0
 78
0
  0
ENDTAB
  0
TABLE
  2
LTYPE
  5
5
100
AcDbSymbolTable
 70
6
  0
LTYPE
  5
14
100
AcDbSymbolTableRecord
100
AcDbLinetypeTableRecord
  2
BYBLOCK
 70
0
  3

 72
65
 73
0
 40
0.0
  0
LTYPE
  5
15
100
AcDbSymbolTableRecord
100
AcDbLinetypeTableRecord
  2
BYLAYER
 70
0
  3

 72
65
 73
0
 40
0.0
  0
LTYPE
  5
16
100
AcDbSymbolTableRecord
100
AcDbLinetypeTableRecord
  2
CONTINUOUS
 70
64
  3
Solid line
 72
65
 73
0
 40
0.0
  0
LTYPE
  5
1F5
100
AcDbSymbolTableRecord
100
AcDbLinetypeTableRecord
  2
CENTER
 70
64
  3
____ _ ____ _ ____ _ ____ _ ____ _ ____ _ ____
 72
65
 73
4
 40
0.6
 49
0.375
 74
0
 49
-0.075
 74
0
 49
0.075
 74
0
 49
-0.075
 74
0
  0
LTYPE
  5
1F6
100
AcDbSymbolTableRecord
100
AcDbLinetypeTableRecord
  2
HIDDEN
 70
64
  3
- - - - - - - - - - - - - - - - - - - -
 72
65
 73
2
 40
0.2
 49
0.1
 74
0
 49
-0.1
 74
0
  0
LTYPE
  5
1F7
100
AcDbSymbolTableRecord
100
AcDbLinetypeTableRecord
  2
PHANTOM
 70
64
  3
_____ _ _ _____ _ _ _____ _ _ _____
 72
65
 73
6
 40
0.8
 49
0.45
 74
0
 49
-0.05
 74
0
 49
0.1
 74
0
 49
-0.05
 74
0
 49
0.1
 74
0
 49
-0.05
 74
0
  0
LTYPE
  5
1F8
100
AcDbSymbolTableRecord
100
AcDbLinetypeTableRecord
  2
DOT
 70
64
  3
. . . . . . . . . . . . . . . . . . . .
 72
65
 73
2
 40
0.2
 49
0.1
 74
0
 49
-0.1
 74
0
  0
LTYPE
  5
1F9
100
AcDbSymbolTableRecord
100
AcDbLinetypeTableRecord
  2
DASHED
 70
64
  3
- - - - - - - - - - - - - - - - - - - -
 72
65
 73
2
 40
0.2
 49
0.1
 74
0
 49
-0.1
 74
0
  0
ENDTAB
  0
TABLE
  2
LAYER
  5
2
100
AcDbSymbolTable
 70
36
  0
LAYER
  5
10
100
AcDbSymbolTableRecord
100
AcDbLayerTableRecord
  2
0
 70
0
 62
7
  6
CONTINUOUS
370
-3
390
F
  0
LAYER
  5
1FA
100
AcDbSymbolTableRecord
100
AcDbLayerTableRecord
  2
DEFAULT_1
 70
0
 62
7
  6
CENTER
370
-3
390
F
  0
LAYER
  5
1FB
100
AcDbSymbolTableRecord
100
AcDbLayerTableRecord
  2
DEFAULT_2
 70
0
 62
7
  6
HIDDEN
370
-3
390
F
  0
LAYER
  5
1FC
100
AcDbSymbolTableRecord
100
AcDbLayerTableRecord
  2
DEFAULT_3
 70
0
 62
7
  6
PHANTOM
370
-3
390
F
  0
LAYER
  5
1FD
100
AcDbSymbolTableRecord
100
AcDbLayerTableRecord
  2
ASSI
 70
0
 62
7
  6
CONTINUOUS
370
-3
390
F
  0
LAYER
  5
1FE
100
AcDbSymbolTableRecord
100
AcDbLayerTableRecord
  2
COORDINATE
 70
0
 62
7
  6
CONTINUOUS
370
-3
390
F
  0
LAYER
  5
1FF
100
AcDbSymbolTableRecord
100
AcDbLayerTableRecord
  2
COPY_PUBLISH
 70
0
 62
7
  6
CONTINUOUS
370
-3
390
F
  0
LAYER
  5
200
100
AcDbSymbolTableRecord
100
AcDbLayerTableRecord
  2
COSMETICI
 70
0
 62
7
  6
CONTINUOUS
370
-3
390
F
  0
LAYER
  5
201
100
AcDbSymbolTableRecord
100
AcDbLayerTableRecord
  2
CURVE
 70
0
 62
7
  6
CONTINUOUS
370
-3
390
F
  0
LAYER
  5
202
100
AcDbSymbolTableRecord
100
AcDbLayerTableRecord
  2
DRAFT
 70
0
 62
7
  6
CONTINUOUS
370
-3
390
F
  0
LAYER
  5
203
100
AcDbSymbolTableRecord
100
AcDbLayerTableRecord
  2
IMPORT_IGES
 70
0
 62
7
  6
CONTINUOUS
370
-3
390
F
  0
LAYER
  5
204
100
AcDbSymbolTableRecord
100
AcDbLayerTableRecord
  2
NOTE
 70
0
 62
7
  6
CONTINUOUS
370
-3
390
F
  0
LAYER
  5
205
100
AcDbSymbolTableRecord
100
AcDbLayerTableRecord
  2
PIANI
 70
0
 62
7
  6
CONTINUOUS
370
-3
390
F
  0
LAYER
  5
206
100
AcDbSymbolTableRecord
100
AcDbLayerTableRecord
  2
PUNTI
 70
0
 62
7
  6
CONTINUOUS
370
-3
390
F
  0
LAYER
  5
207
100
AcDbSymbolTableRecord
100
AcDbLayerTableRecord
  2
RACCORDO
 70
0
 62
7
  6
CONTINUOUS
370
-3
390
F
  0
LAYER
  5
208
100
AcDbSymbolTableRecord
100
AcDbLayerTableRecord
  2
SIMBOLI
 70
0
 62
7
  6
CONTINUOUS
370
-3
390
F
  0
LAYER
  5
209
100
AcDbSymbolTableRecord
100
AcDbLayerTableRecord
  2
SMUSSO
 70
0
 62
7
  6
CONTINUOUS
370
-3
390
F
  0
LAYER
  5
20A
100
AcDbSymbolTableRecord
100
AcDbLayerTableRecord
  2
SNAPLINE
 70
0
 62
7
  6
CONTINUOUS
370
-3
390
F
  0
LAYER
  5
20B
100
AcDbSymbolTableRecord
100
AcDbLayerTableRecord
  2
SUPERFICI
 70
0
 62
7
  6
CONTINUOUS
370
-3
390
F
  0
LAYER
  5
20C
100
AcDbSymbolTableRecord
100
AcDbLayerTableRecord
  2
TRASH
 70
0
 62
7
  6
CONTINUOUS
370
-3
390
F
  0
ENDTAB
  0
TABLE
  2
STYLE
  5
3
100
AcDbSymbolTable
 70
1
  0
STYLE
  5
11
100
AcDbSymbolTableRecord
100
AcDbTextStyleTableRecord
  2
STANDARD
 70
0
 40
0.0
 41
0.8
 50
0.0
 71
0
 42
0.2
  3
txt
  4

  0
STYLE
  5
20D
100
AcDbSymbolTableRecord
100
AcDbTextStyleTableRecord
  2
TEXTSTYLE_1
 70
0
 40
0.0
 41
0.8
 50
0.0
 71
0
 42
0.2
  3
gdt
  4

  0
ENDTAB
  0
TABLE
  2
VIEW
  5
6
100
AcDbSymbolTable
 70
0
  0
ENDTAB
  0
TABLE
  2
UCS
  5
7
100
AcDbSymbolTable
 70
0
  0
ENDTAB
  0
TABLE
  2
APPID
  5
9
100
AcDbSymbolTable
 70
1
  0
APPID
  5
20E
100
AcDbSymbolTableRecord
100
AcDbRegAppTableRecord
  2
ACAD
 70
0
  0
ENDTAB
  0
TABLE
  2
BLOCK_RECORD
  5
1
100
AcDbSymbolTable
 70
0
  0
BLOCK_RECORD
  5
20F
100
AcDbSymbolTableRecord
100
AcDbBlockTableRecord
  2
*Model_Space
  0
BLOCK_RECORD
  5
210
100
AcDbSymbolTableRecord
100
AcDbBlockTableRecord
  2
*Paper_Space
  0
ENDTAB
  0
TABLE
  2
DIMSTYLE
  5
A
100
AcDbSymbolTable
 70
1
100
AcDbDimStyleTable
 71
0
  0
DIMSTYLE
105
211
100
AcDbSymbolTableRecord
100
AcDbDimStyleTableRecord
  2
STANDARD
 70
0
  3

  4

 40
1.0
 41
3.0
 42
0.5
 43
0.38
 44
1.5
 45
0.0
 46
0.0
 47
0.01
 48
0.01
140
3.0
141
0.09
142
0.0
143
25.4
144
1.0
145
0.0
146
1.0
147
0.625
 71
1.0
 72
0.0
 73
0
 74
0
 75
0
 76
0
 77
1
 78
8
170
0
171
2
172
0
173
0
174
0
175
0
176
0
177
0
178
0
270
2
271
2
272
2
273
2
274
2
275
0
280
0
281
0
282
0
283
1
284
8
285
0
286
0
287
3
288
0
340
11
278
44
  0
ENDTAB
  0
ENDSEC
  0
SECTION
  2
BLOCKS
  0
BLOCK
  5
20
100
AcDbEntity
  8
0
100
AcDbBlockBegin
  2
*Model_Space
 70
0
 10
0.0
 20
0.0
 30
0.0
  3
*Model_Space
  1

  0
ENDBLK
  5
21
100
AcDbEntity
  8
0
100
AcDbBlockEnd
  0
BLOCK
  5
1C
100
AcDbEntity
  8
0
100
AcDbBlockBegin
  2
*Paper_Space
 70
0
 10
0.0
 20
0.0
 30
0.0
  3
*Paper_Space
  1

  0
ENDBLK
  5
1D
100
AcDbEntity
  8
0
100
AcDbBlockEnd
  0
ENDSEC
  0
SECTION
  2
ENTITIES
  0
LWPOLYLINE
  5
212
100
AcDbEntity
  8
IMPORT_IGES
100
AcDbPolyline
 62
7
  6
CONTINUOUS
 90
34
 70
0
 10
21.1740865493
 20
-53.1013386971
 10
21.5618242558
 20
-53.0002575898
 10
21.9439701992
 20
-52.8842431649
 10
22.3205243797
 20
-52.7532954224
 10
22.6920634991
 20
-52.6071555562
 10
23.0580108554
 20
-52.4460823724
 10
23.4166363429
 20
-52.2708522892
 10
23.7679055159
 20
-52.0813993129
 10
24.11185282
 20
-51.8777894372
 10
24.4468514866
 20
-51.6609970612
 10
24.772859441
 20
-51.4309606039
 10
25.0899187578
 20
-51.1877416463
 10
25.396528892
 20
-50.9324993303
 10
25.6926406262
 20
-50.6651775819
 10
25.9783031777
 20
-50.3858324752
 10
26.2521636539
 20
-50.0957913745
 10
26.5141668366
 20
-49.7950040682
 10
26.764367944
 20
-49.4835207679
 10
27.0015797379
 20
-49.1628194736
 10
27.2257412821
 20
-48.8328570913
 10
27.4369135128
 20
-48.4936767151
 10
27.6340920001
 20
-48.1468856261
 10
27.8172113771
 20
-47.7924478542
 10
27.9863370107
 20
-47.4303993696
 10
28.1406605724
 20
-47.0624553651
 10
28.2801128576
 20
-46.6885880323
 10
28.4047630709
 20
-46.3088251796
 10
28.5140104978
 20
-45.9249654244
 10
28.6077832693
 20
-45.5369893593
 10
28.6861532543
 20
-45.1449163917
 10
28.7487353453
 20
-44.7506033613
 10
28.7954011731
 20
-44.3546692145
 10
28.8262791068
 20
-43.9564950048
 10
28.8413691465
 20
-43.5560807322
  0
LWPOLYLINE
  5
213
100
AcDbEntity
  8
IMPORT_IGES
100
AcDbPolyline
 62
253
  6
CONTINUOUS
 90
34
 70
0
 10
21.0209247397
 20
-52.9919944018
 10
21.3947359259
 20
-52.8950694773
 10
21.7659659292
 20
-52.7833198019
 10
22.1340063566
 20
-52.6567465478
 10
22.4983150447
 20
-52.5153463632
 10
22.858197475
 20
-52.3591955306
 10
23.2128200158
 20
-52.1884786785
 10
23.5615691495
 20
-52.0033255788
 10
23.9038302854
 20
-51.8038930718
 10
24.238793546
 20
-51.590495644
 10
24.5658650602
 20
-51.3633666067
 10
24.8844559718
 20
-51.1227655809
 10
25.19380353
 20
-50.8691324062
 10
25.4933525954
 20
-50.60279983
 10
25.7825589466
 20
-50.3241248126
 10
26.0607293308
 20
-50.0336632484
 10
26.3273655295
 20
-49.7318391843
 10
26.5819853812
 20
-49.4190977901
 10
26.8239850639
 20
-49.0960976677
 10
27.052939723
 20
-48.7633421991
 10
27.2684444303
 20
-48.4213524835
 10
27.4700011722
 20
-48.0708738933
 10
27.657272096
 20
-47.712474499
 10
27.8299423585
 20
-47.3467359522
 10
27.9876330414
 20
-46.9744716871
 10
28.1301038229
 20
-46.5962975477
 10
28.2571396611
 20
-46.2128379916
 10
28.3684905546
 20
-45.8249532486
 10
28.464020765
 20
-45.4332881963
 10
28.5436210436
 20
-45.0384908871
 10
28.6071760063
 20
-44.6414454983
 10
28.6546499691
 20
-44.2428846651
 10
28.6860555928
 20
-43.8433821544
 10
28.7014177564
 20
-43.4435857768
  0
LWPOLYLINE
  5
214
100
AcDbEntity
  8
IMPORT_IGES
100
AcDbPolyline
 62
253
  6
CONTINUOUS
 90
31
 70
0
 10
17.4903049423
 20
-46.8521706717
 10
17.774725511
 20
-46.7845827852
 10
18.049633966
 20
-46.7078462201
 10
18.3150303075
 20
-46.6219609763
 10
18.570856001
 20
-46.5265747811
 10
18.8171695808
 20
-46.4220399072
 10
19.0541466507
 20
-46.3094131733
 10
19.2816148592
 20
-46.1890125686
 10
19.4997465577
 20
-46.0605201038
 10
19.7092344034
 20
-45.9240386291
 10
19.9103823712
 20
-45.7796070989
 10
20.1028864861
 20
-45.6271865587
 10
20.286527481
 20
-45.4667629954
 10
20.4615277244
 20
-45.2980189164
 10
20.6276648477
 20
-45.1212718144
 10
20.7840524782
 20
-44.9374601539
 10
20.9304131589
 20
-44.7465355365
 10
21.0670243467
 20
-44.5485463608
 10
21.1938320391
 20
-44.3445762873
 10
21.3106575066
 20
-44.1350036455
 10
21.4176794785
 20
-43.919450106
 10
21.5153801412
 20
-43.6978643416
 10
21.6039279435
 20
-43.4703888277
 10
21.6831544365
 20
-43.2368810888
 10
21.7530364597
 20
-42.9968623719
 10
21.8137959111
 20
-42.7502225529
 10
21.8652108926
 20
-42.4970717557
 10
21.9065925503
 20
-42.2372615995
 10
21.9377112659
 20
-41.970742624
 10
21.9587966576
 20
-41.6975642894
 10
21.9698487254
 20
-41.4177265958
  0
LWPOLYLINE
  5
215
100
AcDbEntity
  8
IMPORT_IGES
100
AcDbPolyline
 62
253
  6
CONTINUOUS
 90
25
 70
0
 10
-5.9066149477
 20
-46.622877624
 10
-5.8368328921
 20
-46.6205130832
 10
-5.7682631057
 20
-46.6139060902
 10
-5.7009055886
 20
-46.6030566448
 10
-5.6345175669
 20
-46.5878476631
 10
-5.5693418144
 20
-46.5683962291
 10
-5.5061066526
 20
-46.5450535951
 10
-5.4448419864
 20
-46.5177957363
 10
-5.3855179109
 20
-46.4866466775
 10
-5.3287730322
 20
-46.4520297458
 10
-5.2746380184
 20
-46.4139068252
 10
-5.2230822015
 20
-46.3723160317
 10
-5.1746521833
 20
-46.3277950405
 10
-5.1293757616
 20
-46.2803311073
 10
-5.0872251387
 20
-46.2299369763
 10
-5.0486635222
 20
-46.1771885555
 10
-5.0137166496
 20
-46.1220643379
 10
-4.9823587835
 20
-46.0645858305
 10
-4.9549759194
 20
-46.0053934622
 10
-4.9316077025
 20
-45.9444285394
 10
-4.9122144875
 20
-45.8817497558
 10
-4.8970633345
 20
-45.8181736214
 10
-4.8862432636
 20
-45.7539723063
 10
-4.8796652547
 20
-45.6888736405
 10
-4.8773293078
 20
-45.622877624
  0
LINE
  5
216
100
AcDbEntity
  8
IMPORT_IGES
100
AcDbLine
 62
253
  6
CONTINUOUS
 10
-10.7066149477
 20
-46.622877624
 11
-5.9066149477
 21
-46.622877624
  0
LINE
  5
217
100
AcDbEntity
  8
IMPORT_IGES
100
AcDbLine
 62
7
  6
CONTINUOUS
 10
-5.9066149477
 20
-46.122877624
 11
-10.7066149477
 21
-46.122877624
  0
LWPOLYLINE
  5
218
100
AcDbEntity
  8
IMPORT_IGES
100
AcDbPolyline
 62
253
  6
CONTINUOUS
 90
22
 70
0
 10
-10.7066149477
 20
-46.122877624
 10
-10.7497719654
 20
-46.1213844664
 10
-10.792206519
 20
-46.1169325613
 10
-10.8337087751
 20
-46.1095761021
 10
-10.8740548314
 20
-46.099387621
 10
-10.9130667066
 20
-46.0864526807
 10
-10.9506105519
 20
-46.0708647679
 10
-10.9865164684
 20
-46.0527276152
 10
-11.0205947235
 20
-46.0321723231
 10
-11.0526958626
 20
-46.0093551296
 10
-11.0826665302
 20
-45.9844350356
 10
-11.1103759313
 20
-45.9575709225
 10
-11.1357307695
 20
-45.9289397462
 10
-11.1586246697
 20
-45.8987233094
 10
-11.1789639998
 20
-45.8671046409
 10
-11.1966961202
 20
-45.8342719587
 10
-11.2117630555
 20
-45.8004096114
 10
-11.2241090098
 20
-45.7657202665
 10
-11.2337112599
 20
-45.7304243955
 10
-11.240559979
 20
-45.6947269449
 10
-11.2446523142
 20
-45.6588142631
 10
-11.246002639
 20
-45.622877624
  0
LWPOLYLINE
  5
219
100
AcDbEntity
  8
IMPORT_IGES
100
AcDbPolyline
 62
253
  6
CONTINUOUS
 90
25
 70
0
 10
-27.3386016827
 20
45.1977183724
 10
-27.2159380298
 20
45.4755839839
 10
-27.0840874012
 20
45.7531762398
 10
-26.9434018419
 20
46.0297699552
 10
-26.7943923673
 20
46.3044250067
 10
-26.6374173961
 20
46.5766624537
 10
-26.4725131983
 20
46.8465047192
 10
-26.3003325319
 20
47.1129508281
 10
-26.121184708
 20
47.3756943828
 10
-25.9343439246
 20
47.6357982877
 10
-25.7399501748
 20
47.8929131269
 10
-25.5386884648
 20
48.146081312
 10
-25.3304343021
 20
48.3953786687
 10
-25.1155939629
 20
48.640177339
 10
-24.8947129171
 20
48.8798090066
 10
-24.6677918976
 20
49.1141984759
 10
-24.43538583
 20
49.342650993
 10
-24.198032345
 20
49.5646023836
 10
-23.9556663414
 20
49.7800474033
 10
-23.708608486
 20
49.9885628268
 10
-23.4577570292
 20
50.1893328924
 10
-23.2039303739
 20
50.3816943822
 10
-22.94786264
 20
50.5650912396
 10
-22.6901703645
 20
50.7391537748
 10
-22.431537721
 20
50.9035026585
  0
LINE
  5
21A
100
AcDbEntity
  8
IMPORT_IGES
100
AcDbLine
 62
253
  6
CONTINUOUS
 10
-25.7922523568
 20
-43.3925751772
 11
-28.7146476523
 21
-43.4435857768
  0
LINE
  5
21B
100
AcDbEntity
  8
IMPORT_IGES
100
AcDbLine
 62
253
  6
CONTINUOUS
 10
-4.8773293078
 20
-45.622877624
 11
-11.7359005876
 21
-45.622877624
  0
LINE
  5
21C
100
AcDbEntity
  8
IMPORT_IGES
100
AcDbLine
 62
253
  6
CONTINUOUS
 10
28.7014177564
 20
-43.4435857768
 11
25.7790224608
 21
-43.3925751772
  0
LINE
  5
21D
100
AcDbEntity
  8
IMPORT_IGES
100
AcDbLine
 62
253
  6
CONTINUOUS
 10
-21.9830786214
 20
-41.4177265958
 11
-23.3970767922
 21
-41.4424080257
  0
LINE
  5
21E
100
AcDbEntity
  8
IMPORT_IGES
100
AcDbLine
 62
253
  6
CONTINUOUS
 10
23.3838468962
 20
-41.4424080257
 11
21.9698487254
 21
-41.4177265958
  0
LWPOLYLINE
  5
21F
100
AcDbEntity
  8
IMPORT_IGES
100
AcDbPolyline
 62
253
  6
CONTINUOUS
 90
25
 70
0
 10
-25.7922523568
 20
-43.3925751772
 10
-25.6545600511
 20
-43.7176924746
 10
-25.5074192788
 20
-44.0416995421
 10
-25.3510776415
 20
-44.3641493072
 10
-25.1857843424
 20
-44.6846181731
 10
-25.0118173328
 20
-45.0026524838
 10
-24.829487766
 20
-45.3177703085
 10
-24.6393175102
 20
-45.6291871621
 10
-24.4413991357
 20
-45.9368635118
 10
-24.2353375486
 20
-46.241413587
 10
-24.0211586254
 20
-46.5426998192
 10
-23.7993214529
 20
-46.8399804012
 10
-23.57001282
 20
-47.1329256324
 10
-23.333462802
 20
-47.4211530287
 10
-23.0900035545
 20
-47.7041716528
 10
-22.8399910486
 20
-47.981491623
 10
-22.5837752031
 20
-48.2526570075
 10
-22.3216557294
 20
-48.5172842274
 10
-22.0539326867
 20
-48.7750000481
 10
-21.7806705347
 20
-49.0256511686
 10
-21.5025084924
 20
-49.2685613895
 10
-21.2206600341
 20
-49.5026545724
 10
-20.9358223199
 20
-49.7274056482
 10
-20.6481344267
 20
-49.9427580993
 10
-20.3580135941
 20
-50.1484350742
  0
LWPOLYLINE
  5
220
100
AcDbEntity
  8
IMPORT_IGES
100
AcDbPolyline
 62
253
  6
CONTINUOUS
 90
34
 70
0
 10
-28.7146479678
 20
-43.4435686309
 10
-28.6992860185
 20
-43.8433730959
 10
-28.6678801565
 20
-44.2428817154
 10
-28.6204057391
 20
-44.6414466679
 10
-28.5568504555
 20
-45.0384935653
 10
-28.4772501617
 20
-45.4332904383
 10
-28.3817199828
 20
-45.8249550111
 10
-28.2703689852
 20
-46.2128398421
 10
-28.1433330512
 20
-46.5962994344
 10
-28.000862184
 20
-46.9744735706
 10
-27.8431714299
 20
-47.3467377944
 10
-27.6705011148
 20
-47.7124762637
 10
-27.4832301559
 20
-48.0708755563
 10
-27.2816733994
 20
-48.4213540225
 10
-27.0661687002
 20
-48.7633435939
 10
-26.8372140681
 20
-49.0960989094
 10
-26.5952144324
 20
-49.4190988715
 10
-26.3405946488
 20
-49.7318401
 10
-26.0739585327
 20
-50.0336640029
 10
-25.7957882453
 20
-50.3241254116
 10
-25.5065820051
 20
-50.6028002801
 10
-25.2070330558
 20
-50.8691327223
 10
-24.8976856177
 20
-51.1227657778
 10
-24.579094829
 20
-51.3633666988
 10
-24.25202343
 20
-51.590495652
 10
-23.917060275
 20
-51.8038930147
 10
-23.5747992336
 20
-52.0033254741
 10
-23.2260501716
 20
-52.1884785471
 10
-22.8714276619
 20
-52.3591953976
 10
-22.5115452356
 20
-52.5153462421
 10
-22.1472365619
 20
-52.6567464347
 10
-21.7791961727
 20
-52.7833196899
 10
-21.4079662189
 20
-52.8950693661
 10
-21.0341550939
 20
-52.9919942924
  0
LWPOLYLINE
  5
221
100
AcDbEntity
  8
IMPORT_IGES
100
AcDbPolyline
 62
7
  6
CONTINUOUS
 90
34
 70
0
 10
-28.8545990424
 20
-43.5560807322
 10
-28.8395091174
 20
-43.9564933807
 10
-28.8086313913
 20
-44.354666088
 10
-28.7619658643
 20
-44.750598854
 10
-28.6993841803
 20
-45.1449106222
 10
-28.6210146954
 20
-45.5369824491
 10
-28.527242477
 20
-45.9249575047
 10
-28.4179956561
 20
-46.3088163849
 10
-28.2933461017
 20
-46.6885784937
 10
-28.1538944883
 20
-47.0624452144
 10
-27.9995716106
 20
-47.4303887416
 10
-27.8304466738
 20
-47.7924368805
 10
-27.647327968
 20
-48.1468744302
 10
-27.4501501251
 20
-48.4936654228
 10
-27.2389785132
 20
-48.8328458262
 10
-27.0148175269
 20
-49.1628083421
 10
-26.7776062287
 20
-49.4835098792
 10
-26.5274055561
 20
-49.7949935288
 10
-26.2654027173
 20
-50.0957812668
 10
-25.9915424919
 20
-50.3858228835
 10
-25.7058801002
 20
-50.6651685886
 10
-25.409768411
 20
-50.932490987
 10
-25.1031582044
 20
-51.1877340063
 10
-24.7860987003
 20
-51.4309537189
 10
-24.4600904272
 20
-51.6609909471
 10
-24.1250913078
 20
-51.8777841111
 10
-23.7811434194
 20
-52.0813947906
 10
-23.4298735226
 20
-52.2708485474
 10
-23.0712471687
 20
-52.4460793883
 10
-22.7052988064
 20
-52.6071533064
 10
-22.3337585423
 20
-52.7532938423
 10
-21.9572030785
 20
-52.8842421761
 10
-21.5750557128
 20
-53.0002571277
 10
-21.1873164452
 20
-53.1013386971
  0
LINE
  5
222
100
AcDbEntity
  8
IMPORT_IGES
100
AcDbLine
 62
7
  6
CONTINUOUS
 10
-30.4141409305
 20
45.7900141971
 11
-28.8545990424
 21
-43.5560807322
  0
LINE
  5
223
100
AcDbEntity
  8
IMPORT_IGES
100
AcDbLine
 62
253
  6
CONTINUOUS
 10
-28.7146476523
 20
-43.4435857768
 11
-30.270070969
 21
45.6665563546
  0
LWPOLYLINE
  5
224
100
AcDbEntity
  8
IMPORT_IGES
100
AcDbPolyline
 62
253
  6
CONTINUOUS
 90
37
 70
0
 10
-30.2700709684
 20
45.6665563546
 10
-30.2689321438
 20
45.9855108307
 10
-30.2550072573
 20
46.30526973
 10
-30.2281877107
 20
46.6253152439
 10
-30.1881693618
 20
46.9466119955
 10
-30.134981826
 20
47.2671129558
 10
-30.0695915441
 20
47.5818595785
 10
-29.9931642238
 20
47.8880069031
 10
-29.9057513841
 20
48.1876405546
 10
-29.806864993
 20
48.4832419355
 10
-29.696589093
 20
48.774662061
 10
-29.5752294209
 20
49.0611845286
 10
-29.4420934112
 20
49.3442617137
 10
-29.2966412776
 20
49.624422466
 10
-29.1394109306
 20
49.9000553672
 10
-28.9712900876
 20
50.16938652
 10
-28.7930222702
 20
50.4312832918
 10
-28.6044318808
 20
50.686058683
 10
-28.4051036539
 20
50.9341321025
 10
-28.1951162153
 20
51.1751506303
 10
-27.9748016156
 20
51.4084889395
 10
-27.7440076537
 20
51.6340414577
 10
-27.5024194264
 20
51.8517520677
 10
-27.2507892529
 20
52.0605902914
 10
-26.9906825473
 20
52.2590981
 10
-26.7229483567
 20
52.4466359249
 10
-26.4476153077
 20
52.6231918733
 10
-26.1651675313
 20
52.7884289673
 10
-25.8769720792
 20
52.941596485
 10
-25.5826354427
 20
53.0829514642
 10
-25.2798634367
 20
53.2133698203
 10
-24.9660781582
 20
53.3333254243
 10
-24.6445325184
 20
53.4409408886
 10
-24.3218319092
 20
53.5340089719
 10
-24.0007290486
 20
53.6122940496
 10
-23.6798395545
 20
53.6766793318
 10
-23.3597780671
 20
53.7274430855
  0
LINE
  5
225
100
AcDbEntity
  8
IMPORT_IGES
100
AcDbLine
 62
253
  6
CONTINUOUS
 10
21.1740860455
 20
-53.1013365914
 11
21.0209247397
 21
-52.9919944018
  0
LWPOLYLINE
  5
226
100
AcDbEntity
  8
IMPORT_IGES
100
AcDbPolyline
 62
253
  6
CONTINUOUS
 90
31
 70
0
 10
-23.3970767764
 20
-41.4424080254
 10
-23.363379004
 20
-41.7778131138
 10
-23.3171590068
 20
-42.1078113256
 10
-23.2589279165
 20
-42.4316098404
 10
-23.1893464625
 20
-42.7479751955
 10
-23.1088285467
 20
-43.0568097889
 10
-23.0173369801
 20
-43.3591040398
 10
-22.9152316437
 20
-43.6542331289
 10
-22.8028479033
 20
-43.9417991473
 10
-22.6797360249
 20
-44.223079601
 10
-22.5458694552
 20
-44.4978647745
 10
-22.4015836352
 20
-44.7653553907
 10
-22.2466382415
 20
-45.0259009689
 10
-22.0810888317
 20
-45.2790207409
 10
-21.9048163623
 20
-45.5245198374
 10
-21.7174631606
 20
-45.7625933273
 10
-21.5197846933
 20
-45.9919723302
 10
-21.3128610004
 20
-46.2117957917
 10
-21.096521315
 20
-46.4225680576
 10
-20.8709362201
 20
-46.6243401695
 10
-20.636511455
 20
-46.8169584288
 10
-20.3928392671
 20
-47.0007980272
 10
-20.1405045506
 20
-47.1754391697
 10
-19.8797455555
 20
-47.3407909091
 10
-19.6095428527
 20
-47.4974135194
 10
-19.3302361138
 20
-47.6448915812
 10
-19.0422729202
 20
-47.7828048451
 10
-18.7446798152
 20
-47.9113752522
 10
-18.4374344428
 20
-48.0301991811
 10
-18.1215509001
 20
-48.1384342028
 10
-17.79764706
 20
-48.2354631052
  0
LINE
  5
227
100
AcDbEntity
  8
IMPORT_IGES
100
AcDbLine
 62
253
  6
CONTINUOUS
 10
-27.3386016827
 20
45.1977183724
 11
-25.7922523568
 21
-43.3925751772
  0
LINE
  5
228
100
AcDbEntity
  8
IMPORT_IGES
100
AcDbLine
 62
253
  6
CONTINUOUS
 10
21.4975065727
 20
50.1364930619
 11
22.418307825
 21
50.9035026586
  0
LINE
  5
229
100
AcDbEntity
  8
IMPORT_IGES
100
AcDbLine
 62
253
  6
CONTINUOUS
 10
23.3465479922
 20
53.7274431101
 11
23.4966870455
 21
53.8500669096
  0
LINE
  5
22A
100
AcDbEntity
  8
IMPORT_IGES
100
AcDbLine
 62
253
  6
CONTINUOUS
 10
20.3447836981
 20
-50.1484350742
 11
19.4858273613
 21
-49.5113258228
  0
LINE
  5
22B
100
AcDbEntity
  8
IMPORT_IGES
100
AcDbLine
 62
253
  6
CONTINUOUS
 10
19.4858273613
 20
-49.5113258228
 11
18.6323784915
 21
-48.8736635755
  0
LINE
  5
22C
100
AcDbEntity
  8
IMPORT_IGES
100
AcDbLine
 62
253
  6
CONTINUOUS
 10
18.6323784915
 20
-48.8736635755
 11
17.7844171674
 21
-48.2354631206
  0
LWPOLYLINE
  5
22D
100
AcDbEntity
  8
IMPORT_IGES
100
AcDbPolyline
 62
253
  6
CONTINUOUS
 90
31
 70
0
 10
-21.9830786214
 20
-41.4177265958
 10
-21.9710434631
 20
-41.7097344908
 10
-21.9482215179
 20
-41.9941676781
 10
-21.9146127859
 20
-42.2710261578
 10
-21.8698647932
 20
-42.5403229725
 10
-21.8143300137
 20
-42.8020450797
 10
-21.7490658686
 20
-43.0561533507
 10
-21.6743506195
 20
-43.3024166397
 10
-21.5899060047
 20
-43.5410660926
 10
-21.4959546616
 20
-43.7727560194
 10
-21.3925919224
 20
-43.9977789566
 10
-21.2797224547
 20
-44.2158423677
 10
-21.1572828985
 20
-44.4267229531
 10
-21.0249957969
 20
-44.6306910579
 10
-20.8831386067
 20
-44.827476337
 10
-20.7324803387
 20
-45.0160444557
 10
-20.5729203771
 20
-45.1961342124
 10
-20.4045593377
 20
-45.3680068087
 10
-20.2284680789
 20
-45.5314115142
 10
-20.0449895652
 20
-45.686106868
 10
-19.853780832
 20
-45.8323343311
 10
-19.6548838436
 20
-45.9705675567
 10
-19.448472
 20
-46.1009430719
 10
-19.2343719013
 20
-46.2233243496
 10
-19.0121053119
 20
-46.3377754616
 10
-18.7816060853
 20
-46.4445365106
 10
-18.5429403682
 20
-46.543367394
 10
-18.2958283645
 20
-46.6336118754
 10
-18.0401768089
 20
-46.7150512095
 10
-17.7760789669
 20
-46.7879041416
 10
-17.5035348383
 20
-46.8521706717
  0
LINE
  5
22E
100
AcDbEntity
  8
IMPORT_IGES
100
AcDbLine
 62
253
  6
CONTINUOUS
 10
-23.3970767922
 20
-41.4424080257
 11
-24.0778940369
 21
-2.4384141981
  0
LINE
  5
22F
100
AcDbEntity
  8
IMPORT_IGES
100
AcDbLine
 62
253
  6
CONTINUOUS
 10
-23.9944801516
 20
4.2425452157
 11
-24.6689859774
 21
42.8849580954
  0
LINE
  5
230
100
AcDbEntity
  8
IMPORT_IGES
100
AcDbLine
 62
253
  6
CONTINUOUS
 10
-22.6614795528
 20
-2.5521632639
 11
-21.9830786214
 21
-41.4177265958
  0
LINE
  5
231
100
AcDbEntity
  8
IMPORT_IGES
100
AcDbLine
 62
253
  6
CONTINUOUS
 10
-23.2549878067
 20
42.9096395253
 11
-22.5817736093
 21
4.3412239911
  0
LINE
  5
232
100
AcDbEntity
  8
IMPORT_IGES
100
AcDbLine
 62
253
  6
CONTINUOUS
 10
-22.6614795528
 20
-2.5521632639
 11
-22.6614795528
 21
-2.0622653153
  0
LINE
  5
233
100
AcDbEntity
  8
IMPORT_IGES
100
AcDbLine
 62
253
  6
CONTINUOUS
 10
-22.5817736093
 20
3.8463523318
 11
-22.5817736093
 21
4.3412239911
  0
LWPOLYLINE
  5
234
100
AcDbEntity
  8
IMPORT_IGES
100
AcDbPolyline
 62
253
  6
CONTINUOUS
 90
31
 70
0
 10
-23.2549878067
 20
42.9096395253
 10
-23.2529670178
 20
43.15352663
 10
-23.2414269765
 20
43.390402314
 10
-23.2203676828
 20
43.6202665774
 10
-23.1894228958
 20
43.843135228
 10
-23.1489588563
 20
44.058992458
 10
-23.1000742874
 20
44.2677908438
 10
-23.0431391108
 20
44.4691757044
 10
-22.9777834049
 20
44.6635017209
 10
-22.9039961273
 20
44.8517855133
 10
-22.8217620622
 20
45.0345365019
 10
-22.7310964254
 20
45.2112452664
 10
-22.6320338226
 20
45.3814001662
 10
-22.5245345742
 20
45.5450722956
 10
-22.4086383597
 20
45.7021905602
 10
-22.2844988231
 20
45.8520300363
 10
-22.1518857728
 20
45.9944302054
 10
-22.0110294005
 20
46.129551586
 10
-21.862773925
 20
46.2571508095
 10
-21.7072036669
 20
46.3771542391
 10
-21.5442343057
 20
46.4896355117
 10
-21.3744570987
 20
46.5945721691
 10
-21.198412815
 20
46.6918714759
 10
-21.0155606855
 20
46.7816261674
 10
-20.8248696607
 20
46.8640919916
 10
-20.6260144331
 20
46.9397112137
 10
-20.41932031
 20
47.0080415685
 10
-20.2047321639
 20
47.0680120072
 10
-19.9822316188
 20
47.1192655137
 10
-19.7518370506
 20
47.1621591041
 10
-19.5135484594
 20
47.1966927785
  0
LWPOLYLINE
  5
235
100
AcDbEntity
  8
IMPORT_IGES
100
AcDbPolyline
 62
253
  6
CONTINUOUS
 90
19
 70
0
 10
-24.0778938589
 20
-2.4384139692
 10
-24.070944617
 20
-2.4019360458
 10
-24.0620582677
 20
-2.3656684662
 10
-24.0513519231
 20
-2.3299693359
 10
-24.0390401726
 20
-2.2953989757
 10
-24.0251816073
 20
-2.2619722939
 10
-24.009614447
 20
-2.229211326
 10
-23.9924020318
 20
-2.1972696838
 10
-23.9737386498
 20
-2.1665568571
 10
-23.9535424066
 20
-2.1370470668
 10
-23.9318859805
 20
-2.1090023595
 10
-23.9089735526
 20
-2.0826872292
 10
-23.8848661246
 20
-2.0581638982
 10
-23.8598108459
 20
-2.0357181849
 10
-23.8339833689
 20
-2.0155646367
 10
-23.807319546
 20
-1.9977219463
 10
-23.7799454498
 20
-1.9822975405
 10
-23.7522087366
 20
-1.9695024309
 10
-23.7243944942
 20
-1.9594772382
  0
LINE
  5
236
100
AcDbEntity
  8
IMPORT_IGES
100
AcDbLine
 62
7
  6
CONTINUOUS
 10
2.5806603771
 20
55.4398419674
 11
2.5362611325
 21
55.3516672479
  0
LINE
  5
237
100
AcDbEntity
  8
IMPORT_IGES
100
AcDbLine
 62
253
  6
CONTINUOUS
 10
19.6671702851
 20
48.6010290997
 11
20.5804634097
 21
49.3689993032
  0
LINE
  5
238
100
AcDbEntity
  8
IMPORT_IGES
100
AcDbLine
 62
253
  6
CONTINUOUS
 10
20.5804634097
 20
49.3689993032
 11
21.4975065727
 21
50.1364930619
  0
LWPOLYLINE
  5
239
100
AcDbEntity
  8
IMPORT_IGES
100
AcDbPolyline
 62
253
  6
CONTINUOUS
 90
19
 70
0
 10
-23.9944801516
 20
4.2425452157
 10
-23.9879310257
 20
4.205309404
 10
-23.9793871183
 20
4.16836126
 10
-23.9689472777
 20
4.1320507042
 10
-23.9568458394
 20
4.0969695945
 10
-23.9431839556
 20
4.0631552004
 10
-23.9277818712
 20
4.0301177692
 10
-23.9106640746
 20
3.9980139692
 10
-23.8920206195
 20
3.9672612205
 10
-23.8717881726
 20
3.9378166686
 10
-23.8500747443
 20
3.9099299782
 10
-23.8270774931
 20
3.8839120821
 10
-23.8028412345
 20
3.8598629033
 10
-23.7776148223
 20
3.8380678308
 10
-23.7515772792
 20
3.8186896156
 10
-23.7246675746
 20
3.801720836
 10
-23.6970354422
 20
3.7873281231
 10
-23.6690480487
 20
3.7757403626
 10
-23.640980609
 20
3.7670594021
  0
LINE
  5
23A
100
AcDbEntity
  8
IMPORT_IGES
100
AcDbLine
 62
253
  6
CONTINUOUS
 10
27.3253717867
 20
45.1977183724
 11
25.8409502496
 21
43.9158928134
  0
LINE
  5
23B
100
AcDbEntity
  8
IMPORT_IGES
100
AcDbLine
 62
253
  6
CONTINUOUS
 10
24.7126806744
 20
-42.5302408203
 11
25.7790224608
 21
-43.3925751772
  0
LWPOLYLINE
  5
23C
100
AcDbEntity
  8
IMPORT_IGES
100
AcDbPolyline
 62
253
  6
CONTINUOUS
 90
3
 70
0
 10
23.3838468962
 20
-41.4424080257
 10
23.6492484143
 20
-41.6608547851
 10
24.7126806744
 20
-42.5302408203
  0
LWPOLYLINE
  5
23D
100
AcDbEntity
  8
IMPORT_IGES
100
AcDbPolyline
 62
253
  6
CONTINUOUS
 90
25
 70
0
 10
-11.7359005876
 20
-45.622877624
 10
-11.733652496
 20
-45.6884990512
 10
-11.7271692311
 20
-45.7532606736
 10
-11.7164507929
 20
-45.8171624912
 10
-11.7014059161
 20
-45.8804618379
 10
-11.682125866
 20
-45.9429013797
 10
-11.658884438
 20
-46.0037091155
 10
-11.6316515118
 20
-46.0628650374
 10
-11.6004572077
 20
-46.1203891532
 10
-11.5656656826
 20
-46.1755694853
 10
-11.5272465904
 20
-46.2283587519
 10
-11.4852302773
 20
-46.2788042348
 10
-11.4400719389
 20
-46.3263358027
 10
-11.3917460256
 20
-46.3709410151
 10
-11.340278087
 20
-46.4126323125
 10
-11.2861999674
 20
-46.4508768849
 10
-11.2294901006
 20
-46.485649309
 10
-11.1701700528
 20
-46.5169750081
 10
-11.1088363665
 20
-46.5443974426
 10
-11.0454332957
 20
-46.5678819434
 10
-10.9800165864
 20
-46.5874631796
 10
-10.9133500188
 20
-46.602788619
 10
-10.8456881866
 20
-46.6137407508
 10
-10.7767764962
 20
-46.6204370858
 10
-10.7066149477
 20
-46.622877624
  0
LINE
  5
23E
100
AcDbEntity
  8
IMPORT_IGES
100
AcDbLine
 62
253
  6
CONTINUOUS
 10
-14.1853903304
 20
-2.0622653153
 11
-14.1853903304
 21
-2.5521632639
  0
LINE
  5
23F
100
AcDbEntity
  8
IMPORT_IGES
100
AcDbLine
 62
253
  6
CONTINUOUS
 10
25.8409502496
 20
43.9158928134
 11
24.6557560815
 21
42.8849580954
  0
LINE
  5
240
100
AcDbEntity
  8
IMPORT_IGES
100
AcDbLine
 62
253
  6
CONTINUOUS
 10
30.4009110345
 20
45.7900141971
 11
30.256841073
 21
45.6665563546
  0
LINE
  5
241
100
AcDbEntity
  8
IMPORT_IGES
100
AcDbLine
 62
253
  6
CONTINUOUS
 10
28.7014177564
 20
-43.4435857768
 11
28.8413691465
 21
-43.5560807322
  0
LINE
  5
242
100
AcDbEntity
  8
IMPORT_IGES
100
AcDbLine
 62
253
  6
CONTINUOUS
 10
-19.5135484594
 20
47.1966927785
 11
-19.6804001811
 21
48.6010290997
  0
LWPOLYLINE
  5
243
100
AcDbEntity
  8
IMPORT_IGES
100
AcDbPolyline
 62
253
  6
CONTINUOUS
 90
31
 70
0
 10
-11.2460026507
 20
-5.0016530067
 10
-11.251556933
 20
-4.8503233725
 10
-11.2649379409
 20
-4.6990934089
 10
-11.2860830631
 20
-4.5483323799
 10
-11.3149337392
 20
-4.3983746772
 10
-11.3514217284
 20
-4.2496434181
 10
-11.3954498743
 20
-4.1026470867
 10
-11.4469314944
 20
-3.9577908267
 10
-11.5057758866
 20
-3.8154542543
 10
-11.5718471534
 20
-3.6761070232
 10
-11.6450474081
 20
-3.5401320551
 10
-11.7252624103
 20
-3.4079496921
 10
-11.8123009413
 20
-3.2800712812
 10
-11.9060513343
 20
-3.1568719381
 10
-12.0064006622
 20
-3.038726017
 10
-12.113062685
 20
-2.9262006862
 10
-12.2257419916
 20
-2.8197705776
 10
-12.3439882797
 20
-2.7197212734
 10
-12.4672616793
 20
-2.6263119067
 10
-12.5951510538
 20
-2.5396342142
 10
-12.7272609462
 20
-2.4597848267
 10
-12.8631184976
 20
-2.3869298163
 10
-13.0022647719
 20
-2.3211966027
 10
-13.1443109967
 20
-2.2626601348
 10
-13.2888859008
 20
-2.211403457
 10
-13.4356507055
 20
-2.1675154689
 10
-13.584131634
 20
-2.1311166417
 10
-13.7337608286
 20
-2.1023179054
 10
-13.884082494
 20
-2.0811965091
 10
-14.034756012
 20
-2.0678210942
 10
-14.1853903304
 20
-2.062265327
  0
LINE
  5
244
100
AcDbEntity
  8
IMPORT_IGES
100
AcDbLine
 62
253
  6
CONTINUOUS
 10
-11.7359005876
 20
-5.0016530067
 11
-11.7359005876
 21
-45.622877624
  0
LINE
  5
245
100
AcDbEntity
  8
IMPORT_IGES
100
AcDbLine
 62
253
  6
CONTINUOUS
 10
-11.246002639
 20
-45.622877624
 11
-11.246002639
 21
-5.0016530067
  0
LINE
  5
246
100
AcDbEntity
  8
IMPORT_IGES
100
AcDbLine
 62
253
  6
CONTINUOUS
 10
-10.7066149477
 20
-46.622877624
 11
-10.7066149477
 21
-46.122877624
  0
LINE
  5
247
100
AcDbEntity
  8
IMPORT_IGES
100
AcDbLine
 62
253
  6
CONTINUOUS
 10
-21.0341550934
 20
-52.9919942907
 11
-20.3580135941
 21
-50.1484350742
  0
LWPOLYLINE
  5
248
100
AcDbEntity
  8
IMPORT_IGES
100
AcDbPolyline
 62
253
  6
CONTINUOUS
 90
55
 70
0
 10
-23.9944801516
 20
4.2425452157
 10
-24.1900335672
 20
4.1803335889
 10
-24.3775409261
 20
4.1096945176
 10
-24.5570022285
 20
4.0306280017
 10
-24.7287577222
 20
3.9422026887
 10
-24.8924671593
 20
3.845349931
 10
-25.0471097962
 20
3.7428637867
 10
-25.1912074162
 20
3.6363159093
 10
-25.326238236
 20
3.5241346452
 10
-25.455616163
 20
3.4043990914
 10
-25.5817431129
 20
3.2747238875
 10
-25.70221717
 20
3.137494394
 10
-25.8132464948
 20
2.9979457889
 10
-25.9131336159
 20
2.8576315544
 10
-26.0035760047
 20
2.7149982084
 10
-26.0858742364
 20
2.570620483
 10
-26.1604574559
 20
2.4235088304
 10
-26.2268965183
 20
2.2746527983
 10
-26.2852045645
 20
2.1275957619
 10
-26.3347620178
 20
1.9843997168
 10
-26.3761884548
 20
1.8430026673
 10
-26.4113557467
 20
1.7007620019
 10
-26.4408457223
 20
1.5564874856
 10
-26.4640765527
 20
1.4113693533
 10
-26.4811746225
 20
1.2663356992
 10
-26.4921036602
 20
1.121511554
 10
-26.4968999373
 20
0.976771887
 10
-26.4957986522
 20
0.8326696996
 10
-26.4886856971
 20
0.6887904265
 10
-26.4756751798
 20
0.545548633
 10
-26.4573446221
 20
0.4047410163
 10
-26.434076112
 20
0.2678577435
 10
-26.4054875614
 20
0.1334086474
 10
-26.3710102276
 20
-0.0012800764
 10
-26.3308383194
 20
-0.1369273132
 10
-26.2847776281
 20
-0.2728141776
 10
-26.2316767849
 20
-0.4094578182
 10
-26.1706949352
 20
-0.5484134157
 10
-26.1026729337
 20
-0.6881257892
 10
-26.0289819754
 20
-0.8244465443
 10
-25.9507993192
 20
-0.9553123383
 10
-25.8669477062
 20
-1.0827865138
 10
-25.7752665555
 20
-1.2089107041
 10
-25.6743017869
 20
-1.3356165592
 10
-25.5655074805
 20
-1.4609724291
 10
-25.4510852965
 20
-1.5812249968
 10
-25.3329267513
 20
-1.6946340056
 10
-25.2091403284
 20
-1.8029397122
 10
-25.0762531391
 20
-1.9076095703
 10
-24.9332177054
 20
-2.010014087
 10
-24.7810815052
 20
-2.1087827553
 10
-24.6195140837
 20
-2.2012715074
 10
-24.4484052894
 20
-2.2865989872
 10
-24.2678652738
 20
-2.3656465508
 10
-24.0778940369
 20
-2.4384141981
  0
LWPOLYLINE
  5
249
100
AcDbEntity
  8
IMPORT_IGES
100
AcDbPolyline
 62
253
  6
CONTINUOUS
 90
13
 70
0
 10
23.7111645982
 20
-1.9594772384
 10
23.6434388457
 20
-1.9776356554
 10
23.5714382038
 20
-1.9935811693
 10
23.4951626726
 20
-2.007513974
 10
23.4143248032
 20
-2.0197019908
 10
23.3292120444
 20
-2.0302290917
 10
23.240686743
 20
-2.0390362051
 10
23.1487158505
 20
-2.0462827716
 10
23.0533324153
 20
-2.0521376462
 10
22.9554979291
 20
-2.0565775709
 10
22.8555328893
 20
-2.0596691675
 10
22.7531167985
 20
-2.0615478685
 10
22.6482496569
 20
-2.0622653154
  0
LWPOLYLINE
  5
24A
100
AcDbEntity
  8
IMPORT_IGES
100
AcDbPolyline
 62
253
  6
CONTINUOUS
 90
55
 70
0
 10
-23.7243944942
 20
-1.9594772382
 10
-23.9234957938
 20
-1.8954637025
 10
-24.1130856847
 20
-1.823167552
 10
-24.293164167
 20
-1.7435037955
 10
-24.463857601
 20
-1.6573245805
 10
-24.6250396263
 20
-1.5655332496
 10
-24.7763311623
 20
-1.4691155768
 10
-24.9162515676
 20
-1.3701140392
 10
-25.0462814836
 20
-1.2682416906
 10
-25.1704837533
 20
-1.1603828622
 10
-25.2914459741
 20
-1.0441728634
 10
-25.4065805487
 20
-0.9221444104
 10
-25.5121875287
 20
-0.7984354796
 10
-25.606222079
 20
-0.6760897553
 10
-25.6907290346
 20
-0.5534534429
 10
-25.7681429526
 20
-0.427742089
 10
-25.8397467817
 20
-0.2966734908
 10
-25.9042575733
 20
-0.1630088354
 10
-25.9602610383
 20
-0.0315229935
 10
-26.0065720397
 20
0.0947574709
 10
-26.0443757146
 20
0.2178669192
 10
-26.0758131859
 20
0.3405598015
 10
-26.1014193628
 20
0.4632998216
 10
-26.1206593361
 20
0.5851371734
 10
-26.1340695013
 20
0.7068409068
 10
-26.1417615507
 20
0.8284457218
 10
-26.143623792
 20
0.9495078344
 10
-26.1398575429
 20
1.0701014458
 10
-26.1303231281
 20
1.1905307041
 10
-26.115160223
 20
1.3101036196
 10
-26.0949891715
 20
1.42742427
 10
-26.0703581438
 20
1.5406662205
 10
-26.0407189698
 20
1.651395509
 10
-26.0050474836
 20
1.7632382608
 10
-25.9632085211
 20
1.8772234936
 10
-25.9153372465
 20
1.9917761713
 10
-25.8608149865
 20
2.1064839376
 10
-25.7993672006
 20
2.2212936168
 10
-25.7312684294
 20
2.3356171108
 10
-25.6567236219
 20
2.4482755002
 10
-25.5761305873
 20
2.5583653988
 10
-25.4890915164
 20
2.6662326902
 10
-25.3946179298
 20
2.7725267675
 10
-25.2919205205
 20
2.8775394987
 10
-25.1817885954
 20
2.9800642921
 10
-25.0656015959
 20
3.0785359919
 10
-24.9451234636
 20
3.1713714358
 10
-24.8185902569
 20
3.2596979973
 10
-24.6820895922
 20
3.3456969561
 10
-24.5345011792
 20
3.4292479065
 10
-24.3769453082
 20
3.5086707989
 10
-24.208870467
 20
3.583202258
 10
-24.030092818
 20
3.6518631209
 10
-23.8407961986
 20
3.7135199562
 10
-23.640980609
 20
3.7670594021
  0
LINE
  5
24B
100
AcDbEntity
  8
IMPORT_IGES
100
AcDbLine
 62
253
  6
CONTINUOUS
 10
-5.9066149477
 20
-46.122877624
 11
-5.9066149477
 21
-46.622877624
  0
LINE
  5
24C
100
AcDbEntity
  8
IMPORT_IGES
100
AcDbLine
 62
253
  6
CONTINUOUS
 10
-5.3672272564
 20
-5.0016530067
 11
-5.3672272564
 21
-45.622877624
  0
LINE
  5
24D
100
AcDbEntity
  8
IMPORT_IGES
100
AcDbLine
 62
7
  6
CONTINUOUS
 10
-5.0059135538
 20
54.8037264492
 11
-5.0059135538
 21
54.1967368868
  0
LINE
  5
24E
100
AcDbEntity
  8
IMPORT_IGES
100
AcDbLine
 62
253
  6
CONTINUOUS
 10
-4.8773293078
 20
-45.622877624
 11
-4.8773293078
 21
-5.0016530067
  0
LWPOLYLINE
  5
24F
100
AcDbEntity
  8
IMPORT_IGES
100
AcDbPolyline
 62
253
  6
CONTINUOUS
 90
28
 70
0
 10
-4.8773293078
 20
-5.0016530067
 10
-4.8728026182
 20
-4.8526523538
 10
-4.8602952755
 20
-4.7060153192
 10
-4.8398072796
 20
-4.561741903
 10
-4.811181593
 20
-4.4194402202
 10
-4.7745752532
 20
-4.2795021558
 10
-4.7304593729
 20
-4.143103364
 10
-4.6788172209
 20
-4.0103141486
 10
-4.6196655285
 20
-3.8810642059
 10
-4.5535256013
 20
-3.7563182789
 10
-4.4803664139
 20
-3.6360526561
 10
-4.4002189918
 20
-3.520291049
 10
-4.313697718
 20
-3.4100693353
 10
-4.220698474
 20
-3.3054715412
 10
-4.1213253782
 20
-3.2064136406
 10
-4.0165051688
 20
-3.1136794326
 10
-3.9062230359
 20
-3.0272897689
 10
-3.7904937894
 20
-2.9472237979
 10
-3.6702885967
 20
-2.8742027644
 10
-3.5455847115
 20
-2.8083226367
 10
-3.4164048801
 20
-2.7494874465
 10
-3.2837885088
 20
-2.6981305338
 10
-3.1477177032
 20
-2.6542384303
 10
-3.0082103577
 20
-2.6178246043
 10
-2.8663595622
 20
-2.5893628002
 10
-2.7225296799
 20
-2.5690109328
 10
-2.5763563477
 20
-2.5566110874
 10
-2.4278395654
 20
-2.552163264
  0
LINE
  5
250
100
AcDbEntity
  8
IMPORT_IGES
100
AcDbLine
 62
253
  6
CONTINUOUS
 10
-17.7976470633
 20
-48.2354631206
 11
-17.5035348383
 21
-46.8521706717
  0
LINE
  5
251
100
AcDbEntity
  8
IMPORT_IGES
100
AcDbLine
 62
253
  6
CONTINUOUS
 10
-11.246002639
 20
-5.0016530067
 11
-8.3066149477
 21
0.877122376
  0
LINE
  5
252
100
AcDbEntity
  8
IMPORT_IGES
100
AcDbLine
 62
253
  6
CONTINUOUS
 10
-14.1430664013
 20
-2.0409011827
 11
-14.1853903304
 21
-2.0622653153
  0
LINE
  5
253
100
AcDbEntity
  8
IMPORT_IGES
100
AcDbLine
 62
253
  6
CONTINUOUS
 10
-8.3066149477
 20
0.877122376
 11
-14.1430664013
 21
-2.0409011827
  0
LINE
  5
254
100
AcDbEntity
  8
IMPORT_IGES
100
AcDbLine
 62
253
  6
CONTINUOUS
 10
-11.7359005876
 20
-5.0016530067
 11
-11.246002639
 21
-5.0016530067
  0
LINE
  5
255
100
AcDbEntity
  8
IMPORT_IGES
100
AcDbLine
 62
253
  6
CONTINUOUS
 10
-5.3672272564
 20
-5.0016530067
 11
-4.8773293078
 21
-5.0016530067
  0
LWPOLYLINE
  5
256
100
AcDbEntity
  8
IMPORT_IGES
100
AcDbPolyline
 62
253
  6
CONTINUOUS
 90
15
 70
0
 10
-24.0778940369
 20
-2.4384141981
 10
-24.0031303544
 20
-2.4557200808
 10
-23.924541754
 20
-2.4714160803
 10
-23.8422947576
 20
-2.4855051033
 10
-23.7565261974
 20
-2.497903545
 10
-23.6674709824
 20
-2.508701499
 10
-23.5754766277
 20
-2.5181630102
 10
-23.4807882582
 20
-2.5263017448
 10
-23.3836366333
 20
-2.5331123432
 10
-23.284383963
 20
-2.5388309453
 10
-23.1832963756
 20
-2.5434943241
 10
-23.0806497527
 20
-2.5470751674
 10
-22.9768429924
 20
-2.5497138722
 10
-22.8722043688
 20
-2.5514606467
 10
-22.7669856792
 20
-2.552275408
  0
LINE
  5
257
100
AcDbEntity
  8
IMPORT_IGES
100
AcDbLine
 62
253
  6
CONTINUOUS
 10
-5.388591389
 20
-4.9593290776
 11
-5.3672272564
 21
-5.0016530067
  0
LINE
  5
258
100
AcDbEntity
  8
IMPORT_IGES
100
AcDbLine
 62
253
  6
CONTINUOUS
 10
-8.3066149477
 20
0.877122376
 11
-5.388591389
 21
-4.9593290776
  0
LINE
  5
259
100
AcDbEntity
  8
IMPORT_IGES
100
AcDbLine
 62
253
  6
CONTINUOUS
 10
-23.3597778882
 20
53.7274431101
 11
-23.0739080612
 21
52.8663939884
  0
LINE
  5
25A
100
AcDbEntity
  8
IMPORT_IGES
100
AcDbLine
 62
253
  6
CONTINUOUS
 10
-23.0739080612
 20
52.8663939884
 11
-22.6588516798
 21
51.6002428519
  0
LINE
  5
25B
100
AcDbEntity
  8
IMPORT_IGES
100
AcDbLine
 62
253
  6
CONTINUOUS
 10
-22.6588516798
 20
51.6002428519
 11
-22.4315377209
 21
50.9035026586
  0
LINE
  5
25C
100
AcDbEntity
  8
IMPORT_IGES
100
AcDbLine
 62
253
  6
CONTINUOUS
 10
-2.427839565
 20
-2.5521632639
 11
-2.427839565
 21
-2.0622653154
  0
LWPOLYLINE
  5
25D
100
AcDbEntity
  8
IMPORT_IGES
100
AcDbPolyline
 62
253
  6
CONTINUOUS
 90
22
 70
0
 10
-5.3672272564
 20
-45.622877624
 10
-5.3685871605
 20
-45.6589201417
 10
-5.3727018372
 20
-45.6949221262
 10
-5.3795823505
 20
-45.7306912235
 10
-5.3892224019
 20
-45.7660406408
 10
-5.4016088026
 20
-45.8007651432
 10
-5.4167154943
 20
-45.8346441777
 10
-5.434479865
 20
-45.8674698389
 10
-5.45484323
 20
-45.8990658821
 10
-5.4777627357
 20
-45.9292624014
 10
-5.5031523836
 20
-45.9578831436
 10
-5.5309006649
 20
-45.9847372811
 10
-5.560907185
 20
-46.0096412979
 10
-5.5930415672
 20
-46.0324375583
 10
-5.6271485055
 20
-46.052967009
 10
-5.6630651442
 20
-46.0710688139
 10
-5.7005973772
 20
-46.0866144057
 10
-5.739576702
 20
-46.0995050606
 10
-5.7798634443
 20
-46.1096501198
 10
-5.8212776328
 20
-46.1169688599
 10
-5.8635976396
 20
-46.1213943825
 10
-5.9066149477
 20
-46.122877624
  0
LWPOLYLINE
  5
25E
100
AcDbEntity
  8
IMPORT_IGES
100
AcDbPolyline
 62
253
  6
CONTINUOUS
 90
31
 70
0
 10
-2.427839565
 20
-2.0622653271
 10
-2.5791691992
 20
-2.0678196094
 10
-2.7303991628
 20
-2.0812006172
 10
-2.8811601918
 20
-2.1023457395
 10
-3.0311178945
 20
-2.1311964155
 10
-3.1798491536
 20
-2.1676844047
 10
-3.326845485
 20
-2.2117125507
 10
-3.471701745
 20
-2.2631941707
 10
-3.6140383174
 20
-2.3220385629
 10
-3.7533855485
 20
-2.3881098298
 10
-3.8893605166
 20
-2.4613100844
 10
-4.0215428796
 20
-2.5415250867
 10
-4.1494212905
 20
-2.6285636176
 10
-4.2726206336
 20
-2.7223140107
 10
-4.3907665547
 20
-2.8226633386
 10
-4.5032918855
 20
-2.9293253614
 10
-4.6097219941
 20
-3.0420046679
 10
-4.7097712983
 20
-3.1602509561
 10
-4.803180665
 20
-3.2835243556
 10
-4.8898583575
 20
-3.4114137302
 10
-4.969707745
 20
-3.5435236226
 10
-5.0425627554
 20
-3.6793811739
 10
-5.108295969
 20
-3.8185274482
 10
-5.1668324369
 20
-3.9605736731
 10
-5.2180891147
 20
-4.1051485771
 10
-5.2619771028
 20
-4.2519133819
 10
-5.29837593
 20
-4.4003943104
 10
-5.3271746663
 20
-4.550023505
 10
-5.3482960626
 20
-4.7003451704
 10
-5.3616714775
 20
-4.8510186883
 10
-5.3672272447
 20
-5.0016530067
  0
LINE
  5
25F
100
AcDbEntity
  8
IMPORT_IGES
100
AcDbLine
 62
253
  6
CONTINUOUS
 10
-22.7669856792
 20
-2.552275408
 11
-14.1853903305
 21
-2.5521632639
  0
LINE
  5
260
100
AcDbEntity
  8
IMPORT_IGES
100
AcDbLine
 62
253
  6
CONTINUOUS
 10
22.6482496569
 20
-2.0622653154
 11
-2.427839565
 21
-2.0622653154
  0
LINE
  5
261
100
AcDbEntity
  8
IMPORT_IGES
100
AcDbLine
 62
253
  6
CONTINUOUS
 10
-14.1853903304
 20
-2.0622653153
 11
-22.6614795528
 21
-2.0622653153
  0
LWPOLYLINE
  5
262
100
AcDbEntity
  8
IMPORT_IGES
100
AcDbPolyline
 62
253
  6
CONTINUOUS
 90
16
 70
0
 10
-2.4278395654
 20
-2.552163264
 10
22.7537676145
 20
-2.552242245
 10
22.8589872325
 20
-2.5514124199
 10
22.9636160077
 20
-2.5496686832
 10
23.0673972111
 20
-2.5470640462
 10
23.1700084016
 20
-2.5435353882
 10
23.2710666379
 20
-2.5389035467
 10
23.370297498
 20
-2.5331749084
 10
23.4674333181
 20
-2.5263336246
 10
23.5621219321
 20
-2.51816754
 10
23.6541415945
 20
-2.5086884171
 10
23.7432350331
 20
-2.4978761321
 10
23.8290338995
 20
-2.4854713476
 10
23.9112975298
 20
-2.4713855603
 10
23.989896245
 20
-2.4557008091
 10
24.0646641409
 20
-2.4384141982
  0
LWPOLYLINE
  5
263
100
AcDbEntity
  8
IMPORT_IGES
100
AcDbPolyline
 62
253
  6
CONTINUOUS
 90
13
 70
0
 10
-22.6614795528
 20
-2.0622653153
 10
-22.7663745098
 20
-2.0615491794
 10
-22.8688165333
 20
-2.0596694521
 10
-22.9688056234
 20
-2.0565743576
 10
-23.0666629293
 20
-2.0521252816
 10
-23.1620673017
 20
-2.0462578884
 10
-23.2540552927
 20
-2.0390043932
 10
-23.3425990061
 20
-2.0302037264
 10
-23.427726338
 20
-2.0196912408
 10
-23.5085575288
 20
-2.0075151219
 10
-23.5847993251
 20
-1.9935866203
 10
-23.6567449803
 20
-1.9776409967
 10
-23.7243944942
 20
-1.9594772382
  0
LWPOLYLINE
  5
264
100
AcDbEntity
  8
IMPORT_IGES
100
AcDbPolyline
 62
253
  6
CONTINUOUS
 90
28
 70
0
 10
-14.1853903305
 20
-2.5521632639
 10
-14.0363896775
 20
-2.5566899535
 10
-13.8897526429
 20
-2.5691972962
 10
-13.7454792266
 20
-2.5896852921
 10
-13.6031775439
 20
-2.6183109787
 10
-13.4632394794
 20
-2.6549173185
 10
-13.3268406877
 20
-2.6990331988
 10
-13.1940514723
 20
-2.7506753508
 10
-13.0648015296
 20
-2.8098270432
 10
-12.9400556026
 20
-2.8759669704
 10
-12.8197899797
 20
-2.9491261578
 10
-12.7040283726
 20
-3.0292735799
 10
-12.593806659
 20
-3.1157948537
 10
-12.4892088649
 20
-3.2087940977
 10
-12.3901509642
 20
-3.3081671935
 10
-12.2974167563
 20
-3.4129874029
 10
-12.2110270926
 20
-3.5232695358
 10
-12.1309611215
 20
-3.6389987823
 10
-12.057940088
 20
-3.759203975
 10
-11.9920599603
 20
-3.8839078602
 10
-11.9332247702
 20
-4.0130876916
 10
-11.8818678574
 20
-4.1457040629
 10
-11.837975754
 20
-4.2817748685
 10
-11.8015619279
 20
-4.421282214
 10
-11.7731001238
 20
-4.5631330095
 10
-11.7527482565
 20
-4.7069628919
 10
-11.7403484111
 20
-4.8531362242
 10
-11.7359005876
 20
-5.0016530067
  0
LINE
  5
265
100
AcDbEntity
  8
IMPORT_IGES
100
AcDbLine
 62
253
  6
CONTINUOUS
 10
-2.427839565
 20
-2.0622653154
 11
-8.3066149477
 21
0.877122376
  0
LWPOLYLINE
  5
266
100
AcDbEntity
  8
IMPORT_IGES
100
AcDbPolyline
 62
253
  6
CONTINUOUS
 90
19
 70
0
 10
23.627750713
 20
3.767059402
 10
23.6551629079
 20
3.7755043461
 10
23.6823895309
 20
3.7866704928
 10
23.7091725001
 20
3.8004276623
 10
23.7350744343
 20
3.8164641986
 10
23.7600666846
 20
3.8346427781
 10
23.7845109955
 20
3.8552020094
 10
23.8082920705
 20
3.8781105386
 10
23.8311011198
 20
3.9031148007
 10
23.8529704069
 20
3.9303005265
 10
23.8737153127
 20
3.95952377
 10
23.8931051103
 20
3.9905199232
 10
23.9110658894
 20
4.0232292133
 10
23.9273850079
 20
4.0573162795
 10
23.9419407254
 20
4.0925393217
 10
23.9547392707
 20
4.1289813878
 10
23.9656564309
 20
4.1664406281
 10
23.9745195173
 20
4.2044197787
 10
23.9812502557
 20
4.2425452156
  0
LWPOLYLINE
  5
267
100
AcDbEntity
  8
IMPORT_IGES
100
AcDbPolyline
 62
253
  6
CONTINUOUS
 90
16
 70
0
 10
-22.5817736093
 20
4.3412239911
 10
-22.6873816107
 20
4.3405195104
 10
-22.7926318852
 20
4.3391422983
 10
-22.8972317385
 20
4.3370974638
 10
-23.0009208795
 20
4.3344564819
 10
-23.1033817584
 20
4.3311579639
 10
-23.2042440013
 20
4.3270075795
 10
-23.3032334389
 20
4.3220217753
 10
-23.4000841975
 20
4.3161935313
 10
-23.4944572343
 20
4.3092929873
 10
-23.5861326495
 20
4.3013417674
 10
-23.6748506407
 20
4.2923266208
 10
-23.7602464655
 20
4.2819647786
 10
-23.8420783895
 20
4.2701640817
 10
-23.9202125599
 20
4.2570232452
 10
-23.9944801516
 20
4.2425452157
  0
LINE
  5
268
100
AcDbEntity
  8
IMPORT_IGES
100
AcDbLine
 62
253
  6
CONTINUOUS
 10
-22.5817736093
 20
3.8463523318
 11
22.5685437134
 21
3.8463523317
  0
LINE
  5
269
100
AcDbEntity
  8
IMPORT_IGES
100
AcDbLine
 62
253
  6
CONTINUOUS
 10
22.5685437134
 20
4.3412239911
 11
-22.5817736093
 21
4.3412239911
  0
LWPOLYLINE
  5
26A
100
AcDbEntity
  8
IMPORT_IGES
100
AcDbPolyline
 62
253
  6
CONTINUOUS
 90
13
 70
0
 10
22.5685437134
 20
3.8463523317
 10
22.6736959042
 20
3.8458388289
 10
22.7762788081
 20
3.8444974134
 10
22.8762924251
 20
3.8422767189
 10
22.9740495811
 20
3.8390516365
 10
23.0692374502
 20
3.8347460672
 10
23.1609175548
 20
3.8293561804
 10
23.249062531
 20
3.8227270174
 10
23.3336997427
 20
3.81469411
 10
23.4139728052
 20
3.8052631436
 10
23.489596257
 20
3.7943349847
 10
23.5608555596
 20
3.7816656066
 10
23.627750713
 20
3.767059402
  0
LINE
  5
26B
100
AcDbEntity
  8
IMPORT_IGES
100
AcDbLine
 62
7
  6
CONTINUOUS
 10
4.9926836587
 20
54.1967368868
 11
4.9926836587
 21
54.8037264492
  0
LINE
  5
26C
100
AcDbEntity
  8
IMPORT_IGES
100
AcDbLine
 62
253
  6
CONTINUOUS
 10
23.1511222185
 20
53.1407430252
 11
22.418307825
 21
50.9035026586
  0
LINE
  5
26D
100
AcDbEntity
  8
IMPORT_IGES
100
AcDbLine
 62
253
  6
CONTINUOUS
 10
23.3465479922
 20
53.7274431101
 11
23.1511222185
 21
53.1407430252
  0
LWPOLYLINE
  5
26E
100
AcDbEntity
  8
IMPORT_IGES
100
AcDbPolyline
 62
253
  6
CONTINUOUS
 90
13
 70
0
 10
-23.640980609
 20
3.7670594021
 10
-23.5740093782
 20
3.7816625831
 10
-23.5026950211
 20
3.7943325083
 10
-23.4270375377
 20
3.8052641015
 10
-23.3467559872
 20
3.814703559
 10
-23.2621313103
 20
3.8227464024
 10
-23.1740063296
 20
3.8293794177
 10
-23.0823531744
 20
3.8347637196
 10
-22.9871997153
 20
3.839060027
 10
-22.8894723859
 20
3.8422785587
 10
-22.7894799973
 20
3.8444968593
 10
-22.6869137385
 20
3.8458377051
 10
-22.5817736093
 20
3.8463523318
  0
LWPOLYLINE
  5
26F
100
AcDbEntity
  8
IMPORT_IGES
100
AcDbPolyline
 62
253
  6
CONTINUOUS
 90
16
 70
0
 10
23.9812502557
 20
4.2425452156
 10
23.9069974235
 20
4.2570385659
 10
23.8288822777
 20
4.2701884178
 10
23.7470739037
 20
4.2819918198
 10
23.6617135179
 20
4.2923494134
 10
23.5730363061
 20
4.301353987
 10
23.4813841964
 20
4.3092902531
 10
23.3870010445
 20
4.3161636852
 10
23.2901187761
 20
4.321960505
 10
23.1910951681
 20
4.3269359584
 10
23.0901985795
 20
4.3311188192
 10
22.9877012037
 20
4.3344708781
 10
22.8839872795
 20
4.3371465452
 10
22.7793795163
 20
4.3391938933
 10
22.6741340559
 20
4.3405547456
 10
22.5685437134
 20
4.341223991
  0
LWPOLYLINE
  5
270
100
AcDbEntity
  8
IMPORT_IGES
100
AcDbPolyline
 62
253
  6
CONTINUOUS
 90
19
 70
0
 10
23.7111645982
 20
-1.9594772384
 10
23.7381046177
 20
-1.9691445986
 10
23.7648666063
 20
-1.9813570534
 10
23.7911887903
 20
-1.9959519853
 10
23.8166621566
 20
-2.0126376421
 10
23.8412766024
 20
-2.0313381635
 10
23.8653847417
 20
-2.0522851306
 10
23.8888778446
 20
-2.0753916991
 10
23.9114598355
 20
-2.1003941312
 10
23.9331510003
 20
-2.1273937832
 10
23.953758511
 20
-2.1562968436
 10
23.9730842349
 20
-2.186846179
 10
23.9910877807
 20
-2.2189586806
 10
24.0074622761
 20
-2.2520773779
 10
24.0221930974
 20
-2.2861968922
 10
24.0354955013
 20
-2.322110111
 10
24.0472289981
 20
-2.3598898804
 10
24.0570263068
 20
-2.3988093108
 10
24.064663965
 20
-2.4384139719
  0
LINE
  5
271
100
AcDbEntity
  8
IMPORT_IGES
100
AcDbLine
 62
253
  6
CONTINUOUS
 10
20.3447836981
 20
-50.1484350742
 11
21.0209251975
 21
-52.9919942907
  0
LINE
  5
272
100
AcDbEntity
  8
IMPORT_IGES
100
AcDbLine
 62
253
  6
CONTINUOUS
 10
17.4903049423
 20
-46.8521706717
 11
17.7844171674
 21
-48.2354631206
  0
LWPOLYLINE
  5
273
100
AcDbEntity
  8
IMPORT_IGES
100
AcDbPolyline
 62
253
  6
CONTINUOUS
 90
28
 70
0
 10
24.0646641409
 20
-2.4384141982
 10
24.2525627514
 20
-2.3666858231
 10
24.4316422927
 20
-2.2884256387
 10
24.6019027648
 20
-2.2036336451
 10
24.7627269647
 20
-2.1120760117
 10
24.9147320955
 20
-2.013986569
 10
25.0597697656
 20
-1.910066809
 10
25.198070372
 20
-1.8007264143
 10
25.3294035179
 20
-1.6855557024
 10
25.4549296213
 20
-1.5640271176
 10
25.5761718498
 20
-1.4341690253
 10
25.6916070359
 20
-1.2979530601
 10
25.7978260954
 20
-1.1607665699
 10
25.8930096731
 20
-1.024649696
 10
25.9789771242
 20
-0.8875622969
 10
26.0577774294
 20
-0.7487712962
 10
26.129890018
 20
-0.608119728
 10
26.1948354607
 20
-0.4657645582
 10
26.2532244505
 20
-0.3214436066
 10
26.3054362394
 20
-0.17347536
 10
26.3510915754
 20
-0.0235413317
 10
26.389663395
 20
0.1235761178
 10
26.4205057944
 20
0.26648812
 10
26.4442646774
 20
0.4065835434
 10
26.4623506924
 20
0.5432466327
 10
26.4752340552
 20
0.6762721361
 10
26.48244455
 20
0.8058653053
 10
26.4839821766
 20
0.9320261405
  0
LWPOLYLINE
  5
274
100
AcDbEntity
  8
IMPORT_IGES
100
AcDbPolyline
 62
253
  6
CONTINUOUS
 90
55
 70
0
 10
23.627750713
 20
3.767059402
 10
23.8293933028
 20
3.713058705
 10
24.0218171529
 20
3.650182145
 10
24.2050222632
 20
3.5793068707
 10
24.3792093486
 20
3.5012439532
 10
24.5441776943
 20
3.4168818067
 10
24.6993251554
 20
3.3272333695
 10
24.8430866744
 20
3.2342939282
 10
24.977027309
 20
3.1378491351
 10
25.1052400867
 20
3.0349705922
 10
25.2304212764
 20
2.9233287815
 10
25.3498746092
 20
2.8053483145
 10
25.4596043069
 20
2.6851594706
 10
25.5574707032
 20
2.5657642312
 10
25.6456134642
 20
2.4456375217
 10
25.7264558097
 20
2.3222883042
 10
25.8012644386
 20
2.193604924
 10
25.8687726519
 20
2.0622084237
 10
25.9276035725
 20
1.9327125401
 10
25.9765306433
 20
1.8082467545
 10
26.0167804214
 20
1.6867664696
 10
26.050655702
 20
1.5651741192
 10
26.0787723465
 20
1.4427132749
 10
26.1005144935
 20
1.3206260546
 10
26.1163373531
 20
1.1986504622
 10
26.1262903107
 20
1.0769192743
 10
26.130323981
 20
0.9557288571
 10
26.1287454185
 20
0.8350389751
 10
26.121466765
 20
0.7146949493
 10
26.1085758787
 20
0.5952389671
 10
26.0906433881
 20
0.4776582987
 10
26.068173985
 20
0.3636111038
 10
26.0406629776
 20
0.2517307211
 10
26.0071669194
 20
0.138520936
 10
25.9675029323
 20
0.0228483595
 10
25.9218538944
 20
-0.0936366315
 10
25.8698249933
 20
-0.2101624378
 10
25.8113276166
 20
-0.3263903707
 10
25.7464503769
 20
-0.4420969913
 10
25.675064299
 20
-0.5566978571
 10
25.5973214542
 20
-0.6696252869
 10
25.5130697714
 20
-0.7808554426
 10
25.4217240617
 20
-0.8905773568
 10
25.3227757834
 20
-0.9988608882
 10
25.2167334783
 20
-1.1048334665
 10
25.1045375835
 20
-1.2073000626
 10
24.9877738078
 20
-1.3047351444
 10
24.8648564425
 20
-1.3981577191
 10
24.7319687987
 20
-1.4898479913
 10
24.5880782436
 20
-1.5797317221
 10
24.4342174099
 20
-1.6661298683
 10
24.2696675076
 20
-1.7483407103
 10
24.0941889398
 20
-1.8254016413
 10
23.9080213034
 20
-1.896156182
 10
23.7111645982
 20
-1.9594772384
  0
LINE
  5
275
100
AcDbEntity
  8
IMPORT_IGES
100
AcDbLine
 62
253
  6
CONTINUOUS
 10
19.6671702851
 20
48.6010290997
 11
19.5003185634
 21
47.1966927785
  0
LINE
  5
276
100
AcDbEntity
  8
IMPORT_IGES
100
AcDbLine
 62
253
  6
CONTINUOUS
 10
-24.4597949904
 20
-42.3135145363
 11
-23.3970767922
 21
-41.4424080257
  0
LINE
  5
277
100
AcDbEntity
  8
IMPORT_IGES
100
AcDbLine
 62
253
  6
CONTINUOUS
 10
-25.2587302239
 20
-42.9622622938
 11
-24.4597949904
 21
-42.3135145363
  0
LINE
  5
278
100
AcDbEntity
  8
IMPORT_IGES
100
AcDbLine
 62
253
  6
CONTINUOUS
 10
-28.8545990424
 20
-43.5560807322
 11
-28.7146476523
 21
-43.4435857768
  0
LINE
  5
279
100
AcDbEntity
  8
IMPORT_IGES
100
AcDbLine
 62
253
  6
CONTINUOUS
 10
-30.270070969
 20
45.6665563546
 11
-30.4141409305
 21
45.7900141971
  0
LINE
  5
27A
100
AcDbEntity
  8
IMPORT_IGES
100
AcDbLine
 62
253
  6
CONTINUOUS
 10
-25.5576799333
 20
43.658628915
 11
-27.3386016827
 21
45.1977183724
  0
LINE
  5
27B
100
AcDbEntity
  8
IMPORT_IGES
100
AcDbLine
 62
253
  6
CONTINUOUS
 10
-24.6689859774
 20
42.8849580954
 11
-25.5576799333
 21
43.658628915
  0
LINE
  5
27C
100
AcDbEntity
  8
IMPORT_IGES
100
AcDbLine
 62
253
  6
CONTINUOUS
 10
-25.7922523568
 20
-43.3925751772
 11
-25.2587302239
 21
-42.9622622938
  0
LINE
  5
27D
100
AcDbEntity
  8
IMPORT_IGES
100
AcDbLine
 62
253
  6
CONTINUOUS
 10
22.5685437134
 20
4.341223991
 11
22.5685437134
 21
3.8463523317
  0
LINE
  5
27E
100
AcDbEntity
  8
IMPORT_IGES
100
AcDbLine
 62
253
  6
CONTINUOUS
 10
22.6482496569
 20
-2.0622653154
 11
22.6482496569
 21
-2.552163264
  0
LINE
  5
27F
100
AcDbEntity
  8
IMPORT_IGES
100
AcDbLine
 62
253
  6
CONTINUOUS
 10
22.5685437134
 20
4.3412239911
 11
23.2417579107
 21
42.9096395253
  0
LINE
  5
280
100
AcDbEntity
  8
IMPORT_IGES
100
AcDbLine
 62
253
  6
CONTINUOUS
 10
21.9698487254
 20
-41.4177265958
 11
22.6482496569
 21
-2.552163264
  0
LINE
  5
281
100
AcDbEntity
  8
IMPORT_IGES
100
AcDbLine
 62
253
  6
CONTINUOUS
 10
24.6557560815
 20
42.8849580954
 11
23.9812502557
 21
4.2425452156
  0
LINE
  5
282
100
AcDbEntity
  8
IMPORT_IGES
100
AcDbLine
 62
253
  6
CONTINUOUS
 10
24.0646641409
 20
-2.4384141982
 11
23.3838468962
 21
-41.4424080257
  0
LINE
  5
283
100
AcDbEntity
  8
IMPORT_IGES
100
AcDbLine
 62
253
  6
CONTINUOUS
 10
-22.4315377209
 20
50.9035026586
 11
-21.5107248856
 21
50.1364912098
  0
LINE
  5
284
100
AcDbEntity
  8
IMPORT_IGES
100
AcDbLine
 62
253
  6
CONTINUOUS
 10
-21.5107248856
 20
50.1364912098
 11
-20.5936817715
 21
49.3689973934
  0
LINE
  5
285
100
AcDbEntity
  8
IMPORT_IGES
100
AcDbLine
 62
253
  6
CONTINUOUS
 10
-20.5936817715
 20
49.3689973934
 11
-19.6804001811
 21
48.6010290997
  0
LINE
  5
286
100
AcDbEntity
  8
IMPORT_IGES
100
AcDbLine
 62
7
  6
CONTINUOUS
 10
-2.5494910277
 20
55.3516672479
 11
-2.5938902722
 21
55.4398419674
  0
LWPOLYLINE
  5
287
100
AcDbEntity
  8
IMPORT_IGES
100
AcDbPolyline
 62
253
  6
CONTINUOUS
 90
58
 70
0
 10
24.6557560689
 20
42.8849580957
 10
24.6432244325
 20
43.041503418
 10
24.6271933922
 20
43.1976240857
 10
24.6077054191
 20
43.353157535
 10
24.5847786063
 20
43.5081554454
 10
24.5584719376
 20
43.662260419
 10
24.5289335946
 20
43.8147029379
 10
24.4962873155
 20
43.9651751256
 10
24.4605936143
 20
44.1137194903
 10
24.421958044
 20
44.2601028856
 10
24.3805044592
 20
44.4041172777
 10
24.3363075293
 20
44.5457607194
 10
24.2893955079
 20
44.6851190236
 10
24.2398561537
 20
44.8220968929
 10
24.1877743485
 20
44.9566206943
 10
24.1331506047
 20
45.088810118
 10
24.076060976
 20
45.2185807335
 10
24.016582726
 20
45.3458720038
 10
23.9546904789
 20
45.4708376014
 10
23.8903962569
 20
45.5934975743
 10
23.8238075281
 20
45.7137062943
 10
23.7550291789
 20
45.8313738843
 10
23.6841143791
 20
45.9464681061
 10
23.6111097111
 20
46.0589645079
 10
23.536112958
 20
46.1688017085
 10
23.4593508305
 20
46.2757333583
 10
23.3807549831
 20
46.3799452444
 10
23.2999555568
 20
46.4819796774
 10
23.2171053441
 20
46.5816369381
 10
23.1322255162
 20
46.6788734952
 10
23.0446769083
 20
46.7744191763
 10
22.954505283
 20
46.8682424448
 10
22.8618841819
 20
46.9601710995
 10
22.766312959
 20
47.0506595559
 10
22.6676094706
 20
47.139806073
 10
22.5659991199
 20
47.2273392838
 10
22.4615497593
 20
47.3131354874
 10
22.3542863648
 20
47.3971422063
 10
22.2442286271
 20
47.4793078438
 10
22.1314561171
 20
47.5595112362
 10
22.0161048046
 20
47.6376242478
 10
21.8981514749
 20
47.7136417298
 10
21.7774406927
 20
47.7876129806
 10
21.6540276201
 20
47.8594513767
 10
21.5279849757
 20
47.9290730659
 10
21.3991779812
 20
47.9965022191
 10
21.2676744147
 20
48.0616409335
 10
21.1335557972
 20
48.1243919734
 10
20.9967053902
 20
48.1847537296
 10
20.8571150132
 20
48.2426492764
 10
20.7149796187
 20
48.2979251243
 10
20.570495519
 20
48.3504563941
 10
20.423608173
 20
48.4001867785
 10
20.2746171724
 20
48.4469458005
 10
20.1242667898
 20
48.4904862847
 10
19.9729061877
 20
48.5307002542
 10
19.8204871286
 20
48.5675704659
 10
19.6671702837
 20
48.6010290872
  0
LWPOLYLINE
  5
288
100
AcDbEntity
  8
IMPORT_IGES
100
AcDbPolyline
 62
253
  6
CONTINUOUS
 90
55
 70
0
 10
26.4839821766
 20
0.9320261405
 10
26.483350722
 20
0.9997981853
 10
26.4813283177
 20
1.0678197385
 10
26.4779149637
 20
1.1360908003
 10
26.4731238556
 20
1.2046394066
 10
26.4669417978
 20
1.2734375215
 10
26.4593292036
 20
1.3424010361
 10
26.4502842107
 20
1.4115360792
 10
26.4398086815
 20
1.4808365221
 10
26.4278686166
 20
1.5501998704
 10
26.4144630598
 20
1.6196264727
 10
26.3995929674
 20
1.6891159804
 10
26.3832272086
 20
1.7585648537
 10
26.3653802435
 20
1.8279348235
 10
26.346037612
 20
1.8972641589
 10
26.3251248029
 20
1.9665641272
 10
26.3026565837
 20
2.035829171
 10
26.2786181869
 20
2.1050648478
 10
26.2528907992
 20
2.1742990975
 10
26.2254752009
 20
2.2435634155
 10
26.1963706117
 20
2.3128263064
 10
26.1654558771
 20
2.3820212235
 10
26.1327278398
 20
2.4511731736
 10
26.0981896572
 20
2.5202571498
 10
26.0617296468
 20
2.5891315853
 10
26.0233498543
 20
2.6578054648
 10
25.983048234
 20
2.7262698034
 10
25.9407069663
 20
2.7943560803
 10
25.8963220283
 20
2.8620759925
 10
25.8498974429
 20
2.929417843
 10
25.8013274588
 20
2.9961780187
 10
25.7505967816
 20
3.0623550736
 10
25.6977207058
 20
3.1279504538
 10
25.6426393638
 20
3.1927648844
 10
25.5853479672
 20
3.256800339
 10
25.5258513043
 20
3.320054844
 10
25.464103873
 20
3.3823232038
 10
25.4000965842
 20
3.4436190634
 10
25.333838527
 20
3.5039287778
 10
25.2653114659
 20
3.5630062155
 10
25.1945020094
 20
3.6208651865
 10
25.121423549
 20
3.6774918807
 10
25.0460980247
 20
3.7325987366
 10
24.9684884012
 20
3.786207581
 10
24.8886317137
 20
3.8382965869
 10
24.8066610081
 20
3.8885127123
 10
24.7225577325
 20
3.9368561479
 10
24.6363404389
 20
3.9833267029
 10
24.5481978288
 20
4.0275707626
 10
24.4581201242
 20
4.0695825395
 10
24.3661171033
 20
4.1093678211
 10
24.2724068023
 20
4.1465903548
 10
24.1770619001
 20
4.1811380564
 10
24.0800097179
 20
4.2131230099
 10
23.9812502557
 20
4.2425452156
  0
LINE
  5
289
100
AcDbEntity
  8
IMPORT_IGES
100
AcDbLine
 62
253
  6
CONTINUOUS
 10
30.2578814771
 20
45.7750890423
 11
30.2576159635
 21
45.7285743418
  0
LINE
  5
28A
100
AcDbEntity
  8
IMPORT_IGES
100
AcDbLine
 62
253
  6
CONTINUOUS
 10
30.2576159635
 20
45.7285743418
 11
30.2570797838
 21
45.6820531229
  0
LINE
  5
28B
100
AcDbEntity
  8
IMPORT_IGES
100
AcDbLine
 62
253
  6
CONTINUOUS
 10
25.7790224608
 20
-43.3925751772
 11
27.3253717867
 21
45.1977183724
  0
LINE
  5
28C
100
AcDbEntity
  8
IMPORT_IGES
100
AcDbLine
 62
253
  6
CONTINUOUS
 10
30.2570797838
 20
45.6820531229
 11
28.7014177564
 21
-43.4435857768
  0
LINE
  5
28D
100
AcDbEntity
  8
IMPORT_IGES
100
AcDbLine
 62
7
  6
CONTINUOUS
 10
30.4009110345
 20
45.7900141971
 11
28.8413691465
 21
-43.5560807322
  0
LINE
  5
28E
100
AcDbEntity
  8
IMPORT_IGES
100
AcDbLine
 62
253
  6
CONTINUOUS
 10
-17.7976470633
 20
-48.2354631206
 11
-18.6455748498
 21
-48.8736597515
  0
LINE
  5
28F
100
AcDbEntity
  8
IMPORT_IGES
100
AcDbLine
 62
253
  6
CONTINUOUS
 10
-18.6455748498
 20
-48.8736597515
 11
-19.499023488
 21
-49.5113222962
  0
LINE
  5
290
100
AcDbEntity
  8
IMPORT_IGES
100
AcDbLine
 62
253
  6
CONTINUOUS
 10
-19.499023488
 20
-49.5113222962
 11
-20.3580135941
 21
-50.1484350742
  0
LINE
  5
291
100
AcDbEntity
  8
IMPORT_IGES
100
AcDbLine
 62
253
  6
CONTINUOUS
 10
-23.5099169415
 20
53.8500669096
 11
-23.3597780671
 21
53.7274430855
  0
LWPOLYLINE
  5
292
100
AcDbEntity
  8
IMPORT_IGES
100
AcDbPolyline
 62
7
  6
CONTINUOUS
 90
37
 70
0
 10
30.4009110345
 20
45.7900141971
 10
30.3999560266
 20
46.113573356
 10
30.3860840685
 20
46.4357380611
 10
30.35929516
 20
46.7565083124
 10
30.3195003934
 20
47.0763960826
 10
30.2667886765
 20
47.3948893991
 10
30.2014267328
 20
47.7104523435
 10
30.1233545113
 20
48.0230706984
 10
30.0326320631
 20
48.3327586812
 10
29.9297062651
 20
48.6380230264
 10
29.814519264
 20
48.9388421539
 10
29.687128913
 20
49.2352376439
 10
29.5481556488
 20
49.5257809715
 10
29.3975438521
 20
49.810444857
 10
29.2353491422
 20
50.0892565802
 10
29.0623588143
 20
50.3608694556
 10
28.8785214355
 20
50.6252486599
 10
28.6838884387
 20
50.8824290163
 10
28.4794014183
 20
51.1311683097
 10
28.2650132623
 20
51.3714261809
 10
28.0407710828
 20
51.6032429889
 10
27.8077578091
 20
51.8254975953
 10
27.5659311367
 20
52.0381445218
 10
27.3153333702
 20
52.2412292467
 10
27.0571743535
 20
52.4337670666
 10
26.7914185934
 20
52.6157072088
 10
26.5181015831
 20
52.7871004461
 10
26.2385396454
 20
52.9471143932
 10
25.9527025765
 20
53.0956951957
 10
25.6606205801
 20
53.2328967081
 10
25.3637005905
 20
53.3580481085
 10
25.0619193417
 20
53.4710922409
 10
24.7553000995
 20
53.5720862612
 10
24.4453195952
 20
53.6605308152
 10
24.1324700724
 20
53.7362594514
 10
23.8162592874
 20
53.7994386212
 10
23.4966872402
 20
53.8500683247
  0
LINE
  5
293
100
AcDbEntity
  8
IMPORT_IGES
100
AcDbLine
 62
253
  6
CONTINUOUS
 10
30.2579081941
 20
45.8060905538
 11
30.2578814771
 21
45.7750890423
  0
LINE
  5
294
100
AcDbEntity
  8
IMPORT_IGES
100
AcDbLine
 62
253
  6
CONTINUOUS
 10
-21.0341550939
 20
-52.9919942924
 11
-21.1873159415
 21
-53.1013365914
  0
LINE
  5
295
100
AcDbEntity
  8
IMPORT_IGES
100
AcDbLine
 62
253
  6
CONTINUOUS
 10
30.256841073
 20
45.6665563546
 11
27.3253717867
 21
45.1977183724
  0
LINE
  5
296
100
AcDbEntity
  8
IMPORT_IGES
100
AcDbLine
 62
253
  6
CONTINUOUS
 10
-27.3386016827
 20
45.1977183724
 11
-29.9671982226
 21
45.6176477163
  0
LINE
  5
297
100
AcDbEntity
  8
IMPORT_IGES
100
AcDbLine
 62
253
  6
CONTINUOUS
 10
-29.9671982226
 20
45.6176477163
 11
-30.270070969
 21
45.6665563546
  0
LWPOLYLINE
  5
298
100
AcDbEntity
  8
IMPORT_IGES
100
AcDbPolyline
 62
7
  6
CONTINUOUS
 90
12
 70
0
 10
-2.5494910277
 20
55.3516672479
 10
-2.5433396575
 20
55.3469932427
 10
-2.5296887783
 20
55.3424547243
 10
-2.5085803178
 20
55.3380516928
 10
-2.4800786847
 20
55.3337717438
 10
-2.4442704115
 20
55.3296272817
 10
-2.401263749
 20
55.3256555196
 10
-2.351188595
 20
55.3218580391
 10
-2.2941962876
 20
55.3182332586
 10
-2.2304589133
 20
55.3148136469
 10
-2.1601687831
 20
55.311610027
 10
-2.0835378269
 20
55.3086115758
  0
LINE
  5
299
100
AcDbEntity
  8
IMPORT_IGES
100
AcDbLine
 62
253
  6
CONTINUOUS
 10
-24.6689859774
 20
42.8849580954
 11
-23.2549878067
 21
42.9096395253
  0
LINE
  5
29A
100
AcDbEntity
  8
IMPORT_IGES
100
AcDbLine
 62
253
  6
CONTINUOUS
 10
23.2417579107
 20
42.9096395253
 11
24.6557560815
 21
42.8849580954
  0
LINE
  5
29B
100
AcDbEntity
  8
IMPORT_IGES
100
AcDbLine
 62
253
  6
CONTINUOUS
 10
27.2828564316
 20
45.2964454444
 11
27.3018969896
 21
45.2525681797
  0
LWPOLYLINE
  5
29C
100
AcDbEntity
  8
IMPORT_IGES
100
AcDbPolyline
 62
253
  6
CONTINUOUS
 90
3
 70
0
 10
27.3018969896
 20
45.2525681797
 10
27.3207063562
 20
45.2086873629
 10
27.3253717867
 20
45.1977183724
  0
LWPOLYLINE
  5
29D
100
AcDbEntity
  8
IMPORT_IGES
100
AcDbPolyline
 62
253
  6
CONTINUOUS
 90
31
 70
0
 10
19.5003185634
 20
47.1966927785
 10
19.7417276594
 20
47.1616782588
 10
19.9748950834
 20
47.1181756193
 10
20.1998208354
 20
47.0661848599
 10
20.4164695852
 20
47.0053389944
 10
20.624876663
 20
46.936005009
 10
20.8251480594
 20
46.8592838626
 10
21.0169820234
 20
46.7755901648
 10
21.200680306
 20
46.684509306
 10
21.377254151
 20
46.5858984159
 10
21.5472079547
 20
46.4796745919
 10
21.7100373208
 20
46.3659207366
 10
21.8652403043
 20
46.2447426884
 10
22.0128841952
 20
46.1160937144
 10
22.1529017036
 20
45.9800205474
 10
22.2845890143
 20
45.8367692243
 10
22.4077556833
 20
45.686133933
 10
22.5225921546
 20
45.5283204857
 10
22.6289659456
 20
45.3641923549
 10
22.7268127333
 20
45.1938418166
 10
22.8161968407
 20
45.0171765948
 10
22.8971787533
 20
44.8347833351
 10
22.9697388242
 20
44.6472085062
 10
23.0338967004
 20
44.4539056392
 10
23.089771808
 20
44.2538219737
 10
23.1377582244
 20
44.046576151
 10
23.1774618722
 20
43.8325495297
 10
23.2078199454
 20
43.611833425
 10
23.2284781752
 20
43.3844582752
 10
23.2397908303
 20
43.150393642
 10
23.2417579107
 20
42.9096395253
  0
LWPOLYLINE
  5
29E
100
AcDbEntity
  8
IMPORT_IGES
100
AcDbPolyline
 62
253
  6
CONTINUOUS
 90
25
 70
0
 10
20.3447836981
 20
-50.1484350742
 10
20.6328370224
 20
-49.9442642866
 10
20.9177809558
 20
-49.7311025136
 10
21.1992318788
 20
-49.5092874183
 10
21.4768294455
 20
-49.2791531971
 10
21.7501901101
 20
-49.0410685688
 10
22.0189098251
 20
-48.7954407423
 10
22.282334178
 20
-48.5429475875
 10
22.5404443938
 20
-48.2836879963
 10
22.7937557551
 20
-48.017144416
 10
23.0421394356
 20
-47.7433716049
 10
23.2849692541
 20
-47.4629769638
 10
23.5219632027
 20
-47.1762136015
 10
23.7527969932
 20
-46.8833882198
 10
23.977062282
 20
-46.5849304724
 10
24.1943568605
 20
-46.2812930485
 10
24.4043103837
 20
-45.9729154499
 10
24.6066124185
 20
-45.6601726311
 10
24.8009627102
 20
-45.3434376694
 10
24.9872253344
 20
-45.0228063816
 10
25.1648767987
 20
-44.6990480544
 10
25.3331260364
 20
-44.3735785999
 10
25.4916095912
 20
-44.0471915102
 10
25.6403020652
 20
-43.7200347431
 10
25.7790224608
 20
-43.3925751772
  0
LWPOLYLINE
  5
29F
100
AcDbEntity
  8
IMPORT_IGES
100
AcDbPolyline
 62
253
  6
CONTINUOUS
 90
31
 70
0
 10
17.7844171645
 20
-48.235463107
 10
18.1064702508
 20
-48.1389682032
 10
18.4208536826
 20
-48.0312020409
 10
18.7269055967
 20
-47.9128091402
 10
19.0235659252
 20
-47.7846590586
 10
19.3108213201
 20
-47.6471734828
 10
19.5896208758
 20
-47.5001380704
 10
19.8594306229
 20
-47.3440200599
 10
20.1199301787
 20
-47.1792182167
 10
20.3722653315
 20
-47.0050627975
 10
20.6162223167
 20
-46.8215746483
 10
20.8510957906
 20
-46.629223831
 10
21.0771856528
 20
-46.4277016978
 10
21.294039474
 20
-46.2171476945
 10
21.5014493497
 20
-45.9974759152
 10
21.6995251736
 20
-45.7682979944
 10
21.8871344553
 20
-45.5306026362
 10
22.0636310157
 20
-45.2855879194
 10
22.2294786795
 20
-45.0329715912
 10
22.3847536382
 20
-44.7729182843
 10
22.529377618
 20
-44.5058628845
 10
22.6636402715
 20
-44.2313279031
 10
22.7872336933
 20
-43.949977784
 10
22.9001163504
 20
-43.6620618322
 10
23.0026511003
 20
-43.3664525802
 10
23.0944894795
 20
-43.0635703027
 10
23.1753018924
 20
-42.7539415114
 10
23.2451274084
 20
-42.4365484773
 10
23.3035630371
 20
-42.1114480141
 10
23.3499668452
 20
-41.7798206216
 10
23.3838468823
 20
-41.4424080254
  0
LWPOLYLINE
  5
2A0
100
AcDbEntity
  8
IMPORT_IGES
100
AcDbPolyline
 62
253
  6
CONTINUOUS
 90
58
 70
0
 10
-19.6804001796
 20
48.6010290868
 10
-19.8335360548
 20
48.5676024832
 10
-19.985782565
 20
48.5307678514
 10
-20.1369864932
 20
48.4905883961
 10
-20.2871995782
 20
48.4470754515
 10
-20.4360812629
 20
48.400333834
 10
-20.5829022424
 20
48.3506092031
 10
-20.7273799485
 20
48.298062237
 10
-20.8695613359
 20
48.2427471235
 10
-21.0092288689
 20
48.1847993423
 10
-21.146196638
 20
48.1243669119
 10
-21.2804705024
 20
48.0615236739
 10
-21.4121298469
 20
47.9962898217
 10
-21.5410917194
 20
47.9287648407
 10
-21.6672957427
 20
47.859041397
 10
-21.7908536397
 20
47.7871071811
 10
-21.9116917382
 20
47.7130489476
 10
-22.0297612635
 20
47.6369506057
 10
-22.1452059438
 20
47.5587692669
 10
-22.2580443565
 20
47.4785164617
 10
-22.3681501969
 20
47.3963159897
 10
-22.4754528802
 20
47.3122800033
 10
-22.5799313329
 20
47.2264621258
 10
-22.6815631914
 20
47.1389149917
 10
-22.7802927066
 20
47.0497505276
 10
-22.875909306
 20
46.9592242062
 10
-22.9685868107
 20
46.867243743
 10
-23.0587981091
 20
46.7733840698
 10
-23.1463616134
 20
46.6778294626
 10
-23.2312428151
 20
46.5806021933
 10
-23.314078957
 20
46.4809694584
 10
-23.3948416303
 20
46.3789864528
 10
-23.4733888171
 20
46.2748433393
 10
-23.5501160642
 20
46.1679657602
 10
-23.6250965262
 20
46.0581586496
 10
-23.6980894856
 20
45.9456854184
 10
-23.7689869987
 20
45.8306210724
 10
-23.837742923
 20
45.7129925352
 10
-23.9043056529
 20
45.5928307348
 10
-23.9685621888
 20
45.4702363971
 10
-24.0304020236
 20
45.3453654261
 10
-24.0898187817
 20
45.2181923664
 10
-24.1468422792
 20
45.0885517808
 10
-24.2013933631
 20
44.9565111896
 10
-24.2533987739
 20
44.8221536435
 10
-24.3028665193
 20
44.6853352597
 10
-24.3497074107
 20
44.546138124
 10
-24.3938358107
 20
44.404655757
 10
-24.4352369703
 20
44.2607624305
 10
-24.4738328571
 20
44.1144580844
 10
-24.5094952686
 20
43.9659610335
 10
-24.5421261874
 20
43.8154826666
 10
-24.5716620361
 20
43.662973005
 10
-24.5979715239
 20
43.50875894
 10
-24.6209067631
 20
43.353627307
 10
-24.6404068722
 20
43.1979453777
 10
-24.6564485815
 20
43.0416653554
 10
-24.6689859645
 20
42.8849580957
  0
LINE
  5
2A1
100
AcDbEntity
  8
IMPORT_IGES
100
AcDbLine
 62
7
  6
CONTINUOUS
 10
1.7335024575
 20
55.2953230016
 11
1.2288076871
 21
55.2705509029
  0
LWPOLYLINE
  5
2A2
100
AcDbEntity
  8
IMPORT_IGES
100
AcDbPolyline
 62
7
  6
CONTINUOUS
 90
4
 70
0
 10
1.2288076871
 20
55.2705509029
 10
1.0044881337
 20
55.2608629427
 10
0.8886631314
 20
55.2563758233
 10
0.7707245698
 20
55.252372605
  0
LWPOLYLINE
  5
2A3
100
AcDbEntity
  8
IMPORT_IGES
100
AcDbPolyline
 62
7
  6
CONTINUOUS
 90
3
 70
0
 10
1.9875671221
 20
55.3058182935
 10
1.9074622486
 20
55.3027605509
 10
1.7335024575
 20
55.2953230016
  0
LWPOLYLINE
  5
2A4
100
AcDbEntity
  8
IMPORT_IGES
100
AcDbPolyline
 62
7
  6
CONTINUOUS
 90
13
 70
0
 10
1.9875671221
 20
55.3058182935
 10
2.0703080088
 20
55.3086146985
 10
2.1469390116
 20
55.3116157075
 10
2.2172291624
 20
55.3148213203
 10
2.2809665329
 20
55.3182423631
 10
2.3379588203
 20
55.3218680098
 10
2.38803395
 20
55.3256657824
 10
2.4310405866
 20
55.3296372573
 10
2.4668488341
 20
55.3337808582
 10
2.4953504474
 20
55.3380593784
 10
2.5164588946
 20
55.3424604156
 10
2.5301097656
 20
55.3469963721
 10
2.5362611325
 20
55.3516672479
  0
LWPOLYLINE
  5
2A5
100
AcDbEntity
  8
IMPORT_IGES
100
AcDbPolyline
 62
7
  6
CONTINUOUS
 90
10
 70
0
 10
-5.0055651448
 20
54.1967470512
 10
-3.8949725816
 20
54.2255556391
 10
-2.784236952
 20
54.2471621127
 10
-1.6733586061
 20
54.2615664511
 10
-0.5622433153
 20
54.2687686351
 10
0.5490139908
 20
54.2687686329
 10
1.6601292246
 20
54.2615664461
 10
2.7710074563
 20
54.2471621077
 10
3.8817429147
 20
54.2255556358
 10
4.9923352497
 20
54.1967470511
  0
LWPOLYLINE
  5
2A6
100
AcDbEntity
  8
IMPORT_IGES
100
AcDbPolyline
 62
7
  6
CONTINUOUS
 90
6
 70
0
 10
0.7707245698
 20
55.252372605
 10
0.5295453071
 20
55.2458811944
 10
0.407120824
 20
55.243519894
 10
0.2839838069
 20
55.2418538991
 10
0.160389021
 20
55.2408303585
 10
0.0366418947
 20
55.2404492723
  0
LWPOLYLINE
  5
2A7
100
AcDbEntity
  8
IMPORT_IGES
100
AcDbPolyline
 62
7
  6
CONTINUOUS
 90
5
 70
0
 10
-0.0498717898
 20
55.2404492723
 10
-0.1740760616
 20
55.2408243675
 10
-0.2980271583
 20
55.2418468259
 10
-0.4214180825
 20
55.2435166473
 10
-0.5439535899
 20
55.2458886915
  0
LWPOLYLINE
  5
2A8
100
AcDbEntity
  8
IMPORT_IGES
100
AcDbPolyline
 62
7
  6
CONTINUOUS
 90
10
 70
0
 10
4.9926836254
 20
54.8038864741
 10
3.881936271
 20
54.8325322321
 10
2.7710845378
 20
54.8540165742
 10
1.660128776
 20
54.8683394852
 10
0.5489934673
 20
54.8755066714
 10
-0.5622451689
 20
54.8755123887
 10
-1.6733591752
 20
54.8683394804
 10
-2.7842723322
 20
54.8539822545
 10
-3.8950601584
 20
54.8324464471
 10
-5.0057223036
 20
54.8037320765
  0
LWPOLYLINE
  5
2A9
100
AcDbEntity
  8
IMPORT_IGES
100
AcDbPolyline
 62
7
  6
CONTINUOUS
 90
3
 70
0
 10
-0.5439535899
 20
55.2458886915
 10
-0.7851752653
 20
55.2524102903
 10
-0.9032399868
 20
55.2564261767
  0
LINE
  5
2AA
100
AcDbEntity
  8
IMPORT_IGES
100
AcDbLine
 62
7
  6
CONTINUOUS
 10
-1.9210007413
 20
55.3027799871
 11
-2.0835378269
 21
55.3086115758
  0
LINE
  5
2AB
100
AcDbEntity
  8
IMPORT_IGES
100
AcDbLine
 62
7
  6
CONTINUOUS
 10
-0.9032399868
 20
55.2564261767
 11
-1.1327213808
 21
55.2656489916
  0
LINE
  5
2AC
100
AcDbEntity
  8
IMPORT_IGES
100
AcDbLine
 62
7
  6
CONTINUOUS
 10
-1.7475414794
 20
55.2953690747
 11
-1.9210007413
 21
55.3027799871
  0
LINE
  5
2AD
100
AcDbEntity
  8
IMPORT_IGES
100
AcDbLine
 62
7
  6
CONTINUOUS
 10
-1.1327213808
 20
55.2656489916
 11
-1.455757154
 21
55.2809169568
  0
LINE
  5
2AE
100
AcDbEntity
  8
IMPORT_IGES
100
AcDbLine
 62
7
  6
CONTINUOUS
 10
-1.455757154
 20
55.2809169568
 11
-1.7475414794
 21
55.2953690747
  0
LWPOLYLINE
  5
2AF
100
AcDbEntity
  8
IMPORT_IGES
100
AcDbPolyline
 62
253
  6
CONTINUOUS
 90
25
 70
0
 10
22.4183078251
 20
50.9035026584
 10
22.6709994887
 20
50.7430446053
 10
22.9220818719
 20
50.5738105637
 10
23.1709183269
 20
50.3962402181
 10
23.4166871296
 20
50.2109545528
 10
23.6589913575
 20
50.0183579476
 10
23.8978722055
 20
49.8184730862
 10
24.1324825775
 20
49.6120484892
 10
24.3625668724
 20
49.3994254321
 10
24.5890193531
 20
49.1797826801
 10
24.8115158371
 20
48.9533158345
 10
25.0292603925
 20
48.720791789
 10
25.242341779
 20
48.4820541794
 10
25.4502431743
 20
48.2375473813
 10
25.6523797786
 20
47.987899952
 10
25.848652403
 20
47.7331703176
 10
26.0384653278
 20
47.4740075976
 10
26.2213724083
 20
47.2109704483
 10
26.3973952662
 20
46.9439633793
 10
26.5661906301
 20
46.6733309573
 10
26.7270839405
 20
46.4000512586
 10
26.8795638226
 20
46.1249975554
 10
27.0232032533
 20
45.8489448376
 10
27.1577186649
 20
45.572530689
 10
27.2828564316
 20
45.2964454444
  0
LWPOLYLINE
  5
2B0
100
AcDbEntity
  8
IMPORT_IGES
100
AcDbPolyline
 62
7
  6
CONTINUOUS
 90
37
 70
0
 10
-23.5099171362
 20
53.8500683247
 10
-23.8294918492
 20
53.7994381109
 10
-24.1457050925
 20
53.7362582931
 10
-24.4585568661
 20
53.6605288715
 10
-24.7685394173
 20
53.572083373
 10
-25.0751604989
 20
53.4710882707
 10
-25.3769433691
 20
53.358042983
 10
-25.6738647574
 20
53.2328903545
 10
-25.9659479342
 20
53.0956875407
 10
-26.2517859694
 20
52.9471054266
 10
-26.5313486545
 20
52.7870901593
 10
-26.804666198
 20
52.6156955917
 10
-27.0704222943
 20
52.4337541686
 10
-27.3285814462
 20
52.2412151193
 10
-27.5791791509
 20
52.0381292144
 10
-27.8210055947
 20
51.8254812103
 10
-28.0540184691
 20
51.6032256316
 10
-28.2782600827
 20
51.3714079538
 10
-28.4926475468
 20
51.1311493597
 10
-28.6971337466
 20
50.8824094938
 10
-28.8917657969
 20
50.6252287116
 10
-29.0756021536
 20
50.3608492623
 10
-29.2485913816
 20
50.0892363265
 10
-29.4107849159
 20
49.8104247236
 10
-29.5613955186
 20
49.5257611605
 10
-29.7003675686
 20
49.2352183619
 10
-29.8277566869
 20
48.9388236031
 10
-29.9429424983
 20
48.6380054169
 10
-30.0458671488
 20
48.3327422279
 10
-30.1365884924
 20
48.0230556115
 10
-30.214659715
 20
47.7104388272
 10
-30.2800207661
 20
47.3948776623
 10
-30.3327316964
 20
47.0763863296
 10
-30.3725258441
 20
46.7565007269
 10
-30.3993143221
 20
46.4357328202
 10
-30.4131860175
 20
46.1135706436
 10
-30.4141409305
 20
45.7900141971
  0
LWPOLYLINE
  5
2B1
100
AcDbEntity
  8
IMPORT_IGES
100
AcDbPolyline
 62
253
  6
CONTINUOUS
 90
34
 70
0
 10
23.3465479922
 20
53.7274431101
 10
23.6862295122
 20
53.6731333746
 10
24.0245451888
 20
53.603976784
 10
24.3608306326
 20
53.5199373605
 10
24.6963936552
 20
53.4203742988
 10
25.0285151801
 20
53.3057748196
 10
25.3507465805
 20
53.1786158332
 10
25.6589607464
 20
53.0415007499
 10
25.9567565286
 20
52.8938027542
 10
26.2492809598
 20
52.7332249912
 10
26.5377714296
 20
52.5587512564
 10
26.8197184128
 20
52.3715520206
 10
27.0943226757
 20
52.1719829788
 10
27.3609506448
 20
51.9603504554
 10
27.6191055529
 20
51.7368891106
 10
27.8682225549
 20
51.5019162118
 10
28.1076424464
 20
51.2558904688
 10
28.3369554392
 20
50.9990624152
 10
28.5559409842
 20
50.7314363943
 10
28.764154815
 20
50.4532289418
 10
28.9609196503
 20
50.1649984793
 10
29.1456463982
 20
49.8672730061
 10
29.3181813984
 20
49.5598589725
 10
29.477615902
 20
49.2438980316
 10
29.6225455442
 20
48.9221130483
 10
29.7518839444
 20
48.5976549462
 10
29.8666396519
 20
48.2688087764
 10
29.9681945713
 20
47.9309035925
 10
30.056786492
 20
47.5800017183
 10
30.1302325524
 20
47.2209861556
 10
30.1866951076
 20
46.8624873175
 10
30.2262919607
 20
46.5079976573
 10
30.2498901213
 20
46.1556260806
 10
30.2579081941
 20
45.8060905538
  0
ARC
  5
2B2
100
AcDbEntity
  8
IMPORT_IGES
100
AcDbCircle
 62
7
  6
CONTINUOUS
 10
-0.006614948
 20
-116.9867808107
 40
172.4460328226
100
AcDbArc
 50
82.1665669627
 51
89.1403367406
  0
ARC
  5
2B3
100
AcDbEntity
  8
IMPORT_IGES
100
AcDbCircle
 62
7
  6
CONTINUOUS
 10
-0.006614948
 20
-116.9867808107
 40
172.4460328226
100
AcDbArc
 50
90.8596632591
 51
97.8334330373
  0
ARC
  5
2B4
100
AcDbEntity
  8
IMPORT_IGES
100
AcDbCircle
 62
7
  6
CONTINUOUS
 10
-0.006614948
 20
-116.9867808107
 40
172.3666666667
100
AcDbArc
 50
89.1546811764
 51
90.8453188233
  0
ARC
  5
2B5
100
AcDbEntity
  8
IMPORT_IGES
100
AcDbCircle
 62
253
  6
CONTINUOUS
 10
-0.006614948
 20
-116.9867808107
 40
172.3041394401
100
AcDbArc
 50
90.6631341967
 51
97.7895310952
  0
ARC
  5
2B6
100
AcDbEntity
  8
IMPORT_IGES
100
AcDbCircle
 62
253
  6
CONTINUOUS
 10
-0.006614948
 20
-116.9867808107
 40
172.3041394401
100
AcDbArc
 50
82.2104689048
 51
89.336865803
  0
ARC
  5
2B7
100
AcDbEntity
  8
IMPORT_IGES
100
AcDbCircle
 62
7
  6
CONTINUOUS
 10
-0.006614948
 20
-116.9867808107
 40
172.2272355152
100
AcDbArc
 50
89.985609509
 51
90.0143904907
  0
ARC
  5
2B8
100
AcDbEntity
  8
IMPORT_IGES
100
AcDbCircle
 62
253
  6
CONTINUOUS
 10
-0.006614948
 20
-116.9867808107
 40
169.3812989818
100
AcDbArc
 50
82.3920950526
 51
97.6079049474
  0
ARC
  5
2B9
100
AcDbEntity
  8
IMPORT_IGES
100
AcDbCircle
 62
253
  6
CONTINUOUS
 10
-0.006614948
 20
-116.9867808107
 40
166.7524531043
100
AcDbArc
 50
83.2243485951
 51
96.7756514049
  0
ARC
  5
2BA
100
AcDbEntity
  8
IMPORT_IGES
100
AcDbCircle
 62
253
  6
CONTINUOUS
 10
-0.006614948
 20
-116.9867808107
 40
165.3382395419
100
AcDbArc
 50
83.2243485951
 51
96.7756514049
  0
ARC
  5
2BB
100
AcDbEntity
  8
IMPORT_IGES
100
AcDbCircle
 62
7
  6
CONTINUOUS
 10
-0.006614948
 20
35.4407607449
 40
91.0402410449
100
AcDbArc
 50
256.5467387323
 51
283.4532612677
  0
ARC
  5
2BC
100
AcDbEntity
  8
IMPORT_IGES
100
AcDbCircle
 62
253
  6
CONTINUOUS
 10
-0.006614948
 20
35.4407607449
 40
90.8983476624
100
AcDbArc
 50
256.6245965037
 51
283.3754034963
  0
ARC
  5
2BD
100
AcDbEntity
  8
IMPORT_IGES
100
AcDbCircle
 62
253
  6
CONTINUOUS
 10
-0.006614948
 20
35.4407607449
 40
87.9755072041
100
AcDbArc
 50
256.6245965037
 51
283.3754034963
  0
ARC
  5
2BE
100
AcDbEntity
  8
IMPORT_IGES
100
AcDbCircle
 62
253
  6
CONTINUOUS
 10
-0.006614948
 20
35.4407607449
 40
85.5466613266
100
AcDbArc
 50
257.9966577655
 51
282.0033422345
  0
ARC
  5
2BF
100
AcDbEntity
  8
IMPORT_IGES
100
AcDbCircle
 62
253
  6
CONTINUOUS
 10
-0.006614948
 20
35.4407607449
 40
84.1324477642
100
AcDbArc
 50
257.9966577655
 51
282.0033422345
  0
CIRCLE
  5
2C0
100
AcDbEntity
  8
IMPORT_IGES
100
AcDbCircle
 62
7
  6
CONTINUOUS
 10
-0.006614948
 20
10.6675013672
 40
1.0
  0
CIRCLE
  5
2C1
100
AcDbEntity
  8
IMPORT_IGES
100
AcDbCircle
 62
7
  6
CONTINUOUS
 10
6.993385052
 20
20.1675013672
 40
1.0
  0
CIRCLE
  5
2C2
100
AcDbEntity
  8
IMPORT_IGES
100
AcDbCircle
 62
7
  6
CONTINUOUS
 10
-0.006614948
 20
29.6675013672
 40
1.0
  0
CIRCLE
  5
2C3
100
AcDbEntity
  8
IMPORT_IGES
100
AcDbCircle
 62
7
  6
CONTINUOUS
 10
-7.006614948
 20
20.1675013672
 40
1.0
  0
ENDSEC
  0
SECTION
  2
OBJECTS
  0
DICTIONARY
  5
C
100
AcDbDictionary
280
0
281
1
  3
ACAD_GROUP
350
D
  3
ACAD_MLINESTYLE
350
17
  3
ACAD_LAYOUT
350
1A
  3
ACAD_PLOTSETTINGS
350
19
  3
ACAD_PLOTSTYLENAME
350
E
  0
DICTIONARY
  5
D
102
{ACAD_REACTORS
330
C
102
}
100
AcDbDictionary
280
0
281
1
  0
ACDBDICTIONARYWDFLT
  5
E
102
{ACAD_REACTORS
330
C
102
}
100
AcDbDictionary
281
1
  3
Normal
350
F
100
AcDbDictionaryWithDefault
340
F
  0
DICTIONARY
  5
17
102
{ACAD_REACTORS
330
C
102
}
100
AcDbDictionary
280
0
281
1
  3
Standard
350
18
  0
DICTIONARY
  5
19
102
{ACAD_REACTORS
330
C
102
}
100
AcDbDictionary
281
1
  0
DICTIONARY
  5
1A
102
{ACAD_REACTORS
330
C
102
}
100
AcDbDictionary
281
1
  3
Model
350
2C4
  3
Layout1
350
2C5
  0
ACDBPLACEHOLDER
  5
F
102
{ACAD_REACTORS
330
E
102
}
  0
MLINESTYLE
  5
18
102
{ACAD_REACTORS
330
17
102
}
100
AcDbMlineStyle
  2
STANDARD
 70
0
  3

 62
256
 51
90.0
 52
90.0
 71
2
 49
0.5
 62
256
  6
BYLAYER
 49
-0.5
 62
256
  6
BYLAYER
  0
LAYOUT
  5
2C4
102
{ACAD_REACTORS
330
1A
102
}
100
AcDbPlotSettings
  1

  2
none_device
  4
ISO_A4_(297.00_x_210.00_MM)
  6

 40
0.0
 41
0.0
 42
0.0
 43
0.0
 44
297.0
 45
210.0
 46
0.0
 47
0.0
 48
0.0
 49
0.0
140
0.0
141
0.0
142
1.0
143
1.0
 70
1024
 72
1
 73
0
 74
0
  7

 75
0
147
1.0
148
0.0
149
0.0
100
AcDbLayout
  1
Model
 70
0
 71
0
 10
0.0
 20
0.0
 11
297.0
 21
210.0
 12
0.0
 22
0.0
 32
0.0
 14
0.0
 24
0.0
 34
0.0
 15
0.0
 25
0.0
 35
0.0
146
0.0
 13
0.0
 23
0.0
 33
0.0
 16
1.0
 26
0.0
 36
0.0
 17
0.0
 27
1.0
 37
0.0
 76
0
330
20F
345
0
346
0
  0
LAYOUT
  5
2C5
102
{ACAD_REACTORS
330
1A
102
}
100
AcDbPlotSettings
  1

  2
none_device
  4
ISO_A4_(297.00_x_210.00_MM)
  6

 40
0.0
 41
0.0
 42
0.0
 43
0.0
 44
297.0
 45
210.0
 46
0.0
 47
0.0
 48
0.0
 49
0.0
140
0.0
141
0.0
142
1.0
143
1.0
 70
0
 72
1
 73
0
 74
0
  7

 75
0
147
1.0
148
0.0
149
0.0
100
AcDbLayout
  1
Layout1
 70
0
 71
1
 10
0.0
 20
0.0
 11
297.0
 21
210.0
 12
0.0
 22
0.0
 32
0.0
 14
0.0
 24
0.0
 34
0.0
 15
0.0
 25
0.0
 35
0.0
146
0.0
 13
0.0
 23
0.0
 33
0.0
 16
1.0
 26
0.0
 36
0.0
 17
0.0
 27
1.0
 37
0.0
 76
0
330
210
345
0
346
0
  0
ENDSEC
  0
EOF
