  0
SECTION
  2
HEADER
  9
$ACADVER
  1
AC1021
  9
$DWGCODEPAGE
  3
ANSI_1252
  9
$EXTMAX
 10
297.0
 20
210.0
 30
0.0
  9
$EXTMIN
 10
0.0
 20
0.0
 30
0.0
  9
$LIMMIN
 10
0.0
 20
0.0
  9
$LIMMAX
 10
297.0
 20
210.0
  9
$VIEWCTR
 10
148.5
 20
105.0
  9
$VIEWSIZE
 40
210.0
  9
$CLAYER
  8
0
  9
$LTSCALE
 40
16.335
  9
$CELTYPE
  6
BYLAYER
  9
$DIMSCALE
 40
1.0
  9
$DIMASZ
 40
3.0
  9
$DIMEXO
 40
0.5
  9
$DIMDLI
 40
11.286
  9
$DIMEXE
 40
1.5
  9
$DIMCEN
 40
2.673
  9
$DIMLFAC
 40
1.0
  9
$DIMBLK
  1
_FILLED
  9
$DIMALT
 70
0
  9
$DIMALTF
 40
0.0393700787
  9
$DIMTXT
 40
3.0
  9
$DIMTOL
 70
1
  9
$DIMLIM
 70
0
  9
$DIMTFAC
 40
1.0
  9
$DIMTP
 40
0.01
  9
$DIMTM
 40
0.01
  9
$DIMGAP
 40
0.625
  9
$DIMDSEP
 70
44
  9
$AUNITS
 70
0
  9
$PDMODE
 70
3
  9
$PDSIZE
 40
3.0
  9
$HANDSEED
  5
33D
  9
$TILEMODE
 70
1
  9
$MEASUREMENT
 70
1
  9
$INSUNITS
 70
4
  0
ENDSEC
  0
SECTION
  2
CLASSES
  0
CLASS
  1
ACDBDICTIONARYWDFLT
  2
AcDbDictionaryWithDefault
  3
AutoCAD 2000
 90
0
 91
1
280
0
281
0
  0
CLASS
  1
ACDBPLACEHOLDER
  2
AcDbPlaceHolder
  3
AutoCAD 2000
 90
0
 91
1
280
0
281
0
  0
CLASS
  1
LAYOUT
  2
AcDbLayout
  3
AutoCAD 2000
 90
0
 91
0
280
0
281
0
  0
ENDSEC
  0
SECTION
  2
TABLES
  0
TABLE
  2
VPORT
  5
8
100
AcDbSymbolTable
 70
2
  0
VPORT
  5
1F4
100
AcDbSymbolTableRecord
100
AcDbViewportTableRecord
  2
*ACTIVE
 70
0
 10
0.0
 20
0.0
 11
1.0
 21
1.0
 12
148.5
 22
105.0
 13
0.0
 23
0.0
 14
1.0
 24
1.0
 15
0.0
 25
0.0
 16
0.0
 26
0.0
 36
1.0
 17
0.0
 27
0.0
 37
0.0
 40
210.0
 41
1.4142857143
 42
50.0
 43
0.0
 44
0.0
 50
0.0
 51
0.0
 71
0
 72
100
 73
1
 74
1
 75
0
 76
0
 77
0
 78
0
  0
ENDTAB
  0
TABLE
  2
LTYPE
  5
5
100
AcDbSymbolTable
 70
6
  0
LTYPE
  5
14
100
AcDbSymbolTableRecord
100
AcDbLinetypeTableRecord
  2
BYBLOCK
 70
0
  3

 72
65
 73
0
 40
0.0
  0
LTYPE
  5
15
100
AcDbSymbolTableRecord
100
AcDbLinetypeTableRecord
  2
BYLAYER
 70
0
  3

 72
65
 73
0
 40
0.0
  0
LTYPE
  5
16
100
AcDbSymbolTableRecord
100
AcDbLinetypeTableRecord
  2
CONTINUOUS
 70
64
  3
Solid line
 72
65
 73
0
 40
0.0
  0
LTYPE
  5
1F5
100
AcDbSymbolTableRecord
100
AcDbLinetypeTableRecord
  2
CENTER
 70
64
  3
____ _ ____ _ ____ _ ____ _ ____ _ ____ _ ____
 72
65
 73
4
 40
0.6
 49
0.375
 74
0
 49
-0.075
 74
0
 49
0.075
 74
0
 49
-0.075
 74
0
  0
LTYPE
  5
1F6
100
AcDbSymbolTableRecord
100
AcDbLinetypeTableRecord
  2
HIDDEN
 70
64
  3
- - - - - - - - - - - - - - - - - - - -
 72
65
 73
2
 40
0.2
 49
0.1
 74
0
 49
-0.1
 74
0
  0
LTYPE
  5
1F7
100
AcDbSymbolTableRecord
100
AcDbLinetypeTableRecord
  2
PHANTOM
 70
64
  3
_____ _ _ _____ _ _ _____ _ _ _____
 72
65
 73
6
 40
0.8
 49
0.45
 74
0
 49
-0.05
 74
0
 49
0.1
 74
0
 49
-0.05
 74
0
 49
0.1
 74
0
 49
-0.05
 74
0
  0
LTYPE
  5
1F8
100
AcDbSymbolTableRecord
100
AcDbLinetypeTableRecord
  2
DOT
 70
64
  3
. . . . . . . . . . . . . . . . . . . .
 72
65
 73
2
 40
0.2
 49
0.1
 74
0
 49
-0.1
 74
0
  0
LTYPE
  5
1F9
100
AcDbSymbolTableRecord
100
AcDbLinetypeTableRecord
  2
DASHED
 70
64
  3
- - - - - - - - - - - - - - - - - - - -
 72
65
 73
2
 40
0.2
 49
0.1
 74
0
 49
-0.1
 74
0
  0
ENDTAB
  0
TABLE
  2
LAYER
  5
2
100
AcDbSymbolTable
 70
36
  0
LAYER
  5
10
100
AcDbSymbolTableRecord
100
AcDbLayerTableRecord
  2
0
 70
0
 62
7
  6
CONTINUOUS
370
-3
390
F
  0
LAYER
  5
1FA
100
AcDbSymbolTableRecord
100
AcDbLayerTableRecord
  2
DEFAULT_1
 70
0
 62
7
  6
CENTER
370
-3
390
F
  0
LAYER
  5
1FB
100
AcDbSymbolTableRecord
100
AcDbLayerTableRecord
  2
DEFAULT_2
 70
0
 62
7
  6
HIDDEN
370
-3
390
F
  0
LAYER
  5
1FC
100
AcDbSymbolTableRecord
100
AcDbLayerTableRecord
  2
DEFAULT_3
 70
0
 62
7
  6
PHANTOM
370
-3
390
F
  0
LAYER
  5
1FD
100
AcDbSymbolTableRecord
100
AcDbLayerTableRecord
  2
ASSI
 70
0
 62
7
  6
CONTINUOUS
370
-3
390
F
  0
LAYER
  5
1FE
100
AcDbSymbolTableRecord
100
AcDbLayerTableRecord
  2
COLOR5
 70
0
 62
7
  6
CONTINUOUS
370
-3
390
F
  0
LAYER
  5
1FF
100
AcDbSymbolTableRecord
100
AcDbLayerTableRecord
  2
COORDINATE
 70
0
 62
7
  6
CONTINUOUS
370
-3
390
F
  0
LAYER
  5
200
100
AcDbSymbolTableRecord
100
AcDbLayerTableRecord
  2
COORD_ORIGINE
 70
0
 62
7
  6
CONTINUOUS
370
-3
390
F
  0
LAYER
  5
201
100
AcDbSymbolTableRecord
100
AcDbLayerTableRecord
  2
COPY_PUBLISH
 70
0
 62
7
  6
CONTINUOUS
370
-3
390
F
  0
LAYER
  5
202
100
AcDbSymbolTableRecord
100
AcDbLayerTableRecord
  2
COSMETIC
 70
0
 62
7
  6
CONTINUOUS
370
-3
390
F
  0
LAYER
  5
203
100
AcDbSymbolTableRecord
100
AcDbLayerTableRecord
  2
CURVE
 70
0
 62
7
  6
CONTINUOUS
370
-3
390
F
  0
LAYER
  5
204
100
AcDbSymbolTableRecord
100
AcDbLayerTableRecord
  2
DRAFT
 70
0
 62
7
  6
CONTINUOUS
370
-3
390
F
  0
LAYER
  5
205
100
AcDbSymbolTableRecord
100
AcDbLayerTableRecord
  2
IMPORT_IGES
 70
0
 62
7
  6
CONTINUOUS
370
-3
390
F
  0
LAYER
  5
206
100
AcDbSymbolTableRecord
100
AcDbLayerTableRecord
  2
INTFCLR_13
 70
0
 62
7
  6
CONTINUOUS
370
-3
390
F
  0
LAYER
  5
207
100
AcDbSymbolTableRecord
100
AcDbLayerTableRecord
  2
INTF_3
 70
0
 62
7
  6
CONTINUOUS
370
-3
390
F
  0
LAYER
  5
208
100
AcDbSymbolTableRecord
100
AcDbLayerTableRecord
  2
INTF_5
 70
0
 62
7
  6
CONTINUOUS
370
-3
390
F
  0
LAYER
  5
209
100
AcDbSymbolTableRecord
100
AcDbLayerTableRecord
  2
LAYER_1
 70
0
 62
7
  6
CONTINUOUS
370
-3
390
F
  0
LAYER
  5
20A
100
AcDbSymbolTableRecord
100
AcDbLayerTableRecord
  2
NOTE
 70
0
 62
7
  6
CONTINUOUS
370
-3
390
F
  0
LAYER
  5
20B
100
AcDbSymbolTableRecord
100
AcDbLayerTableRecord
  2
PIANI
 70
0
 62
7
  6
CONTINUOUS
370
-3
390
F
  0
LAYER
  5
20C
100
AcDbSymbolTableRecord
100
AcDbLayerTableRecord
  2
PIANI_ORIGINE
 70
0
 62
7
  6
CONTINUOUS
370
-3
390
F
  0
LAYER
  5
20D
100
AcDbSymbolTableRecord
100
AcDbLayerTableRecord
  2
PUNTI
 70
0
 62
7
  6
CONTINUOUS
370
-3
390
F
  0
LAYER
  5
20E
100
AcDbSymbolTableRecord
100
AcDbLayerTableRecord
  2
RACCORDO
 70
0
 62
7
  6
CONTINUOUS
370
-3
390
F
  0
LAYER
  5
20F
100
AcDbSymbolTableRecord
100
AcDbLayerTableRecord
  2
SNAPLINE
 70
0
 62
7
  6
CONTINUOUS
370
-3
390
F
  0
LAYER
  5
210
100
AcDbSymbolTableRecord
100
AcDbLayerTableRecord
  2
SUPERFICI
 70
0
 62
7
  6
CONTINUOUS
370
-3
390
F
  0
LAYER
  5
211
100
AcDbSymbolTableRecord
100
AcDbLayerTableRecord
  2
TRASH
 70
0
 62
7
  6
CONTINUOUS
370
-3
390
F
  0
LAYER
  5
212
100
AcDbSymbolTableRecord
100
AcDbLayerTableRecord
  2
WHITE
 70
0
 62
7
  6
CONTINUOUS
370
-3
390
F
  0
LAYER
  5
213
100
AcDbSymbolTableRecord
100
AcDbLayerTableRecord
  2
XSEC_DATUMS
 70
0
 62
7
  6
CONTINUOUS
370
-3
390
F
  0
ENDTAB
  0
TABLE
  2
STYLE
  5
3
100
AcDbSymbolTable
 70
1
  0
STYLE
  5
11
100
AcDbSymbolTableRecord
100
AcDbTextStyleTableRecord
  2
STANDARD
 70
0
 40
0.0
 41
0.8
 50
0.0
 71
0
 42
0.2
  3
txt
  4

  0
STYLE
  5
214
100
AcDbSymbolTableRecord
100
AcDbTextStyleTableRecord
  2
TEXTSTYLE_1
 70
0
 40
0.0
 41
0.8
 50
0.0
 71
0
 42
0.2
  3
gdt
  4

  0
ENDTAB
  0
TABLE
  2
VIEW
  5
6
100
AcDbSymbolTable
 70
0
  0
ENDTAB
  0
TABLE
  2
UCS
  5
7
100
AcDbSymbolTable
 70
0
  0
ENDTAB
  0
TABLE
  2
APPID
  5
9
100
AcDbSymbolTable
 70
1
  0
APPID
  5
215
100
AcDbSymbolTableRecord
100
AcDbRegAppTableRecord
  2
ACAD
 70
0
  0
ENDTAB
  0
TABLE
  2
BLOCK_RECORD
  5
1
100
AcDbSymbolTable
 70
0
  0
BLOCK_RECORD
  5
216
100
AcDbSymbolTableRecord
100
AcDbBlockTableRecord
  2
*Model_Space
  0
BLOCK_RECORD
  5
217
100
AcDbSymbolTableRecord
100
AcDbBlockTableRecord
  2
*Paper_Space
  0
ENDTAB
  0
TABLE
  2
DIMSTYLE
  5
A
100
AcDbSymbolTable
 70
1
100
AcDbDimStyleTable
 71
0
  0
DIMSTYLE
105
218
100
AcDbSymbolTableRecord
100
AcDbDimStyleTableRecord
  2
STANDARD
 70
0
  3

  4

 40
1.0
 41
3.0
 42
0.5
 43
0.38
 44
1.5
 45
0.0
 46
0.0
 47
0.01
 48
0.01
140
3.0
141
0.09
142
0.0
143
25.4
144
1.0
145
0.0
146
1.0
147
0.625
 71
1.0
 72
0.0
 73
0
 74
0
 75
0
 76
0
 77
1
 78
8
170
0
171
2
172
0
173
0
174
0
175
0
176
0
177
0
178
0
270
2
271
2
272
2
273
2
274
2
275
0
280
0
281
0
282
0
283
1
284
8
285
0
286
0
287
3
288
0
340
11
278
44
  0
ENDTAB
  0
ENDSEC
  0
SECTION
  2
BLOCKS
  0
BLOCK
  5
20
100
AcDbEntity
  8
0
100
AcDbBlockBegin
  2
*Model_Space
 70
0
 10
0.0
 20
0.0
 30
0.0
  3
*Model_Space
  1

  0
ENDBLK
  5
21
100
AcDbEntity
  8
0
100
AcDbBlockEnd
  0
BLOCK
  5
1C
100
AcDbEntity
  8
0
100
AcDbBlockBegin
  2
*Paper_Space
 70
0
 10
0.0
 20
0.0
 30
0.0
  3
*Paper_Space
  1

  0
ENDBLK
  5
1D
100
AcDbEntity
  8
0
100
AcDbBlockEnd
  0
ENDSEC
  0
SECTION
  2
ENTITIES
  0
LWPOLYLINE
  5
219
100
AcDbEntity
  8
DRAFT
100
AcDbPolyline
 62
7
  6
CONTINUOUS
 90
4
 70
0
 10
-13.2592070523
 20
41.3371976699
 10
-13.0258669013
 20
41.4121979269
 10
-12.7891647456
 20
41.4724264118
 10
-12.5482541516
 20
41.5182193464
  0
LWPOLYLINE
  5
21A
100
AcDbEntity
  8
DRAFT
100
AcDbPolyline
 62
7
  6
CONTINUOUS
 90
3
 70
0
 10
11.854260611
 20
-43.6945047622
 10
9.1744881319
 20
-43.9136204015
 10
8.2391495656
 20
-43.9709364392
  0
LWPOLYLINE
  5
21B
100
AcDbEntity
  8
0
100
AcDbPolyline
 62
7
  6
CONTINUOUS
 90
3
 70
0
 10
8.1019022069
 20
-43.9817128167
 10
9.9877514893
 20
-43.8336398483
 10
11.8706621047
 20
-43.6552649157
  0
LWPOLYLINE
  5
21C
100
AcDbEntity
  8
0
100
AcDbPolyline
 62
7
  6
CONTINUOUS
 90
5
 70
0
 10
0.5332299045
 20
-44.2709850471
 10
2.4287748951
 20
-44.244119936
 10
4.3222073638
 20
-44.1869528605
 10
6.2133188632
 20
-44.0994838208
 10
8.1019022069
 20
-43.9817128167
  0
LINE
  5
21D
100
AcDbEntity
  8
DRAFT
100
AcDbLine
 62
7
  6
CONTINUOUS
 10
0.5332299045
 20
-44.2422938562
 11
-0.9667700955
 21
-44.2422938547
  0
LWPOLYLINE
  5
21E
100
AcDbEntity
  8
RACCORDO
100
AcDbPolyline
 62
7
  6
CONTINUOUS
 90
10
 70
0
 10
0.0332299045
 20
-44.1489206011
 10
0.1193439166
 20
-44.1502969505
 10
0.2031073847
 20
-44.1536688165
 10
0.281971872
 20
-44.1590361993
 10
0.3535614003
 20
-44.1667409936
 10
0.4155559192
 20
-44.1764413047
 10
0.4658577306
 20
-44.1871114478
 10
0.5028974095
 20
-44.1984095278
 10
0.5255875556
 20
-44.2106774397
 10
0.5332299045
 20
-44.2239151835
  0
LWPOLYLINE
  5
21F
100
AcDbEntity
  8
DRAFT
100
AcDbPolyline
 62
7
  6
CONTINUOUS
 90
3
 70
0
 10
-8.6725226227
 20
-43.9709466829
 10
-9.6080284101
 20
-43.9136203975
 10
-12.287800802
 20
-43.6945047622
  0
LWPOLYLINE
  5
220
100
AcDbEntity
  8
0
100
AcDbPolyline
 62
7
  6
CONTINUOUS
 90
6
 70
0
 10
-10.421214289
 20
-43.833644133
 10
-8.5353189389
 20
-43.9817195459
 10
-6.6467202658
 20
-44.0994913437
 10
-4.7556242203
 20
-44.1869595265
 10
-2.862238013
 20
-44.2441240943
 10
-0.9667700955
 20
-44.2709850471
  0
LINE
  5
221
100
AcDbEntity
  8
0
100
AcDbLine
 62
7
  6
CONTINUOUS
 10
-12.3042016454
 20
-43.6552651051
 11
-10.421214289
 21
-43.833644133
  0
LWPOLYLINE
  5
222
100
AcDbEntity
  8
DRAFT
100
AcDbPolyline
 62
7
  6
CONTINUOUS
 90
3
 70
0
 10
-12.287800802
 20
-43.6945047622
 10
-12.5338635386
 20
-43.6639630753
 10
-12.7757382549
 20
-43.6188748222
  0
LWPOLYLINE
  5
223
100
AcDbEntity
  8
RACCORDO
100
AcDbPolyline
 62
7
  6
CONTINUOUS
 90
3
 70
0
 10
-12.3042016454
 20
-43.6552651051
 10
-12.7818854409
 20
-43.5773696332
 10
-13.2373195404
 20
-43.4445174658
  0
LWPOLYLINE
  5
224
100
AcDbEntity
  8
DRAFT
100
AcDbPolyline
 62
7
  6
CONTINUOUS
 90
3
 70
0
 10
-12.7757382549
 20
-43.6188748222
 10
-13.0134256752
 20
-43.5592400026
 10
-13.247786436
 20
-43.4847185005
  0
LWPOLYLINE
  5
225
100
AcDbEntity
  8
DRAFT
100
AcDbPolyline
 62
7
  6
CONTINUOUS
 90
17
 70
0
 10
-13.247786436
 20
-43.4847185005
 10
-13.4779612598
 20
-43.395650432
 10
-13.7013717562
 20
-43.2930561458
 10
-13.9179462825
 20
-43.1767859058
 10
-14.1277595463
 20
-43.0469894482
 10
-14.3284540441
 20
-42.9051363299
 10
-14.5199303438
 20
-42.7510937881
 10
-14.7022921005
 20
-42.5849945858
 10
-14.8734875086
 20
-42.4087065682
 10
-15.0333957272
 20
-42.2221172236
 10
-15.1821423572
 20
-42.0253390638
 10
-15.3180459333
 20
-41.8205774698
 10
-15.4409676396
 20
-41.6077422314
 10
-15.5510508313
 20
-41.3869235587
 10
-15.6470375563
 20
-41.1605974632
 10
-15.7287735312
 20
-40.9286960913
 10
-15.7964165974
 20
-40.6912872965
  0
LWPOLYLINE
  5
226
100
AcDbEntity
  8
RACCORDO
100
AcDbPolyline
 62
7
  6
CONTINUOUS
 90
9
 70
0
 10
-13.2373195404
 20
-43.4445174658
 10
-13.6705130199
 20
-43.2567086029
 10
-14.0891884333
 20
-43.0091648787
 10
-14.4856392965
 20
-42.7066644589
 10
-14.8367432177
 20
-42.3635418412
 10
-15.1385059824
 20
-41.976654732
 10
-15.3949609464
 20
-41.5491454248
 10
-15.5950401115
 20
-41.1047752978
 10
-15.7350649256
 20
-40.6514648103
  0
LWPOLYLINE
  5
227
100
AcDbEntity
  8
RACCORDO
100
AcDbPolyline
 62
253
  6
CONTINUOUS
 90
10
 70
0
 10
-2.5619716756
 20
-39.3159336671
 10
-2.5014091709
 20
-39.2993788568
 10
-2.4433858616
 20
-39.2729882212
 10
-2.3905245848
 20
-39.2379547009
 10
-2.3452148371
 20
-39.1958619222
 10
-2.3095047625
 20
-39.1486126124
 10
-2.285008569
 20
-39.0983425901
 10
-2.2728335621
 20
-39.0473242198
 10
-2.2735300902
 20
-38.9978636939
 10
-2.2870666678
 20
-38.9521967851
  0
LINE
  5
228
100
AcDbEntity
  8
0
100
AcDbLine
 62
7
  6
CONTINUOUS
 10
1.0662302871
 20
-38.1885681915
 11
0.9408663176
 21
-38.2180259753
  0
LINE
  5
229
100
AcDbEntity
  8
0
100
AcDbLine
 62
7
  6
CONTINUOUS
 10
-1.4997704789
 20
-37.7323188169
 11
-1.3744065165
 21
-37.7028610346
  0
LWPOLYLINE
  5
22A
100
AcDbEntity
  8
RACCORDO
100
AcDbPolyline
 62
253
  6
CONTINUOUS
 90
3
 70
0
 10
-6.1636066909
 20
-39.3709275064
 10
-4.8916187737
 20
-39.3509365301
 10
-2.5619731001
 20
-39.3159286928
  0
LINE
  5
22B
100
AcDbEntity
  8
0
100
AcDbLine
 62
7
  6
CONTINUOUS
 10
0.9282378286
 20
-38.1886362471
 11
1.0662302871
 21
-38.1885681915
  0
LINE
  5
22C
100
AcDbEntity
  8
0
100
AcDbLine
 62
7
  6
CONTINUOUS
 10
-1.4997704789
 20
-37.7323188169
 11
-1.3617780187
 21
-37.7322507622
  0
LINE
  5
22D
100
AcDbEntity
  8
0
100
AcDbLine
 62
7
  6
CONTINUOUS
 10
-1.3618096786
 20
-38.1887967733
 11
-1.4997665713
 21
-38.1885901636
  0
LINE
  5
22E
100
AcDbEntity
  8
0
100
AcDbLine
 62
7
  6
CONTINUOUS
 10
0.9282694876
 20
-37.7320902311
 11
1.0662263802
 21
-37.7322968408
  0
LINE
  5
22F
100
AcDbEntity
  8
RACCORDO
100
AcDbLine
 62
253
  6
CONTINUOUS
 10
2.1283431796
 20
-39.3161179699
 11
4.6093152598
 21
-39.3524622684
  0
LWPOLYLINE
  5
230
100
AcDbEntity
  8
RACCORDO
100
AcDbPolyline
 62
253
  6
CONTINUOUS
 90
3
 70
0
 10
4.6093152598
 20
-39.3524622684
 10
5.3645925443
 20
-39.3645325643
 10
5.7293591275
 20
-39.3709146936
  0
LWPOLYLINE
  5
231
100
AcDbEntity
  8
RACCORDO
100
AcDbPolyline
 62
253
  6
CONTINUOUS
 90
27
 70
0
 10
5.7293591275
 20
-39.3709146936
 10
5.8257018877
 20
-39.3734939704
 10
5.925084808
 20
-39.378760971
 10
6.0275146747
 20
-39.3867005964
 10
6.1332144115
 20
-39.3971215789
 10
6.2419751661
 20
-39.410177609
 10
6.3531573156
 20
-39.4263664652
 10
6.4667934345
 20
-39.4456394159
 10
6.582868025
 20
-39.4679887093
 10
6.7006712707
 20
-39.493965538
 10
6.8202207477
 20
-39.5234602494
 10
6.9415175308
 20
-39.556498674
 10
7.0638287471
 20
-39.593819996
 10
7.1869829312
 20
-39.6352168272
 10
7.3111702808
 20
-39.6807694814
 10
7.4362028202
 20
-39.7316147989
 10
7.5629277667
 20
-39.7882121108
 10
7.6905183959
 20
-39.8498769642
 10
7.8162715247
 20
-39.9160186859
 10
7.9403519314
 20
-39.9869767118
 10
8.0625971287
 20
-40.0621723728
 10
8.1797983453
 20
-40.1397095572
 10
8.2914908604
 20
-40.2197827228
 10
8.3981176745
 20
-40.3020490417
 10
8.4978185006
 20
-40.3839497228
 10
8.5899609551
 20
-40.4646745702
 10
8.6751449912
 20
-40.5450660358
  0
LINE
  5
232
100
AcDbEntity
  8
0
100
AcDbLine
 62
7
  6
CONTINUOUS
 10
-1.4997665713
 20
-38.1885901636
 11
-1.374090722
 21
-38.2182517064
  0
LINE
  5
233
100
AcDbEntity
  8
0
100
AcDbLine
 62
7
  6
CONTINUOUS
 10
0.9405505309
 20
-37.702635298
 11
1.0662263802
 21
-37.7322968408
  0
LWPOLYLINE
  5
234
100
AcDbEntity
  8
RACCORDO
100
AcDbPolyline
 62
253
  6
CONTINUOUS
 90
10
 70
0
 10
2.1283306825
 20
-39.3161407329
 10
2.0677678633
 20
-39.299582007
 10
2.0097447301
 20
-39.2731871184
 10
1.956884227
 20
-39.2381492542
 10
1.9115759204
 20
-39.1960523084
 10
1.8758679786
 20
-39.1487992824
 10
1.8513745837
 20
-39.0985262587
 10
1.8392029624
 20
-39.0475058393
 10
1.8399033339
 20
-38.9980444126
 10
1.8534440366
 20
-38.9523778924
  0
LINE
  5
235
100
AcDbEntity
  8
RACCORDO
100
AcDbLine
 62
253
  6
CONTINUOUS
 10
-3.9074066466
 20
-35.9991271272
 11
-1.9593632036
 21
-35.9807045084
  0
LWPOLYLINE
  5
236
100
AcDbEntity
  8
RACCORDO
100
AcDbPolyline
 62
253
  6
CONTINUOUS
 90
3
 70
0
 10
-6.2994816355
 20
-36.0151826026
 10
-5.0521883724
 20
-36.0071410513
 10
-3.9074066466
 20
-35.9991271272
  0
LINE
  5
237
100
AcDbEntity
  8
RACCORDO
100
AcDbLine
 62
253
  6
CONTINUOUS
 10
3.0820728914
 20
-35.9956113016
 11
5.8660823614
 21
-36.015208804
  0
LWPOLYLINE
  5
238
100
AcDbEntity
  8
RACCORDO
100
AcDbPolyline
 62
253
  6
CONTINUOUS
 90
3
 70
0
 10
1.5260125249
 20
-35.9808721989
 10
2.0588401703
 20
-35.9862335535
 10
3.0820728914
 20
-35.9956113016
  0
LWPOLYLINE
  5
239
100
AcDbEntity
  8
RACCORDO
100
AcDbPolyline
 62
253
  6
CONTINUOUS
 90
19
 70
0
 10
-0.216853754
 20
-35.6403735969
 10
-0.112626812
 20
-35.6427340452
 10
-0.0107762498
 20
-35.6495777744
 10
0.0885201948
 20
-35.6606054669
 10
0.1848334875
 20
-35.6754691264
 10
0.2783148618
 20
-35.6938970645
 10
0.3696722448
 20
-35.7158084684
 10
0.4587868286
 20
-35.7410081584
 10
0.5455673056
 20
-35.7693040518
 10
0.630731383
 20
-35.8008180574
 10
0.7143304229
 20
-35.8355215911
 10
0.7960909012
 20
-35.8732528535
 10
0.8762043019
 20
-35.9140610189
 10
0.9545666268
 20
-35.9578757554
 10
1.0310594902
 20
-36.0046130344
 10
1.1058239018
 20
-36.0543601609
 10
1.178817664
 20
-36.1071183973
 10
1.2498356924
 20
-36.1627699914
 10
1.3187592176
 20
-36.2212457955
  0
LWPOLYLINE
  5
23A
100
AcDbEntity
  8
RACCORDO
100
AcDbPolyline
 62
253
  6
CONTINUOUS
 90
19
 70
0
 10
-0.2167700955
 20
-35.3247211481
 10
-0.0968336417
 20
-35.3279622023
 10
0.0195225649
 20
-35.3355912493
 10
0.1323914859
 20
-35.3476078749
 10
0.2416277493
 20
-35.364227035
 10
0.3475369265
 20
-35.3852329199
 10
0.4508691402
 20
-35.4099790738
 10
0.5517618548
 20
-35.4383154277
 10
0.6501816859
 20
-35.470391443
 10
0.7466053342
 20
-35.5060101309
 10
0.8412579737
 20
-35.5451547715
 10
0.9339862395
 20
-35.587841616
 10
1.0246917299
 20
-35.6339231779
 10
1.113414599
 20
-35.68336936
 10
1.2001687372
 20
-35.7362097351
 10
1.2848127376
 20
-35.7923862803
 10
1.3673067695
 20
-35.8518794495
 10
1.4477069029
 20
-35.9147081888
 10
1.5260125249
 20
-35.9808721989
  0
LWPOLYLINE
  5
23B
100
AcDbEntity
  8
RACCORDO
100
AcDbPolyline
 62
253
  6
CONTINUOUS
 90
28
 70
0
 10
5.8660824467
 20
-36.015206736
 10
6.0644729268
 20
-36.0209245211
 10
6.2665758278
 20
-36.028907839
 10
6.472155542
 20
-36.039168066
 10
6.6804518901
 20
-36.0515889297
 10
6.8917045501
 20
-36.0663086643
 10
7.1071766474
 20
-36.0837278009
 10
7.3265413936
 20
-36.1038534789
 10
7.5495228733
 20
-36.1267184948
 10
7.7774378639
 20
-36.1527780134
 10
8.0097950694
 20
-36.1820344716
 10
8.246242405
 20
-36.2145470466
 10
8.4881989815
 20
-36.2508766897
 10
8.7358969094
 20
-36.2910238099
 10
8.9877659252
 20
-36.3350849693
 10
9.2423817242
 20
-36.3837754612
 10
9.500050121
 20
-36.437703275
 10
9.758580035
 20
-36.4963315904
 10
10.012940938
 20
-36.5586251828
 10
10.262186771
 20
-36.6247731195
 10
10.5055423972
 20
-36.694568322
 10
10.7387888172
 20
-36.7663277403
 10
10.961420345
 20
-36.8402178666
 10
11.1731655406
 20
-36.9159912161
 10
11.3709516278
 20
-36.9913013936
 10
11.5540705033
 20
-37.0653210612
 10
11.7237301977
 20
-37.1387632331
 10
11.8801988549
 20
-37.2115795747
  0
LWPOLYLINE
  5
23C
100
AcDbEntity
  8
0
100
AcDbPolyline
 62
7
  6
CONTINUOUS
 90
7
 70
0
 10
0.0410381087
 20
-39.1177641286
 10
0.0361783161
 20
-39.1155849872
 10
0.0312851088
 20
-39.1134559457
 10
0.0263584868
 20
-39.1113770041
 10
0.0213984501
 20
-39.1093481625
 10
0.0164049987
 20
-39.1073694208
 10
0.0113781325
 20
-39.1054407791
  0
LWPOLYLINE
  5
23D
100
AcDbEntity
  8
0
100
AcDbPolyline
 62
7
  6
CONTINUOUS
 90
7
 70
0
 10
-0.4745782998
 20
-36.8031228757
 10
-0.4697185072
 20
-36.8053020172
 10
-0.4648252999
 20
-36.8074310587
 10
-0.4598986779
 20
-36.8095100003
 10
-0.4549386412
 20
-36.8115388419
 10
-0.4499451897
 20
-36.8135175836
 10
-0.4449183236
 20
-36.8154462253
  0
LINE
  5
23E
100
AcDbEntity
  8
0
100
AcDbLine
 62
7
  6
CONTINUOUS
 10
0.0551856024
 20
-39.0979535003
 11
0.0220522869
 21
-39.0825497959
  0
LINE
  5
23F
100
AcDbEntity
  8
0
100
AcDbLine
 62
7
  6
CONTINUOUS
 10
-0.4887257935
 20
-36.8229335041
 11
-0.455592478
 21
-36.8383372085
  0
LINE
  5
240
100
AcDbEntity
  8
TRASH
100
AcDbLine
 62
7
  6
CONTINUOUS
 10
-0.7364935794
 20
-38.4801669861
 11
-1.3617673724
 21
-38.1885917303
  0
LINE
  5
241
100
AcDbEntity
  8
TRASH
100
AcDbLine
 62
7
  6
CONTINUOUS
 10
0.3029533883
 20
-37.4407200183
 11
0.9282271813
 21
-37.7322952741
  0
LINE
  5
242
100
AcDbEntity
  8
0
100
AcDbLine
 62
7
  6
CONTINUOUS
 10
-0.7887334731
 20
-38.5324068837
 11
-0.8374954991
 21
-38.5078493047
  0
LINE
  5
243
100
AcDbEntity
  8
0
100
AcDbLine
 62
7
  6
CONTINUOUS
 10
0.355193282
 20
-37.3884801206
 11
0.403955308
 21
-37.4130376997
  0
LINE
  5
244
100
AcDbEntity
  8
0
100
AcDbLine
 62
7
  6
CONTINUOUS
 10
-0.8374954991
 20
-38.5078493047
 11
-0.8860464036
 21
-38.483112302
  0
LINE
  5
245
100
AcDbEntity
  8
0
100
AcDbLine
 62
7
  6
CONTINUOUS
 10
0.403955308
 20
-37.4130376997
 11
0.4525062125
 21
-37.4377747024
  0
LINE
  5
246
100
AcDbEntity
  8
0
100
AcDbLine
 62
7
  6
CONTINUOUS
 10
-0.8860464036
 20
-38.483112302
 11
-0.9342001165
 21
-38.4583081291
  0
LINE
  5
247
100
AcDbEntity
  8
0
100
AcDbLine
 62
7
  6
CONTINUOUS
 10
0.4525062125
 20
-37.4377747024
 11
0.5006599254
 21
-37.4625788753
  0
LINE
  5
248
100
AcDbEntity
  8
0
100
AcDbLine
 62
7
  6
CONTINUOUS
 10
-0.9342001165
 20
-38.4583081291
 11
-0.9985459478
 21
-38.4247652177
  0
LINE
  5
249
100
AcDbEntity
  8
0
100
AcDbLine
 62
7
  6
CONTINUOUS
 10
0.5006599254
 20
-37.4625788753
 11
0.5650057567
 21
-37.4961217867
  0
LINE
  5
24A
100
AcDbEntity
  8
0
100
AcDbLine
 62
7
  6
CONTINUOUS
 10
-0.9985459478
 20
-38.4247652177
 11
-1.1027807092
 21
-38.3695637615
  0
LINE
  5
24B
100
AcDbEntity
  8
0
100
AcDbLine
 62
7
  6
CONTINUOUS
 10
0.5650057567
 20
-37.4961217867
 11
0.6692405181
 21
-37.5513232429
  0
LINE
  5
24C
100
AcDbEntity
  8
0
100
AcDbLine
 62
7
  6
CONTINUOUS
 10
-1.1027807092
 20
-38.3695637615
 11
-1.1617041641
 21
-38.3379097742
  0
LINE
  5
24D
100
AcDbEntity
  8
0
100
AcDbLine
 62
7
  6
CONTINUOUS
 10
0.6692405181
 20
-37.5513232429
 11
0.7281639731
 21
-37.5829772302
  0
LINE
  5
24E
100
AcDbEntity
  8
0
100
AcDbLine
 62
7
  6
CONTINUOUS
 10
-1.1617041641
 20
-38.3379097742
 11
-1.2270823705
 21
-38.302437066
  0
LINE
  5
24F
100
AcDbEntity
  8
0
100
AcDbLine
 62
7
  6
CONTINUOUS
 10
0.7281639731
 20
-37.5829772302
 11
0.7935421794
 21
-37.6184499383
  0
LWPOLYLINE
  5
250
100
AcDbEntity
  8
0
100
AcDbPolyline
 62
7
  6
CONTINUOUS
 90
3
 70
0
 10
-1.2270823705
 20
-38.302437066
 10
-1.3268894027
 20
-38.2477104784
 10
-1.3542800936
 20
-38.2323992001
  0
LWPOLYLINE
  5
251
100
AcDbEntity
  8
0
100
AcDbPolyline
 62
7
  6
CONTINUOUS
 90
3
 70
0
 10
0.7935421794
 20
-37.6184499383
 10
0.8933492116
 20
-37.673176526
 10
0.9207399026
 20
-37.6884878043
  0
LINE
  5
252
100
AcDbEntity
  8
0
100
AcDbLine
 62
7
  6
CONTINUOUS
 10
-1.374090722
 20
-38.2182517064
 11
-1.3542800936
 21
-38.2323992001
  0
LINE
  5
253
100
AcDbEntity
  8
0
100
AcDbLine
 62
7
  6
CONTINUOUS
 10
0.9207399026
 20
-37.6884878043
 11
0.9405505309
 21
-37.702635298
  0
LWPOLYLINE
  5
254
100
AcDbEntity
  8
RACCORDO
100
AcDbPolyline
 62
7
  6
CONTINUOUS
 90
10
 70
0
 10
-15.7995561206
 20
38.4271249541
 10
-15.6619643835
 20
38.8871338053
 10
-15.4652163476
 20
39.3357965592
 10
-15.2130697486
 20
39.7656976054
 10
-14.9168293681
 20
40.1545901132
 10
-14.5725817701
 20
40.4995975201
 10
-14.1842027772
 20
40.8035963885
 10
-13.7746940141
 20
41.0529695754
 10
-13.3517220037
 20
41.2431780329
 10
-12.907605279
 20
41.378760809
  0
LWPOLYLINE
  5
255
100
AcDbEntity
  8
RACCORDO
100
AcDbPolyline
 62
253
  6
CONTINUOUS
 90
13
 70
0
 10
14.0845544477
 20
35.9541626669
 10
13.8678104915
 20
35.8701532958
 10
13.6118836213
 20
35.7861571416
 10
13.31364135
 20
35.7021217038
 10
12.968535022
 20
35.6144644462
 10
12.5750289669
 20
35.5265108665
 10
12.1357832207
 20
35.4485912459
 10
11.6433624738
 20
35.3819647175
 10
11.1022899766
 20
35.3246935415
 10
10.5401757421
 20
35.28265793
 10
9.9715847967
 20
35.2579575433
 10
9.391766075
 20
35.2485281762
 10
8.8045040246
 20
35.2544097767
  0
LWPOLYLINE
  5
256
100
AcDbEntity
  8
RACCORDO
100
AcDbPolyline
 62
253
  6
CONTINUOUS
 90
25
 70
0
 10
1.3187592176
 20
-36.2212457955
 10
1.3986379861
 20
-36.2951585202
 10
1.4720663729
 20
-36.3696983486
 10
1.5392962185
 20
-36.4443121437
 10
1.6002705554
 20
-36.5180727121
 10
1.6556504949
 20
-36.5909102162
 10
1.7066414415
 20
-36.6637389255
 10
1.7534471161
 20
-36.736334748
 10
1.7962036271
 20
-36.8083833057
 10
1.8357465325
 20
-36.8808875491
 10
1.8723091159
 20
-36.9540523864
 10
1.9057586669
 20
-37.0273796782
 10
1.9362403147
 20
-37.100914697
 10
1.9638338817
 20
-37.1745933805
 10
1.9885736681
 20
-37.2482290724
 10
2.0105244324
 20
-37.3217002864
 10
2.0297524536
 20
-37.3948821958
 10
2.0463351014
 20
-37.4676814381
 10
2.0603557702
 20
-37.5400332324
 10
2.071888703
 20
-37.6118376987
 10
2.081012862
 20
-37.6830126465
 10
2.0878137555
 20
-37.7535296983
 10
2.0923690845
 20
-37.8233300761
 10
2.0947540599
 20
-37.8923237061
 10
2.0950476581
 20
-37.9604435022
  0
LINE
  5
257
100
AcDbEntity
  8
0
100
AcDbLine
 62
7
  6
CONTINUOUS
 10
0.3029533886
 20
-38.4801669864
 11
0.3551932668
 21
-38.5324067809
  0
LINE
  5
258
100
AcDbEntity
  8
0
100
AcDbLine
 62
7
  6
CONTINUOUS
 10
-0.7364935797
 20
-37.440720018
 11
-0.7887334579
 21
-37.3884802235
  0
LINE
  5
259
100
AcDbEntity
  8
RACCORDO
100
AcDbLine
 62
253
  6
CONTINUOUS
 10
-1.9593631833
 20
-35.9807045248
 11
-1.9239065039
 21
-36.020921423
  0
LINE
  5
25A
100
AcDbEntity
  8
RACCORDO
100
AcDbLine
 62
7
  6
CONTINUOUS
 10
-15.881776153
 20
37.9483543953
 11
-15.7995561206
 21
38.4271249541
  0
LWPOLYLINE
  5
25B
100
AcDbEntity
  8
DRAFT
100
AcDbPolyline
 62
7
  6
CONTINUOUS
 90
18
 70
0
 10
-15.8494778403
 20
38.3059547851
 10
-15.7969303812
 20
38.5457436612
 10
-15.729555321
 20
38.7827473054
 10
-15.6481361849
 20
39.0142755606
 10
-15.5525101038
 20
39.240259585
 10
-15.4428364138
 20
39.4607682202
 10
-15.3203818283
 20
39.6733178346
 10
-15.185002137
 20
39.877812046
 10
-15.0368370473
 20
40.0743472364
 10
-14.8775794101
 20
40.2607289201
 10
-14.7071115322
 20
40.4368369808
 10
-14.5255463949
 20
40.6027915347
 10
-14.3349235358
 20
40.7567584442
 10
-14.1351470196
 20
40.8986060774
 10
-13.9263086017
 20
41.0284660662
 10
-13.7107304063
 20
41.1448991697
 10
-13.4883401417
 20
41.2477618625
 10
-13.2592070523
 20
41.3371976699
  0
LWPOLYLINE
  5
25C
100
AcDbEntity
  8
RACCORDO
100
AcDbPolyline
 62
253
  6
CONTINUOUS
 90
10
 70
0
 10
-14.5178636778
 20
35.9540969196
 10
-14.3741285429
 20
36.4577749223
 10
-14.1581978806
 20
36.9514732723
 10
-13.8744988956
 20
37.4250697329
 10
-13.5288482382
 20
37.8688542136
 10
-13.1283327469
 20
38.2737278555
 10
-12.6811641472
 20
38.631389584
 10
-12.1965106881
 20
38.9345063049
 10
-11.6843091662
 20
39.1768632537
 10
-11.1550611928
 20
39.353491417
  0
LWPOLYLINE
  5
25D
100
AcDbEntity
  8
RACCORDO
100
AcDbPolyline
 62
253
  6
CONTINUOUS
 90
10
 70
0
 10
11.8802022412
 20
-37.2114681815
 10
12.3458204765
 20
-37.570308383
 10
12.8043871625
 20
-37.9114328478
 10
13.2515021754
 20
-38.2348599923
 10
13.6806324194
 20
-38.5445833014
 10
14.0882690813
 20
-38.836576925
 10
14.472442581
 20
-39.0988336285
 10
14.8265784872
 20
-39.327313738
 10
15.1422691605
 20
-39.5258613904
 10
15.4125372183
 20
-39.6942613273
  0
LWPOLYLINE
  5
25E
100
AcDbEntity
  8
RACCORDO
100
AcDbPolyline
 62
253
  6
CONTINUOUS
 90
25
 70
0
 10
1.5260092622
 20
-35.9808684242
 10
1.6159061206
 20
-36.0719903803
 10
1.6991118588
 20
-36.1627199794
 10
1.7756240218
 20
-36.2530065746
 10
1.8448115117
 20
-36.342693786
 10
1.9073016024
 20
-36.4318422062
 10
1.9649792105
 20
-36.5207290616
 10
2.0180652485
 20
-36.6091353992
 10
2.0663359471
 20
-36.6971922854
 10
2.1110070498
 20
-36.7856965999
 10
2.152378352
 20
-36.8749172913
 10
2.1901444658
 20
-36.9644784585
 10
2.2246120192
 20
-37.0542023453
 10
2.2558081071
 20
-37.1440822893
 10
2.2837028627
 20
-37.2340116125
 10
2.3085187671
 20
-37.3236666264
 10
2.3302441905
 20
-37.4129592139
 10
2.3488915147
 20
-37.5018680434
 10
2.3647206135
 20
-37.5901773329
 10
2.3777314187
 20
-37.6778114116
 10
2.3879275019
 20
-37.7647423472
 10
2.3955749951
 20
-37.8508324236
 10
2.4007644654
 20
-37.9360043774
 10
2.403410906
 20
-38.0202385227
 10
2.4035175845
 20
-38.1034866852
  0
LWPOLYLINE
  5
25F
100
AcDbEntity
  8
RACCORDO
100
AcDbPolyline
 62
253
  6
CONTINUOUS
 90
10
 70
0
 10
8.6751449912
 20
-40.5450660358
 10
9.1700887109
 20
-41.054297356
 10
9.5737514369
 20
-41.472322093
 10
9.9636948797
 20
-41.8742933899
 10
10.3427974486
 20
-42.2536252771
 10
10.7067037557
 20
-42.6063401309
 10
11.0436548521
 20
-42.930021644
 10
11.3489175617
 20
-43.2184905247
 10
11.6249706796
 20
-43.4628924478
 10
11.8706362053
 20
-43.6552710191
  0
LINE
  5
260
100
AcDbEntity
  8
RACCORDO
100
AcDbLine
 62
253
  6
CONTINUOUS
 10
-1.9239065039
 20
-36.020921423
 11
-1.8566632895
 21
-36.0977252385
  0
LWPOLYLINE
  5
261
100
AcDbEntity
  8
RACCORDO
100
AcDbPolyline
 62
253
  6
CONTINUOUS
 90
6
 70
0
 10
-1.8566632895
 20
-36.0977252385
 10
-1.8013419794
 20
-36.1616514767
 10
-1.7804305352
 20
-36.1861571785
 10
-1.7649608644
 20
-36.2045902647
 10
-1.7554275592
 20
-36.2163614078
 10
-1.7521354178
 20
-36.2210942721
  0
LINE
  5
262
100
AcDbEntity
  8
0
100
AcDbLine
 62
7
  6
CONTINUOUS
 10
-0.4887258442
 20
-39.097953409
 11
-0.474352562
 21
-39.1180799247
  0
LWPOLYLINE
  5
263
100
AcDbEntity
  8
RACCORDO
100
AcDbPolyline
 62
253
  6
CONTINUOUS
 90
10
 70
0
 10
-12.3144029569
 20
-37.2118306709
 10
-12.1565078936
 20
-37.7040489243
 10
-11.938339045
 20
-38.1874827345
 10
-11.66399296
 20
-38.6530546184
 10
-11.3386210334
 20
-39.0920224892
 10
-10.9683327794
 20
-39.4961438096
 10
-10.5600811129
 20
-39.8578303622
 10
-10.1215317953
 20
-40.1702907338
 10
-9.6609194943
 20
-40.4276578389
 10
-9.1868931621
 20
-40.6250990871
  0
LWPOLYLINE
  5
264
100
AcDbEntity
  8
DRAFT
100
AcDbPolyline
 62
7
  6
CONTINUOUS
 90
5
 70
0
 10
-15.7964165974
 20
-40.6912872965
 10
-15.849176868
 20
-40.4510506509
 10
-15.8867917306
 20
-40.2088793453
 10
-15.909525756
 20
-39.9638801888
 10
-15.9173794368
 20
-39.7160531815
  0
LWPOLYLINE
  5
265
100
AcDbEntity
  8
RACCORDO
100
AcDbPolyline
 62
7
  6
CONTINUOUS
 90
3
 70
0
 10
-15.7350649256
 20
-40.6514648103
 10
-15.8187415892
 20
-40.1812935031
 10
-15.8460769154
 20
-39.694261376
  0
LWPOLYLINE
  5
266
100
AcDbEntity
  8
DRAFT
100
AcDbPolyline
 62
7
  6
CONTINUOUS
 90
3
 70
0
 10
-15.9095709035
 20
37.8198147754
 10
-15.8869372009
 20
38.0642773962
 10
-15.8494778403
 20
38.3059547851
  0
LINE
  5
267
100
AcDbEntity
  8
0
100
AcDbLine
 62
7
  6
CONTINUOUS
 10
0.040812379
 20
-36.802807091
 11
0.0551856531
 21
-36.8229335954
  0
LINE
  5
268
100
AcDbEntity
  8
0
100
AcDbLine
 62
7
  6
CONTINUOUS
 10
-0.5478717757
 20
-38.9906706466
 11
-0.5679992626
 21
-38.9538891591
  0
LWPOLYLINE
  5
269
100
AcDbEntity
  8
0
100
AcDbPolyline
 62
7
  6
CONTINUOUS
 90
3
 70
0
 10
-0.4887258442
 20
-39.097953409
 10
-0.5080225586
 20
-39.0626111332
 10
-0.5478717757
 20
-38.9906706466
  0
LINE
  5
26A
100
AcDbEntity
  8
0
100
AcDbLine
 62
7
  6
CONTINUOUS
 10
-0.5679992626
 20
-38.9538891591
 11
-0.6288101934
 21
-38.841107973
  0
LINE
  5
26B
100
AcDbEntity
  8
0
100
AcDbLine
 62
7
  6
CONTINUOUS
 10
-0.6288101934
 20
-38.841107973
 11
-0.6897290952
 21
-38.7258799221
  0
LWPOLYLINE
  5
26C
100
AcDbEntity
  8
0
100
AcDbPolyline
 62
7
  6
CONTINUOUS
 90
4
 70
0
 10
-0.6897290952
 20
-38.7258799221
 10
-0.7496902356
 20
-38.609823364
 10
-0.7693170588
 20
-38.5712110961
 10
-0.7887334731
 20
-38.5324068837
  0
LWPOLYLINE
  5
26D
100
AcDbEntity
  8
RACCORDO
100
AcDbPolyline
 62
253
  6
CONTINUOUS
 90
10
 70
0
 10
-2.2870697315
 20
-38.9521982529
 10
-2.3355666949
 20
-38.849973414
 10
-2.3790002563
 20
-38.7449962598
 10
-2.4171983804
 20
-38.6375187902
 10
-2.4500412889
 20
-38.5276298966
 10
-2.4773252858
 20
-38.4157740729
 10
-2.4988506953
 20
-38.3027698338
 10
-2.5145660263
 20
-38.1890996684
 10
-2.5244807192
 20
-38.0748901084
 10
-2.5285892473
 20
-37.9604435022
  0
LWPOLYLINE
  5
26E
100
AcDbEntity
  8
RACCORDO
100
AcDbPolyline
 62
253
  6
CONTINUOUS
 90
10
 70
0
 10
-2.5619724351
 20
-39.3159296679
 10
-2.6173443414
 20
-39.191472749
 10
-2.6666855246
 20
-39.062899347
 10
-2.70995323
 20
-38.930946033
 10
-2.7472309804
 20
-38.7963595877
 10
-2.7783690651
 20
-38.6597622952
 10
-2.8029823656
 20
-38.521634661
 10
-2.8209298946
 20
-38.3825027136
 10
-2.832316127
 20
-38.2429541578
 10
-2.8371299716
 20
-38.1034935244
  0
LWPOLYLINE
  5
26F
100
AcDbEntity
  8
RACCORDO
100
AcDbPolyline
 62
7
  6
CONTINUOUS
 90
10
 70
0
 10
-15.9086310868
 20
37.4508221288
 10
-15.869142144
 20
29.1513077067
 10
-15.8381946024
 20
20.7837478003
 10
-15.8157888487
 20
12.3481424097
 10
-15.8024682546
 20
3.8444847301
 10
-15.7976899027
 20
-4.7272184337
 10
-15.7998245734
 20
-13.3669466676
 10
-15.8083291541
 20
-22.0746931669
 10
-15.8237466532
 20
-30.8504647364
 10
-15.8460769154
 20
-39.694261376
  0
LINE
  5
270
100
AcDbEntity
  8
DRAFT
100
AcDbLine
 62
7
  6
CONTINUOUS
 10
-15.9173794368
 20
37.4508221288
 11
-15.9173794368
 21
-39.7160531815
  0
LINE
  5
271
100
AcDbEntity
  8
DRAFT
100
AcDbLine
 62
7
  6
CONTINUOUS
 10
-15.9173794368
 20
37.5725669227
 11
-15.9095709035
 21
37.8198147754
  0
LINE
  5
272
100
AcDbEntity
  8
RACCORDO
100
AcDbLine
 62
7
  6
CONTINUOUS
 10
-15.9086310868
 20
37.4508221288
 11
-15.881776153
 21
37.9483543953
  0
LINE
  5
273
100
AcDbEntity
  8
0
100
AcDbLine
 62
7
  6
CONTINUOUS
 10
0.1143315846
 20
-36.9302163578
 11
0.1344590715
 21
-36.9669978453
  0
LWPOLYLINE
  5
274
100
AcDbEntity
  8
0
100
AcDbPolyline
 62
7
  6
CONTINUOUS
 90
3
 70
0
 10
0.0551856531
 20
-36.8229335954
 10
0.0744823675
 20
-36.8582758711
 10
0.1143315846
 20
-36.9302163578
  0
LINE
  5
275
100
AcDbEntity
  8
0
100
AcDbLine
 62
7
  6
CONTINUOUS
 10
0.1344590715
 20
-36.9669978453
 11
0.1952700023
 21
-37.0797790314
  0
LINE
  5
276
100
AcDbEntity
  8
0
100
AcDbLine
 62
7
  6
CONTINUOUS
 10
0.1952700023
 20
-37.0797790314
 11
0.2561889041
 21
-37.1950070823
  0
LWPOLYLINE
  5
277
100
AcDbEntity
  8
0
100
AcDbPolyline
 62
7
  6
CONTINUOUS
 90
4
 70
0
 10
0.2561889041
 20
-37.1950070823
 10
0.3161500445
 20
-37.3110636404
 10
0.3357768678
 20
-37.3496759083
 10
0.355193282
 20
-37.3884801206
  0
LINE
  5
278
100
AcDbEntity
  8
0
100
AcDbLine
 62
7
  6
CONTINUOUS
 10
-1.3388763825
 20
-37.7216211296
 11
-1.3542800023
 21
-37.6884877535
  0
LINE
  5
279
100
AcDbEntity
  8
0
100
AcDbLine
 62
7
  6
CONTINUOUS
 10
0.9053361915
 20
-38.1992658748
 11
0.9207398112
 21
-38.2323992509
  0
LINE
  5
27A
100
AcDbEntity
  8
TRASH
100
AcDbLine
 62
7
  6
CONTINUOUS
 10
-0.6899008594
 20
-38.5801235816
 11
-0.7364935794
 21
-38.4801669861
  0
LINE
  5
27B
100
AcDbEntity
  8
TRASH
100
AcDbLine
 62
7
  6
CONTINUOUS
 10
0.2563606683
 20
-37.3407634228
 11
0.3029533883
 21
-37.4407200183
  0
LINE
  5
27C
100
AcDbEntity
  8
TRASH
100
AcDbLine
 62
7
  6
CONTINUOUS
 10
-0.4449183137
 20
-39.1054407723
 11
-0.6899008594
 21
-38.5801235816
  0
LINE
  5
27D
100
AcDbEntity
  8
TRASH
100
AcDbLine
 62
7
  6
CONTINUOUS
 10
0.0113781226
 20
-36.8154462321
 11
0.2563606683
 21
-37.3407634228
  0
LINE
  5
27E
100
AcDbEntity
  8
0
100
AcDbLine
 62
7
  6
CONTINUOUS
 10
-1.3701493984
 20
-37.712644031
 11
-1.3744065165
 21
-37.7028610346
  0
LINE
  5
27F
100
AcDbEntity
  8
0
100
AcDbLine
 62
7
  6
CONTINUOUS
 10
0.9366091973
 20
-38.2082429804
 11
0.9408663176
 21
-38.2180259753
  0
LINE
  5
280
100
AcDbEntity
  8
0
100
AcDbLine
 62
7
  6
CONTINUOUS
 10
-1.3659363481
 20
-37.7224554474
 11
-1.3701493984
 21
-37.712644031
  0
LINE
  5
281
100
AcDbEntity
  8
0
100
AcDbLine
 62
7
  6
CONTINUOUS
 10
-1.3617673657
 20
-37.7322952841
 11
-1.3659363481
 21
-37.7224554474
  0
LINE
  5
282
100
AcDbEntity
  8
RACCORDO
100
AcDbLine
 62
253
  6
CONTINUOUS
 10
-12.3137500163
 20
-37.2115851945
 11
-14.5181122228
 21
35.9541726056
  0
LWPOLYLINE
  5
283
100
AcDbEntity
  8
RACCORDO
100
AcDbPolyline
 62
253
  6
CONTINUOUS
 90
4
 70
0
 10
11.9259318125
 20
41.3144196854
 10
11.82803526
 20
41.1486794094
 10
11.7151263599
 20
40.9617389936
 10
11.5874245681
 20
40.7529124227
  0
LINE
  5
284
100
AcDbEntity
  8
RACCORDO
100
AcDbLine
 62
253
  6
CONTINUOUS
 10
11.5874245681
 20
40.7529124227
 11
11.4448176157
 21
40.5214505827
  0
LINE
  5
285
100
AcDbEntity
  8
RACCORDO
100
AcDbLine
 62
253
  6
CONTINUOUS
 10
10.9249858978
 20
39.683130762
 11
10.7215235985
 21
39.3535204831
  0
LINE
  5
286
100
AcDbEntity
  8
RACCORDO
100
AcDbLine
 62
253
  6
CONTINUOUS
 10
11.4448176157
 20
40.5214505827
 11
10.9249858978
 21
39.683130762
  0
LWPOLYLINE
  5
287
100
AcDbEntity
  8
RACCORDO
100
AcDbPolyline
 62
253
  6
CONTINUOUS
 90
13
 70
0
 10
10.7215235985
 20
39.3535204831
 10
10.6368265296
 20
39.2209390589
 10
10.5329820533
 20
39.0885694265
 10
10.4100678793
 20
38.9565017355
 10
10.2673320496
 20
38.8221123306
 10
10.1056801297
 20
38.688060669
 10
9.9276805066
 20
38.5628370915
 10
9.730177769
 20
38.4464151981
 10
9.5164579849
 20
38.3397278724
 10
9.2986884633
 20
38.2536500773
 10
9.0808726649
 20
38.1924694768
 10
8.8589033489
 20
38.1532956217
 10
8.6326985979
 20
38.136511411
  0
LWPOLYLINE
  5
288
100
AcDbEntity
  8
RACCORDO
100
AcDbPolyline
 62
253
  6
CONTINUOUS
 90
3
 70
0
 10
15.4750907738
 20
37.4508240593
 10
15.3746731441
 20
37.3384635036
 10
15.2611507051
 20
37.2129188123
  0
LINE
  5
289
100
AcDbEntity
  8
RACCORDO
100
AcDbLine
 62
253
  6
CONTINUOUS
 10
15.2611507051
 20
37.2129188123
 11
15.1342193906
 21
37.0741886481
  0
LWPOLYLINE
  5
28A
100
AcDbEntity
  8
RACCORDO
100
AcDbPolyline
 62
253
  6
CONTINUOUS
 90
3
 70
0
 10
15.1342193906
 20
37.0741886481
 10
14.9933188585
 20
36.9226611642
 10
14.0845574088
 20
35.9542606299
  0
LINE
  5
28B
100
AcDbEntity
  8
0
100
AcDbLine
 62
7
  6
CONTINUOUS
 10
0.9323961497
 20
-38.198431562
 11
0.9366091973
 21
-38.2082429804
  0
LINE
  5
28C
100
AcDbEntity
  8
0
100
AcDbLine
 62
7
  6
CONTINUOUS
 10
0.9282271746
 20
-38.1885917203
 11
0.9323961497
 21
-38.198431562
  0
LINE
  5
28D
100
AcDbEntity
  8
RACCORDO
100
AcDbLine
 62
253
  6
CONTINUOUS
 10
-6.2994816355
 20
-36.0151826026
 11
-9.2376077646
 21
35.2543713491
  0
LWPOLYLINE
  5
28E
100
AcDbEntity
  8
RACCORDO
100
AcDbPolyline
 62
253
  6
CONTINUOUS
 90
10
 70
0
 10
-9.2380473147
 20
35.2543758836
 10
-9.2309671453
 20
35.6213841872
 10
-9.2205691756
 20
35.9835580701
 10
-9.2069417748
 20
36.3378196659
 10
-9.1902007562
 20
36.6811583492
 10
-9.1704883927
 20
37.010656321
 10
-9.147972208
 20
37.323513405
 10
-9.1228435524
 20
37.617070844
 10
-9.0953159772
 20
37.8888338957
 10
-9.0656234195
 20
38.1364930328
  0
LINE
  5
28F
100
AcDbEntity
  8
RACCORDO
100
AcDbLine
 62
253
  6
CONTINUOUS
 10
12.0087907876
 20
41.4597181107
 11
11.9259318125
 21
41.3144196854
  0
LINE
  5
290
100
AcDbEntity
  8
0
100
AcDbLine
 62
7
  6
CONTINUOUS
 10
-0.4448947801
 20
-39.2434438857
 11
-0.474352562
 21
-39.1180799247
  0
LINE
  5
291
100
AcDbEntity
  8
0
100
AcDbLine
 62
7
  6
CONTINUOUS
 10
0.0113545949
 20
-36.6774431197
 11
0.040812379
 21
-36.802807091
  0
LWPOLYLINE
  5
292
100
AcDbEntity
  8
RACCORDO
100
AcDbPolyline
 62
253
  6
CONTINUOUS
 90
10
 70
0
 10
-6.2996909858
 20
-36.0151839676
 10
-6.296158231
 20
-36.4407693084
 10
-6.2894327229
 20
-36.8638798982
 10
-6.2795905791
 20
-37.2797257145
 10
-6.2667431799
 20
-37.6835989769
 10
-6.2510359701
 20
-38.0709274496
 10
-6.2326468123
 20
-38.4373262026
 10
-6.2117838892
 20
-38.7786472463
 10
-6.1886833482
 20
-39.0910264912
 10
-6.1636066905
 20
-39.3709274984
  0
LINE
  5
293
100
AcDbEntity
  8
RACCORDO
100
AcDbLine
 62
253
  6
CONTINUOUS
 10
-0.2183368609
 20
36.264252866
 11
-0.2167700962
 21
35.2272951471
  0
LINE
  5
294
100
AcDbEntity
  8
0
100
AcDbLine
 62
7
  6
CONTINUOUS
 10
-0.4449628347
 20
-39.1054514252
 11
-0.4448947801
 21
-39.2434438857
  0
LINE
  5
295
100
AcDbEntity
  8
0
100
AcDbLine
 62
7
  6
CONTINUOUS
 10
0.0113545949
 20
-36.6774431197
 11
0.0114226507
 21
-36.8154355778
  0
LINE
  5
296
100
AcDbEntity
  8
RACCORDO
100
AcDbLine
 62
253
  6
CONTINUOUS
 10
-0.2167627269
 20
35.2272950885
 11
-0.216806621
 21
-35.4303546392
  0
LINE
  5
297
100
AcDbEntity
  8
0
100
AcDbLine
 62
7
  6
CONTINUOUS
 10
-0.4451233667
 20
-36.8154039191
 11
-0.4449167569
 21
-36.6774470265
  0
LINE
  5
298
100
AcDbEntity
  8
RACCORDO
100
AcDbLine
 62
253
  6
CONTINUOUS
 10
-0.2174285342
 20
37.5004945691
 11
-0.2183368609
 21
36.264252866
  0
LINE
  5
299
100
AcDbEntity
  8
0
100
AcDbLine
 62
7
  6
CONTINUOUS
 10
0.0115831756
 20
-39.1054830853
 11
0.0113765659
 21
-39.2434399779
  0
LINE
  5
29A
100
AcDbEntity
  8
RACCORDO
100
AcDbLine
 62
253
  6
CONTINUOUS
 10
-0.2162260962
 20
38.0122880378
 11
-0.2174285342
 21
37.5004945691
  0
LWPOLYLINE
  5
29B
100
AcDbEntity
  8
RACCORDO
100
AcDbPolyline
 62
253
  6
CONTINUOUS
 90
7
 70
0
 10
-0.216806621
 20
-35.4303546392
 10
-0.2172656781
 20
-35.5246586629
 10
-0.2176375058
 20
-35.5637509004
 10
-0.2180894556
 20
-35.5957534007
 10
-0.218607186
 20
-35.6196502319
 10
-0.2191742543
 20
-35.6346827799
 10
-0.2197726596
 20
-35.6403738306
  0
LWPOLYLINE
  5
29C
100
AcDbEntity
  8
RACCORDO
100
AcDbPolyline
 62
253
  6
CONTINUOUS
 90
16
 70
0
 10
-2.5285892473
 20
-37.9604435022
 10
-2.524999987
 20
-37.8068891816
 10
-2.5114366288
 20
-37.6568152717
 10
-2.4885327345
 20
-37.5108412303
 10
-2.4568857081
 20
-37.3693441917
 10
-2.4172092505
 20
-37.2329595768
 10
-2.3704252537
 20
-37.1025443586
 10
-2.3173677281
 20
-36.9785162654
 10
-2.2587374306
 20
-36.860926702
 10
-2.1953308431
 20
-36.7499256511
 10
-2.1278859752
 20
-36.6456022289
 10
-2.0570632464
 20
-36.547921032
 10
-1.9834920778
 20
-36.4567509232
 10
-1.907769504
 20
-36.3719713018
 10
-1.8304724866
 20
-36.2934747964
 10
-1.7521364072
 20
-36.2210931513
  0
LWPOLYLINE
  5
29D
100
AcDbEntity
  8
RACCORDO
100
AcDbPolyline
 62
253
  6
CONTINUOUS
 90
16
 70
0
 10
-2.8371299716
 20
-38.1034935244
 10
-2.8320483668
 20
-37.916386701
 10
-2.8170939514
 20
-37.7330591165
 10
-2.7922819502
 20
-37.554543585
 10
-2.7567800325
 20
-37.3817404049
 10
-2.7114669889
 20
-37.2154077097
 10
-2.658935937
 20
-37.0561694159
 10
-2.5992613487
 20
-36.9047461629
 10
-2.5324383784
 20
-36.761393862
 10
-2.460946744
 20
-36.625880199
 10
-2.3849415808
 20
-36.4985312143
 10
-2.3043346665
 20
-36.3795002147
 10
-2.2212385768
 20
-36.2681858625
 10
-2.1363747599
 20
-36.1644442534
 10
-2.0490745548
 20
-36.0686019577
 10
-1.959361023
 20
-35.9807047399
  0
LINE
  5
29E
100
AcDbEntity
  8
RACCORDO
100
AcDbLine
 62
7
  6
CONTINUOUS
 10
0.5332299045
 20
-44.2239151835
 11
0.5332299045
 21
-44.2709850471
  0
LWPOLYLINE
  5
29F
100
AcDbEntity
  8
RACCORDO
100
AcDbPolyline
 62
253
  6
CONTINUOUS
 90
13
 70
0
 10
2.0950476581
 20
-37.9604435022
 10
2.0910751276
 20
-38.0721929643
 10
2.0821689609
 20
-38.1784918491
 10
2.0690559856
 20
-38.2791686053
 10
2.0524729979
 20
-38.3738545792
 10
2.0330605737
 20
-38.4627522018
 10
2.0112595063
 20
-38.5466079422
 10
1.9875612513
 20
-38.6254723605
 10
1.962449401
 20
-38.6993287558
 10
1.9361575268
 20
-38.7688287386
 10
1.9089703975
 20
-38.8342225762
 10
1.8812919846
 20
-38.8953779598
 10
1.8534394922
 20
-38.952375715
  0
LWPOLYLINE
  5
2A0
100
AcDbEntity
  8
RACCORDO
100
AcDbPolyline
 62
253
  6
CONTINUOUS
 90
10
 70
0
 10
5.8661498615
 20
-36.0152091622
 10
5.8625604572
 20
-36.4407900333
 10
5.855770894
 20
-36.8638958903
 10
5.8458580313
 20
-37.2797368557
 10
5.832934087
 20
-37.6836052959
 10
5.8171453678
 20
-38.0709291155
 10
5.7986706128
 20
-38.4373235165
 10
5.7777189698
 20
-38.778640638
 10
5.7545276281
 20
-39.0910165126
 10
5.729359133
 20
-39.3709148096
  0
LINE
  5
2A1
100
AcDbEntity
  8
RACCORDO
100
AcDbLine
 62
253
  6
CONTINUOUS
 10
5.8660824467
 20
-36.015206736
 11
8.8045040246
 21
35.2544097767
  0
LWPOLYLINE
  5
2A2
100
AcDbEntity
  8
RACCORDO
100
AcDbPolyline
 62
253
  6
CONTINUOUS
 90
13
 70
0
 10
2.4035175845
 20
-38.1034866852
 10
2.3976123907
 20
-38.2403990172
 10
2.3876517222
 20
-38.3701395467
 10
2.3736640224
 20
-38.4928042075
 10
2.3550914097
 20
-38.6084016658
 10
2.3325468459
 20
-38.717204273
 10
2.307808865
 20
-38.8197147692
 10
2.2810889836
 20
-38.9160807539
 10
2.2522130139
 20
-39.0064972973
 10
2.2223711583
 20
-39.0915028007
 10
2.1919666448
 20
-39.1713792825
 10
2.1606193975
 20
-39.2461858944
 10
2.1283397464
 20
-39.3161079624
  0
LWPOLYLINE
  5
2A3
100
AcDbEntity
  8
RACCORDO
100
AcDbPolyline
 62
253
  6
CONTINUOUS
 90
10
 70
0
 10
8.8045092536
 20
35.2544098832
 10
8.7974842297
 20
35.6214167395
 10
8.7871459498
 20
35.9835889304
 10
8.7735822733
 20
36.3378486499
 10
8.7569084746
 20
36.6811853
 10
8.7372662494
 20
37.0106811907
 10
8.7148225077
 20
37.323536318
 10
8.6897679749
 20
37.6170920082
 10
8.6623155736
 20
37.8888535292
 10
8.6326985992
 20
38.1365113943
  0
LINE
  5
2A4
100
AcDbEntity
  8
0
100
AcDbLine
 62
7
  6
CONTINUOUS
 10
-0.4449167569
 20
-36.6774470265
 11
-0.4745782998
 21
-36.8031228757
  0
LINE
  5
2A5
100
AcDbEntity
  8
0
100
AcDbLine
 62
7
  6
CONTINUOUS
 10
0.0410381087
 20
-39.1177641286
 11
0.0113765659
 21
-39.2434399779
  0
LWPOLYLINE
  5
2A6
100
AcDbEntity
  8
RACCORDO
100
AcDbPolyline
 62
253
  6
CONTINUOUS
 90
5
 70
0
 10
-12.0208306909
 20
40.7526915234
 10
-12.1485594195
 20
40.9615627055
 10
-12.2614977921
 20
41.1485575852
 10
-12.3594303336
 20
41.3143585255
 10
-12.4423313002
 20
41.4597185722
  0
LINE
  5
2A7
100
AcDbEntity
  8
RACCORDO
100
AcDbLine
 62
253
  6
CONTINUOUS
 10
11.8802022412
 20
-37.2114681815
 11
14.0845574088
 21
35.9542606299
  0
LWPOLYLINE
  5
2A8
100
AcDbEntity
  8
0
100
AcDbPolyline
 62
7
  6
CONTINUOUS
 90
7
 70
0
 10
-1.374090722
 20
-38.2182517064
 10
-1.3719115805
 20
-38.2133919138
 10
-1.369782539
 20
-38.2084987065
 10
-1.3677035974
 20
-38.2035720845
 10
-1.3656747558
 20
-38.1986120478
 10
-1.3636960141
 20
-38.1936185964
 10
-1.3617673724
 20
-38.1885917303
  0
LINE
  5
2A9
100
AcDbEntity
  8
0
100
AcDbLine
 62
7
  6
CONTINUOUS
 10
-1.3542800936
 20
-38.2323992001
 11
-1.3388763893
 21
-38.1992658847
  0
LWPOLYLINE
  5
2AA
100
AcDbEntity
  8
RACCORDO
100
AcDbPolyline
 62
253
  6
CONTINUOUS
 90
3
 70
0
 10
-14.5181154041
 20
35.9542778071
 10
-15.1033561967
 20
36.578719753
 10
-15.4267276469
 20
36.9225175593
  0
LWPOLYLINE
  5
2AB
100
AcDbEntity
  8
RACCORDO
100
AcDbPolyline
 62
253
  6
CONTINUOUS
 90
5
 70
0
 10
-15.4267276469
 20
36.9225175593
 10
-15.5676525063
 20
37.0740668629
 10
-15.6946157965
 20
37.212826649
 10
-15.8081750061
 20
37.338411929
 10
-15.9086309438
 20
37.4508240313
  0
LWPOLYLINE
  5
2AC
100
AcDbEntity
  8
RACCORDO
100
AcDbPolyline
 62
253
  6
CONTINUOUS
 90
3
 70
0
 10
-11.3584531878
 20
39.6830002659
 10
-11.8782042743
 20
40.5212016333
 10
-12.0208306909
 20
40.7526915234
  0
LINE
  5
2AD
100
AcDbEntity
  8
RACCORDO
100
AcDbLine
 62
253
  6
CONTINUOUS
 10
-11.1550637896
 20
39.3535204831
 11
-11.3584531878
 21
39.6830002659
  0
LINE
  5
2AE
100
AcDbEntity
  8
RACCORDO
100
AcDbLine
 62
7
  6
CONTINUOUS
 10
15.4482374451
 20
37.9483539063
 11
15.4750908995
 21
37.4508221071
  0
LWPOLYLINE
  5
2AF
100
AcDbEntity
  8
RACCORDO
100
AcDbPolyline
 62
7
  6
CONTINUOUS
 90
10
 70
0
 10
15.4125367328
 20
-39.6942613283
 10
15.3902064774
 20
-30.8504748487
 10
15.3747889801
 20
-22.0747102046
 10
15.3662843962
 20
-13.366967396
 10
15.3641497133
 20
-4.7272386897
 10
15.3689280479
 20
3.844468181
 10
15.3822486323
 20
12.3481300161
 10
15.4046543881
 20
20.7837390821
 10
15.4356019394
 20
29.1513031125
 10
15.4750908995
 20
37.4508221071
  0
LINE
  5
2B0
100
AcDbEntity
  8
DRAFT
100
AcDbLine
 62
7
  6
CONTINUOUS
 10
15.4838392457
 20
37.4508221071
 11
15.4838392457
 21
-39.7160531815
  0
LINE
  5
2B1
100
AcDbEntity
  8
DRAFT
100
AcDbLine
 62
7
  6
CONTINUOUS
 10
15.4838392457
 20
-39.7160531815
 11
15.4759885655
 21
-39.9639545439
  0
LWPOLYLINE
  5
2B2
100
AcDbEntity
  8
RACCORDO
100
AcDbPolyline
 62
7
  6
CONTINUOUS
 90
3
 70
0
 10
15.4125367328
 20
-39.6942613283
 10
15.3852015112
 20
-40.1812937215
 10
15.3015252775
 20
-40.6514656856
  0
LWPOLYLINE
  5
2B3
100
AcDbEntity
  8
0
100
AcDbPolyline
 62
7
  6
CONTINUOUS
 90
7
 70
0
 10
0.9405505309
 20
-37.702635298
 10
0.9383713895
 20
-37.7074950906
 10
0.9362423479
 20
-37.7123882979
 10
0.9341634064
 20
-37.7173149199
 10
0.9321345647
 20
-37.7222749566
 10
0.9301558231
 20
-37.727268408
 10
0.9282271813
 20
-37.7322952741
  0
LINE
  5
2B4
100
AcDbEntity
  8
0
100
AcDbLine
 62
7
  6
CONTINUOUS
 10
0.9207399026
 20
-37.6884878043
 11
0.9053361982
 21
-37.7216211197
  0
LINE
  5
2B5
100
AcDbEntity
  8
TRASH
100
AcDbLine
 62
7
  6
CONTINUOUS
 10
-0.7364875305
 20
-37.4407167199
 11
-0.4449183236
 21
-36.8154462253
  0
LINE
  5
2B6
100
AcDbEntity
  8
TRASH
100
AcDbLine
 62
7
  6
CONTINUOUS
 10
0.3029473394
 20
-38.4801702844
 11
0.0113781325
 21
-39.1054407791
  0
LWPOLYLINE
  5
2B7
100
AcDbEntity
  8
0
100
AcDbPolyline
 62
7
  6
CONTINUOUS
 90
3
 70
0
 10
-0.7887334579
 20
-37.3884802235
 10
-0.7692920445
 20
-37.3496322444
 10
-0.7496375733
 20
-37.3109646425
  0
LWPOLYLINE
  5
2B8
100
AcDbEntity
  8
0
100
AcDbPolyline
 62
7
  6
CONTINUOUS
 90
3
 70
0
 10
0.3551932668
 20
-38.5324067809
 10
0.3357518535
 20
-38.5712547599
 10
0.3160973822
 20
-38.6099223619
  0
LINE
  5
2B9
100
AcDbEntity
  8
0
100
AcDbLine
 62
7
  6
CONTINUOUS
 10
-0.7496375733
 20
-37.3109646425
 11
-0.689549767
 21
-37.194659591
  0
LINE
  5
2BA
100
AcDbEntity
  8
0
100
AcDbLine
 62
7
  6
CONTINUOUS
 10
0.3160973822
 20
-38.6099223619
 11
0.2560095759
 21
-38.7262274134
  0
LINE
  5
2BB
100
AcDbEntity
  8
0
100
AcDbLine
 62
7
  6
CONTINUOUS
 10
-0.689549767
 20
-37.194659591
 11
-0.6284793993
 21
-37.0791514764
  0
LWPOLYLINE
  5
2BC
100
AcDbEntity
  8
0
100
AcDbPolyline
 62
7
  6
CONTINUOUS
 90
4
 70
0
 10
0.2560095759
 20
-38.7262274134
 10
0.1949392082
 20
-38.841735528
 10
0.1745200845
 20
-38.879702844
 10
0.1340696123
 20
-38.9546153788
  0
LINE
  5
2BD
100
AcDbEntity
  8
0
100
AcDbLine
 62
7
  6
CONTINUOUS
 10
-0.6284793993
 20
-37.0791514764
 11
-0.5676098034
 21
-36.9662716255
  0
LINE
  5
2BE
100
AcDbEntity
  8
0
100
AcDbLine
 62
7
  6
CONTINUOUS
 10
-0.5078484632
 20
-36.8579901677
 11
-0.4887257935
 21
-36.8229335041
  0
LWPOLYLINE
  5
2BF
100
AcDbEntity
  8
0
100
AcDbPolyline
 62
7
  6
CONTINUOUS
 90
3
 70
0
 10
-0.5676098034
 20
-36.9662716255
 10
-0.5475114237
 20
-36.9295578995
 10
-0.5078484632
 20
-36.8579901677
  0
LWPOLYLINE
  5
2C0
100
AcDbEntity
  8
DRAFT
100
AcDbPolyline
 62
7
  6
CONTINUOUS
 90
4
 70
0
 10
15.4759885655
 20
-39.9639545439
 10
15.4532367159
 20
-40.2090488995
 10
15.4155832032
 20
-40.4513362483
 10
15.3627628639
 20
-40.691720131
  0
LWPOLYLINE
  5
2C1
100
AcDbEntity
  8
RACCORDO
100
AcDbPolyline
 62
253
  6
CONTINUOUS
 90
58
 70
0
 10
2.1283431796
 20
-39.3161179699
 10
2.069286919
 20
-39.4271225446
 10
2.00706513
 20
-39.5329839741
 10
1.9416801351
 20
-39.6338075507
 10
1.8729219507
 20
-39.7296460714
 10
1.8010062594
 20
-39.8206473452
 10
1.7265755512
 20
-39.9070508036
 10
1.6496904471
 20
-39.9889794993
 10
1.5703003265
 20
-40.0664821007
 10
1.4888829745
 20
-40.1396779763
 10
1.4054615367
 20
-40.2086746217
 10
1.3200253872
 20
-40.2735140702
 10
1.2330033655
 20
-40.3342135656
 10
1.1446529763
 20
-40.390757203
 10
1.0547316027
 20
-40.4432924983
 10
0.9629178677
 20
-40.4920735434
 10
0.8689550248
 20
-40.5373335216
 10
0.7731126405
 20
-40.578935632
 10
0.6758594174
 20
-40.6165752282
 10
0.5767867546
 20
-40.6503142828
 10
0.4763195039
 20
-40.6801753087
 10
0.3761800978
 20
-40.7058014875
 10
0.2764466269
 20
-40.7270089805
 10
0.177061787
 20
-40.7440522897
 10
0.0795467007
 20
-40.7572332322
 10
-0.0155180987
 20
-40.7664563034
 10
-0.108694496
 20
-40.7718572194
 10
-0.2001770768
 20
-40.7740768742
 10
-0.2893485685
 20
-40.7732998387
 10
-0.3768130283
 20
-40.7693512988
 10
-0.4645988528
 20
-40.7623217868
 10
-0.5532348991
 20
-40.752341584
 10
-0.642179519
 20
-40.7392599749
 10
-0.7318544141
 20
-40.722734413
 10
-0.8225062366
 20
-40.7027338389
 10
-0.9138727804
 20
-40.6792417985
 10
-1.0056108461
 20
-40.6519272602
 10
-1.0977876516
 20
-40.6207132597
 10
-1.1903181572
 20
-40.5855989733
 10
-1.2826300139
 20
-40.5463576087
 10
-1.3748528661
 20
-40.5028125686
 10
-1.4668379368
 20
-40.455029765
 10
-1.5575965692
 20
-40.403142572
 10
-1.6472864803
 20
-40.3468258476
 10
-1.7357330008
 20
-40.2862729911
 10
-1.8214548262
 20
-40.2224155736
 10
-1.9043283932
 20
-40.1550597646
 10
-1.9844702282
 20
-40.0842922313
 10
-2.0607689958
 20
-40.0115166268
 10
-2.1329854866
 20
-39.9367572299
 10
-2.2013640528
 20
-39.8599418277
 10
-2.2655275858
 20
-39.7823912065
 10
-2.3253438346
 20
-39.7041588733
 10
-2.3809581789
 20
-39.625200163
 10
-2.4324156269
 20
-39.5467443099
 10
-2.4797378412
 20
-39.4692315502
 10
-2.5229208334
 20
-39.3922840127
 10
-2.5619731001
 20
-39.3159286928
  0
LWPOLYLINE
  5
2C2
100
AcDbEntity
  8
RACCORDO
100
AcDbPolyline
 62
253
  6
CONTINUOUS
 90
58
 70
0
 10
1.8534394922
 20
-38.952375715
 10
1.8016039452
 20
-39.0489805418
 10
1.7463136622
 20
-39.1413237744
 10
1.6879220591
 20
-39.2293533263
 10
1.626876309
 20
-39.3128996362
 10
1.5634186823
 20
-39.392106754
 10
1.4975249905
 20
-39.4673822338
 10
1.4294197967
 20
-39.5387481128
 10
1.3593879693
 20
-39.606166212
 10
1.2873972145
 20
-39.6698981317
 10
1.2136179814
 20
-39.7299643411
 10
1.1382870021
 20
-39.7863346017
 10
1.0614131579
 20
-39.8391535409
 10
0.9833435641
 20
-39.8883148633
 10
0.9040870128
 20
-39.9339422587
 10
0.8230716901
 20
-39.9764275541
 10
0.7401518938
 20
-40.0158203648
 10
0.6557073637
 20
-40.0519152726
 10
0.5699096648
 20
-40.0846463798
 10
0.4825418368
 20
-40.1140753894
 10
0.3940739105
 20
-40.1400157298
 10
0.3057493365
 20
-40.1621751465
 10
0.2178023721
 20
-40.180644211
 10
0.13031656
 20
-40.1955397829
 10
0.0443518966
 20
-40.2068570926
 10
-0.0394735928
 20
-40.2147788348
 10
-0.1215021784
 20
-40.2195899572
 10
-0.2021220503
 20
-40.2214917567
 10
-0.2807189733
 20
-40.2206551291
 10
-0.3577244868
 20
-40.2172661436
 10
-0.4351038967
 20
-40.2112841151
 10
-0.5132214157
 20
-40.202597812
 10
-0.5915304713
 20
-40.1911937011
 10
-0.6706059937
 20
-40.1769002802
 10
-0.7505271985
 20
-40.1595597637
 10
-0.8309754869
 20
-40.1390958281
 10
-0.9119048511
 20
-40.1153827491
 10
-0.9932102263
 20
-40.0882967946
 10
-1.0746990823
 20
-40.0577410699
 10
-1.1561794505
 20
-40.023630754
 10
-1.2375883871
 20
-39.9858229322
 10
-1.3186320756
 20
-39.944274525
 10
-1.3987801971
 20
-39.89910636
 10
-1.4780436607
 20
-39.850173675
 10
-1.5560437888
 20
-39.7975583284
 10
-1.6317490029
 20
-39.7418858877
 10
-1.705049913
 20
-39.6832614773
 10
-1.775835213
 20
-39.621791065
 10
-1.8432304756
 20
-39.5583193218
 10
-1.9071340358
 20
-39.4931548174
 10
-1.9676490015
 20
-39.4264077474
 10
-2.0243620243
 20
-39.3587740109
 10
-2.0773255163
 20
-39.2905287501
 10
-2.1266599467
 20
-39.2218653888
 10
-2.1721700038
 20
-39.1534298907
 10
-2.2139156939
 20
-39.0856027858
 10
-2.252160517
 20
-39.0184593185
 10
-2.2870697315
 20
-38.9521982529
  0
LINE
  5
2C3
100
AcDbEntity
  8
0
100
AcDbLine
 62
7
  6
CONTINUOUS
 10
0.0743082721
 20
-39.0628968367
 11
0.0551856024
 21
-39.0979535003
  0
LWPOLYLINE
  5
2C4
100
AcDbEntity
  8
0
100
AcDbPolyline
 62
7
  6
CONTINUOUS
 90
3
 70
0
 10
0.1340696123
 20
-38.9546153788
 10
0.1139712326
 20
-38.9913291049
 10
0.0743082721
 20
-39.0628968367
  0
LWPOLYLINE
  5
2C5
100
AcDbEntity
  8
RACCORDO
100
AcDbPolyline
 62
7
  6
CONTINUOUS
 90
10
 70
0
 10
-0.9667700955
 20
-44.2239151835
 10
-0.9591277467
 20
-44.2106774397
 10
-0.9364376006
 20
-44.1984095278
 10
-0.8993979217
 20
-44.1871114478
 10
-0.8490961103
 20
-44.1764413047
 10
-0.7871015914
 20
-44.1667409936
 10
-0.7155120631
 20
-44.1590361993
 10
-0.6366475758
 20
-44.1536688165
 10
-0.5528841077
 20
-44.1502969505
 10
-0.4667700955
 20
-44.1489206011
  0
LINE
  5
2C6
100
AcDbEntity
  8
0
100
AcDbLine
 62
7
  6
CONTINUOUS
 10
-0.4745782998
 20
-36.8031228757
 11
-0.4887257935
 21
-36.8229335041
  0
LINE
  5
2C7
100
AcDbEntity
  8
RACCORDO
100
AcDbLine
 62
7
  6
CONTINUOUS
 10
15.3660184102
 20
38.4271241241
 11
15.4482374451
 21
37.9483539063
  0
LWPOLYLINE
  5
2C8
100
AcDbEntity
  8
DRAFT
100
AcDbPolyline
 62
7
  6
CONTINUOUS
 90
4
 70
0
 10
15.4159907223
 20
38.3056705697
 10
15.4534117284
 20
38.0641086629
 10
15.4760277403
 20
37.8197407806
 10
15.4838392457
 20
37.5725669227
  0
LWPOLYLINE
  5
2C9
100
AcDbEntity
  8
RACCORDO
100
AcDbPolyline
 62
253
  6
CONTINUOUS
 90
10
 70
0
 10
11.8807852623
 20
-37.2118312367
 10
11.7229000649
 20
-37.7040698187
 10
11.5047401987
 20
-38.1875221216
 10
11.2304024136
 20
-38.6531098307
 10
10.9050383802
 20
-39.0920900944
 10
10.5347579513
 20
-39.496219701
 10
10.1265144304
 20
-39.8579098724
 10
9.687974002
 20
-40.1703687697
 10
9.2273717755
 20
-40.4277290328
 10
8.7533571444
 20
-40.6251579598
  0
LINE
  5
2CA
100
AcDbEntity
  8
0
100
AcDbLine
 62
7
  6
CONTINUOUS
 10
0.0551856024
 20
-39.0979535003
 11
0.0410381087
 21
-39.1177641286
  0
LWPOLYLINE
  5
2CB
100
AcDbEntity
  8
RACCORDO
100
AcDbPolyline
 62
253
  6
CONTINUOUS
 90
5
 70
0
 10
1.3679589163
 20
-36.1618152229
 10
1.3470454668
 20
-36.1863199293
 10
1.3315756397
 20
-36.2047513496
 10
1.3220441077
 20
-36.2165200955
 10
1.3187556543
 20
-36.2212498314
  0
LINE
  5
2CC
100
AcDbEntity
  8
RACCORDO
100
AcDbLine
 62
253
  6
CONTINUOUS
 10
1.4232890204
 20
-36.0978894767
 11
1.3679589163
 21
-36.1618152229
  0
LWPOLYLINE
  5
2CD
100
AcDbEntity
  8
RACCORDO
100
AcDbPolyline
 62
253
  6
CONTINUOUS
 90
3
 70
0
 10
1.5260093609
 20
-35.9808686833
 10
1.4905454035
 20
-36.0210854172
 10
1.4232890204
 20
-36.0978894767
  0
LWPOLYLINE
  5
2CE
100
AcDbEntity
  8
RACCORDO
100
AcDbPolyline
 62
253
  6
CONTINUOUS
 90
28
 70
0
 10
-9.1868952783
 20
-40.6251289164
 10
-9.0753293375
 20
-40.5153535914
 10
-8.9613180128
 20
-40.4109347746
 10
-8.8448759918
 20
-40.3121639323
 10
-8.7254608728
 20
-40.2196304909
 10
-8.6036354928
 20
-40.1332701814
 10
-8.481064611
 20
-40.0523406373
 10
-8.3579978099
 20
-39.9770260179
 10
-8.2341829569
 20
-39.9075093545
 10
-8.1105256672
 20
-39.8429819297
 10
-7.9868949349
 20
-39.7834553213
 10
-7.863409072
 20
-39.7291654092
 10
-7.7413445455
 20
-39.6795978744
 10
-7.6210270905
 20
-39.6350419494
 10
-7.5021104616
 20
-39.5953892089
 10
-7.3848634937
 20
-39.5594941998
 10
-7.2690984616
 20
-39.5272406492
 10
-7.1549851026
 20
-39.4988487402
 10
-7.0433309917
 20
-39.4736503867
 10
-6.9342699638
 20
-39.4516615132
 10
-6.8276510344
 20
-39.4329371854
 10
-6.7238566326
 20
-39.4168550262
 10
-6.6229068904
 20
-39.4033982159
 10
-6.5247676538
 20
-39.3926291871
 10
-6.4297423421
 20
-39.3840359184
 10
-6.3379289052
 20
-39.3774570475
 10
-6.249218724
 20
-39.3730835061
 10
-6.1636066909
 20
-39.3709275064
  0
LWPOLYLINE
  5
2CF
100
AcDbEntity
  8
RACCORDO
100
AcDbPolyline
 62
253
  6
CONTINUOUS
 90
9
 70
0
 10
-12.0582264018
 20
-43.4626912175
 10
-11.7818969268
 20
-43.2180203647
 10
-11.476369998
 20
-42.9292529503
 10
-11.1390957348
 20
-42.6052468007
 10
-10.7748844782
 20
-42.2522346993
 10
-10.3957214495
 20
-41.87278536
 10
-10.0060379635
 20
-41.4709876743
 10
-9.6028804524
 20
-41.0534488264
 10
-9.1868952783
 20
-40.6251289164
  0
LWPOLYLINE
  5
2D0
100
AcDbEntity
  8
RACCORDO
100
AcDbPolyline
 62
253
  6
CONTINUOUS
 90
3
 70
0
 10
-13.2364085674
 20
-37.910347721
 10
-12.7784227182
 20
-37.5696611011
 10
-12.3137533454
 20
-37.2114756555
  0
LWPOLYLINE
  5
2D1
100
AcDbEntity
  8
RACCORDO
100
AcDbPolyline
 62
253
  6
CONTINUOUS
 90
5
 70
0
 10
-15.2595179297
 20
-39.3269125318
 10
-14.9050401501
 20
-39.0982196965
 10
-14.5204907638
 20
-38.835663761
 10
-14.1125145851
 20
-38.5433625616
 10
-13.2364085674
 20
-37.910347721
  0
LINE
  5
2D2
100
AcDbEntity
  8
RACCORDO
100
AcDbLine
 62
253
  6
CONTINUOUS
 10
-15.5755334864
 20
-39.5256649212
 11
-15.2595179297
 21
-39.3269125318
  0
LINE
  5
2D3
100
AcDbEntity
  8
RACCORDO
100
AcDbLine
 62
253
  6
CONTINUOUS
 10
-15.8460774705
 20
-39.6942613799
 11
-15.5755334864
 21
-39.5256649212
  0
LWPOLYLINE
  5
2D4
100
AcDbEntity
  8
RACCORDO
100
AcDbPolyline
 62
253
  6
CONTINUOUS
 90
10
 70
0
 10
14.0840353318
 20
35.9540982704
 10
13.9402577529
 20
36.4577001457
 10
13.7242989616
 20
36.9513415898
 10
13.4405887234
 20
37.4249022459
 10
13.0949459396
 20
37.8686733447
 10
12.6944592753
 20
38.27355672
 10
12.2473417546
 20
38.6312513052
 10
11.7627623092
 20
38.9344232885
 10
11.2506577303
 20
39.1768564457
 10
10.7215288766
 20
39.3535795671
  0
LWPOLYLINE
  5
2D5
100
AcDbEntity
  8
DRAFT
100
AcDbPolyline
 62
7
  6
CONTINUOUS
 90
17
 70
0
 10
15.3627628639
 20
-40.691720131
 10
15.2950388984
 20
-40.9292970069
 10
15.2132029617
 20
-41.1613562541
 10
15.1170905664
 20
-41.3878281538
 10
15.0068626323
 20
-41.6087824248
 10
14.8837988072
 20
-41.8217176007
 10
14.7477535422
 20
-42.0265360945
 10
14.5988678431
 20
-42.2233354933
 10
14.4388514556
 20
-42.409907092
 10
14.2675856837
 20
-42.5861293447
 10
14.0851844765
 20
-42.7521237974
 10
13.8937072331
 20
-42.9060463823
 10
13.6930573461
 20
-43.047763884
 10
13.4833272216
 20
-43.177409518
 10
13.2668608462
 20
-43.2935388625
 10
13.0435855534
 20
-43.3960067123
 10
12.8135709601
 20
-43.4849582726
  0
LWPOLYLINE
  5
2D6
100
AcDbEntity
  8
RACCORDO
100
AcDbPolyline
 62
7
  6
CONTINUOUS
 90
9
 70
0
 10
15.3015252775
 20
-40.6514656856
 10
15.1615012191
 20
-41.1047772207
 10
14.9614234036
 20
-41.5491489592
 10
14.7049701152
 20
-41.9766602687
 10
14.403208547
 20
-42.3635492519
 10
14.0521050881
 20
-42.706674002
 10
13.6556542076
 20
-43.0091764258
 10
13.2369782566
 20
-43.2567203467
 10
12.8037837056
 20
-43.4445270393
  0
LINE
  5
2D7
100
AcDbEntity
  8
0
100
AcDbLine
 62
7
  6
CONTINUOUS
 10
-0.7887334731
 20
-38.5324068837
 11
-0.7364935797
 21
-38.4801669864
  0
LINE
  5
2D8
100
AcDbEntity
  8
0
100
AcDbLine
 62
7
  6
CONTINUOUS
 10
0.3029533886
 20
-37.440720018
 11
0.355193282
 21
-37.3884801206
  0
LWPOLYLINE
  5
2D9
100
AcDbEntity
  8
RACCORDO
100
AcDbPolyline
 62
253
  6
CONTINUOUS
 90
16
 70
0
 10
-1.7521364072
 20
-36.2210931513
 10
-1.6657190534
 20
-36.1485052136
 10
-1.5764284535
 20
-36.0806016656
 10
-1.4845326398
 20
-36.0174623661
 10
-1.3904777144
 20
-35.9592566151
 10
-1.2943602012
 20
-35.9059124829
 10
-1.1958787062
 20
-35.8572031652
 10
-1.0952497791
 20
-35.8132272108
 10
-0.99270907
 20
-35.7740790171
 10
-0.8879171121
 20
-35.7396657673
 10
-0.7811250051
 20
-35.7101478193
 10
-0.6725178702
 20
-35.6856532562
 10
-0.5616199045
 20
-35.6662072939
 10
-0.4484227278
 20
-35.6520116257
 10
-0.3334107618
 20
-35.6433310694
 10
-0.216853754
 20
-35.6403735969
  0
LWPOLYLINE
  5
2DA
100
AcDbEntity
  8
RACCORDO
100
AcDbPolyline
 62
253
  6
CONTINUOUS
 90
16
 70
0
 10
-1.9593632036
 20
-35.9807045084
 10
-1.8609131385
 20
-35.8986007327
 10
-1.7598652506
 20
-35.8219378595
 10
-1.656196102
 20
-35.7507163125
 10
-1.5497706178
 20
-35.6849640842
 10
-1.4406655227
 20
-35.6246540533
 10
-1.3291708066
 20
-35.5697039209
 10
-1.2152721265
 20
-35.5200300165
 10
-1.0989047633
 20
-35.4757167588
 10
-0.9802813002
 20
-35.4369338753
 10
-0.8595130847
 20
-35.4035903595
 10
-0.7363912825
 20
-35.3757778343
 10
-0.6106432071
 20
-35.3539399543
 10
-0.4821339707
 20
-35.3382248478
 10
-0.3508676293
 20
-35.3284850723
 10
-0.2167700955
 20
-35.3247209547
  0
LINE
  5
2DB
100
AcDbEntity
  8
RACCORDO
100
AcDbLine
 62
253
  6
CONTINUOUS
 10
-12.3041763276
 20
-43.655270981
 11
-12.0582264018
 21
-43.4626912175
  0
LWPOLYLINE
  5
2DC
100
AcDbEntity
  8
RACCORDO
100
AcDbPolyline
 62
253
  6
CONTINUOUS
 90
28
 70
0
 10
-12.3137500163
 20
-37.2115851945
 10
-12.0943636734
 20
-37.1104423838
 10
-11.8659965261
 20
-37.0147277423
 10
-11.6311450123
 20
-36.9244444872
 10
-11.3931988793
 20
-36.8398460446
 10
-11.1531791924
 20
-36.760650852
 10
-10.9092817967
 20
-36.6860690034
 10
-10.6622162574
 20
-36.6157741533
 10
-10.4140760511
 20
-36.5500587264
 10
-10.1645064138
 20
-36.4890825491
 10
-9.9135327644
 20
-36.4330663328
 10
-9.6630770398
 20
-36.3817615372
 10
-9.4154367342
 20
-36.3346207804
 10
-9.1718368979
 20
-36.291537691
 10
-8.9326510143
 20
-36.252523517
 10
-8.6988379953
 20
-36.2171856963
 10
-8.4717161976
 20
-36.1855788603
 10
-8.2510405285
 20
-36.1575565889
 10
-8.0352922517
 20
-36.1324361324
 10
-7.8246926551
 20
-36.1101253097
 10
-7.6196630969
 20
-36.0906574521
 10
-7.4189001212
 20
-36.0735566887
 10
-7.2225874384
 20
-36.0587883409
 10
-7.030969947
 20
-36.0463477265
 10
-6.8428189968
 20
-36.0358178842
 10
-6.6578471999
 20
-36.0270541492
 10
-6.4766861567
 20
-36.0201776292
 10
-6.299481892
 20
-36.0151763783
  0
LINE
  5
2DD
100
AcDbEntity
  8
0
100
AcDbLine
 62
7
  6
CONTINUOUS
 10
-1.3744065165
 20
-37.7028610346
 11
-1.3542800023
 21
-37.6884877535
  0
LINE
  5
2DE
100
AcDbEntity
  8
0
100
AcDbLine
 62
7
  6
CONTINUOUS
 10
0.9207398112
 20
-38.2323992509
 11
0.9408663176
 21
-38.2180259753
  0
LINE
  5
2DF
100
AcDbEntity
  8
0
100
AcDbLine
 62
7
  6
CONTINUOUS
 10
-1.3542800023
 20
-37.6884877535
 11
-1.2719465117
 21
-37.6430067872
  0
LINE
  5
2E0
100
AcDbEntity
  8
0
100
AcDbLine
 62
7
  6
CONTINUOUS
 10
-1.2719465117
 20
-37.6430067872
 11
-1.1888736886
 21
-37.5976972449
  0
LINE
  5
2E1
100
AcDbEntity
  8
0
100
AcDbLine
 62
7
  6
CONTINUOUS
 10
-1.1888736886
 20
-37.5976972449
 11
-1.0832763257
 21
-37.5409256613
  0
LWPOLYLINE
  5
2E2
100
AcDbEntity
  8
0
100
AcDbPolyline
 62
7
  6
CONTINUOUS
 90
3
 70
0
 10
-1.0832763257
 20
-37.5409256613
 10
-1.0154559467
 20
-37.5050037119
 10
-0.9664370854
 20
-37.4793263273
  0
LWPOLYLINE
  5
2E3
100
AcDbEntity
  8
0
100
AcDbPolyline
 62
7
  6
CONTINUOUS
 90
4
 70
0
 10
-0.9664370854
 20
-37.4793263273
 10
-0.9403075415
 20
-37.4657359217
 10
-0.9130612957
 20
-37.4517894815
 10
-0.8541398517
 20
-37.4211475048
  0
LWPOLYLINE
  5
2E4
100
AcDbEntity
  8
0
100
AcDbPolyline
 62
7
  6
CONTINUOUS
 90
3
 70
0
 10
-0.8541398517
 20
-37.4211475048
 10
-0.8222784763
 20
-37.4049158375
 10
-0.7887334579
 20
-37.3884802235
  0
LINE
  5
2E5
100
AcDbEntity
  8
0
100
AcDbLine
 62
7
  6
CONTINUOUS
 10
0.9207398112
 20
-38.2323992509
 11
0.8384063207
 21
-38.2778802172
  0
LINE
  5
2E6
100
AcDbEntity
  8
0
100
AcDbLine
 62
7
  6
CONTINUOUS
 10
0.8384063207
 20
-38.2778802172
 11
0.7553334975
 21
-38.3231897595
  0
LINE
  5
2E7
100
AcDbEntity
  8
0
100
AcDbLine
 62
7
  6
CONTINUOUS
 10
0.7553334975
 20
-38.3231897595
 11
0.6497361346
 21
-38.3799613431
  0
LWPOLYLINE
  5
2E8
100
AcDbEntity
  8
0
100
AcDbPolyline
 62
7
  6
CONTINUOUS
 90
3
 70
0
 10
0.6497361346
 20
-38.3799613431
 10
0.5819157556
 20
-38.4158832925
 10
0.5328968943
 20
-38.4415606771
  0
LWPOLYLINE
  5
2E9
100
AcDbEntity
  8
0
100
AcDbPolyline
 62
7
  6
CONTINUOUS
 90
4
 70
0
 10
0.5328968943
 20
-38.4415606771
 10
0.5067673504
 20
-38.4551510827
 10
0.4795211046
 20
-38.4690975229
 10
0.4205996606
 20
-38.4997394996
  0
LWPOLYLINE
  5
2EA
100
AcDbEntity
  8
0
100
AcDbPolyline
 62
7
  6
CONTINUOUS
 90
3
 70
0
 10
0.4205996606
 20
-38.4997394996
 10
0.3887382852
 20
-38.5159711669
 10
0.3551932668
 20
-38.5324067809
  0
LINE
  5
2EB
100
AcDbEntity
  8
0
100
AcDbLine
 62
7
  6
CONTINUOUS
 10
0.022052277
 20
-36.8383372152
 11
0.0551856531
 21
-36.8229335954
  0
LINE
  5
2EC
100
AcDbEntity
  8
0
100
AcDbLine
 62
7
  6
CONTINUOUS
 10
-0.4555924681
 20
-39.0825497892
 11
-0.4887258442
 21
-39.097953409
  0
LINE
  5
2ED
100
AcDbEntity
  8
TRASH
100
AcDbLine
 62
7
  6
CONTINUOUS
 10
-1.3617673657
 20
-37.7322952841
 11
-0.7364968778
 21
-37.4407260672
  0
LINE
  5
2EE
100
AcDbEntity
  8
TRASH
100
AcDbLine
 62
7
  6
CONTINUOUS
 10
0.9282271746
 20
-38.1885917203
 11
0.3029566867
 21
-38.4801609371
  0
LINE
  5
2EF
100
AcDbEntity
  8
0
100
AcDbLine
 62
7
  6
CONTINUOUS
 10
0.0310293845
 20
-36.8070642119
 11
0.040812379
 21
-36.802807091
  0
LINE
  5
2F0
100
AcDbEntity
  8
0
100
AcDbLine
 62
7
  6
CONTINUOUS
 10
-0.4645695655
 20
-39.1138228069
 11
-0.474352562
 21
-39.1180799247
  0
LINE
  5
2F1
100
AcDbEntity
  8
0
100
AcDbLine
 62
7
  6
CONTINUOUS
 10
0.0212179656
 20
-36.811277259
 11
0.0310293845
 21
-36.8070642119
  0
LINE
  5
2F2
100
AcDbEntity
  8
0
100
AcDbLine
 62
7
  6
CONTINUOUS
 10
-0.4547581494
 20
-39.1096097561
 11
-0.4645695655
 21
-39.1138228069
  0
LINE
  5
2F3
100
AcDbEntity
  8
0
100
AcDbLine
 62
7
  6
CONTINUOUS
 10
0.0113781226
 20
-36.8154462321
 11
0.0212179656
 21
-36.811277259
  0
LINE
  5
2F4
100
AcDbEntity
  8
0
100
AcDbLine
 62
7
  6
CONTINUOUS
 10
-0.4449183137
 20
-39.1054407723
 11
-0.4547581494
 21
-39.1096097561
  0
LWPOLYLINE
  5
2F5
100
AcDbEntity
  8
RACCORDO
100
AcDbPolyline
 62
253
  6
CONTINUOUS
 90
28
 70
0
 10
-9.2376080757
 20
35.2543789558
 10
-9.4533707931
 20
35.2504640704
 10
-9.6691826755
 20
35.2485757546
 10
-9.8848338046
 20
35.2487066666
 10
-10.1000681014
 20
35.2508053098
 10
-10.3147003619
 20
35.2549107949
 10
-10.5286092139
 20
35.2611522588
 10
-10.7415867216
 20
35.2694788528
 10
-10.9533352535
 20
35.2799326258
 10
-11.1635811969
 20
35.292782963
 10
-11.3720128322
 20
35.308069221
 10
-11.5783900113
 20
35.3257496361
 10
-11.7825263963
 20
35.3459730788
 10
-11.9834479415
 20
35.3687244012
 10
-12.181542154
 20
35.3940243079
 10
-12.3784565786
 20
35.4220665585
 10
-12.5735463559
 20
35.4530423513
 10
-12.7663766835
 20
35.4867497886
 10
-12.9584473909
 20
35.5227704896
 10
-13.1490652168
 20
35.5608883387
 10
-13.3371395396
 20
35.6012791279
 10
-13.5230571536
 20
35.6440950295
 10
-13.7064423095
 20
35.6892255766
 10
-13.885087822
 20
35.736725084
 10
-14.0566594851
 20
35.7869763809
 10
-14.219829014
 20
35.8400758214
 10
-14.3739897827
 20
35.8958266974
 10
-14.5181122228
 20
35.9541726056
  0
LINE
  5
2F6
100
AcDbEntity
  8
RACCORDO
100
AcDbLine
 62
253
  6
CONTINUOUS
 10
8.804504027
 20
35.2544098359
 11
6.9506153821
 21
35.2347709147
  0
LINE
  5
2F7
100
AcDbEntity
  8
RACCORDO
100
AcDbLine
 62
253
  6
CONTINUOUS
 10
6.9506153821
 20
35.2347709147
 11
6.1532342949
 21
35.2271379296
  0
LINE
  5
2F8
100
AcDbEntity
  8
RACCORDO
100
AcDbLine
 62
253
  6
CONTINUOUS
 10
-0.2167627253
 20
35.227304776
 11
-0.7116339314
 21
35.2232026335
  0
LINE
  5
2F9
100
AcDbEntity
  8
RACCORDO
100
AcDbLine
 62
253
  6
CONTINUOUS
 10
6.1532342949
 20
35.2271379296
 11
5.5822003903
 21
35.2226552186
  0
LINE
  5
2FA
100
AcDbEntity
  8
RACCORDO
100
AcDbLine
 62
253
  6
CONTINUOUS
 10
5.5822003903
 20
35.2226552186
 11
4.9752521515
 21
35.2188783974
  0
LINE
  5
2FB
100
AcDbEntity
  8
RACCORDO
100
AcDbLine
 62
253
  6
CONTINUOUS
 10
-0.7116339314
 20
35.2232026335
 11
-1.4991008313
 21
35.2181867807
  0
LINE
  5
2FC
100
AcDbEntity
  8
RACCORDO
100
AcDbLine
 62
253
  6
CONTINUOUS
 10
4.9752521515
 20
35.2188783974
 11
4.3269877176
 21
35.2159707051
  0
LINE
  5
2FD
100
AcDbEntity
  8
RACCORDO
100
AcDbLine
 62
253
  6
CONTINUOUS
 10
-1.4991008313
 20
35.2181867807
 11
-2.0570765291
 21
35.215681308
  0
LINE
  5
2FE
100
AcDbEntity
  8
RACCORDO
100
AcDbLine
 62
253
  6
CONTINUOUS
 10
-2.0570765291
 20
35.215681308
 11
-2.6433863292
 21
35.2139477886
  0
LINE
  5
2FF
100
AcDbEntity
  8
RACCORDO
100
AcDbLine
 62
253
  6
CONTINUOUS
 10
4.3269877176
 20
35.2159707051
 11
3.6408080958
 21
35.2140979759
  0
LINE
  5
300
100
AcDbEntity
  8
RACCORDO
100
AcDbLine
 62
253
  6
CONTINUOUS
 10
-2.6433863292
 20
35.2139477886
 11
-3.2595482632
 21
35.2131503086
  0
LINE
  5
301
100
AcDbEntity
  8
RACCORDO
100
AcDbLine
 62
253
  6
CONTINUOUS
 10
3.6408080958
 20
35.2140979759
 11
2.9238960851
 21
35.2133729649
  0
LINE
  5
302
100
AcDbEntity
  8
RACCORDO
100
AcDbLine
 62
253
  6
CONTINUOUS
 10
-3.2595482632
 20
35.2131503086
 11
-3.9060900776
 21
35.2135688408
  0
LINE
  5
303
100
AcDbEntity
  8
RACCORDO
100
AcDbLine
 62
253
  6
CONTINUOUS
 10
2.9238960851
 20
35.2133729649
 11
2.1933763163
 21
35.2140724936
  0
LINE
  5
304
100
AcDbEntity
  8
RACCORDO
100
AcDbLine
 62
253
  6
CONTINUOUS
 10
-3.9060900776
 20
35.2135688408
 11
-4.5799272825
 21
35.2152774096
  0
LINE
  5
305
100
AcDbEntity
  8
RACCORDO
100
AcDbLine
 62
253
  6
CONTINUOUS
 10
2.1933763163
 20
35.2140724936
 11
1.4682498998
 21
35.216238781
  0
LINE
  5
306
100
AcDbEntity
  8
RACCORDO
100
AcDbLine
 62
253
  6
CONTINUOUS
 10
-4.5799272825
 20
35.2152774096
 11
-5.2756764511
 21
35.2183425152
  0
LINE
  5
307
100
AcDbEntity
  8
RACCORDO
100
AcDbLine
 62
253
  6
CONTINUOUS
 10
1.4682498998
 20
35.216238781
 11
0.7624382271
 21
35.2198212341
  0
LINE
  5
308
100
AcDbEntity
  8
RACCORDO
100
AcDbLine
 62
253
  6
CONTINUOUS
 10
-5.2756764511
 20
35.2183425152
 11
-5.9736608137
 21
35.222518092
  0
LWPOLYLINE
  5
309
100
AcDbEntity
  8
RACCORDO
100
AcDbPolyline
 62
253
  6
CONTINUOUS
 90
3
 70
0
 10
0.7624382271
 20
35.2198212341
 10
0.0996058624
 20
35.2245041348
 10
-0.2167627269
 20
35.2272950885
  0
LINE
  5
30A
100
AcDbEntity
  8
RACCORDO
100
AcDbLine
 62
253
  6
CONTINUOUS
 10
-5.9736608137
 20
35.222518092
 11
-6.6594617892
 21
35.2276569356
  0
LINE
  5
30B
100
AcDbEntity
  8
RACCORDO
100
AcDbLine
 62
253
  6
CONTINUOUS
 10
-6.6594617892
 20
35.2276569356
 11
-7.3086063524
 21
35.2335378376
  0
LINE
  5
30C
100
AcDbEntity
  8
RACCORDO
100
AcDbLine
 62
253
  6
CONTINUOUS
 10
-7.3086063524
 20
35.2335378376
 11
-9.2376077646
 21
35.2543713491
  0
LINE
  5
30D
100
AcDbEntity
  8
RACCORDO
100
AcDbLine
 62
253
  6
CONTINUOUS
 10
8.6326985979
 20
38.136511411
 11
7.0425944824
 21
38.088196725
  0
LINE
  5
30E
100
AcDbEntity
  8
RACCORDO
100
AcDbLine
 62
253
  6
CONTINUOUS
 10
7.0425944824
 20
38.088196725
 11
6.5387847122
 21
38.0735632682
  0
LINE
  5
30F
100
AcDbEntity
  8
RACCORDO
100
AcDbLine
 62
253
  6
CONTINUOUS
 10
6.5387847122
 20
38.0735632682
 11
6.0108307701
 21
38.059172552
  0
LWPOLYLINE
  5
310
100
AcDbEntity
  8
RACCORDO
100
AcDbPolyline
 62
253
  6
CONTINUOUS
 90
4
 70
0
 10
6.0108307701
 20
38.059172552
 10
5.4524582375
 20
38.0456759868
 10
5.1611744523
 20
38.0392514218
 10
4.8598822276
 20
38.0332868378
  0
LWPOLYLINE
  5
311
100
AcDbEntity
  8
RACCORDO
100
AcDbPolyline
 62
253
  6
CONTINUOUS
 90
3
 70
0
 10
4.8598822276
 20
38.0332868378
 10
4.2250753161
 20
38.0224219411
 10
3.8939995886
 20
38.0177347966
  0
LWPOLYLINE
  5
312
100
AcDbEntity
  8
RACCORDO
100
AcDbPolyline
 62
253
  6
CONTINUOUS
 90
12
 70
0
 10
3.8939995886
 20
38.0177347966
 10
3.2029330202
 20
38.0099028117
 10
2.8500609568
 20
38.006915414
 10
2.4939841393
 20
38.0047175715
 10
2.134884766
 20
38.0031810634
 10
1.7790147346
 20
38.0023479112
 10
1.4262141551
 20
38.0023782917
 10
1.0766162925
 20
38.0031740711
 10
0.7369131005
 20
38.0045015249
 10
0.4093291178
 20
38.0063629849
 10
0.0916193601
 20
38.0089327802
 10
-0.2162260962
 20
38.0122880111
  0
LINE
  5
313
100
AcDbEntity
  8
RACCORDO
100
AcDbLine
 62
253
  6
CONTINUOUS
 10
-0.2162260962
 20
38.0122880111
 11
-0.6993635929
 21
38.0076710483
  0
LINE
  5
314
100
AcDbEntity
  8
RACCORDO
100
AcDbLine
 62
253
  6
CONTINUOUS
 10
-0.6993635929
 20
38.0076710483
 11
-1.206321952
 21
38.0045022278
  0
LINE
  5
315
100
AcDbEntity
  8
RACCORDO
100
AcDbLine
 62
253
  6
CONTINUOUS
 10
-1.206321952
 20
38.0045022278
 11
-1.7378942135
 21
38.0026815688
  0
LINE
  5
316
100
AcDbEntity
  8
RACCORDO
100
AcDbLine
 62
253
  6
CONTINUOUS
 10
-1.7378942135
 20
38.0026815688
 11
-2.2969280335
 21
38.0024856566
  0
LWPOLYLINE
  5
317
100
AcDbEntity
  8
RACCORDO
100
AcDbPolyline
 62
253
  6
CONTINUOUS
 90
4
 70
0
 10
-2.2969280335
 20
38.0024856566
 10
-2.8843771536
 20
38.004350681
 10
-3.1889250217
 20
38.0060184946
 10
-3.5005841866
 20
38.0084231101
  0
LWPOLYLINE
  5
318
100
AcDbEntity
  8
RACCORDO
100
AcDbPolyline
 62
253
  6
CONTINUOUS
 90
7
 70
0
 10
-3.5005841866
 20
38.0084231101
 10
-4.1466473292
 20
38.0152758873
 10
-4.4782761939
 20
38.0197645696
 10
-4.8162800424
 20
38.0250523021
 10
-5.1593401561
 20
38.0309882054
 10
-5.5013545582
 20
38.0374956896
 10
-5.8426994295
 20
38.044684338
  0
LWPOLYLINE
  5
319
100
AcDbEntity
  8
RACCORDO
100
AcDbPolyline
 62
253
  6
CONTINUOUS
 90
3
 70
0
 10
-5.8426994295
 20
38.044684338
 10
-6.5150969608
 20
38.0604706158
 10
-6.8372608446
 20
38.0689287637
  0
LINE
  5
31A
100
AcDbEntity
  8
RACCORDO
100
AcDbLine
 62
253
  6
CONTINUOUS
 10
-6.8372608446
 20
38.0689287637
 11
-7.4546934025
 21
38.0865798766
  0
LINE
  5
31B
100
AcDbEntity
  8
RACCORDO
100
AcDbLine
 62
253
  6
CONTINUOUS
 10
-8.3004273828
 20
38.1127517848
 11
-9.065623411
 21
38.1364929159
  0
LINE
  5
31C
100
AcDbEntity
  8
RACCORDO
100
AcDbLine
 62
253
  6
CONTINUOUS
 10
-7.4546934025
 20
38.0865798766
 11
-8.3004273828
 21
38.1127517848
  0
LWPOLYLINE
  5
31D
100
AcDbEntity
  8
RACCORDO
100
AcDbPolyline
 62
253
  6
CONTINUOUS
 90
28
 70
0
 10
-9.065623411
 20
38.1364929159
 10
-9.1504044461
 20
38.1405401646
 10
-9.2342444778
 20
38.1474988233
 10
-9.3171482694
 20
38.1573587386
 10
-9.3989275258
 20
38.1700569347
 10
-9.4797787408
 20
38.1856284279
 10
-9.5602837363
 20
38.2042034248
 10
-9.6405134198
 20
38.225708032
 10
-9.7204037265
 20
38.2501652251
 10
-9.8003344902
 20
38.2778392307
 10
-9.880373396
 20
38.30865591
 10
-9.9604582431
 20
38.342609141
 10
-10.0407743866
 20
38.3800491773
 10
-10.1215372238
 20
38.4209933292
 10
-10.2025348102
 20
38.4653031388
 10
-10.2833106063
 20
38.5130799698
 10
-10.3639437166
 20
38.5641862251
 10
-10.4443534141
 20
38.6186044603
 10
-10.5238408134
 20
38.6766007703
 10
-10.6025560994
 20
38.738155826
 10
-10.6803400574
 20
38.8030822959
 10
-10.7560252547
 20
38.8713801951
 10
-10.8295110887
 20
38.9426345536
 10
-10.900878336
 20
39.017022264
 10
-10.9692247092
 20
39.0953914916
 10
-11.034235972
 20
39.1778903257
 10
-11.0961893832
 20
39.2640000336
 10
-11.1550637896
 20
39.3535204831
  0
LINE
  5
31E
100
AcDbEntity
  8
RACCORDO
100
AcDbLine
 62
7
  6
CONTINUOUS
 10
-12.907605279
 20
41.378760809
 11
-12.4423353209
 21
41.4597179034
  0
LINE
  5
31F
100
AcDbEntity
  8
DRAFT
100
AcDbLine
 62
7
  6
CONTINUOUS
 10
-12.5482541516
 20
41.5182193464
 11
-12.3031343871
 21
41.5495767305
  0
LINE
  5
320
100
AcDbEntity
  8
RACCORDO
100
AcDbLine
 62
7
  6
CONTINUOUS
 10
-9.7361223918
 20
41.734759979
 11
-12.4423353209
 21
41.4597179034
  0
LWPOLYLINE
  5
321
100
AcDbEntity
  8
DRAFT
100
AcDbPolyline
 62
7
  6
CONTINUOUS
 90
4
 70
0
 10
-12.3031343871
 20
41.5495767305
 10
-9.620153797
 20
41.7781913227
 10
-6.9350377811
 20
41.9496522663
 10
-6.4252861873
 20
41.9713403244
  0
LWPOLYLINE
  5
322
100
AcDbEntity
  8
RACCORDO
100
AcDbPolyline
 62
7
  6
CONTINUOUS
 90
3
 70
0
 10
-4.3064178716
 20
42.0785697784
 10
-7.0239468363
 20
41.9410439374
 10
-9.7361223918
 20
41.734759979
  0
LWPOLYLINE
  5
323
100
AcDbEntity
  8
DRAFT
100
AcDbPolyline
 62
7
  6
CONTINUOUS
 90
4
 70
0
 10
5.9911653754
 20
41.9713650283
 10
6.5014977543
 20
41.9496522595
 10
9.1866136997
 20
41.7781913182
 10
11.869594196
 20
41.5495767305
  0
LWPOLYLINE
  5
324
100
AcDbEntity
  8
RACCORDO
100
AcDbPolyline
 62
7
  6
CONTINUOUS
 90
5
 70
0
 10
6.5898216935
 20
41.9410703021
 10
3.8721148923
 20
42.0785985982
 10
1.1472508074
 20
42.1473543316
 10
-1.5816427664
 20
42.1473411137
 10
-4.3064178716
 20
42.0785697784
  0
LWPOLYLINE
  5
325
100
AcDbEntity
  8
RACCORDO
100
AcDbPolyline
 62
7
  6
CONTINUOUS
 90
3
 70
0
 10
12.0088313271
 20
41.4597068558
 10
9.3022636986
 20
41.7347730546
 10
6.5898216935
 20
41.9410703021
  0
LINE
  5
326
100
AcDbEntity
  8
DRAFT
100
AcDbLine
 62
7
  6
CONTINUOUS
 10
11.869594196
 20
41.5495767305
 11
12.1148885268
 21
41.518192
  0
LINE
  5
327
100
AcDbEntity
  8
RACCORDO
100
AcDbLine
 62
7
  6
CONTINUOUS
 10
12.0088313271
 20
41.4597068558
 11
12.4740852419
 21
41.3787541116
  0
LINE
  5
328
100
AcDbEntity
  8
DRAFT
100
AcDbLine
 62
7
  6
CONTINUOUS
 10
12.1148885268
 20
41.518192
 11
12.3559681874
 21
41.4723504362
  0
LINE
  5
329
100
AcDbEntity
  8
DRAFT
100
AcDbLine
 62
7
  6
CONTINUOUS
 10
12.3559681874
 20
41.4723504362
 11
12.5928339114
 21
41.4120520394
  0
LWPOLYLINE
  5
32A
100
AcDbEntity
  8
RACCORDO
100
AcDbPolyline
 62
7
  6
CONTINUOUS
 90
10
 70
0
 10
12.4740852419
 20
41.3787541116
 10
12.9181900402
 20
41.24317462
 10
13.341154239
 20
41.0529683811
 10
13.7506606685
 20
40.8035960057
 10
14.1390414379
 20
40.4995968829
 10
14.4832908247
 20
40.1545891803
 10
14.7795318067
 20
39.7656966208
 10
15.0316790203
 20
39.3357954813
 10
15.2284271883
 20
38.8871327604
 10
15.3660184102
 20
38.4271241241
  0
LINE
  5
32B
100
AcDbEntity
  8
DRAFT
100
AcDbLine
 62
7
  6
CONTINUOUS
 10
12.5928339114
 20
41.4120520394
 11
12.8263386119
 21
41.3369567397
  0
LWPOLYLINE
  5
32C
100
AcDbEntity
  8
DRAFT
100
AcDbPolyline
 62
7
  6
CONTINUOUS
 90
18
 70
0
 10
12.8263386119
 20
41.3369567397
 10
13.0556307543
 20
41.2474046069
 10
13.2781551477
 20
41.1444158498
 10
13.4938405254
 20
41.0278424664
 10
13.7027612166
 20
40.8978324587
 10
13.9025817672
 20
40.7558500408
 10
14.0932034658
 20
40.6017640477
 10
14.2747292253
 20
40.4357056445
 10
14.4451270809
 20
40.25953254
 10
14.6042772229
 20
40.0731336064
 10
14.7523041858
 20
39.8766199716
 10
14.8875431872
 20
39.6721827279
 10
15.0098567045
 20
39.4597327986
 10
15.1193867596
 20
39.2393592605
 10
15.2148881371
 20
39.0135204363
 10
15.2962080792
 20
38.78214933
 10
15.363502867
 20
38.5453129376
 10
15.4159907223
 20
38.3056705697
  0
LWPOLYLINE
  5
32D
100
AcDbEntity
  8
DRAFT
100
AcDbPolyline
 62
7
  6
CONTINUOUS
 90
5
 70
0
 10
12.8135709601
 20
-43.4849582726
 10
12.5793758287
 20
-43.5593847383
 10
12.3418528925
 20
-43.6189498409
 10
12.1001480609
 20
-43.6639898489
 10
11.854260611
 20
-43.6945047622
  0
LWPOLYLINE
  5
32E
100
AcDbEntity
  8
RACCORDO
100
AcDbPolyline
 62
7
  6
CONTINUOUS
 90
3
 70
0
 10
12.8037837056
 20
-43.4445270393
 10
12.3483480138
 20
-43.5773752289
 10
11.8706621047
 20
-43.6552649157
  0
ARC
  5
32F
100
AcDbEntity
  8
RACCORDO
100
AcDbCircle
 62
7
  6
CONTINUOUS
 10
-0.2167700955
 20
85.8895564978
 40
130.0387174122
100
AcDbArc
 50
269.8898485467
 51
270.1101514533
  0
CIRCLE
  5
330
100
AcDbEntity
  8
DRAFT
100
AcDbCircle
 62
7
  6
CONTINUOUS
 10
-0.2167700955
 20
-37.9604435022
 40
2.25
  0
CIRCLE
  5
331
100
AcDbEntity
  8
0
100
AcDbCircle
 62
7
  6
CONTINUOUS
 10
-0.2167700955
 20
-37.9604435022
 40
2.0
  0
CIRCLE
  5
332
100
AcDbEntity
  8
0
100
AcDbCircle
 62
253
  6
CONTINUOUS
 10
-0.2167700955
 20
-37.9604435022
 40
1.9612903084
  0
ARC
  5
333
100
AcDbEntity
  8
0
100
AcDbCircle
 62
7
  6
CONTINUOUS
 10
-0.2167700955
 20
-37.9604435022
 40
1.3031234998
100
AcDbArc
 50
259.9178553958
 51
280.0831260407
  0
ARC
  5
334
100
AcDbEntity
  8
0
100
AcDbCircle
 62
7
  6
CONTINUOUS
 10
-0.2167700955
 20
-37.9604435022
 40
1.3031234998
100
AcDbArc
 50
169.9178553621
 51
190.0831260407
  0
ARC
  5
335
100
AcDbEntity
  8
0
100
AcDbCircle
 62
7
  6
CONTINUOUS
 10
-0.2167700955
 20
-37.9604435022
 40
1.3031234998
100
AcDbArc
 50
79.9178551314
 51
100.0831260407
  0
ARC
  5
336
100
AcDbEntity
  8
0
100
AcDbCircle
 62
7
  6
CONTINUOUS
 10
-0.2167700955
 20
-37.9604435022
 40
1.3031234998
100
AcDbArc
 50
349.9178551819
 51
10.0831260407
  0
ARC
  5
337
100
AcDbEntity
  8
TRASH
100
AcDbCircle
 62
7
  6
CONTINUOUS
 10
-0.2167700955
 20
-37.9604435022
 40
1.1472328625
100
AcDbArc
 50
347.9845776281
 51
12.0153200785
  0
ARC
  5
338
100
AcDbEntity
  8
TRASH
100
AcDbCircle
 62
7
  6
CONTINUOUS
 10
-0.2167700955
 20
-37.9604435022
 40
1.1472328625
100
AcDbArc
 50
167.9845776281
 51
192.0153200785
  0
ARC
  5
339
100
AcDbEntity
  8
TRASH
100
AcDbCircle
 62
7
  6
CONTINUOUS
 10
-0.2167700955
 20
-37.9604435022
 40
1.1472328182
100
AcDbArc
 50
257.9846799215
 51
282.0154223719
  0
ARC
  5
33A
100
AcDbEntity
  8
TRASH
100
AcDbCircle
 62
7
  6
CONTINUOUS
 10
-0.2167700955
 20
-37.9604435022
 40
1.1472328182
100
AcDbArc
 50
77.9846799215
 51
102.0154223719
  0
ENDSEC
  0
SECTION
  2
OBJECTS
  0
DICTIONARY
  5
C
100
AcDbDictionary
280
0
281
1
  3
ACAD_GROUP
350
D
  3
ACAD_MLINESTYLE
350
17
  3
ACAD_LAYOUT
350
1A
  3
ACAD_PLOTSETTINGS
350
19
  3
ACAD_PLOTSTYLENAME
350
E
  0
DICTIONARY
  5
D
102
{ACAD_REACTORS
330
C
102
}
100
AcDbDictionary
280
0
281
1
  0
ACDBDICTIONARYWDFLT
  5
E
102
{ACAD_REACTORS
330
C
102
}
100
AcDbDictionary
281
1
  3
Normal
350
F
100
AcDbDictionaryWithDefault
340
F
  0
DICTIONARY
  5
17
102
{ACAD_REACTORS
330
C
102
}
100
AcDbDictionary
280
0
281
1
  3
Standard
350
18
  0
DICTIONARY
  5
19
102
{ACAD_REACTORS
330
C
102
}
100
AcDbDictionary
281
1
  0
DICTIONARY
  5
1A
102
{ACAD_REACTORS
330
C
102
}
100
AcDbDictionary
281
1
  3
Model
350
33B
  3
Layout1
350
33C
  0
ACDBPLACEHOLDER
  5
F
102
{ACAD_REACTORS
330
E
102
}
  0
MLINESTYLE
  5
18
102
{ACAD_REACTORS
330
17
102
}
100
AcDbMlineStyle
  2
STANDARD
 70
0
  3

 62
256
 51
90.0
 52
90.0
 71
2
 49
0.5
 62
256
  6
BYLAYER
 49
-0.5
 62
256
  6
BYLAYER
  0
LAYOUT
  5
33B
102
{ACAD_REACTORS
330
1A
102
}
100
AcDbPlotSettings
  1

  2
none_device
  4
ISO_A4_(297.00_x_210.00_MM)
  6

 40
0.0
 41
0.0
 42
0.0
 43
0.0
 44
297.0
 45
210.0
 46
0.0
 47
0.0
 48
0.0
 49
0.0
140
0.0
141
0.0
142
1.0
143
1.0
 70
1024
 72
1
 73
0
 74
0
  7

 75
0
147
1.0
148
0.0
149
0.0
100
AcDbLayout
  1
Model
 70
0
 71
0
 10
0.0
 20
0.0
 11
297.0
 21
210.0
 12
0.0
 22
0.0
 32
0.0
 14
0.0
 24
0.0
 34
0.0
 15
0.0
 25
0.0
 35
0.0
146
0.0
 13
0.0
 23
0.0
 33
0.0
 16
1.0
 26
0.0
 36
0.0
 17
0.0
 27
1.0
 37
0.0
 76
0
330
216
345
0
346
0
  0
LAYOUT
  5
33C
102
{ACAD_REACTORS
330
1A
102
}
100
AcDbPlotSettings
  1

  2
none_device
  4
ISO_A4_(297.00_x_210.00_MM)
  6

 40
0.0
 41
0.0
 42
0.0
 43
0.0
 44
297.0
 45
210.0
 46
0.0
 47
0.0
 48
0.0
 49
0.0
140
0.0
141
0.0
142
1.0
143
1.0
 70
0
 72
1
 73
0
 74
0
  7

 75
0
147
1.0
148
0.0
149
0.0
100
AcDbLayout
  1
Layout1
 70
0
 71
1
 10
0.0
 20
0.0
 11
297.0
 21
210.0
 12
0.0
 22
0.0
 32
0.0
 14
0.0
 24
0.0
 34
0.0
 15
0.0
 25
0.0
 35
0.0
146
0.0
 13
0.0
 23
0.0
 33
0.0
 16
1.0
 26
0.0
 36
0.0
 17
0.0
 27
1.0
 37
0.0
 76
0
330
217
345
0
346
0
  0
ENDSEC
  0
EOF
