  0
SECTION
  2
HEADER
  9
$ACADVER
  1
AC1015
  9
$DWGCODEPAGE
  3
ANSI_1252
  9
$EXTMAX
 10
297.0
 20
210.0
 30
0.0
  9
$EXTMIN
 10
0.0
 20
0.0
 30
0.0
  9
$LIMMIN
 10
0.0
 20
0.0
  9
$LIMMAX
 10
297.0
 20
210.0
  9
$VIEWCTR
 10
148.5
 20
105.0
  9
$VIEWSIZE
 40
210.0
  9
$CLAYER
  8
0
  9
$LTSCALE
 40
16.335
  9
$CELTYPE
  6
BYLAYER
  9
$DIMSCALE
 40
1.0
  9
$DIMASZ
 40
3.0
  9
$DIMEXO
 40
1.85625
  9
$DIMDLI
 40
11.286
  9
$DIMEXE
 40
5.346
  9
$DIMCEN
 40
2.673
  9
$DIMLFAC
 40
1.0
  9
$DIMBLK
  1
_FILLED
  9
$DIMTXT
 40
3.0
  9
$DIMTOL
 70
1
  9
$DIMLIM
 70
0
  9
$DIMTFAC
 40
1.0
  9
$DIMTP
 40
0.01
  9
$DIMTM
 40
0.01
  9
$PDMODE
 70
3
  9
$PDSIZE
 40
3.0
  9
$HANDSEED
  5
4B2
  9
$TILEMODE
 70
1
  9
$MEASUREMENT
 70
1
  9
$INSUNITS
 70
4
  0
ENDSEC
  0
SECTION
  2
CLASSES
  0
CLASS
  1
ACDBDICTIONARYWDFLT
  2
AcDbDictionaryWithDefault
  3
AutoCAD 2000
 90
0
280
0
281
0
  0
CLASS
  1
ACDBPLACEHOLDER
  2
AcDbPlaceHolder
  3
AutoCAD 2000
 90
0
280
0
281
0
  0
CLASS
  1
LAYOUT
  2
AcDbLayout
  3
AutoCAD 2000
 90
0
280
0
281
0
  0
ENDSEC
  0
SECTION
  2
TABLES
  0
TABLE
  2
VPORT
  5
8
100
AcDbSymbolTable
 70
2
  0
VPORT
  5
1F4
100
AcDbSymbolTableRecord
100
AcDbViewportTableRecord
  2
*ACTIVE
 70
0
 10
0.0
 20
0.0
 11
1.0
 21
1.0
 12
148.5
 22
105.0
 13
0.0
 23
0.0
 14
1.0
 24
1.0
 15
0.0
 25
0.0
 16
0.0
 26
0.0
 36
1.0
 17
0.0
 27
0.0
 37
0.0
 40
210.0
 41
1.4142857143
 42
50.0
 43
0.0
 44
0.0
 50
0.0
 51
0.0
 71
0
 72
100
 73
1
 74
1
 75
0
 76
0
 77
0
 78
0
  0
ENDTAB
  0
TABLE
  2
LTYPE
  5
5
100
AcDbSymbolTable
 70
6
  0
LTYPE
  5
14
100
AcDbSymbolTableRecord
100
AcDbLinetypeTableRecord
  2
BYBLOCK
 70
0
  3

 72
65
 73
0
 40
0.0
  0
LTYPE
  5
15
100
AcDbSymbolTableRecord
100
AcDbLinetypeTableRecord
  2
BYLAYER
 70
0
  3

 72
65
 73
0
 40
0.0
  0
LTYPE
  5
16
100
AcDbSymbolTableRecord
100
AcDbLinetypeTableRecord
  2
CONTINUOUS
 70
64
  3
Solid line
 72
65
 73
0
 40
0.0
  0
LTYPE
  5
1F5
100
AcDbSymbolTableRecord
100
AcDbLinetypeTableRecord
  2
CENTER
 70
64
  3
____ _ ____ _ ____ _ ____ _ ____ _ ____ _ ____
 72
65
 73
4
 40
0.6
 49
0.375
 74
0
 49
-0.075
 74
0
 49
0.075
 74
0
 49
-0.075
 74
0
  0
LTYPE
  5
1F6
100
AcDbSymbolTableRecord
100
AcDbLinetypeTableRecord
  2
HIDDEN
 70
64
  3
- - - - - - - - - - - - - - - - - - - -
 72
65
 73
2
 40
0.2
 49
0.1
 74
0
 49
-0.1
 74
0
  0
LTYPE
  5
1F7
100
AcDbSymbolTableRecord
100
AcDbLinetypeTableRecord
  2
PHANTOM
 70
64
  3
_____ _ _ _____ _ _ _____ _ _ _____
 72
65
 73
6
 40
0.8
 49
0.45
 74
0
 49
-0.05
 74
0
 49
0.1
 74
0
 49
-0.05
 74
0
 49
0.1
 74
0
 49
-0.05
 74
0
  0
LTYPE
  5
1F8
100
AcDbSymbolTableRecord
100
AcDbLinetypeTableRecord
  2
DOT
 70
64
  3
. . . . . . . . . . . . . . . . . . . .
 72
65
 73
2
 40
0.2
 49
0.1
 74
0
 49
-0.1
 74
0
  0
LTYPE
  5
1F9
100
AcDbSymbolTableRecord
100
AcDbLinetypeTableRecord
  2
DASHED
 70
64
  3
- - - - - - - - - - - - - - - - - - - -
 72
65
 73
2
 40
0.2
 49
0.1
 74
0
 49
-0.1
 74
0
  0
ENDTAB
  0
TABLE
  2
LAYER
  5
2
100
AcDbSymbolTable
 70
36
  0
LAYER
  5
10
100
AcDbSymbolTableRecord
100
AcDbLayerTableRecord
  2
0
 70
0
 62
7
  6
CONTINUOUS
370
-3
390
F
  0
LAYER
  5
1FA
100
AcDbSymbolTableRecord
100
AcDbLayerTableRecord
  2
DEFAULT_1
 70
0
 62
7
  6
CENTER
370
-3
390
F
  0
LAYER
  5
1FB
100
AcDbSymbolTableRecord
100
AcDbLayerTableRecord
  2
DEFAULT_2
 70
0
 62
7
  6
HIDDEN
370
-3
390
F
  0
LAYER
  5
1FC
100
AcDbSymbolTableRecord
100
AcDbLayerTableRecord
  2
DEFAULT_3
 70
0
 62
7
  6
PHANTOM
370
-3
390
F
  0
LAYER
  5
1FD
100
AcDbSymbolTableRecord
100
AcDbLayerTableRecord
  2
200A_170000
 70
0
 62
7
  6
CONTINUOUS
370
-3
390
F
  0
LAYER
  5
1FE
100
AcDbSymbolTableRecord
100
AcDbLayerTableRecord
  2
200A_170000_1
 70
0
 62
7
  6
CONTINUOUS
370
-3
390
F
  0
LAYER
  5
1FF
100
AcDbSymbolTableRecord
100
AcDbLayerTableRecord
  2
200A_170000_2
 70
0
 62
7
  6
CONTINUOUS
370
-3
390
F
  0
LAYER
  5
200
100
AcDbSymbolTableRecord
100
AcDbLayerTableRecord
  2
200A_170000_3
 70
0
 62
7
  6
CONTINUOUS
370
-3
390
F
  0
LAYER
  5
201
100
AcDbSymbolTableRecord
100
AcDbLayerTableRecord
  2
2125-CC-RF-VIMAR_65000
 70
0
 62
7
  6
CONTINUOUS
370
-3
390
F
  0
LAYER
  5
202
100
AcDbSymbolTableRecord
100
AcDbLayerTableRecord
  2
2125-CC-RF-VIMAR_65000_1
 70
0
 62
7
  6
CONTINUOUS
370
-3
390
F
  0
LAYER
  5
203
100
AcDbSymbolTableRecord
100
AcDbLayerTableRecord
  2
2125-R1-RF-VIMAR_60000
 70
0
 62
7
  6
CONTINUOUS
370
-3
390
F
  0
LAYER
  5
204
100
AcDbSymbolTableRecord
100
AcDbLayerTableRecord
  2
2125-R1-RF-VIMAR_60000_1
 70
0
 62
7
  6
CONTINUOUS
370
-3
390
F
  0
LAYER
  5
205
100
AcDbSymbolTableRecord
100
AcDbLayerTableRecord
  2
2125-R1-RF-VIMAR_60000_2
 70
0
 62
7
  6
CONTINUOUS
370
-3
390
F
  0
LAYER
  5
206
100
AcDbSymbolTableRecord
100
AcDbLayerTableRecord
  2
3216-R1-RF-VIMAR_60000
 70
0
 62
7
  6
CONTINUOUS
370
-3
390
F
  0
LAYER
  5
207
100
AcDbSymbolTableRecord
100
AcDbLayerTableRecord
  2
3216-R1-RF-VIMAR_60000_1
 70
0
 62
7
  6
CONTINUOUS
370
-3
390
F
  0
LAYER
  5
208
100
AcDbSymbolTableRecord
100
AcDbLayerTableRecord
  2
3216-R1-RF-VIMAR_60000_2
 70
0
 62
7
  6
CONTINUOUS
370
-3
390
F
  0
LAYER
  5
209
100
AcDbSymbolTableRecord
100
AcDbLayerTableRecord
  2
3216-R1-RF-VIMAR_60000_3
 70
0
 62
7
  6
CONTINUOUS
370
-3
390
F
  0
LAYER
  5
20A
100
AcDbSymbolTableRecord
100
AcDbLayerTableRecord
  2
3216-R1-RF-VIMAR_60000_4
 70
0
 62
7
  6
CONTINUOUS
370
-3
390
F
  0
LAYER
  5
20B
100
AcDbSymbolTableRecord
100
AcDbLayerTableRecord
  2
3216-R1-RF-VIMAR_60000_5
 70
0
 62
7
  6
CONTINUOUS
370
-3
390
F
  0
LAYER
  5
20C
100
AcDbSymbolTableRecord
100
AcDbLayerTableRecord
  2
43000489A0
 70
0
 62
7
  6
CONTINUOUS
370
-3
390
F
  0
LAYER
  5
20D
100
AcDbSymbolTableRecord
100
AcDbLayerTableRecord
  2
ASM0001
 70
0
 62
7
  6
CONTINUOUS
370
-3
390
F
  0
LAYER
  5
20E
100
AcDbSymbolTableRecord
100
AcDbLayerTableRecord
  2
ASSI
 70
0
 62
7
  6
CONTINUOUS
370
-3
390
F
  0
LAYER
  5
20F
100
AcDbSymbolTableRecord
100
AcDbLayerTableRecord
  2
AX-F150-1_1300000
 70
0
 62
7
  6
CONTINUOUS
370
-3
390
F
  0
LAYER
  5
210
100
AcDbSymbolTableRecord
100
AcDbLayerTableRecord
  2
AX-R125-3-VIMAR_280000
 70
0
 62
7
  6
CONTINUOUS
370
-3
390
F
  0
LAYER
  5
211
100
AcDbSymbolTableRecord
100
AcDbLayerTableRecord
  2
AX-R125-3-VIMAR_280000_1
 70
0
 62
7
  6
CONTINUOUS
370
-3
390
F
  0
LAYER
  5
212
100
AcDbSymbolTableRecord
100
AcDbLayerTableRecord
  2
AX-R125-3-VIMAR_280000_2
 70
0
 62
7
  6
CONTINUOUS
370
-3
390
F
  0
LAYER
  5
213
100
AcDbSymbolTableRecord
100
AcDbLayerTableRecord
  2
AX-R125-3-VIMAR_280000_3
 70
0
 62
7
  6
CONTINUOUS
370
-3
390
F
  0
LAYER
  5
214
100
AcDbSymbolTableRecord
100
AcDbLayerTableRecord
  2
AX-R125-3-VIMAR_280000_4
 70
0
 62
7
  6
CONTINUOUS
370
-3
390
F
  0
LAYER
  5
215
100
AcDbSymbolTableRecord
100
AcDbLayerTableRecord
  2
AX-R125-3-VIMAR_280000_5
 70
0
 62
7
  6
CONTINUOUS
370
-3
390
F
  0
LAYER
  5
216
100
AcDbSymbolTableRecord
100
AcDbLayerTableRecord
  2
AX-R125-3-VIMAR_280000_6
 70
0
 62
7
  6
CONTINUOUS
370
-3
390
F
  0
LAYER
  5
217
100
AcDbSymbolTableRecord
100
AcDbLayerTableRecord
  2
AX-R125-3-VIMAR_280000_7
 70
0
 62
7
  6
CONTINUOUS
370
-3
390
F
  0
LAYER
  5
218
100
AcDbSymbolTableRecord
100
AcDbLayerTableRecord
  2
AX-R125-3-VIMAR_280000_8
 70
0
 62
7
  6
CONTINUOUS
370
-3
390
F
  0
LAYER
  5
219
100
AcDbSymbolTableRecord
100
AcDbLayerTableRecord
  2
CN-MSB02001-VIMAR_1000000
 70
0
 62
7
  6
CONTINUOUS
370
-3
390
F
  0
LAYER
  5
21A
100
AcDbSymbolTableRecord
100
AcDbLayerTableRecord
  2
COLOR6
 70
0
 62
7
  6
CONTINUOUS
370
-3
390
F
  0
LAYER
  5
21B
100
AcDbSymbolTableRecord
100
AcDbLayerTableRecord
  2
COORDINATE
 70
0
 62
7
  6
CONTINUOUS
370
-3
390
F
  0
LAYER
  5
21C
100
AcDbSymbolTableRecord
100
AcDbLayerTableRecord
  2
COPY_PUBLISH
 70
0
 62
7
  6
CONTINUOUS
370
-3
390
F
  0
LAYER
  5
21D
100
AcDbSymbolTableRecord
100
AcDbLayerTableRecord
  2
COSMETIC
 70
0
 62
7
  6
CONTINUOUS
370
-3
390
F
  0
LAYER
  5
21E
100
AcDbSymbolTableRecord
100
AcDbLayerTableRecord
  2
COSMETICI
 70
0
 62
7
  6
CONTINUOUS
370
-3
390
F
  0
LAYER
  5
21F
100
AcDbSymbolTableRecord
100
AcDbLayerTableRecord
  2
CURVE
 70
0
 62
7
  6
CONTINUOUS
370
-3
390
F
  0
LAYER
  5
220
100
AcDbSymbolTableRecord
100
AcDbLayerTableRecord
  2
DRAFT
 70
0
 62
7
  6
CONTINUOUS
370
-3
390
F
  0
LAYER
  5
221
100
AcDbSymbolTableRecord
100
AcDbLayerTableRecord
  2
I3-TO-H2-VIMAR_1130000
 70
0
 62
7
  6
CONTINUOUS
370
-3
390
F
  0
LAYER
  5
222
100
AcDbSymbolTableRecord
100
AcDbLayerTableRecord
  2
IMPORT_IGES
 70
0
 62
7
  6
CONTINUOUS
370
-3
390
F
  0
LAYER
  5
223
100
AcDbSymbolTableRecord
100
AcDbLayerTableRecord
  2
INTFCLR_2
 70
0
 62
7
  6
CONTINUOUS
370
-3
390
F
  0
LAYER
  5
224
100
AcDbSymbolTableRecord
100
AcDbLayerTableRecord
  2
INTFCLR_3
 70
0
 62
7
  6
CONTINUOUS
370
-3
390
F
  0
LAYER
  5
225
100
AcDbSymbolTableRecord
100
AcDbLayerTableRecord
  2
INTF_BLANK
 70
0
 62
7
  6
CONTINUOUS
370
-3
390
F
  0
LAYER
  5
226
100
AcDbSymbolTableRecord
100
AcDbLayerTableRecord
  2
MM3-MPAK-RF-VIMAR_120000
 70
0
 62
7
  6
CONTINUOUS
370
-3
390
F
  0
LAYER
  5
227
100
AcDbSymbolTableRecord
100
AcDbLayerTableRecord
  2
MM3-MPAK-RF-VIMAR_120000_1
 70
0
 62
7
  6
CONTINUOUS
370
-3
390
F
  0
LAYER
  5
228
100
AcDbSymbolTableRecord
100
AcDbLayerTableRecord
  2
NOTE
 70
0
 62
7
  6
CONTINUOUS
370
-3
390
F
  0
LAYER
  5
229
100
AcDbSymbolTableRecord
100
AcDbLayerTableRecord
  2
PIANI
 70
0
 62
7
  6
CONTINUOUS
370
-3
390
F
  0
LAYER
  5
22A
100
AcDbSymbolTableRecord
100
AcDbLayerTableRecord
  2
PUNTI
 70
0
 62
7
  6
CONTINUOUS
370
-3
390
F
  0
LAYER
  5
22B
100
AcDbSymbolTableRecord
100
AcDbLayerTableRecord
  2
RACCORDO
 70
0
 62
7
  6
CONTINUOUS
370
-3
390
F
  0
LAYER
  5
22C
100
AcDbSymbolTableRecord
100
AcDbLayerTableRecord
  2
RD-ZNR50-1-VIMAR_1150000
 70
0
 62
7
  6
CONTINUOUS
370
-3
390
F
  0
LAYER
  5
22D
100
AcDbSymbolTableRecord
100
AcDbLayerTableRecord
  2
SIMBOLI
 70
0
 62
7
  6
CONTINUOUS
370
-3
390
F
  0
LAYER
  5
22E
100
AcDbSymbolTableRecord
100
AcDbLayerTableRecord
  2
SMUSSO
 70
0
 62
7
  6
CONTINUOUS
370
-3
390
F
  0
LAYER
  5
22F
100
AcDbSymbolTableRecord
100
AcDbLayerTableRecord
  2
SNAPLINE
 70
0
 62
7
  6
CONTINUOUS
370
-3
390
F
  0
LAYER
  5
230
100
AcDbSymbolTableRecord
100
AcDbLayerTableRecord
  2
SUPERFICI
 70
0
 62
7
  6
CONTINUOUS
370
-3
390
F
  0
LAYER
  5
231
100
AcDbSymbolTableRecord
100
AcDbLayerTableRecord
  2
TRASH
 70
0
 62
7
  6
CONTINUOUS
370
-3
390
F
  0
LAYER
  5
232
100
AcDbSymbolTableRecord
100
AcDbLayerTableRecord
  2
___SHELL
 70
0
 62
7
  6
CONTINUOUS
370
-3
390
F
  0
ENDTAB
  0
TABLE
  2
STYLE
  5
3
100
AcDbSymbolTable
 70
1
  0
STYLE
  5
11
100
AcDbSymbolTableRecord
100
AcDbTextStyleTableRecord
  2
STANDARD
 70
0
 40
0.0
 41
0.8
 50
0.0
 71
0
 42
0.2
  3
txt
  4

  0
STYLE
  5
233
100
AcDbSymbolTableRecord
100
AcDbTextStyleTableRecord
  2
TEXTSTYLE_1
 70
0
 40
0.0
 41
0.8
 50
0.0
 71
0
 42
0.2
  3
gdt
  4

  0
ENDTAB
  0
TABLE
  2
VIEW
  5
6
100
AcDbSymbolTable
 70
0
  0
ENDTAB
  0
TABLE
  2
UCS
  5
7
100
AcDbSymbolTable
 70
0
  0
ENDTAB
  0
TABLE
  2
APPID
  5
9
100
AcDbSymbolTable
 70
1
  0
APPID
  5
234
100
AcDbSymbolTableRecord
100
AcDbRegAppTableRecord
  2
ACAD
 70
0
  0
ENDTAB
  0
TABLE
  2
BLOCK_RECORD
  5
1
100
AcDbSymbolTable
 70
0
  0
BLOCK_RECORD
  5
235
100
AcDbSymbolTableRecord
100
AcDbBlockTableRecord
  2
*Model_Space
  0
BLOCK_RECORD
  5
236
100
AcDbSymbolTableRecord
100
AcDbBlockTableRecord
  2
*Paper_Space
  0
ENDTAB
  0
TABLE
  2
DIMSTYLE
  5
A
100
AcDbSymbolTable
 70
1
100
AcDbDimStyleTable
 71
0
  0
DIMSTYLE
105
237
100
AcDbSymbolTableRecord
100
AcDbDimStyleTableRecord
  2
STANDARD
 70
0
  3

  4

 40
1.0
 41
3.0
 42
0.0625
 43
0.38
 44
0.18
 45
0.0
 46
0.0
 47
0.01
 48
0.01
140
3.0
141
0.09
142
0.0
143
25.4
144
1.0
145
0.0
146
1.0
147
0.09
 71
1.0
 72
0.0
 73
0
 74
0
 75
0
 76
0
 77
1
 78
8
170
0
171
2
172
0
173
0
174
0
175
0
176
0
177
0
178
0
270
2
271
2
272
2
273
2
274
2
275
0
280
0
281
0
282
0
283
1
284
8
285
0
286
0
287
3
288
0
340
11
  0
ENDTAB
  0
ENDSEC
  0
SECTION
  2
BLOCKS
  0
BLOCK
  5
20
100
AcDbEntity
  8
0
100
AcDbBlockBegin
  2
*Model_Space
 70
0
 10
0.0
 20
0.0
 30
0.0
  3
*Model_Space
  1

  0
ENDBLK
  5
21
100
AcDbEntity
  8
0
100
AcDbBlockEnd
  0
BLOCK
  5
1C
100
AcDbEntity
  8
0
100
AcDbBlockBegin
  2
*Paper_Space
 70
0
 10
0.0
 20
0.0
 30
0.0
  3
*Paper_Space
  1

  0
ENDBLK
  5
1D
100
AcDbEntity
  8
0
100
AcDbBlockEnd
  0
ENDSEC
  0
SECTION
  2
ENTITIES
  0
LINE
  5
238
100
AcDbEntity
  8
RACCORDO
100
AcDbLine
 62
253
  6
CONTINUOUS
 10
-19.6779356006
 20
24.6146512325
 11
-19.5047568999
 21
24.714636002
  0
LINE
  5
239
100
AcDbEntity
  8
RACCORDO
100
AcDbLine
 62
253
  6
CONTINUOUS
 10
-16.4913730012
 20
24.9984507793
 11
-16.4739179363
 21
25.0159058442
  0
LINE
  5
23A
100
AcDbEntity
  8
RACCORDO
100
AcDbLine
 62
253
  6
CONTINUOUS
 10
-16.2914034622
 20
24.7984812402
 11
-16.2739483973
 21
24.8159363052
  0
LINE
  5
23B
100
AcDbEntity
  8
DRAFT
100
AcDbLine
 62
7
  6
CONTINUOUS
 10
-16.2914034622
 20
23.7484507793
 11
-16.2739483973
 21
23.7659058442
  0
LINE
  5
23C
100
AcDbEntity
  8
RACCORDO
100
AcDbLine
 62
253
  6
CONTINUOUS
 10
-16.8468750483
 20
24.914605541
 11
-16.7016508357
 21
24.9984507793
  0
LINE
  5
23D
100
AcDbEntity
  8
RACCORDO
100
AcDbLine
 62
253
  6
CONTINUOUS
 10
-18.7885904724
 20
23.474199363
 11
-18.9617693434
 21
23.3742148806
  0
LINE
  5
23E
100
AcDbEntity
  8
RACCORDO
100
AcDbLine
 62
253
  6
CONTINUOUS
 10
-16.6736963475
 20
24.6146512325
 11
-16.5284721349
 21
24.6984964707
  0
LINE
  5
23F
100
AcDbEntity
  8
RACCORDO
100
AcDbLine
 62
253
  6
CONTINUOUS
 10
-17.0104097368
 20
23.9868554112
 11
-16.9038025698
 21
24.0484050878
  0
LINE
  5
240
100
AcDbEntity
  8
RACCORDO
100
AcDbLine
 62
253
  6
CONTINUOUS
 10
-16.837231036
 20
23.6869011027
 11
-16.730623869
 21
23.7484507793
  0
LWPOLYLINE
  5
241
100
AcDbEntity
  8
RACCORDO
100
AcDbPolyline
 62
253
  6
CONTINUOUS
 90
13
 70
0
 10
-25.0788992183
 20
11.5388398091
 10
-25.077181165
 20
11.5649360406
 10
-25.0720722874
 20
11.5905859311
 10
-25.0636599659
 20
11.6153507741
 10
-25.0520880818
 20
11.6388070001
 10
-25.0375545568
 20
11.6605534221
 10
-25.020307967
 20
11.6802180969
 10
-25.0006432923
 20
11.6974646866
 10
-24.9788968703
 20
11.7119982117
 10
-24.9554406442
 20
11.7235700957
 10
-24.9306758013
 20
11.7319824173
 10
-24.9050259107
 20
11.7370912949
 10
-24.8789296793
 20
11.7388093481
  0
LWPOLYLINE
  5
242
100
AcDbEntity
  8
RACCORDO
100
AcDbPolyline
 62
253
  6
CONTINUOUS
 90
19
 70
0
 10
-16.6736963475
 20
24.6146512325
 10
-16.6632762497
 20
24.6354267368
 10
-16.6553377617
 20
24.6572728717
 10
-16.6499881838
 20
24.6798943542
 10
-16.6472998235
 20
24.7029854216
 10
-16.6473090181
 20
24.7262339638
 10
-16.6500156431
 20
24.7493257424
 10
-16.6553831147
 20
24.7719486378
 10
-16.6633388833
 20
24.793796868
 10
-16.6737754151
 20
24.8145751218
 10
-16.6865516449
 20
24.8340025504
 10
-16.7014948829
 20
24.8518165632
 10
-16.7184031493
 20
24.8677763776
 10
-16.7370479036
 20
24.881666273
 10
-16.7571771345
 20
24.8932985068
 10
-16.7785187656
 20
24.9025158522
 10
-16.8007843331
 20
24.9091937231
 10
-16.8236728849
 20
24.9132418583
 10
-16.8468750483
 20
24.914605541
  0
LWPOLYLINE
  5
243
100
AcDbEntity
  8
RACCORDO
100
AcDbPolyline
 62
253
  6
CONTINUOUS
 90
13
 70
0
 10
-17.5630444876
 20
23.4741941463
 10
-17.5920320774
 20
23.4207277538
 10
-17.619245484
 20
23.3646943814
 10
-17.6446847076
 20
23.3060940292
 10
-17.668297514
 20
23.2448495141
 10
-17.6901361372
 20
23.1810380192
 10
-17.7103572795
 20
23.1148910935
 10
-17.7289243053
 20
23.0464665489
 10
-17.74587385
 20
22.9757065735
 10
-17.7614725229
 20
22.9026692808
 10
-17.7758091937
 20
22.8273740418
 10
-17.7887949925
 20
22.7498014856
 10
-17.8004299195
 20
22.669951612
  0
LINE
  5
244
100
AcDbEntity
  8
RACCORDO
100
AcDbLine
 62
253
  6
CONTINUOUS
 10
-16.8468750483
 20
24.714636002
 11
-17.5630444876
 21
23.4741941463
  0
LINE
  5
245
100
AcDbEntity
  8
RACCORDO
100
AcDbLine
 62
253
  6
CONTINUOUS
 10
-16.6736963475
 20
24.6146512325
 11
-17.3898161967
 21
23.3742952572
  0
LINE
  5
246
100
AcDbEntity
  8
RACCORDO
100
AcDbLine
 62
7
  6
CONTINUOUS
 10
-16.9038025698
 20
24.0484050878
 11
-16.5284721349
 21
24.6984964707
  0
LINE
  5
247
100
AcDbEntity
  8
RACCORDO
100
AcDbLine
 62
253
  6
CONTINUOUS
 10
-17.3898161967
 20
23.3742952572
 11
-17.2632314581
 21
23.5861993849
  0
LINE
  5
248
100
AcDbEntity
  8
RACCORDO
100
AcDbLine
 62
253
  6
CONTINUOUS
 10
-17.2632314581
 20
23.5861993849
 11
-17.1928700326
 21
23.7026528618
  0
LWPOLYLINE
  5
249
100
AcDbEntity
  8
RACCORDO
100
AcDbPolyline
 62
253
  6
CONTINUOUS
 90
10
 70
0
 10
-17.1928700326
 20
23.7026528618
 10
-17.1337024916
 20
23.7993881591
 10
-17.1083136023
 20
23.8403755479
 10
-17.0856681058
 20
23.8765240099
 10
-17.0656347859
 20
23.9080480586
 10
-17.0483448588
 20
23.9347331806
 10
-17.0341429298
 20
23.9560131041
 10
-17.0231438674
 20
23.9716990717
 10
-17.015232803
 20
23.9819798407
 10
-17.0104097368
 20
23.9868554112
  0
LINE
  5
24A
100
AcDbEntity
  8
RACCORDO
100
AcDbLine
 62
253
  6
CONTINUOUS
 10
-17.8522338315
 20
22.1871438575
 11
-17.5740793215
 21
22.6103288418
  0
LINE
  5
24B
100
AcDbEntity
  8
RACCORDO
100
AcDbLine
 62
253
  6
CONTINUOUS
 10
-17.5740793215
 20
22.6103288418
 11
-17.2736619504
 21
23.0615464989
  0
LINE
  5
24C
100
AcDbEntity
  8
RACCORDO
100
AcDbLine
 62
253
  6
CONTINUOUS
 10
-17.2736619504
 20
23.0615464989
 11
-17.1277119175
 21
23.2779937428
  0
LINE
  5
24D
100
AcDbEntity
  8
RACCORDO
100
AcDbLine
 62
253
  6
CONTINUOUS
 10
-17.1277119175
 20
23.2779937428
 11
-17.0462920796
 21
23.3974165296
  0
LINE
  5
24E
100
AcDbEntity
  8
RACCORDO
100
AcDbLine
 62
253
  6
CONTINUOUS
 10
-17.0462920796
 20
23.3974165296
 11
-16.9781200078
 21
23.496158229
  0
LWPOLYLINE
  5
24F
100
AcDbEntity
  8
RACCORDO
100
AcDbPolyline
 62
253
  6
CONTINUOUS
 90
8
 70
0
 10
-16.9781200078
 20
23.496158229
 10
-16.9231514962
 20
23.574578768
 10
-16.9001942602
 20
23.6067626246
 10
-16.8803856449
 20
23.6338157361
 10
-16.8641432545
 20
23.6555454025
 10
-16.8516062902
 20
23.6717558742
 10
-16.8426355507
 20
23.6822614218
 10
-16.837231036
 20
23.6869011027
  0
LWPOLYLINE
  5
250
100
AcDbEntity
  8
RACCORDO
100
AcDbPolyline
 62
253
  6
CONTINUOUS
 90
13
 70
0
 10
-25.0788992183
 20
-3.8673876013
 10
-25.0771811783
 20
-3.8934837326
 10
-25.0720723343
 20
-3.9191335485
 10
-25.0636600578
 20
-3.9438983445
 10
-25.0520882202
 20
-3.9673545527
 10
-25.0375547347
 20
-3.9891009824
 10
-25.0203081727
 20
-4.0087656834
 10
-25.0006435075
 20
-4.0260123136
 10
-24.9788970735
 20
-4.0405458865
 10
-24.9554408183
 20
-4.0521178158
 10
-24.9306759319
 20
-4.0605301744
 10
-24.9050259824
 20
-4.0656390776
 10
-24.8789296793
 20
-4.0673571403
  0
LWPOLYLINE
  5
251
100
AcDbEntity
  8
RACCORDO
100
AcDbPolyline
 62
7
  6
CONTINUOUS
 90
13
 70
0
 10
-25.1758159741
 20
-3.9643043571
 10
-25.1741057099
 20
-3.9904064839
 10
-25.1690035335
 20
-4.0160616622
 10
-25.1605965523
 20
-4.0408311836
 10
-25.1490283112
 20
-4.0642916405
 10
-25.134496524
 20
-4.0860414463
 10
-25.1172499463
 20
-4.1057078683
 10
-25.0975835243
 20
-4.1229544461
 10
-25.0758337184
 20
-4.1374862332
 10
-25.0523732616
 20
-4.1490544743
 10
-25.0276037401
 20
-4.1574614555
 10
-25.0019485619
 20
-4.1625636319
 10
-24.975846435
 20
-4.1642738961
  0
LWPOLYLINE
  5
252
100
AcDbEntity
  8
RACCORDO
100
AcDbPolyline
 62
253
  6
CONTINUOUS
 90
11
 70
0
 10
-24.8610124711
 20
11.5091688467
 10
-24.8630233532
 20
11.5573740376
 10
-24.8649949939
 20
11.5987152873
 10
-24.8669303526
 20
11.6336696753
 10
-24.8688142435
 20
11.6627427598
 10
-24.8706444457
 20
11.6863874737
 10
-24.8724231801
 20
11.7050574521
 10
-24.8741419229
 20
11.7192189344
 10
-24.8757978332
 20
11.7292968434
 10
-24.8773937519
 20
11.7356936333
 10
-24.8789296793
 20
11.7388093481
  0
LWPOLYLINE
  5
253
100
AcDbEntity
  8
RACCORDO
100
AcDbPolyline
 62
253
  6
CONTINUOUS
 90
12
 70
0
 10
-25.0589387101
 20
11.2729112376
 10
-25.0609859052
 20
11.3244436669
 10
-25.0629968022
 20
11.3695807997
 10
-25.0649684481
 20
11.4083053682
 10
-25.0669037958
 20
11.4406346402
 10
-25.068787671
 20
11.4678942286
 10
-25.0706179946
 20
11.4901111831
 10
-25.0723968458
 20
11.5072584541
 10
-25.0741152874
 20
11.5205805058
 10
-25.0757703405
 20
11.5304921595
 10
-25.0773649842
 20
11.536578594
 10
-25.0788992183
 20
11.5388398091
  0
LINE
  5
254
100
AcDbEntity
  8
RACCORDO
100
AcDbLine
 62
253
  6
CONTINUOUS
 10
-23.9905005762
 20
-3.840742623
 11
-23.9945827413
 21
-3.7235216983
  0
LWPOLYLINE
  5
255
100
AcDbEntity
  8
RACCORDO
100
AcDbPolyline
 62
253
  6
CONTINUOUS
 90
25
 70
0
 10
-23.5269909992
 20
-14.0156245364
 10
-23.5226856409
 20
-14.1464535238
 10
-23.5098326132
 20
-14.2767074492
 10
-23.488489838
 20
-14.4058287068
 10
-23.4587528219
 20
-14.5332602416
 10
-23.4207510198
 20
-14.6584619058
 10
-23.374644249
 20
-14.7809118739
 10
-23.3206277794
 20
-14.9000903512
 10
-23.2589344156
 20
-15.0154827082
 10
-23.1898281923
 20
-15.1265950175
 10
-23.1136049377
 20
-15.2329516646
 10
-23.0305909526
 20
-15.3340974369
 10
-22.9411415202
 20
-15.4295994392
 10
-22.8456395163
 20
-15.5190488701
 10
-22.7444937423
 20
-15.6020628538
 10
-22.6381370937
 20
-15.6782861076
 10
-22.5270247837
 20
-15.747392331
 10
-22.4116324263
 20
-15.8090856955
 10
-22.292453948
 20
-15.8631021656
 10
-22.1699994535
 20
-15.9092104727
 10
-22.0447930808
 20
-15.9472132127
 10
-21.9173707721
 20
-15.9769477548
 10
-21.7882779309
 20
-15.9982867844
 10
-21.6580670908
 20
-16.0111388597
 10
-21.5272955825
 20
-16.0154488949
  0
LINE
  5
256
100
AcDbEntity
  8
RACCORDO
100
AcDbLine
 62
253
  6
CONTINUOUS
 10
-24.8569059253
 20
11.3903336925
 11
-24.8610124711
 21
11.5091688467
  0
LINE
  5
257
100
AcDbEntity
  8
RACCORDO
100
AcDbLine
 62
253
  6
CONTINUOUS
 10
-23.792562304
 20
-3.6049759754
 11
-23.7966767815
 21
-3.4803663801
  0
LINE
  5
258
100
AcDbEntity
  8
RACCORDO
100
AcDbLine
 62
253
  6
CONTINUOUS
 10
-25.0548013514
 20
11.1465856199
 11
-25.0589387101
 21
11.2729112376
  0
LINE
  5
259
100
AcDbEntity
  8
RACCORDO
100
AcDbLine
 62
253
  6
CONTINUOUS
 10
-23.9945827413
 20
-3.7235216983
 11
-23.9987282
 21
-3.5735601461
  0
LINE
  5
25A
100
AcDbEntity
  8
RACCORDO
100
AcDbLine
 62
253
  6
CONTINUOUS
 10
-24.8527381281
 20
11.2382814658
 11
-24.8569059253
 21
11.3903336925
  0
LINE
  5
25B
100
AcDbEntity
  8
RACCORDO
100
AcDbLine
 62
253
  6
CONTINUOUS
 10
-23.7966767815
 20
-3.4803663801
 11
-23.8008093767
 21
-3.3246040569
  0
LINE
  5
25C
100
AcDbEntity
  8
RACCORDO
100
AcDbLine
 62
253
  6
CONTINUOUS
 10
-25.0506513149
 20
10.9888166505
 11
-25.0548013514
 21
11.1465856199
  0
LINE
  5
25D
100
AcDbEntity
  8
RACCORDO
100
AcDbLine
 62
253
  6
CONTINUOUS
 10
-23.9987282
 20
-3.5735601461
 11
-24.0028175567
 21
-3.3883501916
  0
LINE
  5
25E
100
AcDbEntity
  8
RACCORDO
100
AcDbLine
 62
253
  6
CONTINUOUS
 10
-24.8486387549
 20
11.0509185843
 11
-24.8527381281
 21
11.2382814658
  0
LINE
  5
25F
100
AcDbEntity
  8
RACCORDO
100
AcDbLine
 62
253
  6
CONTINUOUS
 10
-23.8008093767
 20
-3.3246040569
 11
-23.8067673195
 21
-3.0287245462
  0
LINE
  5
260
100
AcDbEntity
  8
RACCORDO
100
AcDbLine
 62
253
  6
CONTINUOUS
 10
-25.0446959934
 20
10.6902802652
 11
-25.0506513149
 21
10.9888166505
  0
LINE
  5
261
100
AcDbEntity
  8
RACCORDO
100
AcDbLine
 62
253
  6
CONTINUOUS
 10
-24.0028175567
 20
-3.3883501916
 11
-24.0085334843
 21
-3.049667144
  0
LINE
  5
262
100
AcDbEntity
  8
RACCORDO
100
AcDbLine
 62
253
  6
CONTINUOUS
 10
-24.8429366539
 20
10.709786495
 11
-24.8486387549
 21
11.0509185843
  0
LINE
  5
263
100
AcDbEntity
  8
RACCORDO
100
AcDbLine
 62
253
  6
CONTINUOUS
 10
-23.8067673195
 20
-3.0287245462
 11
-23.8118130342
 21
-2.6821495327
  0
LINE
  5
264
100
AcDbEntity
  8
RACCORDO
100
AcDbLine
 62
253
  6
CONTINUOUS
 10
-25.0396843204
 20
10.3426192067
 11
-25.0446959934
 21
10.6902802652
  0
LINE
  5
265
100
AcDbEntity
  8
RACCORDO
100
AcDbLine
 62
253
  6
CONTINUOUS
 10
-24.8371118169
 20
10.2016380342
 11
-24.8429366539
 21
10.709786495
  0
LINE
  5
266
100
AcDbEntity
  8
RACCORDO
100
AcDbLine
 62
253
  6
CONTINUOUS
 10
-24.0085334843
 20
-3.049667144
 11
-24.0144162329
 21
-2.5415340386
  0
LINE
  5
267
100
AcDbEntity
  8
RACCORDO
100
AcDbLine
 62
253
  6
CONTINUOUS
 10
-25.035017208
 20
9.8675186492
 11
-25.0396843204
 21
10.3426192067
  0
LINE
  5
268
100
AcDbEntity
  8
RACCORDO
100
AcDbLine
 62
253
  6
CONTINUOUS
 10
-23.8118130342
 20
-2.6821495327
 11
-23.8165410459
 21
-2.2055957218
  0
LINE
  5
269
100
AcDbEntity
  8
RACCORDO
100
AcDbLine
 62
253
  6
CONTINUOUS
 10
-24.8323590147
 20
9.4641764968
 11
-24.8371118169
 21
10.2016380342
  0
LINE
  5
26A
100
AcDbEntity
  8
RACCORDO
100
AcDbLine
 62
253
  6
CONTINUOUS
 10
-24.0144162329
 20
-2.5415340386
 11
-24.0192443288
 21
-1.7997307707
  0
LINE
  5
26B
100
AcDbEntity
  8
RACCORDO
100
AcDbLine
 62
253
  6
CONTINUOUS
 10
-25.0315581502
 20
9.2058096504
 11
-25.035017208
 21
9.8675186492
  0
LINE
  5
26C
100
AcDbEntity
  8
RACCORDO
100
AcDbLine
 62
253
  6
CONTINUOUS
 10
-23.8165410459
 20
-2.2055957218
 11
-23.820059707
 21
-1.5391093093
  0
LINE
  5
26D
100
AcDbEntity
  8
RACCORDO
100
AcDbLine
 62
7
  6
CONTINUOUS
 10
-25.1758159741
 20
-3.9643043571
 11
-25.1758159741
 21
-1.1642738961
  0
LINE
  5
26E
100
AcDbEntity
  8
RACCORDO
100
AcDbLine
 62
7
  6
CONTINUOUS
 10
-25.1758159741
 20
8.8357261039
 11
-25.1758159741
 21
11.6357565649
  0
LINE
  5
26F
100
AcDbEntity
  8
RACCORDO
100
AcDbLine
 62
7
  6
CONTINUOUS
 10
-25.0798131169
 20
-0.5769224074
 11
-25.0798131169
 21
8.2483746152
  0
LINE
  5
270
100
AcDbEntity
  8
RACCORDO
100
AcDbLine
 62
253
  6
CONTINUOUS
 10
-24.0192443288
 20
-1.7997307707
 11
-24.0207234786
 21
8.7392662627
  0
LINE
  5
271
100
AcDbEntity
  8
RACCORDO
100
AcDbLine
 62
253
  6
CONTINUOUS
 10
-23.820059707
 20
-1.5391093093
 11
-23.8207539395
 21
8.7392662627
  0
LINE
  5
272
100
AcDbEntity
  8
RACCORDO
100
AcDbLine
 62
7
  6
CONTINUOUS
 10
-23.7718188312
 20
-0.5769224074
 11
-23.7718188312
 21
8.2483746152
  0
LINE
  5
273
100
AcDbEntity
  8
DRAFT
100
AcDbLine
 62
7
  6
CONTINUOUS
 10
-23.6758159741
 20
8.8357261039
 11
-23.6758159741
 21
8.5433690257
  0
LINE
  5
274
100
AcDbEntity
  8
DRAFT
100
AcDbLine
 62
7
  6
CONTINUOUS
 10
-23.6758159741
 20
-0.8719168178
 11
-23.6758159741
 21
-1.1642738961
  0
LINE
  5
275
100
AcDbEntity
  8
RACCORDO
100
AcDbLine
 62
7
  6
CONTINUOUS
 10
-23.6758159741
 20
-14.1645785058
 11
-23.6758159741
 21
-0.9142738961
  0
LINE
  5
276
100
AcDbEntity
  8
RACCORDO
100
AcDbLine
 62
7
  6
CONTINUOUS
 10
-23.6758159741
 20
8.5857261039
 11
-23.6758159741
 21
21.8360307136
  0
LINE
  5
277
100
AcDbEntity
  8
RACCORDO
100
AcDbLine
 62
7
  6
CONTINUOUS
 10
-23.5798131169
 20
8.1949140679
 11
-23.5798131169
 21
-0.52346186
  0
LINE
  5
278
100
AcDbEntity
  8
RACCORDO
100
AcDbLine
 62
253
  6
CONTINUOUS
 10
-23.5269909728
 20
-14.0156245059
 11
-23.5269909728
 21
21.6872057124
  0
LINE
  5
279
100
AcDbEntity
  8
RACCORDO
100
AcDbLine
 62
253
  6
CONTINUOUS
 10
-24.8309209238
 20
-1.1602084402
 11
-24.8323590147
 21
9.4641764968
  0
LINE
  5
27A
100
AcDbEntity
  8
RACCORDO
100
AcDbLine
 62
253
  6
CONTINUOUS
 10
-25.0311047916
 20
-1.337235216
 11
-25.0315581502
 21
9.2058096504
  0
LINE
  5
27B
100
AcDbEntity
  8
RACCORDO
100
AcDbLine
 62
253
  6
CONTINUOUS
 10
-24.0207234786
 20
8.7392662627
 11
-24.0192443286
 21
9.4711829785
  0
LINE
  5
27C
100
AcDbEntity
  8
RACCORDO
100
AcDbLine
 62
253
  6
CONTINUOUS
 10
-23.8207539395
 20
8.7392662627
 11
-23.8192757817
 21
9.422129563
  0
LINE
  5
27D
100
AcDbEntity
  8
RACCORDO
100
AcDbLine
 62
253
  6
CONTINUOUS
 10
-24.8328702836
 20
-1.9098171559
 11
-24.8309209238
 21
-1.1602084402
  0
LINE
  5
27E
100
AcDbEntity
  8
RACCORDO
100
AcDbLine
 62
253
  6
CONTINUOUS
 10
-25.0341835252
 20
-2.0796065877
 11
-25.0311047916
 21
-1.337235216
  0
LINE
  5
27F
100
AcDbEntity
  8
RACCORDO
100
AcDbLine
 62
253
  6
CONTINUOUS
 10
-23.8192757817
 20
9.422129563
 11
-23.8155623443
 21
9.9951010784
  0
LINE
  5
280
100
AcDbEntity
  8
RACCORDO
100
AcDbLine
 62
253
  6
CONTINUOUS
 10
-24.8371118169
 20
-2.5301858264
 11
-24.8328702836
 21
-1.9098171559
  0
LINE
  5
281
100
AcDbEntity
  8
RACCORDO
100
AcDbLine
 62
253
  6
CONTINUOUS
 10
-24.0192443286
 20
9.4711829785
 11
-24.0144162329
 21
10.2129862464
  0
LINE
  5
282
100
AcDbEntity
  8
RACCORDO
100
AcDbLine
 62
253
  6
CONTINUOUS
 10
-25.0383095367
 20
-2.5523557623
 11
-25.0341835252
 21
-2.0796065877
  0
LINE
  5
283
100
AcDbEntity
  8
RACCORDO
100
AcDbLine
 62
253
  6
CONTINUOUS
 10
-23.8155623443
 20
9.9951010784
 11
-23.8102609455
 21
10.4718877378
  0
LINE
  5
284
100
AcDbEntity
  8
RACCORDO
100
AcDbLine
 62
253
  6
CONTINUOUS
 10
-24.842936654
 20
-3.0383342872
 11
-24.8371118169
 21
-2.5301858264
  0
LINE
  5
285
100
AcDbEntity
  8
RACCORDO
100
AcDbLine
 62
253
  6
CONTINUOUS
 10
-24.0144162329
 20
10.2129862464
 11
-24.0085334844
 21
10.7211193518
  0
LINE
  5
286
100
AcDbEntity
  8
RACCORDO
100
AcDbLine
 62
253
  6
CONTINUOUS
 10
-25.0429070489
 20
-2.9069477347
 11
-25.0383095367
 21
-2.5523557623
  0
LINE
  5
287
100
AcDbEntity
  8
RACCORDO
100
AcDbLine
 62
253
  6
CONTINUOUS
 10
-23.8102609455
 20
10.4718877378
 11
-23.8048578457
 21
10.8052962133
  0
LINE
  5
288
100
AcDbEntity
  8
RACCORDO
100
AcDbLine
 62
253
  6
CONTINUOUS
 10
-24.8486387549
 20
-3.3794663765
 11
-24.842936654
 21
-3.0383342872
  0
LINE
  5
289
100
AcDbEntity
  8
RACCORDO
100
AcDbLine
 62
253
  6
CONTINUOUS
 10
-24.0085334844
 20
10.7211193518
 11
-24.0028175567
 21
11.0598023994
  0
LINE
  5
28A
100
AcDbEntity
  8
RACCORDO
100
AcDbLine
 62
253
  6
CONTINUOUS
 10
-25.0486110642
 20
-3.2251268088
 11
-25.0429070489
 21
-2.9069477347
  0
LINE
  5
28B
100
AcDbEntity
  8
RACCORDO
100
AcDbLine
 62
253
  6
CONTINUOUS
 10
-23.8048578457
 20
10.8052962133
 11
-23.8008093767
 21
10.9960562646
  0
LINE
  5
28C
100
AcDbEntity
  8
RACCORDO
100
AcDbLine
 62
253
  6
CONTINUOUS
 10
-24.8527381281
 20
-3.566829258
 11
-24.8486387549
 21
-3.3794663765
  0
LINE
  5
28D
100
AcDbEntity
  8
RACCORDO
100
AcDbLine
 62
253
  6
CONTINUOUS
 10
-24.0028175567
 20
11.0598023994
 11
-23.9987282
 21
11.2450123539
  0
LINE
  5
28E
100
AcDbEntity
  8
RACCORDO
100
AcDbLine
 62
253
  6
CONTINUOUS
 10
-25.052711188
 20
-3.4003402233
 11
-25.0486110642
 21
-3.2251268088
  0
LINE
  5
28F
100
AcDbEntity
  8
RACCORDO
100
AcDbLine
 62
253
  6
CONTINUOUS
 10
-23.8008093767
 20
10.9960562646
 11
-23.7966767815
 21
11.1518185889
  0
LINE
  5
290
100
AcDbEntity
  8
RACCORDO
100
AcDbLine
 62
253
  6
CONTINUOUS
 10
-24.8569059254
 20
-3.7188814846
 11
-24.8527381281
 21
-3.566829258
  0
LINE
  5
291
100
AcDbEntity
  8
RACCORDO
100
AcDbLine
 62
253
  6
CONTINUOUS
 10
-23.9987282
 20
11.2450123539
 11
-23.9945827413
 21
11.3949739062
  0
LWPOLYLINE
  5
292
100
AcDbEntity
  8
RACCORDO
100
AcDbPolyline
 62
253
  6
CONTINUOUS
 90
13
 70
0
 10
-23.7966767815
 20
11.1518185889
 10
-23.792562304
 20
11.2764281825
 10
-23.7905275261
 20
11.3272632141
 10
-23.788529041
 20
11.3717920906
 10
-23.7865695495
 20
11.4100036231
 10
-23.7846463507
 20
11.4419090005
 10
-23.7827745213
 20
11.4688118122
 10
-23.7809561133
 20
11.4907370385
 10
-23.7791890746
 20
11.5076596991
 10
-23.7774823249
 20
11.5208084417
 10
-23.7758388375
 20
11.5305928155
 10
-23.7742556392
 20
11.5366032713
 10
-23.7727327298
 20
11.5388398091
  0
LWPOLYLINE
  5
293
100
AcDbEntity
  8
RACCORDO
100
AcDbPolyline
 62
253
  6
CONTINUOUS
 90
12
 70
0
 10
-23.9945827413
 20
11.3949739062
 10
-23.9905005761
 20
11.5121948308
 10
-23.9885022599
 20
11.5597482549
 10
-23.9865428949
 20
11.600539807
 10
-23.9846197769
 20
11.6350340842
 10
-23.9827480021
 20
11.6637248176
 10
-23.9809297686
 20
11.6870590592
 10
-23.9791628784
 20
11.7054851861
 10
-23.9774558331
 20
11.7194620449
 10
-23.9758114668
 20
11.7294097729
 10
-23.9742269453
 20
11.7357270256
 10
-23.9727022689
 20
11.7388093481
  0
LINE
  5
294
100
AcDbEntity
  8
RACCORDO
100
AcDbLine
 62
253
  6
CONTINUOUS
 10
-17.8522431494
 20
22.18712956
 11
-17.7791478839
 21
22.4080572244
  0
LINE
  5
295
100
AcDbEntity
  8
RACCORDO
100
AcDbLine
 62
253
  6
CONTINUOUS
 10
-17.7791478839
 20
22.4080572244
 11
-17.7445650722
 21
22.5107950201
  0
LWPOLYLINE
  5
296
100
AcDbEntity
  8
RACCORDO
100
AcDbPolyline
 62
253
  6
CONTINUOUS
 90
3
 70
0
 10
-17.7445650722
 20
22.5107950201
 10
-17.7111340853
 20
22.6083987642
 10
-17.69484165
 20
22.6552242271
  0
LWPOLYLINE
  5
297
100
AcDbEntity
  8
RACCORDO
100
AcDbPolyline
 62
253
  6
CONTINUOUS
 90
13
 70
0
 10
-17.694843552
 20
22.6552244926
 10
-17.6681250257
 20
22.7307804853
 10
-17.6418017908
 20
22.8035401451
 10
-17.6158314607
 20
22.8734512575
 10
-17.5901905154
 20
22.9404274714
 10
-17.5648315112
 20
23.0044922022
 10
-17.5396604554
 20
23.0657563928
 10
-17.5146190147
 20
23.1242079956
 10
-17.4896781153
 20
23.1798156262
 10
-17.4647718812
 20
23.2326441636
 10
-17.4398460589
 20
23.2826798536
 10
-17.4148831408
 20
23.3298738343
 10
-17.389867945
 20
23.3742191727
  0
LINE
  5
298
100
AcDbEntity
  8
RACCORDO
100
AcDbLine
 62
253
  6
CONTINUOUS
 10
-23.9727022689
 20
11.7388093481
 11
-23.8757855131
 21
11.8357261039
  0
LINE
  5
299
100
AcDbEntity
  8
RACCORDO
100
AcDbLine
 62
253
  6
CONTINUOUS
 10
-23.7727327298
 20
11.5388398091
 11
-23.6758159741
 21
11.6357565649
  0
LINE
  5
29A
100
AcDbEntity
  8
RACCORDO
100
AcDbLine
 62
7
  6
CONTINUOUS
 10
-1.8238794163
 20
-25.0159058442
 11
-5.5277525319
 21
-25.0159058442
  0
LINE
  5
29B
100
AcDbEntity
  8
RACCORDO
100
AcDbLine
 62
253
  6
CONTINUOUS
 10
-1.8416282601
 20
-24.9982984628
 11
-5.5100026874
 21
-24.9982984628
  0
LINE
  5
29C
100
AcDbEntity
  8
RACCORDO
100
AcDbLine
 62
253
  6
CONTINUOUS
 10
-1.8414867976
 20
-24.4983746152
 11
-5.5101451505
 21
-24.4983746152
  0
LWPOLYLINE
  5
29D
100
AcDbEntity
  8
RACCORDO
100
AcDbPolyline
 62
253
  6
CONTINUOUS
 90
25
 70
0
 10
-5.5100027017
 20
-24.998298472
 10
-5.6408637573
 20
-24.994012551
 10
-5.7711452406
 20
-24.9811761539
 10
-5.9002894764
 20
-24.9598477821
 10
-6.0277388948
 20
-24.9301237332
 10
-6.1529539722
 20
-24.8921338949
 10
-6.2754145322
 20
-24.846037777
 10
-6.3946012381
 20
-24.7920306353
 10
-6.5099991723
 20
-24.7303456347
 10
-6.6211148294
 20
-24.6612466285
 10
-6.7274726313
 20
-24.5850295447
 10
-6.8286175462
 20
-24.5020207538
 10
-6.9241172132
 20
-24.4125751175
 10
-7.0135628478
 20
-24.31707545
 10
-7.0965716364
 20
-24.2159305357
 10
-7.1727887179
 20
-24.1095727348
 10
-7.241887722
 20
-23.9984570787
 10
-7.3035727207
 20
-23.883059146
 10
-7.3575798605
 20
-23.7638724421
 10
-7.4036759883
 20
-23.6414118501
 10
-7.4416658321
 20
-23.5161967399
 10
-7.4713898608
 20
-23.388747396
 10
-7.4927182031
 20
-23.2596033823
 10
-7.5055545927
 20
-23.1293222341
 10
-7.5098405499
 20
-22.9984616243
  0
LWPOLYLINE
  5
29E
100
AcDbEntity
  8
RACCORDO
100
AcDbPolyline
 62
253
  6
CONTINUOUS
 90
25
 70
0
 10
-5.5101451505
 20
-24.4983746152
 10
-5.6086316357
 20
-24.4951010886
 10
-5.7059602253
 20
-24.4855381765
 10
-5.8021309192
 20
-24.4696858789
 10
-5.8975749579
 20
-24.4474226276
 10
-5.9918611008
 20
-24.4188699909
 10
-6.0836956265
 20
-24.3843926731
 10
-6.1730170795
 20
-24.3439154341
 10
-6.2598869151
 20
-24.2975135141
 10
-6.3431957783
 20
-24.2457773385
 10
-6.4228984711
 20
-24.18863771
 10
-6.4990401913
 20
-24.1261638258
 10
-6.570647178
 20
-24.0591537036
 10
-6.637661397
 20
-23.9875483964
 10
-6.7001408823
 20
-23.9114068512
 10
-6.7572859754
 20
-23.8317039262
 10
-6.8090270002
 20
-23.7483947455
 10
-6.8554336327
 20
-23.6615241851
 10
-6.8959152428
 20
-23.5722017313
 10
-6.93039649
 20
-23.4803673293
 10
-6.9589527148
 20
-23.386081034
 10
-6.9812193084
 20
-23.2906324956
 10
-6.9970747345
 20
-23.1944515976
 10
-7.0066405295
 20
-23.0971084566
 10
-7.0099166932
 20
-22.9986030725
  0
LINE
  5
29F
100
AcDbEntity
  8
RACCORDO
100
AcDbLine
 62
253
  6
CONTINUOUS
 10
-19.5047568999
 20
-17.0431837942
 11
-19.6779356006
 21
-16.9431990247
  0
LINE
  5
2A0
100
AcDbEntity
  8
RACCORDO
100
AcDbLine
 62
253
  6
CONTINUOUS
 10
-16.8468750483
 20
-17.2431533332
 11
-16.7016508357
 21
-17.3269985714
  0
LWPOLYLINE
  5
2A1
100
AcDbEntity
  8
RACCORDO
100
AcDbPolyline
 62
253
  6
CONTINUOUS
 90
9
 70
0
 10
-17.0104097368
 20
-16.3154032034
 10
-17.0146228214
 20
-16.3113354743
 10
-17.0217559541
 20
-16.3021914034
 10
-17.0318091348
 20
-16.2879709906
 10
-17.0447307317
 20
-16.2687673387
 10
-17.0605723767
 20
-16.2444873449
 10
-17.0794889653
 20
-16.2148517008
 10
-17.1015049072
 20
-16.1798256062
 10
-17.1265957928
 20
-16.1394438611
  0
LINE
  5
2A2
100
AcDbEntity
  8
RACCORDO
100
AcDbLine
 62
253
  6
CONTINUOUS
 10
-16.4739179363
 20
-17.3444536364
 11
-16.4913730012
 21
-17.3269985714
  0
LINE
  5
2A3
100
AcDbEntity
  8
RACCORDO
100
AcDbLine
 62
253
  6
CONTINUOUS
 10
-16.2739483973
 20
-17.1444840973
 11
-16.2914034622
 21
-17.1270290324
  0
LWPOLYLINE
  5
2A4
100
AcDbEntity
  8
RACCORDO
100
AcDbPolyline
 62
253
  6
CONTINUOUS
 90
25
 70
0
 10
-22.0272194301
 20
-14.0157535046
 10
-22.0261283412
 20
-14.0485841533
 10
-22.0229402413
 20
-14.0810293898
 10
-22.0176551303
 20
-14.1130892139
 10
-22.0102326222
 20
-14.1449074557
 10
-22.000713103
 20
-14.1763402853
 10
-21.9892177307
 20
-14.2069562122
 10
-21.9757211669
 20
-14.2367349888
 10
-21.96024875
 20
-14.2656968627
 10
-21.9429976528
 20
-14.2934710871
 10
-21.9239444373
 20
-14.3200426133
 10
-21.9031125415
 20
-14.3454264899
 10
-21.8807694524
 20
-14.3692971151
 10
-21.8568961346
 20
-14.3916344411
 10
-21.8315116234
 20
-14.4124585158
 10
-21.8049405121
 20
-14.4315038812
 10
-21.7771676437
 20
-14.4487475383
 10
-21.7482081752
 20
-14.4642124862
 10
-21.7184321703
 20
-14.4777022642
 10
-21.6878175547
 20
-14.4891918333
 10
-21.6563864028
 20
-14.4987062327
 10
-21.624575001
 20
-14.5061241186
 10
-21.592528778
 20
-14.5114050432
 10
-21.5601023052
 20
-14.5145894544
 10
-21.5272955825
 20
-14.5156773521
  0
LINE
  5
2A5
100
AcDbEntity
  8
RACCORDO
100
AcDbLine
 62
7
  6
CONTINUOUS
 10
-22.2140133099
 20
6.441998193
 11
-22.2140133099
 21
1.2294540148
  0
LINE
  5
2A6
100
AcDbEntity
  8
DRAFT
100
AcDbLine
 62
7
  6
CONTINUOUS
 10
-22.1077412208
 20
6.3357261039
 11
-22.1077412208
 21
1.3357261039
  0
LINE
  5
2A7
100
AcDbEntity
  8
RACCORDO
100
AcDbLine
 62
253
  6
CONTINUOUS
 10
-22.0796608005
 20
1.3076456836
 11
-22.0796608005
 21
1.3357261039
  0
LINE
  5
2A8
100
AcDbEntity
  8
RACCORDO
100
AcDbLine
 62
253
  6
CONTINUOUS
 10
-22.0796608005
 20
6.3357261039
 11
-22.0796608005
 21
6.3638065242
  0
LINE
  5
2A9
100
AcDbEntity
  8
RACCORDO
100
AcDbLine
 62
253
  6
CONTINUOUS
 10
-22.0272194301
 20
21.6872057124
 11
-22.0272194301
 21
6.442202
  0
LINE
  5
2AA
100
AcDbEntity
  8
RACCORDO
100
AcDbLine
 62
253
  6
CONTINUOUS
 10
-22.0272194301
 20
1.2292502078
 11
-22.0272194301
 21
-14.0157535046
  0
LINE
  5
2AB
100
AcDbEntity
  8
0
100
AcDbLine
 62
7
  6
CONTINUOUS
 10
-21.6758159741
 20
6.4156646609
 11
-21.6758159741
 21
1.255787547
  0
LINE
  5
2AC
100
AcDbEntity
  8
RACCORDO
100
AcDbLine
 62
253
  6
CONTINUOUS
 10
-21.5272955825
 20
-14.5156773521
 11
-21.5272955825
 21
-16.0154488949
  0
LINE
  5
2AD
100
AcDbEntity
  8
RACCORDO
100
AcDbLine
 62
253
  6
CONTINUOUS
 10
-21.5272955825
 20
22.18712956
 11
-21.5272955817
 21
23.6869011027
  0
LINE
  5
2AE
100
AcDbEntity
  8
RACCORDO
100
AcDbLine
 62
7
  6
CONTINUOUS
 10
-21.4610813702
 20
21.1285876235
 11
-21.4610813702
 21
6.442202
  0
LINE
  5
2AF
100
AcDbEntity
  8
RACCORDO
100
AcDbLine
 62
7
  6
CONTINUOUS
 10
-21.4610813702
 20
1.2292502078
 11
-21.4610813702
 21
-13.4571354157
  0
LINE
  5
2B0
100
AcDbEntity
  8
RACCORDO
100
AcDbLine
 62
7
  6
CONTINUOUS
 10
-21.4258159741
 20
21.0933222274
 11
-21.4258159741
 21
6.438710987
  0
LINE
  5
2B1
100
AcDbEntity
  8
RACCORDO
100
AcDbLine
 62
7
  6
CONTINUOUS
 10
-21.4258159741
 20
1.2327412208
 11
-21.4258159741
 21
-13.4218700196
  0
LINE
  5
2B2
100
AcDbEntity
  8
RACCORDO
100
AcDbLine
 62
7
  6
CONTINUOUS
 10
-23.7632436151
 20
8.7482984628
 11
-23.6758159741
 21
8.8357261039
  0
LINE
  5
2B3
100
AcDbEntity
  8
RACCORDO
100
AcDbLine
 62
253
  6
CONTINUOUS
 10
-7.5098405408
 20
-22.9986030725
 11
-7.0099166932
 21
-22.9986030725
  0
LINE
  5
2B4
100
AcDbEntity
  8
RACCORDO
100
AcDbLine
 62
253
  6
CONTINUOUS
 10
0.1582085927
 20
-22.9986030725
 11
-0.3417152549
 21
-22.9986030725
  0
LINE
  5
2B5
100
AcDbEntity
  8
RACCORDO
100
AcDbLine
 62
253
  6
CONTINUOUS
 10
-18.9617698695
 20
-15.7027635795
 11
-18.7885909141
 21
-15.8027479202
  0
LINE
  5
2B6
100
AcDbEntity
  8
RACCORDO
100
AcDbLine
 62
253
  6
CONTINUOUS
 10
-16.6736963475
 20
-16.9431990247
 11
-16.5284721349
 21
-17.0270442629
  0
LINE
  5
2B7
100
AcDbEntity
  8
RACCORDO
100
AcDbLine
 62
253
  6
CONTINUOUS
 10
-16.9038025698
 20
-16.37695288
 11
-17.0104097368
 21
-16.3154032034
  0
LINE
  5
2B8
100
AcDbEntity
  8
RACCORDO
100
AcDbLine
 62
253
  6
CONTINUOUS
 10
-16.730623869
 20
-16.0769985714
 11
-16.8372261493
 21
-16.0154517163
  0
LWPOLYLINE
  5
2B9
100
AcDbEntity
  8
RACCORDO
100
AcDbPolyline
 62
253
  6
CONTINUOUS
 90
9
 70
0
 10
-16.8372162654
 20
-16.0154517075
 10
-16.8418777071
 20
-16.0113814137
 10
-16.8499086348
 20
-16.0021704798
 10
-16.8613090485
 20
-15.9877870203
 10
-16.8760109614
 20
-15.9682804745
 10
-16.8940823604
 20
-15.9436221246
 10
-16.9157272058
 20
-15.9135621135
 10
-16.9409933373
 20
-15.8779240521
 10
-16.9698329152
 20
-15.8367211668
  0
LINE
  5
2BA
100
AcDbEntity
  8
DRAFT
100
AcDbLine
 62
7
  6
CONTINUOUS
 10
-16.2914034622
 20
-16.0769985714
 11
-16.2739483973
 21
-16.0944536364
  0
LINE
  5
2BB
100
AcDbEntity
  8
RACCORDO
100
AcDbLine
 62
253
  6
CONTINUOUS
 10
-16.9698329152
 20
-15.8367211668
 11
-17.0384988123
 21
-15.7373676118
  0
LWPOLYLINE
  5
2BC
100
AcDbEntity
  8
RACCORDO
100
AcDbPolyline
 62
253
  6
CONTINUOUS
 90
12
 70
0
 10
-23.7727327298
 20
-3.8673876013
 10
-23.7742556392
 20
-3.8651510709
 10
-23.7758388376
 20
-3.8591406189
 10
-23.777482325
 20
-3.8493562455
 10
-23.7791890746
 20
-3.8362074974
 10
-23.7809561133
 20
-3.8192848278
 10
-23.7827745212
 20
-3.7973595959
 10
-23.7846463507
 20
-3.7704567865
 10
-23.7865695495
 20
-3.7385514148
 10
-23.788529041
 20
-3.7003398863
 10
-23.7905275261
 20
-3.6558110092
 10
-23.792562304
 20
-3.6049759754
  0
LINE
  5
2BD
100
AcDbEntity
  8
RACCORDO
100
AcDbLine
 62
253
  6
CONTINUOUS
 10
-17.0384988123
 20
-15.7373676118
 11
-17.1215905381
 21
-15.615561561
  0
LINE
  5
2BE
100
AcDbEntity
  8
RACCORDO
100
AcDbLine
 62
253
  6
CONTINUOUS
 10
-17.1215905381
 20
-15.615561561
 11
-17.2185635698
 21
-15.4722202577
  0
LINE
  5
2BF
100
AcDbEntity
  8
RACCORDO
100
AcDbLine
 62
253
  6
CONTINUOUS
 10
-17.2185635698
 20
-15.4722202577
 11
-17.3878381519
 21
-15.219492573
  0
LWPOLYLINE
  5
2C0
100
AcDbEntity
  8
RACCORDO
100
AcDbPolyline
 62
253
  6
CONTINUOUS
 90
4
 70
0
 10
-17.3878381519
 20
-15.219492573
 10
-17.6471371595
 20
-14.8279888802
 10
-17.7146671961
 20
-14.7247473136
 10
-17.8522408062
 20
-14.5156809465
  0
LINE
  5
2C1
100
AcDbEntity
  8
RACCORDO
100
AcDbLine
 62
253
  6
CONTINUOUS
 10
-17.1265957928
 20
-16.1394438611
 11
-17.1863100585
 21
-16.0419835666
  0
LINE
  5
2C2
100
AcDbEntity
  8
RACCORDO
100
AcDbLine
 62
253
  6
CONTINUOUS
 10
-17.1863100585
 20
-16.0419835666
 11
-17.2586070969
 21
-15.9224363938
  0
LINE
  5
2C3
100
AcDbEntity
  8
RACCORDO
100
AcDbLine
 62
253
  6
CONTINUOUS
 10
-17.2586070969
 20
-15.9224363938
 11
-17.3898234074
 21
-15.7028305637
  0
LINE
  5
2C4
100
AcDbEntity
  8
RACCORDO
100
AcDbLine
 62
253
  6
CONTINUOUS
 10
-17.5630479274
 20
-15.8027359805
 11
-16.8468750483
 21
-17.0431837942
  0
LINE
  5
2C5
100
AcDbEntity
  8
RACCORDO
100
AcDbLine
 62
253
  6
CONTINUOUS
 10
-17.3898234074
 20
-15.7028305637
 11
-16.6736963475
 21
-16.9431990247
  0
LINE
  5
2C6
100
AcDbEntity
  8
RACCORDO
100
AcDbLine
 62
7
  6
CONTINUOUS
 10
-16.5284721349
 20
-17.0270442629
 11
-16.9038025698
 21
-16.37695288
  0
LWPOLYLINE
  5
2C7
100
AcDbEntity
  8
RACCORDO
100
AcDbPolyline
 62
253
  6
CONTINUOUS
 90
13
 70
0
 10
-17.3898688083
 20
-15.7027660028
 10
-17.4147682156
 20
-15.658633962
 10
-17.4396369866
 20
-15.6116356345
 10
-17.4644885452
 20
-15.5617743129
 10
-17.4893374415
 20
-15.5091016735
 10
-17.5142388417
 20
-15.4536233631
 10
-17.53926237
 20
-15.3952556146
 10
-17.5644319042
 20
-15.3340351125
 10
-17.5898068607
 20
-15.2699654145
 10
-17.6154939649
 20
-15.2028943541
 10
-17.6415456058
 20
-15.132782245
 10
-17.6679813032
 20
-15.0597255875
 10
-17.6948428777
 20
-14.9837742719
  0
LWPOLYLINE
  5
2C8
100
AcDbEntity
  8
RACCORDO
100
AcDbPolyline
 62
253
  6
CONTINUOUS
 90
11
 70
0
 10
-23.972701936
 20
-4.0673574977
 10
-23.9742267605
 20
-4.0642753703
 10
-23.9758113929
 20
-4.0579579337
 10
-23.9774558332
 20
-4.0480098371
 10
-23.9791629031
 20
-4.0340327513
 10
-23.9809297809
 20
-4.0156067105
 10
-23.982748002
 20
-3.9922726097
 10
-23.9846197768
 20
-3.9635818763
 10
-23.9865428949
 20
-3.9290875992
 10
-23.98850226
 20
-3.8882960471
 10
-23.9905005762
 20
-3.840742623
  0
LINE
  5
2C9
100
AcDbEntity
  8
RACCORDO
100
AcDbLine
 62
253
  6
CONTINUOUS
 10
-17.6948409743
 20
-14.9837740063
 11
-17.7197899526
 21
-14.911867453
  0
LINE
  5
2CA
100
AcDbEntity
  8
RACCORDO
100
AcDbLine
 62
253
  6
CONTINUOUS
 10
-17.7197899526
 20
-14.911867453
 11
-17.7711487603
 21
-14.7605072486
  0
LINE
  5
2CB
100
AcDbEntity
  8
RACCORDO
100
AcDbLine
 62
253
  6
CONTINUOUS
 10
-17.7711487603
 20
-14.7605072486
 11
-17.8522431494
 21
-14.5156773521
  0
LWPOLYLINE
  5
2CC
100
AcDbEntity
  8
RACCORDO
100
AcDbPolyline
 62
253
  6
CONTINUOUS
 90
7
 70
0
 10
-17.8522428063
 20
-14.5156809465
 10
-17.8446976383
 20
-14.6013598821
 10
-17.8367162644
 20
-14.6849552805
 10
-17.8282986845
 20
-14.7664671416
 10
-17.8194448986
 20
-14.8458954653
 10
-17.8101549068
 20
-14.9232402518
 10
-17.8004287089
 20
-14.998501501
  0
LINE
  5
2CD
100
AcDbEntity
  8
RACCORDO
100
AcDbLine
 62
253
  6
CONTINUOUS
 10
-20.9094562617
 20
-16.0944536364
 11
-20.9094562617
 21
-16.0978837228
  0
LINE
  5
2CE
100
AcDbEntity
  8
RACCORDO
100
AcDbLine
 62
253
  6
CONTINUOUS
 10
-20.9094562617
 20
23.7659058442
 11
-20.9094562617
 21
23.7693359306
  0
LINE
  5
2CF
100
AcDbEntity
  8
DRAFT
100
AcDbLine
 62
7
  6
CONTINUOUS
 10
-20.0955226754
 20
1.2554328052
 11
-20.0955226754
 21
6.4160194026
  0
LINE
  5
2D0
100
AcDbEntity
  8
RACCORDO
100
AcDbLine
 62
7
  6
CONTINUOUS
 10
-20.0776835508
 20
-17.1444840973
 11
-20.0776835508
 21
-16.0944536364
  0
LINE
  5
2D1
100
AcDbEntity
  8
RACCORDO
100
AcDbLine
 62
7
  6
CONTINUOUS
 10
-20.0776835508
 20
23.7659058442
 11
-20.0776835508
 21
24.8159363052
  0
LINE
  5
2D2
100
AcDbEntity
  8
DRAFT
100
AcDbLine
 62
7
  6
CONTINUOUS
 10
-20.072831091
 20
1.2327412208
 11
-20.072831091
 21
6.438710987
  0
LINE
  5
2D3
100
AcDbEntity
  8
RACCORDO
100
AcDbLine
 62
7
  6
CONTINUOUS
 10
-20.0602284859
 20
-17.1270290324
 11
-20.0602284859
 21
-16.0769985714
  0
LINE
  5
2D4
100
AcDbEntity
  8
RACCORDO
100
AcDbLine
 62
7
  6
CONTINUOUS
 10
-20.0602284859
 20
23.7484507793
 11
-20.0602284859
 21
24.7984812402
  0
LINE
  5
2D5
100
AcDbEntity
  8
RACCORDO
100
AcDbLine
 62
253
  6
CONTINUOUS
 10
-19.5047568999
 20
-17.2431533332
 11
-19.5047568999
 21
-17.0431837942
  0
LINE
  5
2D6
100
AcDbEntity
  8
RACCORDO
100
AcDbLine
 62
253
  6
CONTINUOUS
 10
-19.5047568999
 20
24.714636002
 11
-19.5047568999
 21
24.914605541
  0
LINE
  5
2D7
100
AcDbEntity
  8
RACCORDO
100
AcDbLine
 62
253
  6
CONTINUOUS
 10
-17.8417153596
 20
22.3026004414
 11
-17.8522418194
 21
22.1871438575
  0
LWPOLYLINE
  5
2D8
100
AcDbEntity
  8
RACCORDO
100
AcDbPolyline
 62
253
  6
CONTINUOUS
 90
7
 70
0
 10
-17.8004299195
 20
22.669951612
 10
-17.806990192
 20
22.6208872579
 10
-17.8133174123
 20
22.5706891509
 10
-17.8194115805
 20
22.5193572909
 10
-17.8252297586
 20
22.4669069915
 10
-17.8308148846
 20
22.4133229391
 10
-17.8417153596
 20
22.3026004414
  0
LWPOLYLINE
  5
2D9
100
AcDbEntity
  8
RACCORDO
100
AcDbPolyline
 62
253
  6
CONTINUOUS
 90
12
 70
0
 10
-24.8789296793
 20
-4.0673571403
 10
-24.8773937519
 20
-4.0642414255
 10
-24.8757978331
 20
-4.0578446356
 10
-24.8741419229
 20
-4.0477667266
 10
-24.87242318
 20
-4.0336052443
 10
-24.8706444458
 20
-4.0149352659
 10
-24.8688142436
 20
-3.991290552
 10
-24.8669303527
 20
-3.9622174675
 10
-24.8649949939
 20
-3.9272630795
 10
-24.8630233531
 20
-3.8859218297
 10
-24.861012471
 20
-3.8377166389
 10
-24.8569059254
 20
-3.7188814846
  0
LINE
  5
2DA
100
AcDbEntity
  8
RACCORDO
100
AcDbLine
 62
7
  6
CONTINUOUS
 10
-22.0360231382
 20
6.4074441866
 11
-22.1077412208
 21
6.3357261039
  0
LINE
  5
2DB
100
AcDbEntity
  8
DRAFT
100
AcDbLine
 62
7
  6
CONTINUOUS
 10
-20.0955226754
 20
6.4160194026
 11
-20.072831091
 21
6.438710987
  0
LWPOLYLINE
  5
2DC
100
AcDbEntity
  8
RACCORDO
100
AcDbPolyline
 62
253
  6
CONTINUOUS
 90
3
 70
0
 10
-20.9438456801
 20
-16.0945138545
 10
-20.9355525439
 20
-16.0961656628
 10
-20.9094562617
 20
-16.0978837228
  0
LINE
  5
2DD
100
AcDbEntity
  8
RACCORDO
100
AcDbLine
 62
253
  6
CONTINUOUS
 10
-1.8416282601
 20
-24.9982984628
 11
-1.8238794163
 21
-25.0159058442
  0
LINE
  5
2DE
100
AcDbEntity
  8
RACCORDO
100
AcDbLine
 62
253
  6
CONTINUOUS
 10
-23.8757855131
 20
-4.1642738961
 11
-23.9727019114
 21
-4.0673574978
  0
LINE
  5
2DF
100
AcDbEntity
  8
RACCORDO
100
AcDbLine
 62
253
  6
CONTINUOUS
 10
-23.6758159741
 20
-3.9643043571
 11
-23.7727327298
 21
-3.8673876013
  0
LWPOLYLINE
  5
2E0
100
AcDbEntity
  8
RACCORDO
100
AcDbPolyline
 62
253
  6
CONTINUOUS
 90
13
 70
0
 10
-17.8004287089
 20
-14.998501501
 10
-17.7887207395
 20
-15.0787711729
 10
-17.7756707405
 20
-15.1566666249
 10
-17.761278712
 20
-15.2321878569
 10
-17.7456311885
 20
-15.3053400019
 10
-17.7286416355
 20
-15.3761179269
 10
-17.7100504492
 20
-15.4445062328
 10
-17.6898193134
 20
-15.5105696863
 10
-17.6679865443
 20
-15.5742435207
 10
-17.6444074867
 20
-15.6353180372
 10
-17.6190339221
 20
-15.6937233362
 10
-17.591914069
 20
-15.7495293173
 10
-17.5630479274
 20
-15.8027359805
  0
LWPOLYLINE
  5
2E1
100
AcDbEntity
  8
RACCORDO
100
AcDbPolyline
 62
253
  6
CONTINUOUS
 90
3
 70
0
 10
-18.499389119
 20
22.1871330035
 10
-18.5046035054
 20
22.2455072384
 10
-18.5153438671
 20
22.3586745543
  0
LINE
  5
2E2
100
AcDbEntity
  8
RACCORDO
100
AcDbLine
 62
253
  6
CONTINUOUS
 10
-16.8468750483
 20
24.914605541
 11
-16.8468750483
 21
24.714636002
  0
LINE
  5
2E3
100
AcDbEntity
  8
RACCORDO
100
AcDbLine
 62
253
  6
CONTINUOUS
 10
-16.8468750483
 20
-17.0431837942
 11
-16.8468750483
 21
-17.2431533332
  0
LINE
  5
2E4
100
AcDbEntity
  8
RACCORDO
100
AcDbLine
 62
7
  6
CONTINUOUS
 10
-16.2914034622
 20
24.7984812402
 11
-16.2914034622
 21
23.7484507793
  0
LINE
  5
2E5
100
AcDbEntity
  8
RACCORDO
100
AcDbLine
 62
7
  6
CONTINUOUS
 10
-16.2914034622
 20
-16.0769985714
 11
-16.2914034622
 21
-17.1270290324
  0
LINE
  5
2E6
100
AcDbEntity
  8
RACCORDO
100
AcDbLine
 62
7
  6
CONTINUOUS
 10
-16.2739483973
 20
24.8159363052
 11
-16.2739483973
 21
23.7659058442
  0
LINE
  5
2E7
100
AcDbEntity
  8
RACCORDO
100
AcDbLine
 62
7
  6
CONTINUOUS
 10
-16.2739483973
 20
-16.0944536364
 11
-16.2739483973
 21
-17.1444840973
  0
LWPOLYLINE
  5
2E8
100
AcDbEntity
  8
RACCORDO
100
AcDbPolyline
 62
253
  6
CONTINUOUS
 90
7
 70
0
 10
-18.5512020286
 20
-14.9984994041
 10
-18.5414697363
 20
-14.9231668858
 10
-18.5321762366
 20
-14.8457801911
 10
-18.5233215295
 20
-14.7663393202
 10
-18.514905615
 20
-14.684844273
 10
-18.5069284931
 20
-14.6012950495
 10
-18.4993901638
 20
-14.5156916497
  0
LWPOLYLINE
  5
2E9
100
AcDbEntity
  8
RACCORDO
100
AcDbPolyline
 62
253
  6
CONTINUOUS
 90
14
 70
0
 10
-25.0788992183
 20
-3.8673876013
 10
-25.0773649841
 20
-3.8651263969
 10
-25.0757703405
 20
-3.8590399681
 10
-25.0741152874
 20
-3.8491283149
 10
-25.0723968458
 20
-3.8358062552
 10
-25.0706179947
 20
-3.8186589711
 10
-25.0687876711
 20
-3.7964420086
 10
-25.0669037958
 20
-3.7691824235
 10
-25.0649684481
 20
-3.7368531601
 10
-25.0629968022
 20
-3.6981285974
 10
-25.0609859052
 20
-3.6529914636
 10
-25.0589387101
 20
-3.6014590305
 10
-25.0568792502
 20
-3.5422574925
 10
-25.052711188
 20
-3.4003402233
  0
LINE
  5
2EA
100
AcDbEntity
  8
RACCORDO
100
AcDbLine
 62
7
  6
CONTINUOUS
 10
-25.088388333
 20
-1.076846255
 11
-25.1758159741
 21
-1.1642738961
  0
LINE
  5
2EB
100
AcDbEntity
  8
RACCORDO
100
AcDbLine
 62
7
  6
CONTINUOUS
 10
-22.2140133099
 20
1.2294540148
 11
-22.1077412208
 21
1.3357261039
  0
LWPOLYLINE
  5
2EC
100
AcDbEntity
  8
RACCORDO
100
AcDbPolyline
 62
253
  6
CONTINUOUS
 90
3
 70
0
 10
3.5578243136
 20
-16.0978837228
 10
3.5839204835
 20
-16.0961656777
 10
3.5925160658
 20
-16.0944536364
  0
LINE
  5
2ED
100
AcDbEntity
  8
RACCORDO
100
AcDbLine
 62
7
  6
CONTINUOUS
 10
-16.4739179363
 20
-17.3444536364
 11
-19.8777140118
 21
-17.3444536364
  0
LINE
  5
2EE
100
AcDbEntity
  8
RACCORDO
100
AcDbLine
 62
7
  6
CONTINUOUS
 10
-16.4913730012
 20
-17.3269985714
 11
-16.7016508357
 21
-17.3269985714
  0
LINE
  5
2EF
100
AcDbEntity
  8
RACCORDO
100
AcDbLine
 62
7
  6
CONTINUOUS
 10
-19.6499811124
 20
-17.3269985714
 11
-19.8602589469
 21
-17.3269985714
  0
LINE
  5
2F0
100
AcDbEntity
  8
RACCORDO
100
AcDbLine
 62
253
  6
CONTINUOUS
 10
-19.5047568999
 20
-17.2431533332
 11
-16.8468750483
 21
-17.2431533332
  0
LINE
  5
2F1
100
AcDbEntity
  8
RACCORDO
100
AcDbLine
 62
253
  6
CONTINUOUS
 10
-19.5047568999
 20
-17.0431837942
 11
-16.8468750483
 21
-17.0431837942
  0
LWPOLYLINE
  5
2F2
100
AcDbEntity
  8
RACCORDO
100
AcDbPolyline
 62
253
  6
CONTINUOUS
 90
16
 70
0
 10
-19.5144009121
 20
-16.0154488949
 10
-19.4865859619
 20
-16.0174086802
 10
-19.4593121257
 20
-16.0232205623
 10
-19.4331099908
 20
-16.0327714763
 10
-19.4084892955
 20
-16.0458756182
 10
-19.3859290126
 20
-16.0622780589
 10
-19.365868032
 20
-16.0816597041
 10
-19.3486966215
 20
-16.1036435017
 10
-19.3347488348
 20
-16.1278017771
 10
-19.3242960133
 20
-16.1536645535
 10
-19.3175415068
 20
-16.1807286945
 10
-19.3146167181
 20
-16.2084676921
 10
-19.3155785461
 20
-16.2363419101
 10
-19.3204082793
 20
-16.2638090811
 10
-19.3290119599
 20
-16.290334857
 10
-19.3412222111
 20
-16.3154032031
  0
LINE
  5
2F3
100
AcDbEntity
  8
RACCORDO
100
AcDbLine
 62
7
  6
CONTINUOUS
 10
-23.7632436151
 20
-1.076846255
 11
-23.6758159741
 21
-1.1642738961
  0
LINE
  5
2F4
100
AcDbEntity
  8
RACCORDO
100
AcDbLine
 62
253
  6
CONTINUOUS
 10
-18.5153438671
 20
22.3586745543
 11
-18.5264148242
 21
22.4670354135
  0
LINE
  5
2F5
100
AcDbEntity
  8
DRAFT
100
AcDbLine
 62
7
  6
CONTINUOUS
 10
-23.6758159741
 20
-0.9142738961
 11
-23.6334588958
 21
-0.8719168178
  0
LINE
  5
2F6
100
AcDbEntity
  8
RACCORDO
100
AcDbLine
 62
7
  6
CONTINUOUS
 10
-23.5849582466
 20
-0.8234161686
 11
-23.6334588958
 21
-0.8719168178
  0
LINE
  5
2F7
100
AcDbEntity
  8
RACCORDO
100
AcDbLine
 62
253
  6
CONTINUOUS
 10
-25.1758159741
 20
-3.9643043571
 11
-25.0788992183
 21
-3.8673876013
  0
LINE
  5
2F8
100
AcDbEntity
  8
RACCORDO
100
AcDbLine
 62
253
  6
CONTINUOUS
 10
-24.975846435
 20
-4.1642738961
 11
-24.8789296793
 21
-4.0673571403
  0
LWPOLYLINE
  5
2F9
100
AcDbEntity
  8
RACCORDO
100
AcDbPolyline
 62
253
  6
CONTINUOUS
 90
16
 70
0
 10
-16.837231036
 20
-16.0154488949
 10
-16.8650448092
 20
-16.0174085135
 10
-16.8923175959
 20
-16.0232199212
 10
-16.9185188668
 20
-16.0327700962
 10
-16.9431388803
 20
-16.0458732554
 10
-16.9656987586
 20
-16.0622745471
 10
-16.9857597557
 20
-16.0816550754
 10
-17.0029315754
 20
-16.1036379311
 10
-17.0168800625
 20
-16.1277955121
 10
-17.0273338033
 20
-16.1536579825
 10
-17.0340893141
 20
-16.1807222885
 10
-17.0370150293
 20
-16.2084619077
 10
-17.0360539019
 20
-16.2363371591
 10
-17.0312245103
 20
-16.2638057058
 10
-17.0226206946
 20
-16.2903331081
 10
-17.0104097368
 20
-16.3154032034
  0
LWPOLYLINE
  5
2FA
100
AcDbEntity
  8
RACCORDO
100
AcDbPolyline
 62
253
  6
CONTINUOUS
 90
19
 70
0
 10
-16.8468750483
 20
-17.2431533332
 10
-16.8235515431
 20
-17.2417753653
 10
-16.8005400358
 20
-17.2376833223
 10
-16.7781554271
 20
-17.2309308059
 10
-16.7566956914
 20
-17.2216034387
 10
-16.7364652318
 20
-17.2098290748
 10
-16.7177650202
 20
-17.1957861342
 10
-16.7008629442
 20
-17.1796911727
 10
-16.6859630333
 20
-17.1617554418
 10
-16.6732394803
 20
-17.1421888527
 10
-16.6628552269
 20
-17.1212141901
 10
-16.6549848249
 20
-17.0991498247
 10
-16.6497574497
 20
-17.0763786029
 10
-16.6472234698
 20
-17.0532171421
 10
-16.647395609
 20
-17.0299812033
 10
-16.650235518
 20
-17.0070638436
 10
-16.6556486455
 20
-16.9847904271
 10
-16.6635181548
 20
-16.9634152653
 10
-16.6736963475
 20
-16.9431990247
  0
LINE
  5
2FB
100
AcDbEntity
  8
RACCORDO
100
AcDbLine
 62
7
  6
CONTINUOUS
 10
14.3244886356
 20
-16.1642738961
 11
13.8241840259
 21
-16.1642738961
  0
LINE
  5
2FC
100
AcDbEntity
  8
RACCORDO
100
AcDbLine
 62
7
  6
CONTINUOUS
 10
3.6242144869
 20
-16.1642738961
 11
0.1758159741
 21
-16.1642738961
  0
LINE
  5
2FD
100
AcDbEntity
  8
RACCORDO
100
AcDbLine
 62
7
  6
CONTINUOUS
 10
-7.5274479222
 20
-16.1642738961
 11
-16.2739483973
 21
-16.1642738961
  0
LINE
  5
2FE
100
AcDbEntity
  8
RACCORDO
100
AcDbLine
 62
7
  6
CONTINUOUS
 10
-20.0776835508
 20
-16.1642738961
 11
-21.6761205837
 21
-16.1642738961
  0
LINE
  5
2FF
100
AcDbEntity
  8
RACCORDO
100
AcDbLine
 62
7
  6
CONTINUOUS
 10
13.806728961
 20
-16.1468188312
 11
3.7545635719
 21
-16.1468188312
  0
LINE
  5
300
100
AcDbEntity
  8
RACCORDO
100
AcDbLine
 62
253
  6
CONTINUOUS
 10
-20.9094562617
 20
-16.0978837228
 11
-20.0776835508
 21
-16.0978837228
  0
LINE
  5
301
100
AcDbEntity
  8
RACCORDO
100
AcDbLine
 62
253
  6
CONTINUOUS
 10
-16.2739483973
 20
-16.0978837228
 11
-7.5274479222
 21
-16.0978837228
  0
LINE
  5
302
100
AcDbEntity
  8
RACCORDO
100
AcDbLine
 62
253
  6
CONTINUOUS
 10
0.1758159741
 20
-16.0978837228
 11
3.5578243136
 21
-16.0978837228
  0
LINE
  5
303
100
AcDbEntity
  8
DRAFT
100
AcDbLine
 62
7
  6
CONTINUOUS
 10
-16.2739483973
 20
-16.0944536364
 11
-7.6059957143
 21
-16.0944536364
  0
LINE
  5
304
100
AcDbEntity
  8
RACCORDO
100
AcDbLine
 62
7
  6
CONTINUOUS
 10
0.2543637662
 20
-16.0944536364
 11
13.5578243136
 21
-16.0944536364
  0
LINE
  5
305
100
AcDbEntity
  8
RACCORDO
100
AcDbLine
 62
7
  6
CONTINUOUS
 10
-20.0776835508
 20
-16.0944536364
 11
-20.9094562617
 21
-16.0944536364
  0
LINE
  5
306
100
AcDbEntity
  8
RACCORDO
100
AcDbLine
 62
7
  6
CONTINUOUS
 10
-16.2914034622
 20
-16.0769985714
 11
-16.730623869
 21
-16.0769985714
  0
LINE
  5
307
100
AcDbEntity
  8
RACCORDO
100
AcDbLine
 62
7
  6
CONTINUOUS
 10
-19.6210080791
 20
-16.0769985714
 11
-20.0602284859
 21
-16.0769985714
  0
LINE
  5
308
100
AcDbEntity
  8
RACCORDO
100
AcDbLine
 62
253
  6
CONTINUOUS
 10
-21.5272955825
 20
-16.0154488949
 11
-19.5144009121
 21
-16.0154488949
  0
LINE
  5
309
100
AcDbEntity
  8
RACCORDO
100
AcDbLine
 62
253
  6
CONTINUOUS
 10
14.1755366826
 20
-16.0154488949
 11
0.1753590247
 21
-16.0154488949
  0
LINE
  5
30A
100
AcDbEntity
  8
RACCORDO
100
AcDbLine
 62
253
  6
CONTINUOUS
 10
-7.5269909728
 20
-16.0154488949
 11
-16.8372261493
 21
-16.0154517163
  0
LINE
  5
30B
100
AcDbEntity
  8
RACCORDO
100
AcDbLine
 62
253
  6
CONTINUOUS
 10
-21.5272955825
 20
-14.5156773521
 11
-18.4993901638
 21
-14.5156916497
  0
LINE
  5
30C
100
AcDbEntity
  8
RACCORDO
100
AcDbLine
 62
253
  6
CONTINUOUS
 10
-0.3417152549
 20
-14.5156773521
 11
14.1756636344
 21
-14.5156773521
  0
LINE
  5
30D
100
AcDbEntity
  8
RACCORDO
100
AcDbLine
 62
253
  6
CONTINUOUS
 10
-17.8522428063
 20
-14.5156809465
 11
-7.0099166932
 21
-14.5156773521
  0
LINE
  5
30E
100
AcDbEntity
  8
RACCORDO
100
AcDbLine
 62
253
  6
CONTINUOUS
 10
16.1753590247
 20
-14.0157535046
 11
14.675587482
 21
-14.0157535046
  0
LINE
  5
30F
100
AcDbEntity
  8
RACCORDO
100
AcDbLine
 62
253
  6
CONTINUOUS
 10
-22.0272194301
 20
-14.0157535046
 11
-23.5269909728
 21
-14.0157535037
  0
LINE
  5
310
100
AcDbEntity
  8
RACCORDO
100
AcDbLine
 62
7
  6
CONTINUOUS
 10
-20.9686774937
 20
-13.9495392922
 11
13.6170455456
 21
-13.9495392922
  0
LINE
  5
311
100
AcDbEntity
  8
RACCORDO
100
AcDbLine
 62
7
  6
CONTINUOUS
 10
-20.9334120975
 20
-13.9142738961
 11
13.5817801494
 21
-13.9142738961
  0
LINE
  5
312
100
AcDbEntity
  8
RACCORDO
100
AcDbLine
 62
7
  6
CONTINUOUS
 10
-22.0360231382
 20
1.2640080213
 11
-22.1077412208
 21
1.3357261039
  0
LINE
  5
313
100
AcDbEntity
  8
RACCORDO
100
AcDbLine
 62
253
  6
CONTINUOUS
 10
0.1582085927
 20
-22.9984606094
 11
0.1758159741
 21
-23.0162104539
  0
LWPOLYLINE
  5
314
100
AcDbEntity
  8
RACCORDO
100
AcDbPolyline
 62
253
  6
CONTINUOUS
 90
13
 70
0
 10
-18.5512032162
 20
22.669953669
 10
-18.5629117231
 20
22.7502263794
 10
-18.5759622125
 20
22.8281242337
 10
-18.5903546843
 20
22.9036472317
 10
-18.6060026314
 20
22.9768004555
 10
-18.6229925609
 20
23.0475788232
 10
-18.6415839946
 20
23.115967089
 10
-18.6618152559
 20
23.182030007
 10
-18.6836480214
 20
23.2457028232
 10
-18.7072268427
 20
23.30677603
 10
-18.7325999036
 20
23.3651797915
 10
-18.7597190203
 20
23.4209839437
 10
-18.7885841928
 20
23.4741884864
  0
LWPOLYLINE
  5
315
100
AcDbEntity
  8
RACCORDO
100
AcDbPolyline
 62
253
  6
CONTINUOUS
 90
5
 70
0
 10
-18.5264148242
 20
22.4670354135
 10
-18.532233381
 20
22.5194726437
 10
-18.5383255126
 20
22.5707793259
 10
-18.544648791
 20
22.6209396677
 10
-18.5512032162
 20
22.669953669
  0
LINE
  5
316
100
AcDbEntity
  8
RACCORDO
100
AcDbLine
 62
253
  6
CONTINUOUS
 10
-18.4993887987
 20
-14.5156773521
 11
-18.5804429488
 21
-14.7603843892
  0
LWPOLYLINE
  5
317
100
AcDbEntity
  8
RACCORDO
100
AcDbPolyline
 62
253
  6
CONTINUOUS
 90
3
 70
0
 10
-18.5804429488
 20
-14.7603843892
 10
-18.6318187533
 20
-14.9117988622
 10
-18.6567900368
 20
-14.9837720558
  0
LWPOLYLINE
  5
318
100
AcDbEntity
  8
RACCORDO
100
AcDbPolyline
 62
253
  6
CONTINUOUS
 90
13
 70
0
 10
-18.6567883961
 20
-14.9837722848
 10
-18.6835069224
 20
-15.0593282775
 10
-18.7098301573
 20
-15.1320879372
 10
-18.7358004874
 20
-15.2019990497
 10
-18.7614414327
 20
-15.2689752636
 10
-18.7868004369
 20
-15.3330399944
 10
-18.8119714927
 20
-15.3943041849
 10
-18.8370129335
 20
-15.4527557878
 10
-18.8619538328
 20
-15.5083634184
 10
-18.8868600669
 20
-15.5611919558
 10
-18.9117858892
 20
-15.6112276458
 10
-18.9367488073
 20
-15.6584216265
 10
-18.9617640031
 20
-15.7027669649
  0
LINE
  5
319
100
AcDbEntity
  8
DRAFT
100
AcDbLine
 62
7
  6
CONTINUOUS
 10
-20.0955226754
 20
1.2554328052
 11
-20.072831091
 21
1.2327412208
  0
LINE
  5
31A
100
AcDbEntity
  8
RACCORDO
100
AcDbLine
 62
7
  6
CONTINUOUS
 10
-25.088388333
 20
8.7482984628
 11
-25.1758159741
 21
8.8357261039
  0
LWPOLYLINE
  5
31B
100
AcDbEntity
  8
RACCORDO
100
AcDbPolyline
 62
253
  6
CONTINUOUS
 90
19
 70
0
 10
-19.6779356006
 20
-16.9431990247
 10
-19.688403998
 20
-16.9640867566
 10
-19.6963659384
 20
-16.986061328
 10
-19.7017103921
 20
-17.008823226
 10
-19.7043625229
 20
-17.0320715859
 10
-19.7042808545
 20
-17.0554788598
 10
-19.701469417
 20
-17.0786951883
 10
-19.6959818095
 20
-17.1013802962
 10
-19.6878989663
 20
-17.1232518631
 10
-19.6773155796
 20
-17.1440540777
 10
-19.6643431156
 20
-17.1635344364
 10
-19.6491700157
 20
-17.1813825871
 10
-19.6320632468
 20
-17.1972952377
 10
-19.6132718233
 20
-17.2110704591
 10
-19.5930628404
 20
-17.2225393516
 10
-19.5717958702
 20
-17.2315385981
 10
-19.5497999619
 20
-17.2379874003
 10
-19.5273537741
 20
-17.2418597863
 10
-19.5047568999
 20
-17.2431533332
  0
LINE
  5
31C
100
AcDbEntity
  8
RACCORDO
100
AcDbLine
 62
7
  6
CONTINUOUS
 10
14.675587482
 20
20.1698268231
 11
14.8803864598
 21
20.2875252058
  0
LWPOLYLINE
  5
31D
100
AcDbEntity
  8
RACCORDO
100
AcDbPolyline
 62
7
  6
CONTINUOUS
 90
20
 70
0
 10
14.8803864598
 20
20.2875252058
 10
14.979718943
 20
20.3435647584
 10
15.0287353154
 20
20.3708016246
 10
15.0773077448
 20
20.3973839494
 10
15.1254614311
 20
20.4233686233
 10
15.1731995427
 20
20.4486359885
 10
15.2205189111
 20
20.4730850287
 10
15.2674352302
 20
20.4967635766
 10
15.3139870527
 20
20.5195358618
 10
15.360135826
 20
20.5412581094
 10
15.4057815862
 20
20.5619114732
 10
15.450956575
 20
20.5813135665
 10
15.4956285508
 20
20.599287993
 10
15.5396008245
 20
20.6157520754
 10
15.582903854
 20
20.630466286
 10
15.6255071816
 20
20.6432063255
 10
15.6671227449
 20
20.6538079725
 10
15.7076545234
 20
20.661985376
 10
15.7471985377
 20
20.667400764
 10
15.7857547878
 20
20.6697506706
  0
LINE
  5
31E
100
AcDbEntity
  8
RACCORDO
100
AcDbLine
 62
7
  6
CONTINUOUS
 10
0.1753590247
 20
-16.0154488949
 11
0.1758159741
 21
-16.0159058442
  0
LINE
  5
31F
100
AcDbEntity
  8
DRAFT
100
AcDbLine
 62
7
  6
CONTINUOUS
 10
0.2543637662
 20
-16.0944536364
 11
0.1758159741
 21
-16.0159058442
  0
LINE
  5
320
100
AcDbEntity
  8
RACCORDO
100
AcDbLine
 62
7
  6
CONTINUOUS
 10
-22.2140133099
 20
6.441998193
 11
-22.1077412208
 21
6.3357261039
  0
LINE
  5
321
100
AcDbEntity
  8
DRAFT
100
AcDbLine
 62
7
  6
CONTINUOUS
 10
-23.6758159741
 20
8.5857261039
 11
-23.6334588958
 21
8.5433690257
  0
LINE
  5
322
100
AcDbEntity
  8
RACCORDO
100
AcDbLine
 62
7
  6
CONTINUOUS
 10
-23.5849582466
 20
8.4948683764
 11
-23.6334588958
 21
8.5433690257
  0
LINE
  5
323
100
AcDbEntity
  8
RACCORDO
100
AcDbLine
 62
253
  6
CONTINUOUS
 10
-25.0788992183
 20
11.5388398091
 11
-25.1758159741
 21
11.6357565649
  0
LINE
  5
324
100
AcDbEntity
  8
RACCORDO
100
AcDbLine
 62
253
  6
CONTINUOUS
 10
-24.8789296793
 20
11.7388093481
 11
-24.975846435
 21
11.8357261039
  0
LINE
  5
325
100
AcDbEntity
  8
RACCORDO
100
AcDbLine
 62
253
  6
CONTINUOUS
 10
-18.656791134
 20
22.6552261348
 11
-18.6239533055
 21
22.5603370493
  0
LINE
  5
326
100
AcDbEntity
  8
RACCORDO
100
AcDbLine
 62
253
  6
CONTINUOUS
 10
-18.6239533055
 20
22.5603370493
 11
-18.5899643602
 21
22.4601857209
  0
LINE
  5
327
100
AcDbEntity
  8
RACCORDO
100
AcDbLine
 62
253
  6
CONTINUOUS
 10
-18.5899643602
 20
22.4601857209
 11
-18.536645737
 21
22.3002092935
  0
LINE
  5
328
100
AcDbEntity
  8
RACCORDO
100
AcDbLine
 62
253
  6
CONTINUOUS
 10
-18.536645737
 20
22.3002092935
 11
-18.4993887987
 21
22.18712956
  0
LINE
  5
329
100
AcDbEntity
  8
RACCORDO
100
AcDbLine
 62
7
  6
CONTINUOUS
 10
-7.5274479222
 20
-23.0162104539
 11
-7.5274479222
 21
-16.0159058442
  0
LINE
  5
32A
100
AcDbEntity
  8
RACCORDO
100
AcDbLine
 62
253
  6
CONTINUOUS
 10
-7.5098405408
 20
-22.99846161
 11
-7.5098405408
 21
-15.625844658
  0
LINE
  5
32B
100
AcDbEntity
  8
RACCORDO
100
AcDbLine
 62
253
  6
CONTINUOUS
 10
-7.0099166932
 20
-22.9986030725
 11
-7.0099166932
 21
-14.5156773521
  0
LWPOLYLINE
  5
32C
100
AcDbEntity
  8
RACCORDO
100
AcDbPolyline
 62
253
  6
CONTINUOUS
 90
13
 70
0
 10
-18.7885874606
 20
-15.8027419385
 10
-18.7595998708
 20
-15.7492755459
 10
-18.7323864641
 20
-15.6932421736
 10
-18.7069472405
 20
-15.6346418213
 10
-18.6833344341
 20
-15.5733973063
 10
-18.6614958109
 20
-15.5095858113
 10
-18.6412746686
 20
-15.4434388856
 10
-18.6227076428
 20
-15.375014341
 10
-18.6057580981
 20
-15.3042543657
 10
-18.5901594252
 20
-15.2312170729
 10
-18.5758227545
 20
-15.155921834
 10
-18.5628369556
 20
-15.0783492777
 10
-18.5512020286
 20
-14.9984994041
  0
LINE
  5
32D
100
AcDbEntity
  8
RACCORDO
100
AcDbLine
 62
7
  6
CONTINUOUS
 10
-19.4478293783
 20
-16.37695288
 11
-19.8231598132
 21
-17.0270442629
  0
LINE
  5
32E
100
AcDbEntity
  8
RACCORDO
100
AcDbLine
 62
253
  6
CONTINUOUS
 10
-19.6779356006
 20
-16.9431990247
 11
-18.9618157514
 21
-15.7028430494
  0
LINE
  5
32F
100
AcDbEntity
  8
RACCORDO
100
AcDbLine
 62
253
  6
CONTINUOUS
 10
-19.5047568999
 20
-17.0431837942
 11
-18.7885874606
 21
-15.8027419385
  0
LINE
  5
330
100
AcDbEntity
  8
RACCORDO
100
AcDbLine
 62
253
  6
CONTINUOUS
 10
-18.9618157514
 20
-15.7028430494
 11
-19.08840049
 21
-15.9147471771
  0
LINE
  5
331
100
AcDbEntity
  8
RACCORDO
100
AcDbLine
 62
253
  6
CONTINUOUS
 10
-19.08840049
 20
-15.9147471771
 11
-19.1587619155
 21
-16.031200654
  0
LWPOLYLINE
  5
332
100
AcDbEntity
  8
RACCORDO
100
AcDbPolyline
 62
253
  6
CONTINUOUS
 90
10
 70
0
 10
-19.1587619155
 20
-16.031200654
 10
-19.2179294565
 20
-16.1279359513
 10
-19.2433183458
 20
-16.1689233401
 10
-19.2659638423
 20
-16.2050718021
 10
-19.2859971622
 20
-16.2365958508
 10
-19.3032870893
 20
-16.2632809728
 10
-19.3174890183
 20
-16.2845608963
 10
-19.3284880807
 20
-16.3002468639
 10
-19.3363991451
 20
-16.3105276329
 10
-19.3412222113
 20
-16.3154032034
  0
LINE
  5
333
100
AcDbEntity
  8
RACCORDO
100
AcDbLine
 62
253
  6
CONTINUOUS
 10
-18.4993981166
 20
-14.5156916497
 11
-18.7775526266
 21
-14.9388766339
  0
LINE
  5
334
100
AcDbEntity
  8
RACCORDO
100
AcDbLine
 62
253
  6
CONTINUOUS
 10
-18.7775526266
 20
-14.9388766339
 11
-19.0779699977
 21
-15.3900942911
  0
LINE
  5
335
100
AcDbEntity
  8
RACCORDO
100
AcDbLine
 62
253
  6
CONTINUOUS
 10
-19.0779699977
 20
-15.3900942911
 11
-19.2239200306
 21
-15.606541535
  0
LINE
  5
336
100
AcDbEntity
  8
RACCORDO
100
AcDbLine
 62
253
  6
CONTINUOUS
 10
-19.2239200306
 20
-15.606541535
 11
-19.3053398685
 21
-15.7259643218
  0
LWPOLYLINE
  5
337
100
AcDbEntity
  8
RACCORDO
100
AcDbPolyline
 62
253
  6
CONTINUOUS
 90
10
 70
0
 10
-19.3053398685
 20
-15.7259643218
 10
-19.3735119403
 20
-15.8247060212
 10
-19.4025705065
 20
-15.8662309377
 10
-19.4284804519
 20
-15.9031265602
 10
-19.451437688
 20
-15.9353104168
 10
-19.4712463032
 20
-15.9623635283
 10
-19.4874886936
 20
-15.9840931947
 10
-19.5000256579
 20
-16.0003036664
 10
-19.5089963974
 20
-16.010809214
 10
-19.5144009121
 20
-16.0154488949
  0
LINE
  5
338
100
AcDbEntity
  8
RACCORDO
100
AcDbLine
 62
253
  6
CONTINUOUS
 10
13.5578243136
 20
23.7693359306
 11
13.6242144869
 21
23.8357261039
  0
LINE
  5
339
100
AcDbEntity
  8
RACCORDO
100
AcDbLine
 62
7
  6
CONTINUOUS
 10
13.7577938526
 20
23.7693359306
 11
13.8241840259
 21
23.8357261039
  0
LINE
  5
33A
100
AcDbEntity
  8
RACCORDO
100
AcDbLine
 62
253
  6
CONTINUOUS
 10
3.6242144869
 20
-16.1642738961
 11
3.5578243136
 21
-16.0978837228
  0
LINE
  5
33B
100
AcDbEntity
  8
RACCORDO
100
AcDbLine
 62
7
  6
CONTINUOUS
 10
-0.3417152549
 20
-14.5156773521
 11
-0.2240168722
 21
-14.72047633
  0
LWPOLYLINE
  5
33C
100
AcDbEntity
  8
RACCORDO
100
AcDbPolyline
 62
7
  6
CONTINUOUS
 90
20
 70
0
 10
-0.2240168722
 20
-14.72047633
 10
-0.1679773196
 20
-14.8198088131
 10
-0.1407404534
 20
-14.8688251855
 10
-0.1141581286
 20
-14.917397615
 10
-0.0881734547
 20
-14.9655513012
 10
-0.0629060895
 20
-15.0132894128
 10
-0.0384570493
 20
-15.0606087812
 10
-0.0147785014
 20
-15.1075251004
 10
0.0079937839
 20
-15.1540769229
 10
0.0297160314
 20
-15.2002256961
 10
0.0503693952
 20
-15.2458714563
 10
0.0697714886
 20
-15.2910464452
 10
0.087745915
 20
-15.3357184209
 10
0.1042099974
 20
-15.3796906947
 10
0.1189242081
 20
-15.4229937242
 10
0.1316642475
 20
-15.4655970517
 10
0.1422658945
 20
-15.5072126151
 10
0.1504432981
 20
-15.5477443935
 10
0.155858686
 20
-15.5872884078
 10
0.1582085927
 20
-15.625844658
  0
LINE
  5
33D
100
AcDbEntity
  8
RACCORDO
100
AcDbLine
 62
253
  6
CONTINUOUS
 10
-5.5101451505
 20
-24.9982984628
 11
-5.5101451505
 21
-24.4983746152
  0
LWPOLYLINE
  5
33E
100
AcDbEntity
  8
RACCORDO
100
AcDbPolyline
 62
7
  6
CONTINUOUS
 90
19
 70
0
 10
-7.5098405408
 20
-15.625844658
 10
-7.5073541432
 20
-15.5858900806
 10
-7.501613898
 20
-15.5450131979
 10
-7.4929737325
 20
-15.5032140096
 10
-7.4818034888
 20
-15.4602889001
 10
-7.4684443655
 20
-15.4164414852
 10
-7.4531731788
 20
-15.3722826118
 10
-7.436365304
 20
-15.3280750716
 10
-7.4182526596
 20
-15.283556073
 10
-7.3987585048
 20
-15.238548088
 10
-7.3780101496
 20
-15.1930331627
 10
-7.3562236208
 20
-15.1470292511
 10
-7.3333113639
 20
-15.1004126869
 10
-7.3093185392
 20
-15.0530646659
 10
-7.2844382026
 20
-15.0051039923
 10
-7.2587544357
 20
-14.9567634117
 10
-7.232365357
 20
-14.9080144976
 10
-7.2054030397
 20
-14.8588856764
 10
-7.1779970428
 20
-14.8096949733
  0
LINE
  5
33F
100
AcDbEntity
  8
RACCORDO
100
AcDbLine
 62
253
  6
CONTINUOUS
 10
-23.6758159741
 20
-14.1645785058
 11
-23.5269909728
 21
-14.0156245059
  0
LINE
  5
340
100
AcDbEntity
  8
RACCORDO
100
AcDbLine
 62
253
  6
CONTINUOUS
 10
14.3244886356
 20
23.8357261039
 11
14.1756636344
 21
23.6869011027
  0
LINE
  5
341
100
AcDbEntity
  8
RACCORDO
100
AcDbLine
 62
253
  6
CONTINUOUS
 10
13.6170455456
 20
21.6209915001
 11
13.5817801494
 21
21.5857261039
  0
LINE
  5
342
100
AcDbEntity
  8
RACCORDO
100
AcDbLine
 62
253
  6
CONTINUOUS
 10
-21.4610813702
 20
-13.4571354157
 11
-21.4258159741
 21
-13.4218700196
  0
LINE
  5
343
100
AcDbEntity
  8
RACCORDO
100
AcDbLine
 62
253
  6
CONTINUOUS
 10
14.1094494221
 20
21.1285876235
 11
14.0741840259
 21
21.0933222274
  0
LINE
  5
344
100
AcDbEntity
  8
RACCORDO
100
AcDbLine
 62
253
  6
CONTINUOUS
 10
-20.9686774937
 20
-13.9495392922
 11
-20.9334120975
 21
-13.9142738961
  0
LWPOLYLINE
  5
345
100
AcDbEntity
  8
RACCORDO
100
AcDbPolyline
 62
253
  6
CONTINUOUS
 90
13
 70
0
 10
17.5272977311
 20
-4.0673571403
 10
17.5533940119
 20
-4.0656390806
 10
17.579043943
 20
-4.0605301854
 10
17.6038088159
 20
-4.0521178383
 10
17.6272650621
 20
-4.0405459231
 10
17.6490114924
 20
-4.026012365
 10
17.6686761606
 20
-4.0087657473
 10
17.6859227313
 20
-3.9891010544
 10
17.7004562292
 20
-3.967354627
 10
17.7120280812
 20
-3.9438984132
 10
17.7204403717
 20
-3.9191336026
 10
17.7255492261
 20
-3.8934837635
 10
17.7272672702
 20
-3.8673876013
  0
LWPOLYLINE
  5
346
100
AcDbEntity
  8
RACCORDO
100
AcDbPolyline
 62
7
  6
CONTINUOUS
 90
13
 70
0
 10
17.6242144869
 20
-4.1642738961
 10
17.6503166138
 20
-4.1625636319
 10
17.675971792
 20
-4.1574614555
 10
17.7007413134
 20
-4.1490544743
 10
17.7242017703
 20
-4.1374862332
 10
17.7459515762
 20
-4.1229544461
 10
17.7656179982
 20
-4.1057078683
 10
17.7828645759
 20
-4.0860414463
 10
17.7973963631
 20
-4.0642916405
 10
17.8089646042
 20
-4.0408311836
 10
17.8173715854
 20
-4.0160616622
 10
17.8224737618
 20
-3.9904064839
 10
17.8241840259
 20
-3.9643043571
  0
LINE
  5
347
100
AcDbEntity
  8
RACCORDO
100
AcDbLine
 62
7
  6
CONTINUOUS
 10
-19.8231598132
 20
24.6984964707
 11
-19.4478293783
 21
24.0484050878
  0
LINE
  5
348
100
AcDbEntity
  8
RACCORDO
100
AcDbLine
 62
253
  6
CONTINUOUS
 10
-18.9618108258
 20
23.3742867301
 11
-19.6779356006
 21
24.6146512325
  0
LINE
  5
349
100
AcDbEntity
  8
RACCORDO
100
AcDbLine
 62
253
  6
CONTINUOUS
 10
-18.7885841928
 20
23.4741884864
 11
-19.5047568999
 21
24.714636002
  0
LWPOLYLINE
  5
34A
100
AcDbEntity
  8
RACCORDO
100
AcDbPolyline
 62
253
  6
CONTINUOUS
 90
13
 70
0
 10
-18.9617632583
 20
23.3742183922
 10
-18.9368648147
 20
23.3300881581
 10
-18.9119968266
 20
23.2830914739
 10
-18.8871458773
 20
23.2332315883
 10
-18.8622974308
 20
23.1805601776
 10
-18.8373963044
 20
23.1250828086
 10
-18.8123728474
 20
23.0667155742
 10
-18.7872032113
 20
23.0054951582
 10
-18.7618280054
 20
22.9414251195
 10
-18.736140469
 20
22.8743531414
 10
-18.7100881901
 20
22.8042394633
 10
-18.6836516545
 20
22.7311806018
 10
-18.656789042
 20
22.6552264265
  0
LINE
  5
34B
100
AcDbEntity
  8
RACCORDO
100
AcDbLine
 62
253
  6
CONTINUOUS
 10
16.3241840259
 20
21.8360307136
 11
16.1753590247
 21
21.6870767137
  0
LINE
  5
34C
100
AcDbEntity
  8
RACCORDO
100
AcDbLine
 62
253
  6
CONTINUOUS
 10
-21.6761205837
 20
-16.1642738961
 11
-21.5272955825
 21
-16.0154488949
  0
LINE
  5
34D
100
AcDbEntity
  8
RACCORDO
100
AcDbLine
 62
7
  6
CONTINUOUS
 10
-21.1094258008
 20
-16.0978837228
 11
-21.1758159741
 21
-16.1642738961
  0
LINE
  5
34E
100
AcDbEntity
  8
RACCORDO
100
AcDbLine
 62
253
  6
CONTINUOUS
 10
-20.9094562617
 20
-16.0978837228
 11
-20.975846435
 21
-16.1642738961
  0
LINE
  5
34F
100
AcDbEntity
  8
DRAFT
100
AcDbLine
 62
7
  6
CONTINUOUS
 10
16.3241840259
 20
20.8357261039
 11
16.1758159741
 21
20.687358052
  0
LINE
  5
350
100
AcDbEntity
  8
RACCORDO
100
AcDbLine
 62
7
  6
CONTINUOUS
 10
16.1753590247
 20
20.6869011027
 11
16.1758159741
 21
20.687358052
  0
LINE
  5
351
100
AcDbEntity
  8
DRAFT
100
AcDbLine
 62
7
  6
CONTINUOUS
 10
-20.0602284859
 20
-16.0769985714
 11
-20.0776835508
 21
-16.0944536364
  0
LINE
  5
352
100
AcDbEntity
  8
RACCORDO
100
AcDbLine
 62
253
  6
CONTINUOUS
 10
-20.0602284859
 20
-17.1270290324
 11
-20.0776835508
 21
-17.1444840973
  0
LWPOLYLINE
  5
353
100
AcDbEntity
  8
RACCORDO
100
AcDbPolyline
 62
253
  6
CONTINUOUS
 90
13
 70
0
 10
-23.9727022689
 20
-4.0673571403
 10
-23.9466059881
 20
-4.0656390806
 10
-23.920956057
 20
-4.0605301854
 10
-23.8961911841
 20
-4.0521178383
 10
-23.8727349379
 20
-4.0405459231
 10
-23.8509885076
 20
-4.026012365
 10
-23.8313238394
 20
-4.0087657473
 10
-23.8140772687
 20
-3.9891010544
 10
-23.7995437708
 20
-3.967354627
 10
-23.7879719188
 20
-3.9438984132
 10
-23.7795596283
 20
-3.9191336026
 10
-23.7744507739
 20
-3.8934837635
 10
-23.7727327298
 20
-3.8673876013
  0
LINE
  5
354
100
AcDbEntity
  8
RACCORDO
100
AcDbLine
 62
7
  6
CONTINUOUS
 10
17.6242144869
 20
-4.1642738961
 11
16.524153565
 21
-4.1642738961
  0
LINE
  5
355
100
AcDbEntity
  8
RACCORDO
100
AcDbLine
 62
7
  6
CONTINUOUS
 10
-23.8757855131
 20
-4.1642738961
 11
-24.975846435
 21
-4.1642738961
  0
LINE
  5
356
100
AcDbEntity
  8
RACCORDO
100
AcDbLine
 62
253
  6
CONTINUOUS
 10
-24.8789296793
 20
-4.0673571403
 11
-23.9727019114
 21
-4.0673574978
  0
LINE
  5
357
100
AcDbEntity
  8
RACCORDO
100
AcDbLine
 62
253
  6
CONTINUOUS
 10
16.6210703207
 20
-4.0673571403
 11
17.5272980886
 21
-4.0673574978
  0
LWPOLYLINE
  5
358
100
AcDbEntity
  8
RACCORDO
100
AcDbPolyline
 62
253
  6
CONTINUOUS
 90
13
 70
0
 10
16.6210703207
 20
-4.0673571403
 10
16.5949740893
 20
-4.0656390871
 10
16.5693241987
 20
-4.0605302095
 10
16.5445593558
 20
-4.0521178879
 10
16.5211031297
 20
-4.0405460039
 10
16.4993567077
 20
-4.0260124788
 10
16.479692033
 20
-4.008765889
 10
16.4624454432
 20
-3.9891012143
 10
16.4479119182
 20
-3.9673547923
 10
16.4363400341
 20
-3.9438985663
 10
16.4279277126
 20
-3.9191337233
 10
16.422818835
 20
-3.8934838327
 10
16.4211007817
 20
-3.8673876013
  0
LINE
  5
359
100
AcDbEntity
  8
RACCORDO
100
AcDbLine
 62
253
  6
CONTINUOUS
 10
-19.381992936
 20
23.508451291
 11
-19.3134906588
 21
23.4093408037
  0
LINE
  5
35A
100
AcDbEntity
  8
RACCORDO
100
AcDbLine
 62
253
  6
CONTINUOUS
 10
-19.3134906588
 20
23.4093408037
 11
-19.2306017692
 21
23.2878391909
  0
LINE
  5
35B
100
AcDbEntity
  8
RACCORDO
100
AcDbLine
 62
253
  6
CONTINUOUS
 10
-19.2306017692
 20
23.2878391909
 11
-19.1338829404
 21
23.144876422
  0
LINE
  5
35C
100
AcDbEntity
  8
RACCORDO
100
AcDbLine
 62
253
  6
CONTINUOUS
 10
-19.1338829404
 20
23.144876422
 11
-18.9647959854
 21
22.8924482016
  0
LWPOLYLINE
  5
35D
100
AcDbEntity
  8
RACCORDO
100
AcDbPolyline
 62
253
  6
CONTINUOUS
 90
4
 70
0
 10
-18.9647959854
 20
22.8924482016
 10
-18.7050745797
 20
22.5003206262
 10
-18.6373713167
 20
22.3968135221
 10
-18.4993910395
 20
22.1871330035
  0
LINE
  5
35E
100
AcDbEntity
  8
RACCORDO
100
AcDbLine
 62
253
  6
CONTINUOUS
 10
-19.2249568522
 20
23.8107678071
 11
-19.1652560793
 21
23.7133275751
  0
LINE
  5
35F
100
AcDbEntity
  8
RACCORDO
100
AcDbLine
 62
253
  6
CONTINUOUS
 10
-19.1652560793
 20
23.7133275751
 11
-19.0929802472
 21
23.5938144587
  0
LINE
  5
360
100
AcDbEntity
  8
RACCORDO
100
AcDbLine
 62
253
  6
CONTINUOUS
 10
-19.0929802472
 20
23.5938144587
 11
-18.9618108258
 21
23.3742867301
  0
LINE
  5
361
100
AcDbEntity
  8
RACCORDO
100
AcDbLine
 62
253
  6
CONTINUOUS
 10
-1.8414867976
 20
-24.9982984628
 11
-1.8414867976
 21
-24.4983746152
  0
LINE
  5
362
100
AcDbEntity
  8
RACCORDO
100
AcDbLine
 62
253
  6
CONTINUOUS
 10
-0.3417152549
 20
-14.5156773521
 11
-0.3417152549
 21
-22.9986030725
  0
LINE
  5
363
100
AcDbEntity
  8
RACCORDO
100
AcDbLine
 62
253
  6
CONTINUOUS
 10
0.1582085927
 20
-15.625844658
 11
0.1582085927
 21
-22.9984606094
  0
LINE
  5
364
100
AcDbEntity
  8
RACCORDO
100
AcDbLine
 62
7
  6
CONTINUOUS
 10
0.1758159741
 20
-16.0159058442
 11
0.1758159741
 21
-23.0162104539
  0
LINE
  5
365
100
AcDbEntity
  8
RACCORDO
100
AcDbLine
 62
253
  6
CONTINUOUS
 10
-19.8602589469
 20
-17.3269985714
 11
-19.8777140118
 21
-17.3444536364
  0
LINE
  5
366
100
AcDbEntity
  8
0
100
AcDbLine
 62
7
  6
CONTINUOUS
 10
16.2818269477
 20
-0.8719168178
 11
16.4185579745
 21
-0.8677830206
  0
LINE
  5
367
100
AcDbEntity
  8
RACCORDO
100
AcDbLine
 62
253
  6
CONTINUOUS
 10
-25.0308780086
 20
-1.0678140549
 11
-23.8207539395
 21
-1.0678140549
  0
LINE
  5
368
100
AcDbEntity
  8
RACCORDO
100
AcDbLine
 62
253
  6
CONTINUOUS
 10
16.4691219914
 20
-1.0678140549
 11
17.6792460605
 21
-1.0678140549
  0
LINE
  5
369
100
AcDbEntity
  8
RACCORDO
100
AcDbLine
 62
253
  6
CONTINUOUS
 10
-23.7706816155
 20
-0.8234161686
 11
-23.5849582466
 21
-0.8234161686
  0
LINE
  5
36A
100
AcDbEntity
  8
RACCORDO
100
AcDbLine
 62
253
  6
CONTINUOUS
 10
16.2333262985
 20
-0.8234161686
 11
16.4190496674
 21
-0.8234161686
  0
LINE
  5
36B
100
AcDbEntity
  8
RACCORDO
100
AcDbLine
 62
253
  6
CONTINUOUS
 10
-23.7718188312
 20
-0.52346186
 11
-23.5798131169
 21
-0.52346186
  0
LINE
  5
36C
100
AcDbEntity
  8
RACCORDO
100
AcDbLine
 62
253
  6
CONTINUOUS
 10
16.2281811688
 20
-0.52346186
 11
16.4201868831
 21
-0.52346186
  0
LINE
  5
36D
100
AcDbEntity
  8
0
100
AcDbLine
 62
7
  6
CONTINUOUS
 10
-23.7701899226
 20
-0.8677830206
 11
-23.6334588958
 21
-0.8719168178
  0
LINE
  5
36E
100
AcDbEntity
  8
RACCORDO
100
AcDbLine
 62
253
  6
CONTINUOUS
 10
14.3244886356
 20
-16.1642738961
 11
14.1755366826
 21
-16.0154488949
  0
LINE
  5
36F
100
AcDbEntity
  8
RACCORDO
100
AcDbLine
 62
7
  6
CONTINUOUS
 10
13.7577938526
 20
-16.0978837228
 11
13.8241840259
 21
-16.1642738961
  0
LINE
  5
370
100
AcDbEntity
  8
RACCORDO
100
AcDbLine
 62
253
  6
CONTINUOUS
 10
-23.6758159741
 20
21.8360307136
 11
-23.5269909728
 21
21.6872057124
  0
LINE
  5
371
100
AcDbEntity
  8
RACCORDO
100
AcDbLine
 62
253
  6
CONTINUOUS
 10
-21.4610813702
 20
21.1285876235
 11
-21.4258159741
 21
21.0933222274
  0
LINE
  5
372
100
AcDbEntity
  8
RACCORDO
100
AcDbLine
 62
253
  6
CONTINUOUS
 10
13.6170455456
 20
-13.9495392922
 11
13.5817801494
 21
-13.9142738961
  0
LWPOLYLINE
  5
373
100
AcDbEntity
  8
RACCORDO
100
AcDbPolyline
 62
253
  6
CONTINUOUS
 90
25
 70
0
 10
0.1582086018
 20
-22.9984606238
 10
0.1539226809
 20
-23.1293216794
 10
0.1410862838
 20
-23.2596031626
 10
0.119757912
 20
-23.3887473984
 10
0.090033863
 20
-23.5161968168
 10
0.0520440248
 20
-23.6414118942
 10
0.0059479069
 20
-23.7638724542
 10
-0.0480592349
 20
-23.8830591601
 10
-0.1097442355
 20
-23.9984570943
 10
-0.1788432416
 20
-24.1095727515
 10
-0.2550603255
 20
-24.2159305534
 10
-0.3380691164
 20
-24.3170754682
 10
-0.4275147527
 20
-24.4125751352
 10
-0.5230144201
 20
-24.5020207698
 10
-0.6241593344
 20
-24.5850295584
 10
-0.7305171354
 20
-24.66124664
 10
-0.8416327914
 20
-24.730345644
 10
-0.9570307242
 20
-24.7920306427
 10
-1.0762174281
 20
-24.8460377825
 10
-1.1986780201
 20
-24.8921339104
 10
-1.3238931302
 20
-24.9301237541
 10
-1.4513424741
 20
-24.9598477828
 10
-1.5804864878
 20
-24.9811761252
 10
-1.710767636
 20
-24.9940125147
 10
-1.8416282459
 20
-24.998298472
  0
LWPOLYLINE
  5
374
100
AcDbEntity
  8
RACCORDO
100
AcDbPolyline
 62
253
  6
CONTINUOUS
 90
25
 70
0
 10
-0.3417152549
 20
-22.9986030725
 10
-0.3449887815
 20
-23.0970895578
 10
-0.3545516936
 20
-23.1944181473
 10
-0.3704039912
 20
-23.2905888412
 10
-0.3926672425
 20
-23.3860328799
 10
-0.4212198793
 20
-23.4803190229
 10
-0.455697197
 20
-23.5721535486
 10
-0.496174436
 20
-23.6614750015
 10
-0.542576356
 20
-23.7483448372
 10
-0.5943125316
 20
-23.8316537004
 10
-0.6514521602
 20
-23.9113563931
 10
-0.7139260443
 20
-23.9874981134
 10
-0.7809361665
 20
-24.0591051001
 10
-0.8525414737
 20
-24.126119319
 10
-0.9286830189
 20
-24.1885988043
 10
-1.0083859439
 20
-24.2457438974
 10
-1.0916951246
 20
-24.2974849222
 10
-1.178565685
 20
-24.3438915547
 10
-1.2678881389
 20
-24.3843731649
 10
-1.3597225408
 20
-24.4188544121
 10
-1.4540088362
 20
-24.4474106368
 10
-1.5494573746
 20
-24.4696772304
 10
-1.6456382725
 20
-24.4855326565
 10
-1.7429814136
 20
-24.4950984515
 10
-1.8414867976
 20
-24.4983746152
  0
LINE
  5
375
100
AcDbEntity
  8
RACCORDO
100
AcDbLine
 62
7
  6
CONTINUOUS
 10
-7.1779970428
 20
-14.8096949733
 11
-7.1223351417
 21
-14.7112073404
  0
LINE
  5
376
100
AcDbEntity
  8
RACCORDO
100
AcDbLine
 62
7
  6
CONTINUOUS
 10
-7.1223351417
 20
-14.7112073404
 11
-7.0099166932
 21
-14.5156773521
  0
LINE
  5
377
100
AcDbEntity
  8
RACCORDO
100
AcDbLine
 62
253
  6
CONTINUOUS
 10
23.1583707393
 20
20.6697506706
 11
23.1761205837
 21
20.687358052
  0
LINE
  5
378
100
AcDbEntity
  8
RACCORDO
100
AcDbLine
 62
7
  6
CONTINUOUS
 10
14.675587482
 20
1.2292502078
 11
14.1094494221
 21
1.2292502078
  0
LINE
  5
379
100
AcDbEntity
  8
RACCORDO
100
AcDbLine
 62
7
  6
CONTINUOUS
 10
-21.4610813702
 20
1.2292502078
 11
-22.0272194301
 21
1.2292502078
  0
LINE
  5
37A
100
AcDbEntity
  8
DRAFT
100
AcDbLine
 62
7
  6
CONTINUOUS
 10
-21.4258159741
 20
1.2327412208
 11
-20.072831091
 21
1.2327412208
  0
LINE
  5
37B
100
AcDbEntity
  8
DRAFT
100
AcDbLine
 62
7
  6
CONTINUOUS
 10
14.0741840259
 20
1.2327412208
 11
12.7211991429
 21
1.2327412208
  0
LINE
  5
37C
100
AcDbEntity
  8
RACCORDO
100
AcDbLine
 62
7
  6
CONTINUOUS
 10
-21.5360992906
 20
1.2554328052
 11
-20.0955226754
 21
1.2554328052
  0
LINE
  5
37D
100
AcDbEntity
  8
RACCORDO
100
AcDbLine
 62
7
  6
CONTINUOUS
 10
14.1844673425
 20
1.2554328052
 11
12.7438907273
 21
1.2554328052
  0
LINE
  5
37E
100
AcDbEntity
  8
0
100
AcDbLine
 62
7
  6
CONTINUOUS
 10
14.7561092727
 20
1.3357261039
 11
14.3241840259
 21
1.3357261039
  0
LINE
  5
37F
100
AcDbEntity
  8
0
100
AcDbLine
 62
7
  6
CONTINUOUS
 10
-21.6758159741
 20
1.3357261039
 11
-22.1077412208
 21
1.3357261039
  0
LINE
  5
380
100
AcDbEntity
  8
DRAFT
100
AcDbLine
 62
7
  6
CONTINUOUS
 10
14.0741840259
 20
1.2327412208
 11
14.1094494221
 21
1.2292502078
  0
LINE
  5
381
100
AcDbEntity
  8
RACCORDO
100
AcDbLine
 62
253
  6
CONTINUOUS
 10
-21.6761205837
 20
23.8357261039
 11
-21.5271665839
 21
23.6869011027
  0
LINE
  5
382
100
AcDbEntity
  8
RACCORDO
100
AcDbLine
 62
253
  6
CONTINUOUS
 10
-20.9686774937
 20
21.6209915001
 11
-20.9334120975
 21
21.5857261039
  0
LINE
  5
383
100
AcDbEntity
  8
RACCORDO
100
AcDbLine
 62
253
  6
CONTINUOUS
 10
14.1094494221
 20
-13.4571354157
 11
14.0741840259
 21
-13.4218700196
  0
LINE
  5
384
100
AcDbEntity
  8
RACCORDO
100
AcDbLine
 62
7
  6
CONTINUOUS
 10
-21.1094258008
 20
23.7693359306
 11
-21.1758159741
 21
23.8357261039
  0
LINE
  5
385
100
AcDbEntity
  8
RACCORDO
100
AcDbLine
 62
253
  6
CONTINUOUS
 10
-20.975846435
 20
23.8357261039
 11
-20.9094562617
 21
23.7693359306
  0
LINE
  5
386
100
AcDbEntity
  8
DRAFT
100
AcDbLine
 62
7
  6
CONTINUOUS
 10
-20.0602284859
 20
23.7484507793
 11
-20.0776835508
 21
23.7659058442
  0
LINE
  5
387
100
AcDbEntity
  8
RACCORDO
100
AcDbLine
 62
253
  6
CONTINUOUS
 10
16.3241840259
 20
-14.1645785058
 11
16.1753590247
 21
-14.0156291653
  0
LINE
  5
388
100
AcDbEntity
  8
RACCORDO
100
AcDbLine
 62
253
  6
CONTINUOUS
 10
3.5578243136
 20
-16.0944536364
 11
3.5578243136
 21
-16.0978837228
  0
LINE
  5
389
100
AcDbEntity
  8
RACCORDO
100
AcDbLine
 62
253
  6
CONTINUOUS
 10
25.1582085927
 20
18.6699138179
 11
25.1758159741
 21
18.6876626617
  0
LINE
  5
38A
100
AcDbEntity
  8
RACCORDO
100
AcDbLine
 62
253
  6
CONTINUOUS
 10
17.5272977311
 20
11.7388093481
 11
17.6242144869
 21
11.8357261039
  0
LINE
  5
38B
100
AcDbEntity
  8
RACCORDO
100
AcDbLine
 62
253
  6
CONTINUOUS
 10
17.7272672702
 20
11.5388398091
 11
17.8241840259
 21
11.6357565649
  0
LINE
  5
38C
100
AcDbEntity
  8
RACCORDO
100
AcDbLine
 62
253
  6
CONTINUOUS
 10
-19.5144009121
 20
-16.0154488949
 11
-19.6210080791
 21
-16.0769985714
  0
LINE
  5
38D
100
AcDbEntity
  8
RACCORDO
100
AcDbLine
 62
253
  6
CONTINUOUS
 10
-19.3412222113
 20
-16.3154032034
 11
-19.4478293783
 21
-16.37695288
  0
LINE
  5
38E
100
AcDbEntity
  8
RACCORDO
100
AcDbLine
 62
253
  6
CONTINUOUS
 10
-19.6779356006
 20
-16.9431990247
 11
-19.8231598132
 21
-17.0270442629
  0
LINE
  5
38F
100
AcDbEntity
  8
RACCORDO
100
AcDbLine
 62
253
  6
CONTINUOUS
 10
-17.5630415983
 20
-15.8027469428
 11
-17.3898627126
 21
-15.7027624851
  0
LINE
  5
390
100
AcDbEntity
  8
DRAFT
100
AcDbLine
 62
7
  6
CONTINUOUS
 10
-21.4258159741
 20
1.2327412208
 11
-21.4610813702
 21
1.2292502078
  0
LINE
  5
391
100
AcDbEntity
  8
DRAFT
100
AcDbLine
 62
7
  6
CONTINUOUS
 10
14.0741840259
 20
6.438710987
 11
14.1094494221
 21
6.442202
  0
LINE
  5
392
100
AcDbEntity
  8
DRAFT
100
AcDbLine
 62
7
  6
CONTINUOUS
 10
-21.4258159741
 20
6.438710987
 11
-21.4610813702
 21
6.442202
  0
LWPOLYLINE
  5
393
100
AcDbEntity
  8
RACCORDO
100
AcDbPolyline
 62
253
  6
CONTINUOUS
 90
9
 70
0
 10
-19.5144009121
 20
23.6869011027
 10
-19.5097264736
 20
23.6828185598
 10
-19.5016936571
 20
23.6735970215
 10
-19.4903024624
 20
23.6592124429
 10
-19.475620806
 20
23.6397254422
 10
-19.4575807714
 20
23.6151129578
 10
-19.4359786094
 20
23.5851176229
 10
-19.4107668364
 20
23.5495579375
 10
-19.381992936
 20
23.508451291
  0
LWPOLYLINE
  5
394
100
AcDbEntity
  8
RACCORDO
100
AcDbPolyline
 62
253
  6
CONTINUOUS
 90
9
 70
0
 10
-19.3412222113
 20
23.9868554112
 10
-19.3369852598
 20
23.9827541299
 10
-19.3298322503
 20
23.9735811522
 10
-19.3197631826
 20
23.9593364782
 10
-19.3068297689
 20
23.9401126534
 10
-19.290980297
 20
23.9158171323
 10
-19.2720596312
 20
23.886172278
 10
-19.2500438387
 20
23.8511447091
 10
-19.2249568522
 20
23.8107678071
  0
LINE
  5
395
100
AcDbEntity
  8
RACCORDO
100
AcDbLine
 62
253
  6
CONTINUOUS
 10
-20.0776835508
 20
24.8159363052
 11
-20.0602284859
 21
24.7984812402
  0
LINE
  5
396
100
AcDbEntity
  8
RACCORDO
100
AcDbLine
 62
253
  6
CONTINUOUS
 10
-19.8777140118
 20
25.0159058442
 11
-19.8602589469
 21
24.9984507793
  0
LINE
  5
397
100
AcDbEntity
  8
DRAFT
100
AcDbLine
 62
7
  6
CONTINUOUS
 10
16.3241840259
 20
8.5857261039
 11
16.2818269477
 21
8.5433690257
  0
LINE
  5
398
100
AcDbEntity
  8
RACCORDO
100
AcDbLine
 62
7
  6
CONTINUOUS
 10
16.2333262985
 20
8.4948683764
 11
16.2818269477
 21
8.5433690257
  0
LINE
  5
399
100
AcDbEntity
  8
RACCORDO
100
AcDbLine
 62
7
  6
CONTINUOUS
 10
14.7561092727
 20
6.3357261039
 11
14.8623813618
 21
6.441998193
  0
LINE
  5
39A
100
AcDbEntity
  8
DRAFT
100
AcDbLine
 62
7
  6
CONTINUOUS
 10
-7.6059957143
 20
-16.0944536364
 11
-7.5274479222
 21
-16.0159058442
  0
LINE
  5
39B
100
AcDbEntity
  8
RACCORDO
100
AcDbLine
 62
7
  6
CONTINUOUS
 10
-7.5269909728
 20
-16.0154488949
 11
-7.5274479222
 21
-16.0159058442
  0
LINE
  5
39C
100
AcDbEntity
  8
RACCORDO
100
AcDbLine
 62
7
  6
CONTINUOUS
 10
17.7367563849
 20
8.7482984628
 11
17.8241840259
 21
8.8357261039
  0
LINE
  5
39D
100
AcDbEntity
  8
RACCORDO
100
AcDbLine
 62
253
  6
CONTINUOUS
 10
-19.5047568999
 20
-17.2431533332
 11
-19.6499811124
 21
-17.3269985714
  0
LINE
  5
39E
100
AcDbEntity
  8
RACCORDO
100
AcDbLine
 62
253
  6
CONTINUOUS
 10
-16.6736963475
 20
-16.9431990247
 11
-16.8468750483
 21
-17.0431837942
  0
LINE
  5
39F
100
AcDbEntity
  8
0
100
AcDbLine
 62
7
  6
CONTINUOUS
 10
14.7561092727
 20
6.3357261039
 11
14.3241840259
 21
6.3357261039
  0
LINE
  5
3A0
100
AcDbEntity
  8
0
100
AcDbLine
 62
7
  6
CONTINUOUS
 10
-21.6758159741
 20
6.3357261039
 11
-22.1077412208
 21
6.3357261039
  0
LINE
  5
3A1
100
AcDbEntity
  8
RACCORDO
100
AcDbLine
 62
7
  6
CONTINUOUS
 10
-21.5360992906
 20
6.4160194026
 11
-20.0955226754
 21
6.4160194026
  0
LINE
  5
3A2
100
AcDbEntity
  8
RACCORDO
100
AcDbLine
 62
7
  6
CONTINUOUS
 10
14.1844673425
 20
6.4160194026
 11
12.7438907273
 21
6.4160194026
  0
LINE
  5
3A3
100
AcDbEntity
  8
DRAFT
100
AcDbLine
 62
7
  6
CONTINUOUS
 10
-21.4258159741
 20
6.438710987
 11
-20.072831091
 21
6.438710987
  0
LINE
  5
3A4
100
AcDbEntity
  8
DRAFT
100
AcDbLine
 62
7
  6
CONTINUOUS
 10
14.0741840259
 20
6.438710987
 11
12.7211991429
 21
6.438710987
  0
LINE
  5
3A5
100
AcDbEntity
  8
RACCORDO
100
AcDbLine
 62
7
  6
CONTINUOUS
 10
-22.0272194301
 20
6.442202
 11
-21.4610813702
 21
6.442202
  0
LINE
  5
3A6
100
AcDbEntity
  8
RACCORDO
100
AcDbLine
 62
7
  6
CONTINUOUS
 10
14.1094494221
 20
6.442202
 11
14.675587482
 21
6.442202
  0
LINE
  5
3A7
100
AcDbEntity
  8
DRAFT
100
AcDbLine
 62
7
  6
CONTINUOUS
 10
12.7438907273
 20
1.2554328052
 11
12.7211991429
 21
1.2327412208
  0
LINE
  5
3A8
100
AcDbEntity
  8
RACCORDO
100
AcDbLine
 62
7
  6
CONTINUOUS
 10
14.6843911901
 20
1.2640080213
 11
14.7561092727
 21
1.3357261039
  0
LINE
  5
3A9
100
AcDbEntity
  8
0
100
AcDbLine
 62
7
  6
CONTINUOUS
 10
-23.7701899226
 20
8.5392352284
 11
-23.6334588958
 21
8.5433690257
  0
LINE
  5
3AA
100
AcDbEntity
  8
RACCORDO
100
AcDbLine
 62
253
  6
CONTINUOUS
 10
16.4201868831
 20
8.1949140679
 11
16.2281811688
 21
8.1949140679
  0
LINE
  5
3AB
100
AcDbEntity
  8
RACCORDO
100
AcDbLine
 62
253
  6
CONTINUOUS
 10
-23.5798131169
 20
8.1949140679
 11
-23.7718188312
 21
8.1949140679
  0
LINE
  5
3AC
100
AcDbEntity
  8
RACCORDO
100
AcDbLine
 62
253
  6
CONTINUOUS
 10
16.4190496674
 20
8.4948683764
 11
16.2333262985
 21
8.4948683764
  0
LINE
  5
3AD
100
AcDbEntity
  8
RACCORDO
100
AcDbLine
 62
253
  6
CONTINUOUS
 10
-23.5849582466
 20
8.4948683764
 11
-23.7706816155
 21
8.4948683764
  0
LINE
  5
3AE
100
AcDbEntity
  8
RACCORDO
100
AcDbLine
 62
253
  6
CONTINUOUS
 10
16.4691219914
 20
8.7392662627
 11
17.6792460605
 21
8.7392662627
  0
LINE
  5
3AF
100
AcDbEntity
  8
RACCORDO
100
AcDbLine
 62
253
  6
CONTINUOUS
 10
-23.8207539395
 20
8.7392662627
 11
-25.0308780086
 21
8.7392662627
  0
LINE
  5
3B0
100
AcDbEntity
  8
0
100
AcDbLine
 62
7
  6
CONTINUOUS
 10
16.2818269477
 20
8.5433690257
 11
16.4185579745
 21
8.5392352284
  0
LINE
  5
3B1
100
AcDbEntity
  8
RACCORDO
100
AcDbLine
 62
253
  6
CONTINUOUS
 10
17.6242144869
 20
-4.1642738961
 11
17.5272980886
 21
-4.0673574978
  0
LINE
  5
3B2
100
AcDbEntity
  8
RACCORDO
100
AcDbLine
 62
253
  6
CONTINUOUS
 10
-7.5098405408
 20
-22.99846161
 11
-7.5274479222
 21
-23.0162104539
  0
LWPOLYLINE
  5
3B3
100
AcDbEntity
  8
RACCORDO
100
AcDbPolyline
 62
253
  6
CONTINUOUS
 90
13
 70
0
 10
16.6210703207
 20
11.7388093481
 10
16.5949740399
 20
11.7370912884
 10
16.5693241089
 20
11.7319823932
 10
16.544559236
 20
11.7235700461
 10
16.5211029898
 20
11.7119981309
 10
16.4993565595
 20
11.6974645729
 10
16.4796918912
 20
11.6802179551
 10
16.4624453205
 20
11.6605532622
 10
16.4479118227
 20
11.6388068348
 10
16.4363399707
 20
11.615350621
 10
16.4279276802
 20
11.5905858104
 10
16.4228188258
 20
11.5649359714
 10
16.4211007817
 20
11.5388398091
  0
LINE
  5
3B4
100
AcDbEntity
  8
RACCORDO
100
AcDbLine
 62
253
  6
CONTINUOUS
 10
-23.9727022689
 20
11.7388093481
 11
-24.8789296793
 21
11.7388093481
  0
LINE
  5
3B5
100
AcDbEntity
  8
RACCORDO
100
AcDbLine
 62
253
  6
CONTINUOUS
 10
17.5272977311
 20
11.7388093481
 11
16.6210699633
 21
11.7388097056
  0
LINE
  5
3B6
100
AcDbEntity
  8
RACCORDO
100
AcDbLine
 62
7
  6
CONTINUOUS
 10
-24.975846435
 20
11.8357261039
 11
-23.8757855131
 21
11.8357261039
  0
LINE
  5
3B7
100
AcDbEntity
  8
RACCORDO
100
AcDbLine
 62
7
  6
CONTINUOUS
 10
16.524153565
 20
11.8357261039
 11
17.6242144869
 21
11.8357261039
  0
LWPOLYLINE
  5
3B8
100
AcDbEntity
  8
RACCORDO
100
AcDbPolyline
 62
253
  6
CONTINUOUS
 90
13
 70
0
 10
-23.9727022689
 20
11.7388093481
 10
-23.9466060374
 20
11.7370912949
 10
-23.9209561468
 20
11.7319824173
 10
-23.8961913039
 20
11.7235700957
 10
-23.8727350778
 20
11.7119982117
 10
-23.8509886558
 20
11.6974646866
 10
-23.8313239811
 20
11.6802180969
 10
-23.8140773913
 20
11.6605534221
 10
-23.7995438663
 20
11.6388070001
 10
-23.7879719822
 20
11.6153507741
 10
-23.7795596607
 20
11.5905859311
 10
-23.7744507831
 20
11.5649360406
 10
-23.7727327298
 20
11.5388398091
  0
LINE
  5
3B9
100
AcDbEntity
  8
RACCORDO
100
AcDbLine
 62
253
  6
CONTINUOUS
 10
-19.6210080791
 20
23.7484507793
 11
-19.5144009121
 21
23.6869011027
  0
LINE
  5
3BA
100
AcDbEntity
  8
RACCORDO
100
AcDbLine
 62
253
  6
CONTINUOUS
 10
-19.4478293783
 20
24.0484050878
 11
-19.3412222113
 21
23.9868554112
  0
LINE
  5
3BB
100
AcDbEntity
  8
RACCORDO
100
AcDbLine
 62
253
  6
CONTINUOUS
 10
-19.6779356006
 20
24.6146512325
 11
-19.8231598132
 21
24.6984964707
  0
LINE
  5
3BC
100
AcDbEntity
  8
RACCORDO
100
AcDbLine
 62
253
  6
CONTINUOUS
 10
-17.3898620786
 20
23.3742157874
 11
-17.563041034
 21
23.474200128
  0
LINE
  5
3BD
100
AcDbEntity
  8
RACCORDO
100
AcDbLine
 62
253
  6
CONTINUOUS
 10
-19.5047568999
 20
24.914605541
 11
-19.6499811124
 21
24.9984507793
  0
LINE
  5
3BE
100
AcDbEntity
  8
RACCORDO
100
AcDbLine
 62
253
  6
CONTINUOUS
 10
17.8241840259
 20
-3.9643043571
 11
17.7272672702
 21
-3.8673876013
  0
LINE
  5
3BF
100
AcDbEntity
  8
RACCORDO
100
AcDbLine
 62
7
  6
CONTINUOUS
 10
16.2333262985
 20
-0.8234161686
 11
16.2818269477
 21
-0.8719168178
  0
LINE
  5
3C0
100
AcDbEntity
  8
DRAFT
100
AcDbLine
 62
7
  6
CONTINUOUS
 10
16.3241840259
 20
-0.9142738961
 11
16.2818269477
 21
-0.8719168178
  0
LINE
  5
3C1
100
AcDbEntity
  8
RACCORDO
100
AcDbLine
 62
7
  6
CONTINUOUS
 10
14.7561092727
 20
1.3357261039
 11
14.8623813618
 21
1.2294540148
  0
LINE
  5
3C2
100
AcDbEntity
  8
RACCORDO
100
AcDbLine
 62
7
  6
CONTINUOUS
 10
17.7367563849
 20
-1.076846255
 11
17.8241840259
 21
-1.1642738961
  0
LINE
  5
3C3
100
AcDbEntity
  8
DRAFT
100
AcDbLine
 62
7
  6
CONTINUOUS
 10
12.7211991429
 20
6.438710987
 11
12.7211991429
 21
1.2327412208
  0
LINE
  5
3C4
100
AcDbEntity
  8
DRAFT
100
AcDbLine
 62
7
  6
CONTINUOUS
 10
12.7438907273
 20
6.4160194026
 11
12.7438907273
 21
1.2554328052
  0
LINE
  5
3C5
100
AcDbEntity
  8
RACCORDO
100
AcDbLine
 62
253
  6
CONTINUOUS
 10
13.5578243136
 20
23.7659058442
 11
13.5578243136
 21
23.7693359306
  0
LINE
  5
3C6
100
AcDbEntity
  8
RACCORDO
100
AcDbLine
 62
7
  6
CONTINUOUS
 10
14.0741840259
 20
-13.4218700196
 11
14.0741840259
 21
1.2327412208
  0
LINE
  5
3C7
100
AcDbEntity
  8
RACCORDO
100
AcDbLine
 62
7
  6
CONTINUOUS
 10
14.0741840259
 20
6.438710987
 11
14.0741840259
 21
21.0933222274
  0
LINE
  5
3C8
100
AcDbEntity
  8
RACCORDO
100
AcDbLine
 62
7
  6
CONTINUOUS
 10
14.1094494221
 20
-13.4571354157
 11
14.1094494221
 21
1.2292502078
  0
LINE
  5
3C9
100
AcDbEntity
  8
RACCORDO
100
AcDbLine
 62
7
  6
CONTINUOUS
 10
14.1094494221
 20
6.442202
 11
14.1094494221
 21
21.1285876235
  0
LINE
  5
3CA
100
AcDbEntity
  8
RACCORDO
100
AcDbLine
 62
253
  6
CONTINUOUS
 10
14.1756636344
 20
-16.0154488949
 11
14.1756636344
 21
-14.5156773521
  0
LINE
  5
3CB
100
AcDbEntity
  8
RACCORDO
100
AcDbLine
 62
253
  6
CONTINUOUS
 10
14.1756636344
 20
22.18712956
 11
14.1756636344
 21
23.6869011027
  0
LINE
  5
3CC
100
AcDbEntity
  8
0
100
AcDbLine
 62
7
  6
CONTINUOUS
 10
14.3241840259
 20
1.255787547
 11
14.3241840259
 21
6.4156646609
  0
LINE
  5
3CD
100
AcDbEntity
  8
RACCORDO
100
AcDbLine
 62
7
  6
CONTINUOUS
 10
16.411611667
 20
-1.076846255
 11
16.3241840259
 21
-1.1642738961
  0
LINE
  5
3CE
100
AcDbEntity
  8
RACCORDO
100
AcDbLine
 62
253
  6
CONTINUOUS
 10
16.4211007817
 20
-3.8673876013
 11
16.3241840259
 21
-3.9643043571
  0
LINE
  5
3CF
100
AcDbEntity
  8
RACCORDO
100
AcDbLine
 62
253
  6
CONTINUOUS
 10
-5.5100026874
 20
-24.9982984628
 11
-5.5277525319
 21
-25.0159058442
  0
LWPOLYLINE
  5
3D0
100
AcDbEntity
  8
RACCORDO
100
AcDbPolyline
 62
7
  6
CONTINUOUS
 90
13
 70
0
 10
-24.975846435
 20
11.8357261039
 10
-25.0019485619
 20
11.8340158397
 10
-25.0276037401
 20
11.8289136634
 10
-25.0523732616
 20
11.8205066821
 10
-25.0758337184
 20
11.8089384411
 10
-25.0975835243
 20
11.7944066539
 10
-25.1172499463
 20
11.7771600761
 10
-25.134496524
 20
11.7574936542
 10
-25.1490283112
 20
11.7357438483
 10
-25.1605965523
 20
11.7122833914
 10
-25.1690035335
 20
11.68751387
 10
-25.1741057099
 20
11.6618586917
 10
-25.1758159741
 20
11.6357565649
  0
LINE
  5
3D1
100
AcDbEntity
  8
RACCORDO
100
AcDbLine
 62
7
  6
CONTINUOUS
 10
23.1761205837
 20
12.9840941558
 11
16.1758159741
 21
12.9840941558
  0
LINE
  5
3D2
100
AcDbEntity
  8
RACCORDO
100
AcDbLine
 62
253
  6
CONTINUOUS
 10
23.1583717399
 20
13.0017015372
 11
15.7857547878
 21
13.0017015372
  0
LINE
  5
3D3
100
AcDbEntity
  8
RACCORDO
100
AcDbLine
 62
253
  6
CONTINUOUS
 10
23.1585132024
 20
13.5016253848
 11
14.675587482
 21
13.5016253848
  0
LWPOLYLINE
  5
3D4
100
AcDbEntity
  8
RACCORDO
100
AcDbPolyline
 62
7
  6
CONTINUOUS
 90
19
 70
0
 10
15.7857547878
 20
13.0017015372
 10
15.7458002105
 20
13.0041879348
 10
15.7049233277
 20
13.00992818
 10
15.6631241394
 20
13.0185683455
 10
15.62019903
 20
13.0297385892
 10
15.5763516151
 20
13.0430977125
 10
15.5321927417
 20
13.0583688992
 10
15.4879852015
 20
13.075176774
 10
15.4434662028
 20
13.0932894184
 10
15.3984582178
 20
13.1127835732
 10
15.3529432926
 20
13.1335319283
 10
15.306939381
 20
13.1553184571
 10
15.2603228167
 20
13.1782307141
 10
15.2129747958
 20
13.2022235388
 10
15.1650141222
 20
13.2271038754
 10
15.1166735416
 20
13.2527876423
 10
15.0679246274
 20
13.279176721
 10
15.0187958063
 20
13.3061390382
 10
14.9696051032
 20
13.3335450352
  0
LWPOLYLINE
  5
3D5
100
AcDbEntity
  8
RACCORDO
100
AcDbPolyline
 62
253
  6
CONTINUOUS
 90
13
 70
0
 10
17.5272977311
 20
11.7388093481
 10
17.5533939626
 20
11.7370912949
 10
17.5790438532
 20
11.7319824173
 10
17.6038086961
 20
11.7235700957
 10
17.6272649222
 20
11.7119982117
 10
17.6490113442
 20
11.6974646866
 10
17.6686760189
 20
11.6802180969
 10
17.6859226087
 20
11.6605534221
 10
17.7004561337
 20
11.6388070001
 10
17.7120280178
 20
11.6153507741
 10
17.7204403393
 20
11.5905859311
 10
17.7255492169
 20
11.5649360406
 10
17.7272672702
 20
11.5388398091
  0
LINE
  5
3D6
100
AcDbEntity
  8
RACCORDO
100
AcDbLine
 62
253
  6
CONTINUOUS
 10
-16.8468750483
 20
24.714636002
 11
-16.6736963475
 21
24.6146512325
  0
LINE
  5
3D7
100
AcDbEntity
  8
DRAFT
100
AcDbLine
 62
7
  6
CONTINUOUS
 10
12.7438907273
 20
6.4160194026
 11
12.7211991429
 21
6.438710987
  0
LWPOLYLINE
  5
3D8
100
AcDbEntity
  8
RACCORDO
100
AcDbPolyline
 62
253
  6
CONTINUOUS
 90
12
 70
0
 10
17.7272672702
 20
-3.8673876013
 10
17.7257443608
 20
-3.8651510709
 10
17.7241611624
 20
-3.8591406189
 10
17.722517675
 20
-3.8493562455
 10
17.7208109254
 20
-3.8362074974
 10
17.7190438867
 20
-3.8192848278
 10
17.7172254788
 20
-3.7973595959
 10
17.7153536493
 20
-3.7704567865
 10
17.7134304505
 20
-3.7385514148
 10
17.711470959
 20
-3.7003398863
 10
17.7094724739
 20
-3.6558110092
 10
17.707437696
 20
-3.6049759754
  0
LWPOLYLINE
  5
3D9
100
AcDbEntity
  8
RACCORDO
100
AcDbPolyline
 62
253
  6
CONTINUOUS
 90
11
 70
0
 10
17.527298064
 20
-4.0673574977
 10
17.5257732395
 20
-4.0642753703
 10
17.5241886071
 20
-4.0579579337
 10
17.5225441668
 20
-4.0480098371
 10
17.5208370969
 20
-4.0340327513
 10
17.5190702191
 20
-4.0156067105
 10
17.517251998
 20
-3.9922726097
 10
17.5153802232
 20
-3.9635818763
 10
17.5134571051
 20
-3.9290875992
 10
17.51149774
 20
-3.8882960471
 10
17.5094994238
 20
-3.840742623
  0
LWPOLYLINE
  5
3DA
100
AcDbEntity
  8
RACCORDO
100
AcDbPolyline
 62
253
  6
CONTINUOUS
 90
25
 70
0
 10
14.675587482
 20
21.6872057124
 10
14.6744963931
 20
21.7200363612
 10
14.6713082932
 20
21.7524815976
 10
14.6660231822
 20
21.7845414217
 10
14.6586006741
 20
21.8163596636
 10
14.6490811549
 20
21.8477924931
 10
14.6375857826
 20
21.87840842
 10
14.6240892188
 20
21.9081871966
 10
14.6086168019
 20
21.9371490706
 10
14.5913657047
 20
21.9649232949
 10
14.5723124892
 20
21.9914948211
 10
14.5514805934
 20
22.0168786977
 10
14.5291375043
 20
22.0407493229
 10
14.5052641865
 20
22.0630866489
 10
14.4798796753
 20
22.0839107236
 10
14.453308564
 20
22.1029560891
 10
14.4255356956
 20
22.1201997461
 10
14.3965762271
 20
22.135664694
 10
14.3668002222
 20
22.149154472
 10
14.3361856066
 20
22.1606440412
 10
14.3047544547
 20
22.1701584405
 10
14.2729430528
 20
22.1775763264
 10
14.2408968299
 20
22.182857251
 10
14.2084703571
 20
22.1860416622
 10
14.1756636344
 20
22.18712956
  0
LWPOLYLINE
  5
3DB
100
AcDbEntity
  8
RACCORDO
100
AcDbPolyline
 62
253
  6
CONTINUOUS
 90
25
 70
0
 10
16.175359051
 20
21.6870767442
 10
16.1710536928
 20
21.8179057316
 10
16.1582006651
 20
21.948159657
 10
16.1368578898
 20
22.0772809146
 10
16.1071208738
 20
22.2047124495
 10
16.0691190717
 20
22.3299141136
 10
16.0230123009
 20
22.4523640817
 10
15.9689958313
 20
22.571542559
 10
15.9073024674
 20
22.686934916
 10
15.8381962442
 20
22.7980472253
 10
15.7619729896
 20
22.9044038724
 10
15.6789590045
 20
23.0055496447
 10
15.5895095721
 20
23.101051647
 10
15.4940075682
 20
23.1905010779
 10
15.3928617942
 20
23.2735150617
 10
15.2865051455
 20
23.3497383155
 10
15.1753928356
 20
23.4188445388
 10
15.0600004782
 20
23.4805379033
 10
14.9408219999
 20
23.5345543735
 10
14.8183675054
 20
23.5806626806
 10
14.6931611327
 20
23.6186654205
 10
14.565738824
 20
23.6483999626
 10
14.4366459827
 20
23.6697389923
 10
14.3064351427
 20
23.6825910675
 10
14.1756636344
 20
23.6869011027
  0
LINE
  5
3DC
100
AcDbEntity
  8
RACCORDO
100
AcDbLine
 62
253
  6
CONTINUOUS
 10
16.4409303559
 20
11.2764281832
 11
16.4450448334
 21
11.1518185879
  0
LINE
  5
3DD
100
AcDbEntity
  8
RACCORDO
100
AcDbLine
 62
253
  6
CONTINUOUS
 10
16.4450448334
 20
11.1518185879
 11
16.4491774286
 21
10.9960562648
  0
LINE
  5
3DE
100
AcDbEntity
  8
RACCORDO
100
AcDbLine
 62
253
  6
CONTINUOUS
 10
16.4491774286
 20
10.9960562648
 11
16.4551353714
 21
10.700176754
  0
LINE
  5
3DF
100
AcDbEntity
  8
RACCORDO
100
AcDbLine
 62
253
  6
CONTINUOUS
 10
16.6491486229
 20
11.1571809236
 11
16.6551045534
 21
10.8402641881
  0
LINE
  5
3E0
100
AcDbEntity
  8
RACCORDO
100
AcDbLine
 62
253
  6
CONTINUOUS
 10
16.4551353714
 20
10.700176754
 11
16.4601810861
 21
10.3536017405
  0
LINE
  5
3E1
100
AcDbEntity
  8
RACCORDO
100
AcDbLine
 62
253
  6
CONTINUOUS
 10
16.6551045534
 20
10.8402641881
 11
16.6615386221
 21
10.3413833764
  0
LINE
  5
3E2
100
AcDbEntity
  8
RACCORDO
100
AcDbLine
 62
253
  6
CONTINUOUS
 10
16.4601810861
 20
10.3536017405
 11
16.4649090978
 21
9.8770479297
  0
LINE
  5
3E3
100
AcDbEntity
  8
RACCORDO
100
AcDbLine
 62
253
  6
CONTINUOUS
 10
16.6615386221
 20
10.3413833764
 11
16.6664624523
 21
9.7099478992
  0
LINE
  5
3E4
100
AcDbEntity
  8
RACCORDO
100
AcDbLine
 62
253
  6
CONTINUOUS
 10
16.4649090978
 20
9.8770479297
 11
16.4684277589
 21
9.2105615171
  0
LINE
  5
3E5
100
AcDbEntity
  8
RACCORDO
100
AcDbLine
 62
253
  6
CONTINUOUS
 10
16.6664624523
 20
9.7099478992
 11
16.6690013324
 21
8.9300471085
  0
LINE
  5
3E6
100
AcDbEntity
  8
RACCORDO
100
AcDbLine
 62
253
  6
CONTINUOUS
 10
14.675587482
 20
1.2292502078
 11
14.675587482
 21
-14.0157535046
  0
LINE
  5
3E7
100
AcDbEntity
  8
RACCORDO
100
AcDbLine
 62
253
  6
CONTINUOUS
 10
14.675587482
 20
6.442202
 11
14.675587482
 21
13.5016253848
  0
LINE
  5
3E8
100
AcDbEntity
  8
RACCORDO
100
AcDbLine
 62
253
  6
CONTINUOUS
 10
14.675587482
 20
20.1698268231
 11
14.675587482
 21
21.6872057124
  0
LINE
  5
3E9
100
AcDbEntity
  8
RACCORDO
100
AcDbLine
 62
253
  6
CONTINUOUS
 10
14.7280288524
 20
6.3638065242
 11
14.7280288524
 21
6.3357261039
  0
LINE
  5
3EA
100
AcDbEntity
  8
RACCORDO
100
AcDbLine
 62
253
  6
CONTINUOUS
 10
14.7280288524
 20
1.3357261039
 11
14.7280288524
 21
1.3076456836
  0
LINE
  5
3EB
100
AcDbEntity
  8
DRAFT
100
AcDbLine
 62
7
  6
CONTINUOUS
 10
14.7561092727
 20
6.3357261039
 11
14.7561092727
 21
1.3357261039
  0
LINE
  5
3EC
100
AcDbEntity
  8
RACCORDO
100
AcDbLine
 62
7
  6
CONTINUOUS
 10
14.8623813618
 20
1.2294540148
 11
14.8623813618
 21
6.441998193
  0
LINE
  5
3ED
100
AcDbEntity
  8
RACCORDO
100
AcDbLine
 62
253
  6
CONTINUOUS
 10
16.1753590247
 20
12.9845511051
 11
16.1753590247
 21
-14.0156291653
  0
LINE
  5
3EE
100
AcDbEntity
  8
RACCORDO
100
AcDbLine
 62
253
  6
CONTINUOUS
 10
16.1753590247
 20
20.6869011027
 11
16.1753590247
 21
21.6870767137
  0
LINE
  5
3EF
100
AcDbEntity
  8
RACCORDO
100
AcDbLine
 62
7
  6
CONTINUOUS
 10
16.2281811688
 20
8.1949140679
 11
16.2281811688
 21
-0.52346186
  0
LINE
  5
3F0
100
AcDbEntity
  8
DRAFT
100
AcDbLine
 62
7
  6
CONTINUOUS
 10
16.3241840259
 20
-1.1642738961
 11
16.3241840259
 21
-0.8719168178
  0
LINE
  5
3F1
100
AcDbEntity
  8
RACCORDO
100
AcDbLine
 62
7
  6
CONTINUOUS
 10
16.3241840259
 20
-14.1645785058
 11
16.3241840259
 21
-0.9142738961
  0
LINE
  5
3F2
100
AcDbEntity
  8
RACCORDO
100
AcDbLine
 62
7
  6
CONTINUOUS
 10
16.3241840259
 20
8.8357261039
 11
16.3241840259
 21
11.6357565649
  0
LINE
  5
3F3
100
AcDbEntity
  8
DRAFT
100
AcDbLine
 62
7
  6
CONTINUOUS
 10
16.3241840259
 20
8.5433690257
 11
16.3241840259
 21
12.8357261039
  0
LINE
  5
3F4
100
AcDbEntity
  8
RACCORDO
100
AcDbLine
 62
7
  6
CONTINUOUS
 10
16.3241840259
 20
12.0356956429
 11
16.3241840259
 21
12.9840941558
  0
LINE
  5
3F5
100
AcDbEntity
  8
RACCORDO
100
AcDbLine
 62
7
  6
CONTINUOUS
 10
16.3241840259
 20
20.687358052
 11
16.3241840259
 21
21.8360307136
  0
LINE
  5
3F6
100
AcDbEntity
  8
RACCORDO
100
AcDbLine
 62
7
  6
CONTINUOUS
 10
16.4201868831
 20
-0.5769224074
 11
16.4201868831
 21
8.2483746152
  0
LINE
  5
3F7
100
AcDbEntity
  8
RACCORDO
100
AcDbLine
 62
253
  6
CONTINUOUS
 10
16.4684277589
 20
9.2105615171
 11
16.4691219914
 21
-1.0678140549
  0
LINE
  5
3F8
100
AcDbEntity
  8
RACCORDO
100
AcDbLine
 62
253
  6
CONTINUOUS
 10
16.6690013324
 20
8.9300471085
 11
16.669078674
 21
-1.1612297756
  0
LINE
  5
3F9
100
AcDbEntity
  8
RACCORDO
100
AcDbLine
 62
253
  6
CONTINUOUS
 10
16.4691219914
 20
-1.0678140549
 11
16.4676438335
 21
-1.7506773552
  0
LINE
  5
3FA
100
AcDbEntity
  8
RACCORDO
100
AcDbLine
 62
253
  6
CONTINUOUS
 10
16.669078674
 20
-1.1612297756
 11
16.6670918337
 21
-1.9177220902
  0
LINE
  5
3FB
100
AcDbEntity
  8
RACCORDO
100
AcDbLine
 62
253
  6
CONTINUOUS
 10
16.4676438335
 20
-1.7506773552
 11
16.4639303962
 21
-2.3236488706
  0
LINE
  5
3FC
100
AcDbEntity
  8
RACCORDO
100
AcDbLine
 62
253
  6
CONTINUOUS
 10
16.6670918337
 20
-1.9177220902
 11
16.6627842848
 21
-2.5415340386
  0
LINE
  5
3FD
100
AcDbEntity
  8
RACCORDO
100
AcDbLine
 62
253
  6
CONTINUOUS
 10
16.4639303962
 20
-2.3236488706
 11
16.4586289974
 21
-2.8004355299
  0
LINE
  5
3FE
100
AcDbEntity
  8
RACCORDO
100
AcDbLine
 62
253
  6
CONTINUOUS
 10
16.6627842848
 20
-2.5415340386
 11
16.6569015362
 21
-3.049667144
  0
LINE
  5
3FF
100
AcDbEntity
  8
RACCORDO
100
AcDbLine
 62
253
  6
CONTINUOUS
 10
16.4586289974
 20
-2.8004355299
 11
16.4532258976
 21
-3.1338440055
  0
LINE
  5
400
100
AcDbEntity
  8
RACCORDO
100
AcDbLine
 62
253
  6
CONTINUOUS
 10
16.6569015362
 20
-3.049667144
 11
16.6511856086
 21
-3.3883501916
  0
LINE
  5
401
100
AcDbEntity
  8
RACCORDO
100
AcDbLine
 62
253
  6
CONTINUOUS
 10
16.4532258976
 20
-3.1338440055
 11
16.4491774286
 21
-3.3246040567
  0
LINE
  5
402
100
AcDbEntity
  8
RACCORDO
100
AcDbLine
 62
253
  6
CONTINUOUS
 10
16.6511856086
 20
-3.3883501916
 11
16.6470962519
 21
-3.5735601461
  0
LINE
  5
403
100
AcDbEntity
  8
RACCORDO
100
AcDbLine
 62
253
  6
CONTINUOUS
 10
16.4491774286
 20
-3.3246040567
 11
16.4450448334
 21
-3.4803663811
  0
LINE
  5
404
100
AcDbEntity
  8
RACCORDO
100
AcDbLine
 62
253
  6
CONTINUOUS
 10
16.6470962519
 20
-3.5735601461
 11
16.6429507932
 21
-3.7235216983
  0
LWPOLYLINE
  5
405
100
AcDbEntity
  8
RACCORDO
100
AcDbPolyline
 62
253
  6
CONTINUOUS
 90
25
 70
0
 10
16.1753590502
 20
-14.0156291947
 10
16.1710535229
 20
-14.1464561072
 10
16.1582005293
 20
-14.2767084776
 10
16.1368578888
 20
-14.4058287098
 10
16.1071209615
 20
-14.5332599126
 10
16.0691191247
 20
-14.6584617478
 10
16.0230122977
 20
-14.7809118796
 10
15.9689958278
 20
-14.9000903555
 10
15.9073024641
 20
-15.0154827104
 10
15.8381962413
 20
-15.1265950183
 10
15.7619729872
 20
-15.2329516652
 10
15.6789590027
 20
-15.3340974378
 10
15.5895095711
 20
-15.4295994405
 10
15.4940075681
 20
-15.5190488718
 10
15.3928617951
 20
-15.6020628561
 10
15.2865051478
 20
-15.67828611
 10
15.1753928398
 20
-15.7473923328
 10
15.0600004848
 20
-15.8090856966
 10
14.9408220086
 20
-15.8631021666
 10
14.8183719678
 20
-15.9092089624
 10
14.693170227
 20
-15.9472107801
 10
14.565738837
 20
-15.9769477576
 10
14.4366180297
 20
-15.9982904741
 10
14.3063647877
 20
-16.0111434875
 10
14.1755367126
 20
-16.0154489208
  0
LWPOLYLINE
  5
406
100
AcDbEntity
  8
RACCORDO
100
AcDbPolyline
 62
253
  6
CONTINUOUS
 90
25
 70
0
 10
14.675587482
 20
-14.0157535046
 10
14.6744956559
 20
-14.0485869493
 10
14.671307317
 20
-14.0810333575
 10
14.6660224652
 20
-14.1130927292
 10
14.658600642
 20
-14.1449083975
 10
14.649082306
 20
-14.1763370293
 10
14.6375888333
 20
-14.2069486255
 10
14.6240950741
 20
-14.2367231892
 10
14.6086261782
 20
-14.2656807175
 10
14.591378971
 20
-14.293451202
 10
14.5723301816
 20
-14.3200196838
 10
14.5515030808
 20
-14.345401122
 10
14.5291643068
 20
-14.369270385
 10
14.5052944838
 20
-14.3916077928
 10
14.4799129875
 20
-14.4124330255
 10
14.4533445834
 20
-14.4314799925
 10
14.4255742052
 20
-14.4487255824
 10
14.3966169192
 20
-14.4641929066
 10
14.3668426899
 20
-14.477685208
 10
14.3362310534
 20
-14.4891773703
 10
14.3048024736
 20
-14.4986945098
 10
14.2729883063
 20
-14.5061152185
 10
14.2409323365
 20
-14.5113990271
 10
14.2084907793
 20
-14.514586405
 10
14.1756636344
 20
-14.5156773521
  0
LWPOLYLINE
  5
407
100
AcDbEntity
  8
RACCORDO
100
AcDbPolyline
 62
253
  6
CONTINUOUS
 90
13
 70
0
 10
16.4450448334
 20
-3.4803663811
 10
16.4409303559
 20
-3.6049759747
 10
16.438895578
 20
-3.6558110063
 10
16.4368970929
 20
-3.7003398828
 10
16.4349376014
 20
-3.7385514153
 10
16.4330144026
 20
-3.7704567927
 10
16.4311425731
 20
-3.7973596043
 10
16.4293241652
 20
-3.8192848307
 10
16.4275571265
 20
-3.8362074913
 10
16.4258503768
 20
-3.8493562339
 10
16.4242068894
 20
-3.8591406077
 10
16.4226236911
 20
-3.8651510635
 10
16.4211007817
 20
-3.8673876013
  0
LWPOLYLINE
  5
408
100
AcDbEntity
  8
RACCORDO
100
AcDbPolyline
 62
253
  6
CONTINUOUS
 90
12
 70
0
 10
16.6429507932
 20
-3.7235216983
 10
16.638868628
 20
-3.840742623
 10
16.6368703118
 20
-3.8882960471
 10
16.6349109468
 20
-3.9290875992
 10
16.6329878287
 20
-3.9635818763
 10
16.631116054
 20
-3.9922726097
 10
16.6292978205
 20
-4.0156068514
 10
16.6275309303
 20
-4.0340329783
 10
16.625823885
 20
-4.0480098371
 10
16.6241795186
 20
-4.0579575651
 10
16.6225949972
 20
-4.0642748178
 10
16.6210703207
 20
-4.0673571403
  0
LINE
  5
409
100
AcDbEntity
  8
RACCORDO
100
AcDbLine
 62
253
  6
CONTINUOUS
 10
16.6210703207
 20
-4.0673571403
 11
16.524153565
 21
-4.1642738961
  0
LINE
  5
40A
100
AcDbEntity
  8
RACCORDO
100
AcDbLine
 62
253
  6
CONTINUOUS
 10
25.1582085927
 20
15.0013969275
 11
24.6582847451
 21
15.0013969275
  0
LINE
  5
40B
100
AcDbEntity
  8
RACCORDO
100
AcDbLine
 62
7
  6
CONTINUOUS
 10
14.6843911901
 20
6.4074441866
 11
14.7561092727
 21
6.3357261039
  0
LWPOLYLINE
  5
40C
100
AcDbEntity
  8
RACCORDO
100
AcDbPolyline
 62
7
  6
CONTINUOUS
 90
13
 70
0
 10
17.8241840259
 20
11.6357565649
 10
17.8224737618
 20
11.6618586917
 10
17.8173715854
 20
11.68751387
 10
17.8089646042
 20
11.7122833914
 10
17.7973963631
 20
11.7357438483
 10
17.7828645759
 20
11.7574936542
 10
17.7656179982
 20
11.7771600761
 10
17.7459515762
 20
11.7944066539
 10
17.7242017703
 20
11.8089384411
 10
17.7007413134
 20
11.8205066821
 10
17.675971792
 20
11.8289136634
 10
17.6503166138
 20
11.8340158397
 10
17.6242144869
 20
11.8357261039
  0
LINE
  5
40D
100
AcDbEntity
  8
RACCORDO
100
AcDbLine
 62
253
  6
CONTINUOUS
 10
16.638868628
 20
11.5121948308
 11
16.6429507932
 21
11.3949739062
  0
LINE
  5
40E
100
AcDbEntity
  8
RACCORDO
100
AcDbLine
 62
253
  6
CONTINUOUS
 10
17.5094994238
 20
-3.840742623
 11
17.5054172587
 21
-3.7235216983
  0
LINE
  5
40F
100
AcDbEntity
  8
RACCORDO
100
AcDbLine
 62
253
  6
CONTINUOUS
 10
17.707437696
 20
-3.6049759754
 11
17.7033232185
 21
-3.4803663801
  0
LWPOLYLINE
  5
410
100
AcDbEntity
  8
RACCORDO
100
AcDbPolyline
 62
253
  6
CONTINUOUS
 90
3
 70
0
 10
16.6429507932
 20
11.3949739062
 10
16.6470962519
 20
11.2450123539
 10
16.6491486229
 20
11.1571809236
  0
LINE
  5
411
100
AcDbEntity
  8
RACCORDO
100
AcDbLine
 62
253
  6
CONTINUOUS
 10
17.5054172587
 20
-3.7235216983
 11
17.5012718
 21
-3.5735601461
  0
LINE
  5
412
100
AcDbEntity
  8
RACCORDO
100
AcDbLine
 62
253
  6
CONTINUOUS
 10
17.7033232185
 20
-3.4803663801
 11
17.6991906233
 21
-3.3246040569
  0
LINE
  5
413
100
AcDbEntity
  8
RACCORDO
100
AcDbLine
 62
253
  6
CONTINUOUS
 10
17.5012718
 20
-3.5735601461
 11
17.4971824433
 21
-3.3883501916
  0
LINE
  5
414
100
AcDbEntity
  8
RACCORDO
100
AcDbLine
 62
253
  6
CONTINUOUS
 10
17.6991906233
 20
-3.3246040569
 11
17.6932326805
 21
-3.0287245462
  0
LINE
  5
415
100
AcDbEntity
  8
RACCORDO
100
AcDbLine
 62
253
  6
CONTINUOUS
 10
17.4971824433
 20
-3.3883501916
 11
17.4914665157
 21
-3.049667144
  0
LINE
  5
416
100
AcDbEntity
  8
RACCORDO
100
AcDbLine
 62
253
  6
CONTINUOUS
 10
17.6932326805
 20
-3.0287245462
 11
17.6881869658
 21
-2.6821495327
  0
LINE
  5
417
100
AcDbEntity
  8
RACCORDO
100
AcDbLine
 62
253
  6
CONTINUOUS
 10
17.4914665157
 20
-3.049667144
 11
17.4855837671
 21
-2.5415340386
  0
LINE
  5
418
100
AcDbEntity
  8
RACCORDO
100
AcDbLine
 62
253
  6
CONTINUOUS
 10
17.6881869658
 20
-2.6821495327
 11
17.6834589541
 21
-2.2055957218
  0
LINE
  5
419
100
AcDbEntity
  8
RACCORDO
100
AcDbLine
 62
253
  6
CONTINUOUS
 10
17.4855837671
 20
-2.5415340386
 11
17.4807556712
 21
-1.7997307707
  0
LINE
  5
41A
100
AcDbEntity
  8
RACCORDO
100
AcDbLine
 62
253
  6
CONTINUOUS
 10
17.6834589541
 20
-2.2055957218
 11
17.679940293
 21
-1.5391093093
  0
LINE
  5
41B
100
AcDbEntity
  8
RACCORDO
100
AcDbLine
 62
253
  6
CONTINUOUS
 10
17.4807556712
 20
-1.7997307707
 11
17.4792765214
 21
8.7392662627
  0
LINE
  5
41C
100
AcDbEntity
  8
RACCORDO
100
AcDbLine
 62
253
  6
CONTINUOUS
 10
17.679940293
 20
-1.5391093093
 11
17.6792460605
 21
8.7392662627
  0
LINE
  5
41D
100
AcDbEntity
  8
RACCORDO
100
AcDbLine
 62
7
  6
CONTINUOUS
 10
17.7281811688
 20
-0.5769224074
 11
17.7281811688
 21
8.2483746152
  0
LINE
  5
41E
100
AcDbEntity
  8
RACCORDO
100
AcDbLine
 62
7
  6
CONTINUOUS
 10
17.8241840259
 20
11.6357565649
 11
17.8241840259
 21
8.8357261039
  0
LINE
  5
41F
100
AcDbEntity
  8
RACCORDO
100
AcDbLine
 62
7
  6
CONTINUOUS
 10
17.8241840259
 20
-1.1642738961
 11
17.8241840259
 21
-3.9643043571
  0
LINE
  5
420
100
AcDbEntity
  8
RACCORDO
100
AcDbLine
 62
253
  6
CONTINUOUS
 10
17.4792765214
 20
8.7392662627
 11
17.4807556714
 21
9.4711829785
  0
LINE
  5
421
100
AcDbEntity
  8
RACCORDO
100
AcDbLine
 62
253
  6
CONTINUOUS
 10
17.6792460605
 20
8.7392662627
 11
17.6807242183
 21
9.422129563
  0
LINE
  5
422
100
AcDbEntity
  8
RACCORDO
100
AcDbLine
 62
253
  6
CONTINUOUS
 10
17.6807242183
 20
9.422129563
 11
17.6844376557
 21
9.9951010784
  0
LINE
  5
423
100
AcDbEntity
  8
RACCORDO
100
AcDbLine
 62
253
  6
CONTINUOUS
 10
17.4807556714
 20
9.4711829785
 11
17.4855837671
 21
10.2129862464
  0
LINE
  5
424
100
AcDbEntity
  8
RACCORDO
100
AcDbLine
 62
253
  6
CONTINUOUS
 10
17.6844376557
 20
9.9951010784
 11
17.6897390545
 21
10.4718877378
  0
LINE
  5
425
100
AcDbEntity
  8
RACCORDO
100
AcDbLine
 62
253
  6
CONTINUOUS
 10
17.4855837671
 20
10.2129862464
 11
17.4914665156
 21
10.7211193518
  0
LINE
  5
426
100
AcDbEntity
  8
RACCORDO
100
AcDbLine
 62
253
  6
CONTINUOUS
 10
17.6897390545
 20
10.4718877378
 11
17.6951421543
 21
10.8052962133
  0
LINE
  5
427
100
AcDbEntity
  8
RACCORDO
100
AcDbLine
 62
253
  6
CONTINUOUS
 10
17.4914665156
 20
10.7211193518
 11
17.4971824433
 21
11.0598023994
  0
LINE
  5
428
100
AcDbEntity
  8
RACCORDO
100
AcDbLine
 62
253
  6
CONTINUOUS
 10
17.6951421543
 20
10.8052962133
 11
17.6991906233
 21
10.9960562646
  0
LINE
  5
429
100
AcDbEntity
  8
RACCORDO
100
AcDbLine
 62
253
  6
CONTINUOUS
 10
17.4971824433
 20
11.0598023994
 11
17.5012718
 21
11.2450123539
  0
LINE
  5
42A
100
AcDbEntity
  8
RACCORDO
100
AcDbLine
 62
253
  6
CONTINUOUS
 10
17.6991906233
 20
10.9960562646
 11
17.7033232185
 21
11.1518185889
  0
LINE
  5
42B
100
AcDbEntity
  8
RACCORDO
100
AcDbLine
 62
253
  6
CONTINUOUS
 10
17.5012718
 20
11.2450123539
 11
17.5054172587
 21
11.3949739062
  0
LWPOLYLINE
  5
42C
100
AcDbEntity
  8
RACCORDO
100
AcDbPolyline
 62
253
  6
CONTINUOUS
 90
13
 70
0
 10
17.7033232185
 20
11.1518185889
 10
17.707437696
 20
11.2764281825
 10
17.7094724739
 20
11.3272632141
 10
17.711470959
 20
11.3717920906
 10
17.7134304505
 20
11.4100036231
 10
17.7153536493
 20
11.4419090005
 10
17.7172254787
 20
11.4688118122
 10
17.7190438867
 20
11.4907370385
 10
17.7208109254
 20
11.5076596991
 10
17.7225176751
 20
11.5208084417
 10
17.7241611625
 20
11.5305928155
 10
17.7257443608
 20
11.5366032713
 10
17.7272672702
 20
11.5388398091
  0
LWPOLYLINE
  5
42D
100
AcDbEntity
  8
RACCORDO
100
AcDbPolyline
 62
253
  6
CONTINUOUS
 90
12
 70
0
 10
17.5054172587
 20
11.3949739062
 10
17.5094994239
 20
11.5121948308
 10
17.5114977401
 20
11.5597482549
 10
17.5134571051
 20
11.600539807
 10
17.5153802231
 20
11.6350340842
 10
17.5172519979
 20
11.6637248176
 10
17.5190702314
 20
11.6870590592
 10
17.5208371216
 20
11.7054851861
 10
17.5225441669
 20
11.7194620449
 10
17.5241885332
 20
11.7294097729
 10
17.5257730547
 20
11.7357270256
 10
17.5272977311
 20
11.7388093481
  0
LINE
  5
42E
100
AcDbEntity
  8
RACCORDO
100
AcDbLine
 62
253
  6
CONTINUOUS
 10
25.1582085927
 20
18.6700552803
 11
24.6582847451
 21
18.6700552803
  0
LINE
  5
42F
100
AcDbEntity
  8
RACCORDO
100
AcDbLine
 62
7
  6
CONTINUOUS
 10
14.9696051032
 20
13.3335450352
 11
14.8711174703
 21
13.3892069363
  0
LINE
  5
430
100
AcDbEntity
  8
RACCORDO
100
AcDbLine
 62
7
  6
CONTINUOUS
 10
14.8711174703
 20
13.3892069363
 11
14.675587482
 21
13.5016253848
  0
LINE
  5
431
100
AcDbEntity
  8
RACCORDO
100
AcDbLine
 62
7
  6
CONTINUOUS
 10
16.411611667
 20
8.7482984628
 11
16.3241840259
 21
8.8357261039
  0
LINE
  5
432
100
AcDbEntity
  8
RACCORDO
100
AcDbLine
 62
253
  6
CONTINUOUS
 10
14.675587482
 20
20.1698268231
 11
23.1585132024
 21
20.1698268231
  0
LINE
  5
433
100
AcDbEntity
  8
RACCORDO
100
AcDbLine
 62
253
  6
CONTINUOUS
 10
15.7857547878
 20
20.6697506706
 11
23.1583707393
 21
20.6697506706
  0
LINE
  5
434
100
AcDbEntity
  8
RACCORDO
100
AcDbLine
 62
7
  6
CONTINUOUS
 10
16.1758159741
 20
20.687358052
 11
23.1761205837
 21
20.687358052
  0
LINE
  5
435
100
AcDbEntity
  8
RACCORDO
100
AcDbLine
 62
7
  6
CONTINUOUS
 10
13.5817801494
 20
21.5857261039
 11
-20.9334120975
 21
21.5857261039
  0
LWPOLYLINE
  5
436
100
AcDbEntity
  8
RACCORDO
100
AcDbPolyline
 62
253
  6
CONTINUOUS
 90
25
 70
0
 10
23.1583707536
 20
20.6697506798
 10
23.2892318092
 20
20.6654647589
 10
23.4195132924
 20
20.6526283618
 10
23.5486575283
 20
20.6312999899
 10
23.6761069467
 20
20.601575941
 10
23.8013220241
 20
20.5635861028
 10
23.9237825841
 20
20.5174899849
 10
24.04296929
 20
20.4634828431
 10
24.1583672242
 20
20.4017978425
 10
24.2694828813
 20
20.3326988364
 10
24.3758406832
 20
20.2564817525
 10
24.4769855981
 20
20.1734729616
 10
24.5724852651
 20
20.0840273253
 10
24.6619308997
 20
19.9885276578
 10
24.7449396883
 20
19.8873827436
 10
24.8211567698
 20
19.7810249426
 10
24.8902557739
 20
19.6699092865
 10
24.9519407726
 20
19.5545113538
 10
25.0059479124
 20
19.4353246499
 10
25.0520440402
 20
19.3128640579
 10
25.090033884
 20
19.1876489477
 10
25.1197579127
 20
19.0601996038
 10
25.141086255
 20
18.9310555901
 10
25.1539226446
 20
18.8007744419
 10
25.1582086018
 20
18.6699138321
  0
LWPOLYLINE
  5
437
100
AcDbEntity
  8
RACCORDO
100
AcDbPolyline
 62
253
  6
CONTINUOUS
 90
25
 70
0
 10
23.1585132024
 20
20.1698268231
 10
23.2569996876
 20
20.1665532965
 10
23.3543282772
 20
20.1569903843
 10
23.4504989711
 20
20.1411380867
 10
23.5459430098
 20
20.1188748354
 10
23.6402291527
 20
20.0903221987
 10
23.7320636784
 20
20.0558448809
 10
23.8213851314
 20
20.0153676419
 10
23.908254967
 20
19.9689657219
 10
23.9915638302
 20
19.9172295464
 10
24.0712665229
 20
19.8600899178
 10
24.1474082432
 20
19.7976160336
 10
24.2190152299
 20
19.7306059114
 10
24.2860294488
 20
19.6590006043
 10
24.3485089342
 20
19.582859059
 10
24.4056540273
 20
19.5031561341
 10
24.457395052
 20
19.4198469534
 10
24.5038016846
 20
19.3329763929
 10
24.5442832947
 20
19.2436539391
 10
24.5787645419
 20
19.1518195372
 10
24.6073207667
 20
19.0575332418
 10
24.6295873603
 20
18.9620847034
 10
24.6454427864
 20
18.8659038054
 10
24.6550085813
 20
18.7685606644
 10
24.6582847451
 20
18.6700552803
  0
LINE
  5
438
100
AcDbEntity
  8
RACCORDO
100
AcDbLine
 62
253
  6
CONTINUOUS
 10
16.3241840259
 20
11.6357565649
 11
16.4211007817
 21
11.5388398091
  0
LINE
  5
439
100
AcDbEntity
  8
RACCORDO
100
AcDbLine
 62
253
  6
CONTINUOUS
 10
16.524153565
 20
11.8357261039
 11
16.6210699633
 21
11.7388097056
  0
LINE
  5
43A
100
AcDbEntity
  8
RACCORDO
100
AcDbLine
 62
7
  6
CONTINUOUS
 10
16.1753590247
 20
12.9845511051
 11
16.1758159741
 21
12.9840941558
  0
LINE
  5
43B
100
AcDbEntity
  8
DRAFT
100
AcDbLine
 62
7
  6
CONTINUOUS
 10
16.3241840259
 20
12.8357261039
 11
16.1758159741
 21
12.9840941558
  0
LWPOLYLINE
  5
43C
100
AcDbEntity
  8
RACCORDO
100
AcDbPolyline
 62
253
  6
CONTINUOUS
 90
12
 70
0
 10
16.4211007817
 20
11.5388398091
 10
16.4226236911
 20
11.5366032787
 10
16.4242068895
 20
11.5305928268
 10
16.4258503768
 20
11.5208084533
 10
16.4275571265
 20
11.5076597052
 10
16.4293241652
 20
11.4907370356
 10
16.4311425731
 20
11.4688118037
 10
16.4330144026
 20
11.4419089943
 10
16.4349376014
 20
11.4100036226
 10
16.4368970929
 20
11.3717920941
 10
16.438895578
 20
11.3272632171
 10
16.4409303559
 20
11.2764281832
  0
LWPOLYLINE
  5
43D
100
AcDbEntity
  8
RACCORDO
100
AcDbPolyline
 62
253
  6
CONTINUOUS
 90
11
 70
0
 10
16.6210699879
 20
11.7388097055
 10
16.6225948124
 20
11.7357275781
 10
16.6241794448
 20
11.7294101415
 10
16.6258238851
 20
11.7194620449
 10
16.627530955
 20
11.7054849591
 10
16.6292978328
 20
11.6870589183
 10
16.6311160539
 20
11.6637248175
 10
16.6329878287
 20
11.6350340842
 10
16.6349109468
 20
11.600539807
 10
16.6368703119
 20
11.5597482549
 10
16.638868628
 20
11.5121948308
  0
LINE
  5
43E
100
AcDbEntity
  8
RACCORDO
100
AcDbLine
 62
253
  6
CONTINUOUS
 10
23.1585132024
 20
20.6697506706
 11
23.1585132024
 21
20.1698268231
  0
LINE
  5
43F
100
AcDbEntity
  8
RACCORDO
100
AcDbLine
 62
253
  6
CONTINUOUS
 10
23.1585132024
 20
13.0017015372
 11
23.1585132024
 21
13.5016253848
  0
LWPOLYLINE
  5
440
100
AcDbEntity
  8
RACCORDO
100
AcDbPolyline
 62
253
  6
CONTINUOUS
 90
25
 70
0
 10
-21.5272955825
 20
22.18712956
 10
-21.5601262313
 20
22.1860384711
 10
-21.5925714677
 20
22.1828503712
 10
-21.6246312918
 20
22.1775652601
 10
-21.6564495337
 20
22.170142752
 10
-21.6878823632
 20
22.1606232329
 10
-21.7184982902
 20
22.1491278606
 10
-21.7482770667
 20
22.1356312968
 10
-21.7772389407
 20
22.1201588799
 10
-21.805013165
 20
22.1029077827
 10
-21.8315846912
 20
22.0838545672
 10
-21.8569685678
 20
22.0630226714
 10
-21.8808391931
 20
22.0406795823
 10
-21.9031765191
 20
22.0168062644
 10
-21.9240005938
 20
21.9914217533
 10
-21.9430459592
 20
21.9648506419
 10
-21.9602896163
 20
21.9370777736
 10
-21.9757545641
 20
21.9081183051
 10
-21.9892443421
 20
21.8783423001
 10
-22.0007339113
 20
21.8477276846
 10
-22.0102483106
 20
21.8162965327
 10
-22.0176661966
 20
21.7844851308
 10
-22.0229471212
 20
21.7524389079
 10
-22.0261315323
 20
21.7200124351
 10
-22.0272194301
 20
21.6872057124
  0
LINE
  5
441
100
AcDbEntity
  8
RACCORDO
100
AcDbLine
 62
7
  6
CONTINUOUS
 10
13.6170455456
 20
21.6209915001
 11
-20.9686774937
 21
21.6209915001
  0
LINE
  5
442
100
AcDbEntity
  8
RACCORDO
100
AcDbLine
 62
253
  6
CONTINUOUS
 10
14.675587482
 20
21.6872057124
 11
16.1753590247
 21
21.6872057116
  0
LINE
  5
443
100
AcDbEntity
  8
RACCORDO
100
AcDbLine
 62
253
  6
CONTINUOUS
 10
-22.0272194301
 20
21.6872057124
 11
-23.5269909728
 21
21.6872057124
  0
LINE
  5
444
100
AcDbEntity
  8
RACCORDO
100
AcDbLine
 62
253
  6
CONTINUOUS
 10
14.1756636344
 20
22.18712956
 11
-17.8522418194
 21
22.1871438575
  0
LINE
  5
445
100
AcDbEntity
  8
RACCORDO
100
AcDbLine
 62
253
  6
CONTINUOUS
 10
-18.499389119
 20
22.1871330035
 11
-21.5272955825
 21
22.18712956
  0
LINE
  5
446
100
AcDbEntity
  8
RACCORDO
100
AcDbLine
 62
253
  6
CONTINUOUS
 10
14.1756636344
 20
23.6869011027
 11
-16.837231036
 21
23.6869011027
  0
LINE
  5
447
100
AcDbEntity
  8
RACCORDO
100
AcDbLine
 62
253
  6
CONTINUOUS
 10
-19.5144009121
 20
23.6869011027
 11
-21.5271665839
 21
23.6869011027
  0
LINE
  5
448
100
AcDbEntity
  8
RACCORDO
100
AcDbLine
 62
7
  6
CONTINUOUS
 10
-16.2914034622
 20
23.7484507793
 11
-16.730623869
 21
23.7484507793
  0
LINE
  5
449
100
AcDbEntity
  8
RACCORDO
100
AcDbLine
 62
7
  6
CONTINUOUS
 10
-19.6210080791
 20
23.7484507793
 11
-20.0602284859
 21
23.7484507793
  0
LINE
  5
44A
100
AcDbEntity
  8
RACCORDO
100
AcDbLine
 62
7
  6
CONTINUOUS
 10
13.5578243136
 20
23.7659058442
 11
-16.2739483973
 21
23.7659058442
  0
LINE
  5
44B
100
AcDbEntity
  8
RACCORDO
100
AcDbLine
 62
7
  6
CONTINUOUS
 10
-20.0776835508
 20
23.7659058442
 11
-20.9094562617
 21
23.7659058442
  0
LINE
  5
44C
100
AcDbEntity
  8
RACCORDO
100
AcDbLine
 62
253
  6
CONTINUOUS
 10
13.5578243136
 20
23.7693359306
 11
-16.2739483973
 21
23.7693359306
  0
LINE
  5
44D
100
AcDbEntity
  8
RACCORDO
100
AcDbLine
 62
253
  6
CONTINUOUS
 10
-20.0776835508
 20
23.7693359306
 11
-20.9094562617
 21
23.7693359306
  0
LINE
  5
44E
100
AcDbEntity
  8
RACCORDO
100
AcDbLine
 62
7
  6
CONTINUOUS
 10
-21.6761205837
 20
23.8357261039
 11
-20.0776835508
 21
23.8357261039
  0
LINE
  5
44F
100
AcDbEntity
  8
RACCORDO
100
AcDbLine
 62
7
  6
CONTINUOUS
 10
-16.2739483973
 20
23.8357261039
 11
14.3244886356
 21
23.8357261039
  0
LWPOLYLINE
  5
450
100
AcDbEntity
  8
RACCORDO
100
AcDbPolyline
 62
253
  6
CONTINUOUS
 90
16
 70
0
 10
-16.837231036
 20
23.6869011027
 10
-16.8650459862
 20
23.688860888
 10
-16.8923198224
 20
23.6946727701
 10
-16.9185219573
 20
23.7042236841
 10
-16.9431426527
 20
23.717327826
 10
-16.9657029355
 20
23.7337302668
 10
-16.9857639161
 20
23.753111912
 10
-17.0029353266
 20
23.7750957095
 10
-17.0168831133
 20
23.7992539849
 10
-17.0273359348
 20
23.8251167613
 10
-17.0340904413
 20
23.8521809023
 10
-17.03701523
 20
23.8799198999
 10
-17.036053402
 20
23.9077941179
 10
-17.0312236688
 20
23.935261289
 10
-17.0226199882
 20
23.9617870648
 10
-17.010409737
 20
23.9868554109
  0
LINE
  5
451
100
AcDbEntity
  8
RACCORDO
100
AcDbLine
 62
253
  6
CONTINUOUS
 10
24.6582847451
 20
18.6700552803
 11
24.6582847451
 21
15.0013969275
  0
LINE
  5
452
100
AcDbEntity
  8
RACCORDO
100
AcDbLine
 62
253
  6
CONTINUOUS
 10
25.1582085927
 20
18.6699138179
 11
25.1582085927
 21
15.0015393906
  0
LINE
  5
453
100
AcDbEntity
  8
RACCORDO
100
AcDbLine
 62
7
  6
CONTINUOUS
 10
25.1758159741
 20
18.6876626617
 11
25.1758159741
 21
14.9837895461
  0
LWPOLYLINE
  5
454
100
AcDbEntity
  8
RACCORDO
100
AcDbPolyline
 62
253
  6
CONTINUOUS
 90
25
 70
0
 10
25.1582086018
 20
15.0015393762
 10
25.1539226809
 20
14.8706783206
 10
25.1410862838
 20
14.7403968374
 10
25.119757912
 20
14.6112526016
 10
25.090033863
 20
14.4838031832
 10
25.0520440248
 20
14.3585881058
 10
25.0059479069
 20
14.2361275458
 10
24.9519407651
 20
14.1169408399
 10
24.8902557645
 20
14.0015429057
 10
24.8211567584
 20
13.8904272485
 10
24.7449396745
 20
13.7840694466
 10
24.6619308836
 20
13.6829245318
 10
24.5724852473
 20
13.5874248648
 10
24.4769855799
 20
13.4979792302
 10
24.3758406656
 20
13.4149704416
 10
24.2694828646
 20
13.33875336
 10
24.1583672086
 20
13.269654356
 10
24.0429692758
 20
13.2079693573
 10
23.9237825719
 20
13.1539622175
 10
23.8013219799
 20
13.1078660896
 10
23.6761068698
 20
13.0698762459
 10
23.5486575259
 20
13.0401522172
 10
23.4195135122
 20
13.0188238748
 10
23.289232364
 20
13.0059874853
 10
23.1583717541
 20
13.001701528
  0
LWPOLYLINE
  5
455
100
AcDbEntity
  8
RACCORDO
100
AcDbPolyline
 62
253
  6
CONTINUOUS
 90
25
 70
0
 10
24.6582847451
 20
15.0013969275
 10
24.6550112185
 20
14.9029104422
 10
24.6454483064
 20
14.8055818527
 10
24.6295960088
 20
14.7094111588
 10
24.6073327575
 20
14.6139671201
 10
24.5787801207
 20
14.5196809771
 10
24.544302803
 20
14.4278464514
 10
24.503825564
 20
14.3385249985
 10
24.457423644
 20
14.2516551628
 10
24.4056874684
 20
14.1683462996
 10
24.3485478398
 20
14.0886436069
 10
24.2860739557
 20
14.0125018866
 10
24.2190638335
 20
13.9408948999
 10
24.1474585263
 20
13.873880681
 10
24.0713169811
 20
13.8114011957
 10
23.9916140561
 20
13.7542561026
 10
23.9083048754
 20
13.7025150778
 10
23.821434315
 20
13.6561084453
 10
23.7321118611
 20
13.6156268351
 10
23.6402774592
 20
13.5811455879
 10
23.5459911638
 20
13.5525893632
 10
23.4505426254
 20
13.5303227696
 10
23.3543617275
 20
13.5144673435
 10
23.2570185864
 20
13.5049015485
 10
23.1585132024
 20
13.5016253848
  0
LWPOLYLINE
  5
456
100
AcDbEntity
  8
RACCORDO
100
AcDbPolyline
 62
253
  6
CONTINUOUS
 90
16
 70
0
 10
-19.5144009121
 20
23.6869011027
 10
-19.4865870051
 20
23.6888607402
 10
-19.4593141004
 20
23.6946722014
 10
-19.4331127336
 20
23.7042224591
 10
-19.408492646
 20
23.7173257271
 10
-19.3859327254
 20
23.7337271447
 10
-19.3658717325
 20
23.7531077943
 10
-19.3486999603
 20
23.7750907506
 10
-19.3347515522
 20
23.7992484035
 10
-19.3242979131
 20
23.8251109033
 10
-19.3175425121
 20
23.8521751872
 10
-19.314616897
 20
23.8799147351
 10
-19.3155780992
 20
23.9077898726
 10
-19.3204075269
 20
23.9352582714
 10
-19.3290113281
 20
23.9617855007
 10
-19.3412222113
 20
23.9868554112
  0
LWPOLYLINE
  5
457
100
AcDbEntity
  8
RACCORDO
100
AcDbPolyline
 62
253
  6
CONTINUOUS
 90
3
 70
0
 10
-20.9094562617
 20
23.7693359306
 10
-20.9355524317
 20
23.7676178855
 10
-20.9438456789
 20
23.7659660624
  0
LWPOLYLINE
  5
458
100
AcDbEntity
  8
RACCORDO
100
AcDbPolyline
 62
253
  6
CONTINUOUS
 90
19
 70
0
 10
-19.5047568999
 20
24.914605541
 10
-19.528080405
 20
24.9132275731
 10
-19.5510919123
 20
24.9091355301
 10
-19.573476521
 20
24.9023830137
 10
-19.5949362567
 20
24.8930556465
 10
-19.6151667163
 20
24.8812812826
 10
-19.6338669279
 20
24.867238342
 10
-19.6507690039
 20
24.8511433806
 10
-19.6656689148
 20
24.8332076496
 10
-19.6783924678
 20
24.8136410606
 10
-19.6887767212
 20
24.7926663979
 10
-19.6966471232
 20
24.7706020325
 10
-19.7018744984
 20
24.7478308107
 10
-19.7044084783
 20
24.7246693499
 10
-19.7042363392
 20
24.7014334112
 10
-19.7013964301
 20
24.6785160514
 10
-19.6959833026
 20
24.6562426349
 10
-19.6881137933
 20
24.6348674731
 10
-19.6779356006
 20
24.6146512325
  0
LWPOLYLINE
  5
459
100
AcDbEntity
  8
RACCORDO
100
AcDbPolyline
 62
253
  6
CONTINUOUS
 90
25
 70
0
 10
-21.5271666144
 20
23.686901129
 10
-21.6579956017
 20
23.6825957708
 10
-21.7882495272
 20
23.6697427431
 10
-21.9173707847
 20
23.6483999678
 10
-22.0448023196
 20
23.6186629517
 10
-22.1700039837
 20
23.5806611497
 10
-22.2924539519
 20
23.5345543789
 10
-22.4116324291
 20
23.4805379093
 10
-22.5270247861
 20
23.4188445454
 10
-22.6381370954
 20
23.3497383222
 10
-22.7444937426
 20
23.2735150676
 10
-22.8456395148
 20
23.1905010824
 10
-22.9411415172
 20
23.1010516501
 10
-23.030590948
 20
23.0055496461
 10
-23.1136049318
 20
22.9044038721
 10
-23.1898281856
 20
22.7980472235
 10
-23.2589344089
 20
22.6869349135
 10
-23.3206277734
 20
22.5715425562
 10
-23.3746442436
 20
22.4523640779
 10
-23.4207525507
 20
22.3299095833
 10
-23.4587552907
 20
22.2047032107
 10
-23.4884898327
 20
22.0772809019
 10
-23.5098288624
 20
21.9481880607
 10
-23.5226809377
 20
21.8179772207
 10
-23.5269909728
 20
21.6872057124
  0
LINE
  5
45A
100
AcDbEntity
  8
RACCORDO
100
AcDbLine
 62
253
  6
CONTINUOUS
 10
-16.8468750483
 20
24.714636002
 11
-19.5047568999
 21
24.714636002
  0
LINE
  5
45B
100
AcDbEntity
  8
RACCORDO
100
AcDbLine
 62
253
  6
CONTINUOUS
 10
-16.8468750483
 20
24.914605541
 11
-19.5047568999
 21
24.914605541
  0
LINE
  5
45C
100
AcDbEntity
  8
RACCORDO
100
AcDbLine
 62
7
  6
CONTINUOUS
 10
-19.8602589469
 20
24.9984507793
 11
-19.6499811124
 21
24.9984507793
  0
LINE
  5
45D
100
AcDbEntity
  8
RACCORDO
100
AcDbLine
 62
7
  6
CONTINUOUS
 10
-16.7016508357
 20
24.9984507793
 11
-16.4913730012
 21
24.9984507793
  0
LINE
  5
45E
100
AcDbEntity
  8
RACCORDO
100
AcDbLine
 62
7
  6
CONTINUOUS
 10
-19.8777140118
 20
25.0159058442
 11
-16.4739179363
 21
25.0159058442
  0
LWPOLYLINE
  5
45F
100
AcDbEntity
  8
RACCORDO
100
AcDbPolyline
 62
253
  6
CONTINUOUS
 90
3
 70
0
 10
13.5922137319
 20
23.7659660624
 10
13.5839205958
 20
23.7676178707
 10
13.5578243136
 20
23.7693359306
  0
LINE
  5
460
100
AcDbEntity
  8
RACCORDO
100
AcDbLine
 62
253
  6
CONTINUOUS
 10
23.1583717399
 20
13.0017015372
 11
23.1761205837
 21
12.9840941558
  0
LINE
  5
461
100
AcDbEntity
  8
RACCORDO
100
AcDbLine
 62
253
  6
CONTINUOUS
 10
25.1582085927
 20
15.0015393906
 11
25.1758159741
 21
14.9837895461
  0
CIRCLE
  5
462
100
AcDbEntity
  8
DRAFT
100
AcDbCircle
 62
7
  6
CONTINUOUS
 10
-3.6758159741
 20
-20.6642738961
 40
1.4738174026
  0
CIRCLE
  5
463
100
AcDbEntity
  8
DRAFT
100
AcDbCircle
 62
7
  6
CONTINUOUS
 10
20.8241840259
 20
16.8357261039
 40
1.4738174026
  0
ELLIPSE
  5
464
100
AcDbEntity
  8
RACCORDO
100
AcDbEllipse
 62
7
  6
CONTINUOUS
 10
14.3238793699
 20
21.8354214478
 30
0.0
 11
-1.4146443783
 21
-1.4146443783
 31
0.0
 40
0.9996954599
 41
8.6395320906
 42
10.2100238309
  0
ELLIPSE
  5
465
100
AcDbEntity
  8
RACCORDO
100
AcDbEllipse
 62
7
  6
CONTINUOUS
 10
16.5242144916
 20
-4.3643043617
 30
0.0
 11
0.1414644378
 21
-0.1414644378
 31
0.0
 40
0.9996954599
 41
2.3563467836
 42
3.9268385237
  0
ELLIPSE
  5
466
100
AcDbEntity
  8
RACCORDO
100
AcDbEllipse
 62
7
  6
CONTINUOUS
 10
14.3238793699
 20
-14.16396924
 30
0.0
 11
-1.4146443783
 21
1.4146443783
 31
0.0
 40
0.9996954599
 41
8.6395320906
 42
10.2100238309
  0
ELLIPSE
  5
467
100
AcDbEntity
  8
RACCORDO
100
AcDbEllipse
 62
7
  6
CONTINUOUS
 10
-23.8758464397
 20
12.0357565695
 30
0.0
 11
-0.1414644378
 21
0.1414644378
 31
0.0
 40
0.9996954599
 41
-3.9268385236
 42
-2.3563467834
  0
ELLIPSE
  5
468
100
AcDbEntity
  8
RACCORDO
100
AcDbEllipse
 62
7
  6
CONTINUOUS
 10
3.7241687931
 20
-16.0642586633
 30
0.0
 11
0.2227100583
 21
0.0525603851
 31
0.0
 40
0.3820700798
 41
-2.1241269924
 42
-1.52437555
  0
ELLIPSE
  5
469
100
AcDbEntity
  8
RACCORDO
100
AcDbEllipse
 62
7
  6
CONTINUOUS
 10
-23.8758464397
 20
-4.3643043617
 30
0.0
 11
0.1414644378
 21
0.1414644378
 31
0.0
 40
0.9996954599
 41
-0.7852458701
 42
0.78524587
  0
ELLIPSE
  5
46A
100
AcDbEntity
  8
RACCORDO
100
AcDbEllipse
 62
7
  6
CONTINUOUS
 10
16.5242144916
 20
12.0357565695
 30
0.0
 11
0.1414644378
 21
0.1414644378
 31
0.0
 40
0.9996954599
 41
-3.9268385237
 42
-2.3563467836
  0
ELLIPSE
  5
46B
100
AcDbEntity
  8
RACCORDO
100
AcDbEllipse
 62
7
  6
CONTINUOUS
 10
17.7369087013
 20
-0.5769224074
 30
0.0
 11
0.0
 21
0.5
 31
0.0
 40
0.0174550649
 41
-4.7123889804
 42
-3.1590459461
  0
ELLIPSE
  5
46C
100
AcDbEntity
  8
RACCORDO
100
AcDbEllipse
 62
7
  6
CONTINUOUS
 10
16.4114593506
 20
-0.5769224074
 30
0.0
 11
-0.0
 21
0.5
 31
0.0
 40
0.0174550649
 41
-3.1241393611
 42
-1.5707963268
  0
ELLIPSE
  5
46D
100
AcDbEntity
  8
RACCORDO
100
AcDbEllipse
 62
7
  6
CONTINUOUS
 10
16.4114593506
 20
8.2483746152
 30
0.0
 11
0.0
 21
0.5
 31
0.0
 40
0.0174550649
 41
-1.5707963268
 42
-0.0174532925
  0
ELLIPSE
  5
46E
100
AcDbEntity
  8
RACCORDO
100
AcDbEllipse
 62
7
  6
CONTINUOUS
 10
17.7369087013
 20
8.2483746152
 30
0.0
 11
0.0
 21
0.5
 31
0.0
 40
0.0174550649
 41
0.0174532925
 42
1.5707963268
  0
ELLIPSE
  5
46F
100
AcDbEntity
  8
RACCORDO
100
AcDbEllipse
 62
7
  6
CONTINUOUS
 10
-25.0885406494
 20
8.2483746152
 30
0.0
 11
-0.0
 21
0.5
 31
0.0
 40
0.0174550649
 41
-1.5707963268
 42
-0.0174532925
  0
ELLIPSE
  5
470
100
AcDbEntity
  8
RACCORDO
100
AcDbEllipse
 62
7
  6
CONTINUOUS
 10
-23.7630912987
 20
8.2483746152
 30
0.0
 11
-0.0
 21
0.5
 31
0.0
 40
0.0174550649
 41
0.0174532925
 42
1.5707963268
  0
ELLIPSE
  5
471
100
AcDbEntity
  8
RACCORDO
100
AcDbEllipse
 62
7
  6
CONTINUOUS
 10
-23.7630912987
 20
-0.5769224074
 30
0.0
 11
0.0
 21
0.5
 31
0.0
 40
0.0174550649
 41
-4.7123889804
 42
-3.1590459461
  0
ELLIPSE
  5
472
100
AcDbEntity
  8
RACCORDO
100
AcDbEllipse
 62
7
  6
CONTINUOUS
 10
-25.0885406494
 20
-0.5769224074
 30
0.0
 11
0.0
 21
0.5
 31
0.0
 40
0.0174550649
 41
-3.1241393611
 42
-1.5707963268
  0
ELLIPSE
  5
473
100
AcDbEntity
  8
RACCORDO
100
AcDbEllipse
 62
7
  6
CONTINUOUS
 10
16.5242144916
 20
11.6356956383
 30
0.0
 11
-0.1414644378
 21
0.1414644378
 31
0.0
 40
0.9996954599
 41
-0.78524587
 42
0.7852458702
  0
ELLIPSE
  5
474
100
AcDbEntity
  8
RACCORDO
100
AcDbEllipse
 62
7
  6
CONTINUOUS
 10
3.6416086253
 20
-15.9816984954
 30
0.0
 11
0.1414644378
 21
-0.1414644378
 31
0.0
 40
0.9996954599
 41
-0.1854944278
 42
0.1856907321
  0
ELLIPSE
  5
475
100
AcDbEntity
  8
RACCORDO
100
AcDbEllipse
 62
7
  6
CONTINUOUS
 10
-20.9757855084
 20
-15.9642434305
 30
0.0
 11
0.1414644378
 21
0.1414644378
 31
0.0
 40
0.9996954599
 41
-3.1415926536
 42
-2.3563467936
  0
ELLIPSE
  5
476
100
AcDbEntity
  8
RACCORDO
100
AcDbEllipse
 62
7
  6
CONTINUOUS
 10
-20.9757855084
 20
23.6356956383
 30
0.0
 11
-0.1414644378
 21
0.1414644378
 31
0.0
 40
0.9996954599
 41
-0.2624912729
 42
0.0000000001
  0
ELLIPSE
  5
477
100
AcDbEntity
  8
RACCORDO
100
AcDbEllipse
 62
7
  6
CONTINUOUS
 10
-20.9757855084
 20
23.6356956383
 30
0.0
 11
0.1414644378
 21
-0.1414644378
 31
0.0
 40
0.9996954599
 41
2.3563467928
 42
2.8791013806
  0
ELLIPSE
  5
478
100
AcDbEntity
  8
RACCORDO
100
AcDbEllipse
 62
7
  6
CONTINUOUS
 10
13.6241535603
 20
23.6356956383
 30
0.0
 11
0.1414644378
 21
0.1414644378
 31
0.0
 40
0.9996954599
 41
-0.0
 42
0.78524586
  0
ELLIPSE
  5
479
100
AcDbEntity
  8
RACCORDO
100
AcDbEllipse
 62
7
  6
CONTINUOUS
 10
-23.8758464397
 20
-3.9642434305
 30
0.0
 11
0.1414644378
 21
-0.1414644378
 31
0.0
 40
0.9996954599
 41
-0.78524587
 42
0.7852458701
  0
ELLIPSE
  5
47A
100
AcDbEntity
  8
RACCORDO
100
AcDbEllipse
 62
7
  6
CONTINUOUS
 10
-23.8758464397
 20
11.6356956383
 30
0.0
 11
0.1414644378
 21
0.1414644378
 31
0.0
 40
0.9996954599
 41
-0.7852458702
 42
0.78524587
  0
ELLIPSE
  5
47B
100
AcDbEntity
  8
RACCORDO
100
AcDbEllipse
 62
7
  6
CONTINUOUS
 10
16.5242144916
 20
-3.9642434305
 30
0.0
 11
0.1414644378
 21
0.1414644378
 31
0.0
 40
0.9996954599
 41
-3.9268385237
 42
-2.3563467836
  0
ELLIPSE
  5
47C
100
AcDbEntity
  8
RACCORDO
100
AcDbEllipse
 62
7
  6
CONTINUOUS
 10
14.3238793699
 20
21.8354214478
 30
0.0
 11
1.4146443783
 21
1.4146443783
 31
0.0
 40
0.9996954599
 41
-0.7852458701
 42
0.7852458702
  0
ELLIPSE
  5
47D
100
AcDbEntity
  8
RACCORDO
100
AcDbEllipse
 62
7
  6
CONTINUOUS
 10
14.3238793699
 20
-14.16396924
 30
0.0
 11
1.4146443783
 21
-1.4146443783
 31
0.0
 40
0.9996954599
 41
-0.7852458701
 42
0.7852458702
  0
ELLIPSE
  5
47E
100
AcDbEntity
  8
RACCORDO
100
AcDbEllipse
 62
7
  6
CONTINUOUS
 10
-21.675511318
 20
-14.16396924
 30
0.0
 11
1.4146443783
 21
1.4146443783
 31
0.0
 40
0.9996954599
 41
-3.9268385237
 42
-2.3563467834
  0
ELLIPSE
  5
47F
100
AcDbEntity
  8
RACCORDO
100
AcDbEllipse
 62
7
  6
CONTINUOUS
 10
-21.675511318
 20
21.8354214478
 30
0.0
 11
1.4146443783
 21
-1.4146443783
 31
0.0
 40
0.9996954599
 41
2.3563467834
 42
3.9268385237
  0
ELLIPSE
  5
480
100
AcDbEntity
  8
RACCORDO
100
AcDbEllipse
 62
7
  6
CONTINUOUS
 10
13.5578243136
 20
23.7693968572
 30
0.0
 11
0.2
 21
-0.0
 31
0.0
 40
0.0174550649
 41
-1.5707963268
 42
-0.0174532925
  0
ELLIPSE
  5
481
100
AcDbEntity
  8
RACCORDO
100
AcDbEllipse
 62
7
  6
CONTINUOUS
 10
-20.9094562617
 20
-16.0979446494
 30
0.0
 11
0.2
 21
0.0
 31
0.0
 40
0.0174550649
 41
1.5707963268
 42
3.1241393611
  0
ELLIPSE
  5
482
100
AcDbEntity
  8
RACCORDO
100
AcDbEllipse
 62
7
  6
CONTINUOUS
 10
-20.9094562617
 20
23.7693968572
 30
0.0
 11
0.2
 21
-0.0
 31
0.0
 40
0.0174550649
 41
-3.1241393611
 42
-1.5707963268
  0
ELLIPSE
  5
483
100
AcDbEntity
  8
RACCORDO
100
AcDbEllipse
 62
7
  6
CONTINUOUS
 10
13.5578243136
 20
-16.0979446494
 30
0.0
 11
0.2
 21
0.0
 31
0.0
 40
0.0174550649
 41
0.0174532925
 42
1.5707963268
  0
ELLIPSE
  5
484
100
AcDbEntity
  8
RACCORDO
100
AcDbEllipse
 62
7
  6
CONTINUOUS
 10
-19.8776530852
 20
24.8158753786
 30
0.0
 11
0.1414644378
 21
-0.1414644378
 31
0.0
 40
0.9996954599
 41
2.3563467834
 42
3.9268385237
  0
ELLIPSE
  5
485
100
AcDbEntity
  8
RACCORDO
100
AcDbEllipse
 62
7
  6
CONTINUOUS
 10
-16.4739788629
 20
24.8158753786
 30
0.0
 11
0.1414644378
 21
0.1414644378
 31
0.0
 40
0.9996954599
 41
-0.7852458702
 42
0.7852458701
  0
ELLIPSE
  5
486
100
AcDbEntity
  8
RACCORDO
100
AcDbEllipse
 62
7
  6
CONTINUOUS
 10
-16.4739788629
 20
-17.1444231708
 30
0.0
 11
-0.1414644378
 21
0.1414644378
 31
0.0
 40
0.9996954599
 41
-3.9268385237
 42
-2.3563467834
  0
ELLIPSE
  5
487
100
AcDbEntity
  8
RACCORDO
100
AcDbEllipse
 62
7
  6
CONTINUOUS
 10
-19.8776530852
 20
-17.1444231708
 30
0.0
 11
0.1414644378
 21
0.1414644378
 31
0.0
 40
0.9996954599
 41
-3.9268385237
 42
-2.3563467834
  0
ELLIPSE
  5
488
100
AcDbEntity
  8
RACCORDO
100
AcDbEllipse
 62
7
  6
CONTINUOUS
 10
-21.5360992906
 20
1.2641603377
 30
0.0
 11
0.5
 21
-0.0
 31
0.0
 40
0.0174550649
 41
-3.1241393611
 42
-1.5707963268
  0
ELLIPSE
  5
489
100
AcDbEntity
  8
RACCORDO
100
AcDbEllipse
 62
7
  6
CONTINUOUS
 10
14.1844673425
 20
1.2641603377
 30
0.0
 11
0.5
 21
-0.0
 31
0.0
 40
0.0174550649
 41
-1.5707963268
 42
-0.0174532925
  0
ELLIPSE
  5
48A
100
AcDbEntity
  8
RACCORDO
100
AcDbEllipse
 62
7
  6
CONTINUOUS
 10
-21.5360992906
 20
6.4072918701
 30
0.0
 11
0.5
 21
-0.0
 31
0.0
 40
0.0174550649
 41
1.5707963268
 42
3.1241393611
  0
ELLIPSE
  5
48B
100
AcDbEntity
  8
RACCORDO
100
AcDbEllipse
 62
7
  6
CONTINUOUS
 10
14.1844673425
 20
6.4072918701
 30
0.0
 11
0.5
 21
-0.0
 31
0.0
 40
0.0174550649
 41
0.0174532925
 42
1.5707963268
  0
ELLIPSE
  5
48C
100
AcDbEntity
  8
RACCORDO
100
AcDbEllipse
 62
7
  6
CONTINUOUS
 10
23.175511318
 20
18.6870533959
 30
0.0
 11
1.4146443783
 21
1.4146443783
 31
0.0
 40
0.9996954599
 41
-0.7852458701
 42
0.7852458702
  0
ELLIPSE
  5
48D
100
AcDbEntity
  8
RACCORDO
100
AcDbEllipse
 62
7
  6
CONTINUOUS
 10
23.175511318
 20
14.9843988119
 30
0.0
 11
-1.4146443783
 21
1.4146443783
 31
0.0
 40
0.9996954599
 41
-3.9268385237
 42
-2.3563467834
  0
ELLIPSE
  5
48E
100
AcDbEntity
  8
RACCORDO
100
AcDbEllipse
 62
7
  6
CONTINUOUS
 10
-5.5271432661
 20
-23.0156011881
 30
0.0
 11
1.4146443783
 21
1.4146443783
 31
0.0
 40
0.9996954599
 41
-3.9268385237
 42
-2.3563467834
  0
ELLIPSE
  5
48F
100
AcDbEntity
  8
RACCORDO
100
AcDbEllipse
 62
7
  6
CONTINUOUS
 10
-1.824488682
 20
-23.0156011881
 30
0.0
 11
1.4146443783
 21
-1.4146443783
 31
0.0
 40
0.9996954599
 41
-0.7852458702
 42
0.7852458701
  0
ELLIPSE
  5
490
100
AcDbEntity
  8
RACCORDO
100
AcDbEllipse
 62
7
  6
CONTINUOUS
 10
-19.6498755845
 20
24.7984203137
 30
0.0
 11
0.1733105926
 21
-0.1000609173
 31
0.0
 40
0.9993911978
 41
2.0946588419
 42
4.1885264653
  0
ELLIPSE
  5
491
100
AcDbEntity
  8
RACCORDO
100
AcDbEllipse
 62
7
  6
CONTINUOUS
 10
-16.7017563636
 20
-17.1269681058
 30
0.0
 11
0.1733105926
 21
-0.1000609173
 31
0.0
 40
0.9993911978
 41
-1.0469338117
 42
1.0469338117
  0
ELLIPSE
  5
492
100
AcDbEntity
  8
RACCORDO
100
AcDbEllipse
 62
7
  6
CONTINUOUS
 10
-19.6498755845
 20
-17.1269681058
 30
0.0
 11
0.1733105926
 21
0.1000609173
 31
0.0
 40
0.9993911978
 41
2.0946588419
 42
4.1885264653
  0
ELLIPSE
  5
493
100
AcDbEntity
  8
RACCORDO
100
AcDbEllipse
 62
7
  6
CONTINUOUS
 10
13.6017361161
 20
21.1132781941
 30
0.0
 11
0.3643800228
 21
0.3643800228
 31
0.0
 40
0.9702875252
 41
-0.7703190329
 42
0.7703190329
  0
ELLIPSE
  5
494
100
AcDbEntity
  8
RACCORDO
100
AcDbEllipse
 62
7
  6
CONTINUOUS
 10
-20.9533680643
 20
21.1132781941
 30
0.0
 11
0.3643800228
 21
-0.3643800228
 31
0.0
 40
0.9702875252
 41
2.3712736207
 42
3.9119116865
  0
ELLIPSE
  5
495
100
AcDbEntity
  8
RACCORDO
100
AcDbEllipse
 62
7
  6
CONTINUOUS
 10
-20.9533680643
 20
-13.4418259863
 30
0.0
 11
0.3643800228
 21
0.3643800228
 31
0.0
 40
0.9702875252
 41
-3.9119116865
 42
-2.3712736207
  0
ELLIPSE
  5
496
100
AcDbEntity
  8
RACCORDO
100
AcDbEllipse
 62
7
  6
CONTINUOUS
 10
13.6017361161
 20
-13.4418259863
 30
0.0
 11
0.3643800228
 21
-0.3643800228
 31
0.0
 40
0.9702875252
 41
-0.7703190329
 42
0.7703190329
  0
ELLIPSE
  5
497
100
AcDbEntity
  8
RACCORDO
100
AcDbEllipse
 62
7
  6
CONTINUOUS
 10
16.2334176883
 20
-0.52346186
 30
0.0
 11
0.0
 21
0.3
 31
0.0
 40
0.0174550649
 41
-4.7123889804
 42
-3.1590459461
  0
ELLIPSE
  5
498
100
AcDbEntity
  8
RACCORDO
100
AcDbEllipse
 62
7
  6
CONTINUOUS
 10
-16.7017563636
 20
24.7984203137
 30
0.0
 11
0.1733105926
 21
0.1000609173
 31
0.0
 40
0.9993911978
 41
-1.0469338117
 42
1.0469338117
  0
ELLIPSE
  5
499
100
AcDbEntity
  8
RACCORDO
100
AcDbEllipse
 62
7
  6
CONTINUOUS
 10
16.2334176883
 20
8.1949140679
 30
0.0
 11
-0.0
 21
0.3
 31
0.0
 40
0.0174550649
 41
0.0174532925
 42
1.5707963268
  0
ELLIPSE
  5
49A
100
AcDbEntity
  8
RACCORDO
100
AcDbEllipse
 62
7
  6
CONTINUOUS
 10
-23.5850496364
 20
8.1949140679
 30
0.0
 11
0.0
 21
0.3
 31
0.0
 40
0.0174550649
 41
-1.5707963268
 42
-0.0174532925
  0
ELLIPSE
  5
49B
100
AcDbEntity
  8
RACCORDO
100
AcDbEllipse
 62
7
  6
CONTINUOUS
 10
-23.5850496364
 20
-0.52346186
 30
0.0
 11
0.0
 21
0.3
 31
0.0
 40
0.0174550649
 41
-3.1241393611
 42
-1.5707963268
  0
ELLIPSE
  5
49C
100
AcDbEntity
  8
RACCORDO
100
AcDbEllipse
 62
7
  6
CONTINUOUS
 10
14.675587482
 20
20.687358052
 30
0.0
 11
1.5
 21
-0.0
 31
0.0
 40
0.0174550649
 41
-0.7375601251
 42
-0.0174532925
  0
ELLIPSE
  5
49D
100
AcDbEntity
  8
RACCORDO
100
AcDbEllipse
 62
7
  6
CONTINUOUS
 10
-7.5274479222
 20
-14.5156773521
 30
0.0
 11
-0.0
 21
1.5
 31
0.0
 40
0.0174550649
 41
-3.1241393611
 42
-2.4040325285
  0
ELLIPSE
  5
49E
100
AcDbEntity
  8
RACCORDO
100
AcDbEllipse
 62
7
  6
CONTINUOUS
 10
14.675587482
 20
12.9840941558
 30
0.0
 11
1.5
 21
0.0
 31
0.0
 40
0.0174550649
 41
0.0174532925
 42
0.7375601251
  0
ELLIPSE
  5
49F
100
AcDbEntity
  8
RACCORDO
100
AcDbEllipse
 62
7
  6
CONTINUOUS
 10
0.1758159741
 20
-14.5156773521
 30
0.0
 11
-0.0
 21
1.5
 31
0.0
 40
0.0174550649
 41
-3.8791527787
 42
-3.1590459461
  0
ELLIPSE
  5
4A0
100
AcDbEntity
  8
RACCORDO
100
AcDbEllipse
 62
7
  6
CONTINUOUS
 10
-22.0272194301
 20
6.4160194026
 30
0.0
 11
1.5
 21
0.0
 31
0.0
 40
0.0174550649
 41
1.5707963268
 42
1.695649704
  0
ELLIPSE
  5
4A1
100
AcDbEntity
  8
RACCORDO
100
AcDbEllipse
 62
7
  6
CONTINUOUS
 10
14.675587482
 20
6.4160194026
 30
0.0
 11
1.5
 21
-0.0
 31
0.0
 40
0.0174550649
 41
1.4459429496
 42
1.5707963268
  0
ELLIPSE
  5
4A2
100
AcDbEntity
  8
RACCORDO
100
AcDbEllipse
 62
7
  6
CONTINUOUS
 10
-22.0272194301
 20
1.2554328052
 30
0.0
 11
1.5
 21
0.0
 31
0.0
 40
0.0174550649
 41
-1.695649704
 42
-1.5707963268
  0
ELLIPSE
  5
4A3
100
AcDbEntity
  8
RACCORDO
100
AcDbEllipse
 62
7
  6
CONTINUOUS
 10
14.675587482
 20
1.2554328052
 30
0.0
 11
1.5
 21
0.0
 31
0.0
 40
0.0174550649
 41
-1.5707963268
 42
-1.4459429496
  0
ELLIPSE
  5
4A4
100
AcDbEntity
  8
RACCORDO
100
AcDbEllipse
 62
7
  6
CONTINUOUS
 10
13.56647072
 20
-13.4065605901
 30
0.0
 11
-0.3643800228
 21
0.3643800228
 31
0.0
 40
0.9702875252
 41
2.3712736207
 42
3.9119116865
  0
ELLIPSE
  5
4A5
100
AcDbEntity
  8
RACCORDO
100
AcDbEllipse
 62
7
  6
CONTINUOUS
 10
-20.9181026681
 20
-13.4065605901
 30
0.0
 11
0.3643800228
 21
0.3643800228
 31
0.0
 40
0.9702875252
 41
2.3712736207
 42
3.9119116865
  0
ELLIPSE
  5
4A6
100
AcDbEntity
  8
RACCORDO
100
AcDbEllipse
 62
7
  6
CONTINUOUS
 10
-20.9181026681
 20
21.078012798
 30
0.0
 11
0.3643800228
 21
-0.3643800228
 31
0.0
 40
0.9702875252
 41
2.3712736207
 42
3.9119116865
  0
ELLIPSE
  5
4A7
100
AcDbEntity
  8
RACCORDO
100
AcDbEllipse
 62
7
  6
CONTINUOUS
 10
13.56647072
 20
21.078012798
 30
0.0
 11
-0.3643800228
 21
-0.3643800228
 31
0.0
 40
0.9702875252
 41
2.3712736207
 42
3.9119116865
  0
ELLIPSE
  5
4A8
100
AcDbEntity
  8
RACCORDO
100
AcDbEllipse
 62
7
  6
CONTINUOUS
 10
-19.8601980203
 20
24.7984203137
 30
0.0
 11
0.1414644378
 21
-0.1414644378
 31
0.0
 40
0.9996954599
 41
2.3563467834
 42
3.9268385237
  0
ELLIPSE
  5
4A9
100
AcDbEntity
  8
RACCORDO
100
AcDbEllipse
 62
7
  6
CONTINUOUS
 10
-19.621113607
 20
23.9484812449
 30
0.0
 11
-0.1733105926
 21
0.1000609173
 31
0.0
 40
0.9993911978
 41
2.0946588419
 42
4.1885264653
  0
ELLIPSE
  5
4AA
100
AcDbEntity
  8
RACCORDO
100
AcDbEllipse
 62
7
  6
CONTINUOUS
 10
-16.4914339278
 20
-17.1269681058
 30
0.0
 11
-0.1414644378
 21
0.1414644378
 31
0.0
 40
0.9996954599
 41
-3.9268385237
 42
-2.3563467834
  0
ELLIPSE
  5
4AB
100
AcDbEntity
  8
RACCORDO
100
AcDbEllipse
 62
7
  6
CONTINUOUS
 10
-16.7305183411
 20
-16.2770290371
 30
0.0
 11
0.1733105926
 21
-0.1000609173
 31
0.0
 40
0.9993911978
 41
2.0946588419
 42
4.1885264653
  0
ELLIPSE
  5
4AC
100
AcDbEntity
  8
RACCORDO
100
AcDbEllipse
 62
7
  6
CONTINUOUS
 10
-19.8601980203
 20
-17.1269681058
 30
0.0
 11
0.1414644378
 21
0.1414644378
 31
0.0
 40
0.9996954599
 41
-3.9268385237
 42
-2.3563467834
  0
ELLIPSE
  5
4AD
100
AcDbEntity
  8
RACCORDO
100
AcDbEllipse
 62
7
  6
CONTINUOUS
 10
-19.621113607
 20
-16.2770290371
 30
0.0
 11
0.1733105926
 21
0.1000609173
 31
0.0
 40
0.9993911978
 41
-1.0469338117
 42
1.0469338117
  0
ELLIPSE
  5
4AE
100
AcDbEntity
  8
RACCORDO
100
AcDbEllipse
 62
7
  6
CONTINUOUS
 10
-16.4914339278
 20
24.7984203137
 30
0.0
 11
0.1414644378
 21
0.1414644378
 31
0.0
 40
0.9996954599
 41
-0.7852458701
 42
0.7852458702
  0
ELLIPSE
  5
4AF
100
AcDbEntity
  8
RACCORDO
100
AcDbEllipse
 62
7
  6
CONTINUOUS
 10
-16.7305183411
 20
23.9484812449
 30
0.0
 11
-0.1733105926
 21
-0.1000609173
 31
0.0
 40
0.9993911978
 41
-1.0469338117
 42
1.0469338117
  0
ENDSEC
  0
SECTION
  2
OBJECTS
  0
DICTIONARY
  5
C
100
AcDbDictionary
280
0
281
1
  3
ACAD_GROUP
350
D
  3
ACAD_MLINESTYLE
350
17
  3
ACAD_LAYOUT
350
1A
  3
ACAD_PLOTSETTINGS
350
19
  3
ACAD_PLOTSTYLENAME
350
E
  0
DICTIONARY
  5
D
102
{ACAD_REACTORS
330
C
102
}
100
AcDbDictionary
280
0
281
1
  0
ACDBDICTIONARYWDFLT
  5
E
102
{ACAD_REACTORS
330
C
102
}
100
AcDbDictionary
281
1
  3
Normal
350
F
100
AcDbDictionaryWithDefault
340
F
  0
DICTIONARY
  5
17
102
{ACAD_REACTORS
330
C
102
}
100
AcDbDictionary
280
0
281
1
  3
Standard
350
18
  0
DICTIONARY
  5
19
102
{ACAD_REACTORS
330
C
102
}
100
AcDbDictionary
281
1
  0
DICTIONARY
  5
1A
102
{ACAD_REACTORS
330
C
102
}
100
AcDbDictionary
281
1
  3
Model
350
4B0
  3
Layout1
350
4B1
  0
ACDBPLACEHOLDER
  5
F
102
{ACAD_REACTORS
330
E
102
}
  0
MLINESTYLE
  5
18
102
{ACAD_REACTORS
330
17
102
}
100
AcDbMlineStyle
  2
STANDARD
 70
0
  3

 62
256
 51
90.0
 52
90.0
 71
2
 49
0.5
 62
256
  6
BYLAYER
 49
-0.5
 62
256
  6
BYLAYER
  0
LAYOUT
  5
4B0
102
{ACAD_REACTORS
330
1A
102
}
100
AcDbPlotSettings
  1

  2
none_device
  4
ISO_A4_(297.00_x_210.00_MM)
  6

 40
0.0
 41
0.0
 42
0.0
 43
0.0
 44
297.0
 45
210.0
 46
0.0
 47
0.0
 48
0.0
 49
0.0
140
0.0
141
0.0
142
1.0
143
1.0
 70
1024
 72
1
 73
0
 74
0
  7

 75
0
147
1.0
148
0.0
149
0.0
100
AcDbLayout
  1
Model
 70
0
 71
0
 10
0.0
 20
0.0
 11
297.0
 21
210.0
 12
0.0
 22
0.0
 32
0.0
 14
0.0
 24
0.0
 34
0.0
 15
0.0
 25
0.0
 35
0.0
146
0.0
 13
0.0
 23
0.0
 33
0.0
 16
1.0
 26
0.0
 36
0.0
 17
0.0
 27
1.0
 37
0.0
 76
0
330
235
345
0
346
0
  0
LAYOUT
  5
4B1
102
{ACAD_REACTORS
330
1A
102
}
100
AcDbPlotSettings
  1

  2
none_device
  4
ISO_A4_(297.00_x_210.00_MM)
  6

 40
0.0
 41
0.0
 42
0.0
 43
0.0
 44
297.0
 45
210.0
 46
0.0
 47
0.0
 48
0.0
 49
0.0
140
0.0
141
0.0
142
1.0
143
1.0
 70
0
 72
1
 73
0
 74
0
  7

 75
0
147
1.0
148
0.0
149
0.0
100
AcDbLayout
  1
Layout1
 70
0
 71
1
 10
0.0
 20
0.0
 11
297.0
 21
210.0
 12
0.0
 22
0.0
 32
0.0
 14
0.0
 24
0.0
 34
0.0
 15
0.0
 25
0.0
 35
0.0
146
0.0
 13
0.0
 23
0.0
 33
0.0
 16
1.0
 26
0.0
 36
0.0
 17
0.0
 27
1.0
 37
0.0
 76
0
330
236
345
0
346
0
  0
ENDSEC
  0
EOF
