  0
SECTION
  2
HEADER
  9
$ACADVER
  1
AC1015
  9
$DWGCODEPAGE
  3
ANSI_1252
  9
$EXTMAX
 10
297.0
 20
210.0
 30
0.0
  9
$EXTMIN
 10
0.0
 20
0.0
 30
0.0
  9
$LIMMIN
 10
0.0
 20
0.0
  9
$LIMMAX
 10
297.0
 20
210.0
  9
$VIEWCTR
 10
148.5
 20
105.0
  9
$VIEWSIZE
 40
210.0
  9
$CLAYER
  8
0
  9
$LTSCALE
 40
16.335
  9
$CELTYPE
  6
BYLAYER
  9
$DIMSCALE
 40
1.0
  9
$DIMASZ
 40
3.0
  9
$DIMEXO
 40
0.5
  9
$DIMDLI
 40
11.286
  9
$DIMEXE
 40
1.5
  9
$DIMCEN
 40
2.673
  9
$DIMLFAC
 40
1.0
  9
$DIMBLK
  1
_FILLED
  9
$DIMTXT
 40
3.0
  9
$DIMTOL
 70
1
  9
$DIMLIM
 70
0
  9
$DIMTFAC
 40
1.0
  9
$DIMTP
 40
0.01
  9
$DIMTM
 40
0.01
  9
$DIMGAP
 40
0.625
  9
$DIMDSEP
 70
44
  9
$PDMODE
 70
3
  9
$PDSIZE
 40
3.0
  9
$HANDSEED
  5
4B8
  9
$TILEMODE
 70
1
  9
$MEASUREMENT
 70
1
  9
$INSUNITS
 70
4
  0
ENDSEC
  0
SECTION
  2
CLASSES
  0
CLASS
  1
ACDBDICTIONARYWDFLT
  2
AcDbDictionaryWithDefault
  3
AutoCAD 2000
 90
0
280
0
281
0
  0
CLASS
  1
ACDBPLACEHOLDER
  2
AcDbPlaceHolder
  3
AutoCAD 2000
 90
0
280
0
281
0
  0
CLASS
  1
LAYOUT
  2
AcDbLayout
  3
AutoCAD 2000
 90
0
280
0
281
0
  0
ENDSEC
  0
SECTION
  2
TABLES
  0
TABLE
  2
VPORT
  5
8
100
AcDbSymbolTable
 70
2
  0
VPORT
  5
1F4
100
AcDbSymbolTableRecord
100
AcDbViewportTableRecord
  2
*ACTIVE
 70
0
 10
0.0
 20
0.0
 11
1.0
 21
1.0
 12
148.5
 22
105.0
 13
0.0
 23
0.0
 14
1.0
 24
1.0
 15
0.0
 25
0.0
 16
0.0
 26
0.0
 36
1.0
 17
0.0
 27
0.0
 37
0.0
 40
210.0
 41
1.4142857143
 42
50.0
 43
0.0
 44
0.0
 50
0.0
 51
0.0
 71
0
 72
100
 73
1
 74
1
 75
0
 76
0
 77
0
 78
0
  0
ENDTAB
  0
TABLE
  2
LTYPE
  5
5
100
AcDbSymbolTable
 70
6
  0
LTYPE
  5
14
100
AcDbSymbolTableRecord
100
AcDbLinetypeTableRecord
  2
BYBLOCK
 70
0
  3

 72
65
 73
0
 40
0.0
  0
LTYPE
  5
15
100
AcDbSymbolTableRecord
100
AcDbLinetypeTableRecord
  2
BYLAYER
 70
0
  3

 72
65
 73
0
 40
0.0
  0
LTYPE
  5
16
100
AcDbSymbolTableRecord
100
AcDbLinetypeTableRecord
  2
CONTINUOUS
 70
64
  3
Solid line
 72
65
 73
0
 40
0.0
  0
LTYPE
  5
1F5
100
AcDbSymbolTableRecord
100
AcDbLinetypeTableRecord
  2
CENTER
 70
64
  3
____ _ ____ _ ____ _ ____ _ ____ _ ____ _ ____
 72
65
 73
4
 40
0.6
 49
0.375
 74
0
 49
-0.075
 74
0
 49
0.075
 74
0
 49
-0.075
 74
0
  0
LTYPE
  5
1F6
100
AcDbSymbolTableRecord
100
AcDbLinetypeTableRecord
  2
HIDDEN
 70
64
  3
- - - - - - - - - - - - - - - - - - - -
 72
65
 73
2
 40
0.2
 49
0.1
 74
0
 49
-0.1
 74
0
  0
LTYPE
  5
1F7
100
AcDbSymbolTableRecord
100
AcDbLinetypeTableRecord
  2
PHANTOM
 70
64
  3
_____ _ _ _____ _ _ _____ _ _ _____
 72
65
 73
6
 40
0.8
 49
0.45
 74
0
 49
-0.05
 74
0
 49
0.1
 74
0
 49
-0.05
 74
0
 49
0.1
 74
0
 49
-0.05
 74
0
  0
LTYPE
  5
1F8
100
AcDbSymbolTableRecord
100
AcDbLinetypeTableRecord
  2
DOT
 70
64
  3
. . . . . . . . . . . . . . . . . . . .
 72
65
 73
2
 40
0.2
 49
0.1
 74
0
 49
-0.1
 74
0
  0
LTYPE
  5
1F9
100
AcDbSymbolTableRecord
100
AcDbLinetypeTableRecord
  2
DASHED
 70
64
  3
- - - - - - - - - - - - - - - - - - - -
 72
65
 73
2
 40
0.2
 49
0.1
 74
0
 49
-0.1
 74
0
  0
ENDTAB
  0
TABLE
  2
LAYER
  5
2
100
AcDbSymbolTable
 70
36
  0
LAYER
  5
10
100
AcDbSymbolTableRecord
100
AcDbLayerTableRecord
  2
0
 70
0
 62
7
  6
CONTINUOUS
370
-3
390
F
  0
LAYER
  5
1FA
100
AcDbSymbolTableRecord
100
AcDbLayerTableRecord
  2
DEFAULT_1
 70
0
 62
7
  6
CENTER
370
-3
390
F
  0
LAYER
  5
1FB
100
AcDbSymbolTableRecord
100
AcDbLayerTableRecord
  2
DEFAULT_2
 70
0
 62
7
  6
HIDDEN
370
-3
390
F
  0
LAYER
  5
1FC
100
AcDbSymbolTableRecord
100
AcDbLayerTableRecord
  2
DEFAULT_3
 70
0
 62
7
  6
PHANTOM
370
-3
390
F
  0
LAYER
  5
1FD
100
AcDbSymbolTableRecord
100
AcDbLayerTableRecord
  2
ASSI
 70
0
 62
7
  6
CONTINUOUS
370
-3
390
F
  0
LAYER
  5
1FE
100
AcDbSymbolTableRecord
100
AcDbLayerTableRecord
  2
COLOR1
 70
0
 62
7
  6
CONTINUOUS
370
-3
390
F
  0
LAYER
  5
1FF
100
AcDbSymbolTableRecord
100
AcDbLayerTableRecord
  2
COLOR14
 70
0
 62
7
  6
CONTINUOUS
370
-3
390
F
  0
LAYER
  5
200
100
AcDbSymbolTableRecord
100
AcDbLayerTableRecord
  2
COLOR5
 70
0
 62
7
  6
CONTINUOUS
370
-3
390
F
  0
LAYER
  5
201
100
AcDbSymbolTableRecord
100
AcDbLayerTableRecord
  2
COORDINATE
 70
0
 62
7
  6
CONTINUOUS
370
-3
390
F
  0
LAYER
  5
202
100
AcDbSymbolTableRecord
100
AcDbLayerTableRecord
  2
COORD_ORIGINE
 70
0
 62
7
  6
CONTINUOUS
370
-3
390
F
  0
LAYER
  5
203
100
AcDbSymbolTableRecord
100
AcDbLayerTableRecord
  2
COPY_PUBLISH
 70
0
 62
7
  6
CONTINUOUS
370
-3
390
F
  0
LAYER
  5
204
100
AcDbSymbolTableRecord
100
AcDbLayerTableRecord
  2
COSMETIC
 70
0
 62
7
  6
CONTINUOUS
370
-3
390
F
  0
LAYER
  5
205
100
AcDbSymbolTableRecord
100
AcDbLayerTableRecord
  2
COSMETICI
 70
0
 62
7
  6
CONTINUOUS
370
-3
390
F
  0
LAYER
  5
206
100
AcDbSymbolTableRecord
100
AcDbLayerTableRecord
  2
CURVE
 70
0
 62
7
  6
CONTINUOUS
370
-3
390
F
  0
LAYER
  5
207
100
AcDbSymbolTableRecord
100
AcDbLayerTableRecord
  2
DRAFT
 70
0
 62
7
  6
CONTINUOUS
370
-3
390
F
  0
LAYER
  5
208
100
AcDbSymbolTableRecord
100
AcDbLayerTableRecord
  2
IMPORT_IGES
 70
0
 62
7
  6
CONTINUOUS
370
-3
390
F
  0
LAYER
  5
209
100
AcDbSymbolTableRecord
100
AcDbLayerTableRecord
  2
INTFCLR_1
 70
0
 62
7
  6
CONTINUOUS
370
-3
390
F
  0
LAYER
  5
20A
100
AcDbSymbolTableRecord
100
AcDbLayerTableRecord
  2
INTFCLR_229
 70
0
 62
7
  6
CONTINUOUS
370
-3
390
F
  0
LAYER
  5
20B
100
AcDbSymbolTableRecord
100
AcDbLayerTableRecord
  2
INTF_1
 70
0
 62
7
  6
CONTINUOUS
370
-3
390
F
  0
LAYER
  5
20C
100
AcDbSymbolTableRecord
100
AcDbLayerTableRecord
  2
INTF_2
 70
0
 62
7
  6
CONTINUOUS
370
-3
390
F
  0
LAYER
  5
20D
100
AcDbSymbolTableRecord
100
AcDbLayerTableRecord
  2
INTF_8
 70
0
 62
7
  6
CONTINUOUS
370
-3
390
F
  0
LAYER
  5
20E
100
AcDbSymbolTableRecord
100
AcDbLayerTableRecord
  2
INTF_YELLOW
 70
0
 62
7
  6
CONTINUOUS
370
-3
390
F
  0
LAYER
  5
20F
100
AcDbSymbolTableRecord
100
AcDbLayerTableRecord
  2
NOTE
 70
0
 62
7
  6
CONTINUOUS
370
-3
390
F
  0
LAYER
  5
210
100
AcDbSymbolTableRecord
100
AcDbLayerTableRecord
  2
PIANI
 70
0
 62
7
  6
CONTINUOUS
370
-3
390
F
  0
LAYER
  5
211
100
AcDbSymbolTableRecord
100
AcDbLayerTableRecord
  2
PIANI_ORIGINE
 70
0
 62
7
  6
CONTINUOUS
370
-3
390
F
  0
LAYER
  5
212
100
AcDbSymbolTableRecord
100
AcDbLayerTableRecord
  2
PUNTI
 70
0
 62
7
  6
CONTINUOUS
370
-3
390
F
  0
LAYER
  5
213
100
AcDbSymbolTableRecord
100
AcDbLayerTableRecord
  2
RACCORDO
 70
0
 62
7
  6
CONTINUOUS
370
-3
390
F
  0
LAYER
  5
214
100
AcDbSymbolTableRecord
100
AcDbLayerTableRecord
  2
SIMBOLI
 70
0
 62
7
  6
CONTINUOUS
370
-3
390
F
  0
LAYER
  5
215
100
AcDbSymbolTableRecord
100
AcDbLayerTableRecord
  2
SMUSSO
 70
0
 62
7
  6
CONTINUOUS
370
-3
390
F
  0
LAYER
  5
216
100
AcDbSymbolTableRecord
100
AcDbLayerTableRecord
  2
SNAPLINE
 70
0
 62
7
  6
CONTINUOUS
370
-3
390
F
  0
LAYER
  5
217
100
AcDbSymbolTableRecord
100
AcDbLayerTableRecord
  2
SUPERFICI
 70
0
 62
7
  6
CONTINUOUS
370
-3
390
F
  0
LAYER
  5
218
100
AcDbSymbolTableRecord
100
AcDbLayerTableRecord
  2
TRASH
 70
0
 62
7
  6
CONTINUOUS
370
-3
390
F
  0
ENDTAB
  0
TABLE
  2
STYLE
  5
3
100
AcDbSymbolTable
 70
1
  0
STYLE
  5
11
100
AcDbSymbolTableRecord
100
AcDbTextStyleTableRecord
  2
STANDARD
 70
0
 40
0.0
 41
0.8
 50
0.0
 71
0
 42
0.2
  3
txt
  4

  0
STYLE
  5
219
100
AcDbSymbolTableRecord
100
AcDbTextStyleTableRecord
  2
TEXTSTYLE_1
 70
0
 40
0.0
 41
0.8
 50
0.0
 71
0
 42
0.2
  3
gdt
  4

  0
ENDTAB
  0
TABLE
  2
VIEW
  5
6
100
AcDbSymbolTable
 70
0
  0
ENDTAB
  0
TABLE
  2
UCS
  5
7
100
AcDbSymbolTable
 70
0
  0
ENDTAB
  0
TABLE
  2
APPID
  5
9
100
AcDbSymbolTable
 70
1
  0
APPID
  5
21A
100
AcDbSymbolTableRecord
100
AcDbRegAppTableRecord
  2
ACAD
 70
0
  0
ENDTAB
  0
TABLE
  2
BLOCK_RECORD
  5
1
100
AcDbSymbolTable
 70
0
  0
BLOCK_RECORD
  5
21B
100
AcDbSymbolTableRecord
100
AcDbBlockTableRecord
  2
*Model_Space
  0
BLOCK_RECORD
  5
21C
100
AcDbSymbolTableRecord
100
AcDbBlockTableRecord
  2
*Paper_Space
  0
ENDTAB
  0
TABLE
  2
DIMSTYLE
  5
A
100
AcDbSymbolTable
 70
1
100
AcDbDimStyleTable
 71
0
  0
DIMSTYLE
105
21D
100
AcDbSymbolTableRecord
100
AcDbDimStyleTableRecord
  2
STANDARD
 70
0
  3

  4

 40
1.0
 41
3.0
 42
0.5
 43
0.38
 44
1.5
 45
0.0
 46
0.0
 47
0.01
 48
0.01
140
3.0
141
0.09
142
0.0
143
25.4
144
1.0
145
0.0
146
1.0
147
0.625
 71
1.0
 72
0.0
 73
0
 74
0
 75
0
 76
0
 77
1
 78
8
170
0
171
2
172
0
173
0
174
0
175
0
176
0
177
0
178
0
270
2
271
2
272
2
273
2
274
2
275
0
280
0
281
0
282
0
283
1
284
8
285
0
286
0
287
3
288
0
340
11
278
44
  0
ENDTAB
  0
ENDSEC
  0
SECTION
  2
BLOCKS
  0
BLOCK
  5
20
100
AcDbEntity
  8
0
100
AcDbBlockBegin
  2
*Model_Space
 70
0
 10
0.0
 20
0.0
 30
0.0
  3
*Model_Space
  1

  0
ENDBLK
  5
21
100
AcDbEntity
  8
0
100
AcDbBlockEnd
  0
BLOCK
  5
1C
100
AcDbEntity
  8
0
100
AcDbBlockBegin
  2
*Paper_Space
 70
0
 10
0.0
 20
0.0
 30
0.0
  3
*Paper_Space
  1

  0
ENDBLK
  5
1D
100
AcDbEntity
  8
0
100
AcDbBlockEnd
  0
ENDSEC
  0
SECTION
  2
ENTITIES
  0
LWPOLYLINE
  5
21E
100
AcDbEntity
  8
RACCORDO
100
AcDbPolyline
 62
7
  6
CONTINUOUS
 90
31
 70
0
 10
-203.0481103005
 20
3.1155219474
 10
-203.0377226505
 20
2.9793369154
 10
-203.0211357705
 20
2.8436858068
 10
-202.9983722244
 20
2.7088511872
 10
-202.9694453386
 20
2.5750218543
 10
-202.9344172594
 20
2.4425734632
 10
-202.8934410278
 20
2.3120567765
 10
-202.846708201
 20
2.1839408987
 10
-202.7942793215
 20
2.0582685819
 10
-202.7361184639
 20
1.9349511391
 10
-202.6722153942
 20
1.8140594888
 10
-202.6027715542
 20
1.6960592628
 10
-202.5280740049
 20
1.5814478881
 10
-202.4483710176
 20
1.4705619786
 10
-202.3637697828
 20
1.3635090014
 10
-202.2743828599
 20
1.2604192792
 10
-202.1803951416
 20
1.1615060768
 10
-202.0820010658
 20
1.0669739945
 10
-201.9793194909
 20
0.9769476363
 10
-201.8724470444
 20
0.8915440582
 10
-201.7616948252
 20
0.8110428404
 10
-201.6475302541
 20
0.7357776824
 10
-201.5303973627
 20
0.6659939972
 10
-201.410367726
 20
0.6016884384
 10
-201.2873565355
 20
0.5428166943
 10
-201.1614005044
 20
0.4894431484
 10
-201.0329480746
 20
0.4418037104
 10
-200.9025326799
 20
0.4001038285
 10
-200.77052223
 20
0.3644415915
 10
-200.6371033569
 20
0.3348484731
 10
-200.5025551326
 20
0.3113741857
  0
LWPOLYLINE
  5
21F
100
AcDbEntity
  8
ASSI
100
AcDbPolyline
 62
7
  6
CONTINUOUS
 90
31
 70
0
 10
-203.0481103005
 20
3.1155219474
 10
-203.0377226505
 20
2.9793369154
 10
-203.0211357705
 20
2.8436858068
 10
-202.9983722244
 20
2.7088511872
 10
-202.9694453386
 20
2.5750218543
 10
-202.9344172594
 20
2.4425734632
 10
-202.8934410278
 20
2.3120567765
 10
-202.846708201
 20
2.1839408987
 10
-202.7942793215
 20
2.0582685819
 10
-202.7361184639
 20
1.9349511391
 10
-202.6722153942
 20
1.8140594888
 10
-202.6027715542
 20
1.6960592628
 10
-202.5280740049
 20
1.5814478881
 10
-202.4483710176
 20
1.4705619786
 10
-202.3637697828
 20
1.3635090014
 10
-202.2743828599
 20
1.2604192792
 10
-202.1803951416
 20
1.1615060768
 10
-202.0820010658
 20
1.0669739945
 10
-201.9793194909
 20
0.9769476363
 10
-201.8724470444
 20
0.8915440582
 10
-201.7616948252
 20
0.8110428404
 10
-201.6475302541
 20
0.7357776824
 10
-201.5303973627
 20
0.6659939972
 10
-201.410367726
 20
0.6016884384
 10
-201.2873565355
 20
0.5428166943
 10
-201.1614005044
 20
0.4894431484
 10
-201.0329480746
 20
0.4418037104
 10
-200.9025326799
 20
0.4001038285
 10
-200.77052223
 20
0.3644415915
 10
-200.6371033569
 20
0.3348484731
 10
-200.5025551326
 20
0.3113741857
  0
LWPOLYLINE
  5
220
100
AcDbEntity
  8
RACCORDO
100
AcDbPolyline
 62
7
  6
CONTINUOUS
 90
31
 70
0
 10
-202.7550739654
 20
3.3830438173
 10
-202.7451181822
 20
3.2466457516
 10
-202.7289668688
 20
3.1111381875
 10
-202.7066200253
 20
2.9765211248
 10
-202.6779742562
 20
2.8423608442
 10
-202.643132957
 20
2.7090910651
 10
-202.6024063144
 20
2.5780129454
 10
-202.5557547203
 20
2.4492888791
 10
-202.5032177828
 20
2.3227564721
 10
-202.4452245128
 20
2.1992297001
 10
-202.3818873224
 20
2.0789088684
 10
-202.3130937996
 20
1.9615936716
 10
-202.2389357185
 20
1.8474971699
 10
-202.1592097648
 20
1.7363521784
 10
-202.0741192528
 20
1.6284258819
 10
-201.9843659011
 20
1.5247328948
 10
-201.889870605
 20
1.425347051
 10
-201.7907124691
 20
1.3301945165
 10
-201.6878305249
 20
1.2400684035
 10
-201.5814726809
 20
1.1551968777
 10
-201.4713910286
 20
1.0753517735
 10
-201.3577808746
 20
1.0006417058
 10
-201.2404487336
 20
0.9309322794
 10
-201.1195880909
 20
0.8663578895
 10
-200.9959747086
 20
0.8074303376
 10
-200.8694448051
 20
0.754175149
 10
-200.740162162
 20
0.7065667984
 10
-200.6093938871
 20
0.6650405105
 10
-200.4775623497
 20
0.6297413603
 10
-200.3442451804
 20
0.6005242729
 10
-200.2094423792
 20
0.5773892483
  0
LWPOLYLINE
  5
221
100
AcDbEntity
  8
ASSI
100
AcDbPolyline
 62
7
  6
CONTINUOUS
 90
31
 70
0
 10
-202.7550739654
 20
3.3830438173
 10
-202.7451181822
 20
3.2466457516
 10
-202.7289668688
 20
3.1111381875
 10
-202.7066200253
 20
2.9765211248
 10
-202.6779742562
 20
2.8423608442
 10
-202.643132957
 20
2.7090910651
 10
-202.6024063144
 20
2.5780129454
 10
-202.5557547203
 20
2.4492888791
 10
-202.5032177828
 20
2.3227564721
 10
-202.4452245128
 20
2.1992297001
 10
-202.3818873224
 20
2.0789088684
 10
-202.3130937996
 20
1.9615936716
 10
-202.2389357185
 20
1.8474971699
 10
-202.1592097648
 20
1.7363521784
 10
-202.0741192528
 20
1.6284258819
 10
-201.9843659011
 20
1.5247328948
 10
-201.889870605
 20
1.425347051
 10
-201.7907124691
 20
1.3301945165
 10
-201.6878305249
 20
1.2400684035
 10
-201.5814726809
 20
1.1551968777
 10
-201.4713910286
 20
1.0753517735
 10
-201.3577808746
 20
1.0006417058
 10
-201.2404487336
 20
0.9309322794
 10
-201.1195880909
 20
0.8663578895
 10
-200.9959747086
 20
0.8074303376
 10
-200.8694448051
 20
0.754175149
 10
-200.740162162
 20
0.7065667984
 10
-200.6093938871
 20
0.6650405105
 10
-200.4775623497
 20
0.6297413603
 10
-200.3442451804
 20
0.6005242729
 10
-200.2094423792
 20
0.5773892483
  0
LINE
  5
222
100
AcDbEntity
  8
RACCORDO
100
AcDbLine
 62
7
  6
CONTINUOUS
 10
-203.0485801917
 20
3.1245299926
 11
-203.0481103005
 21
3.1155219474
  0
LINE
  5
223
100
AcDbEntity
  8
ASSI
100
AcDbLine
 62
7
  6
CONTINUOUS
 10
-203.0485801917
 20
3.1245299926
 11
-203.0481103005
 21
3.1155219474
  0
LINE
  5
224
100
AcDbEntity
  8
0
100
AcDbLine
 62
7
  6
CONTINUOUS
 10
-201.5264108505
 20
3.4049362168
 11
-201.5259932237
 21
3.3967982649
  0
LINE
  5
225
100
AcDbEntity
  8
0
100
AcDbLine
 62
7
  6
CONTINUOUS
 10
-201.5259932238
 20
53.6923552061
 11
-201.5264108505
 21
53.6842172557
  0
LINE
  5
226
100
AcDbEntity
  8
RACCORDO
100
AcDbLine
 62
7
  6
CONTINUOUS
 10
-203.0481103005
 20
53.973631525
 11
-203.0485801917
 21
53.9646234799
  0
LINE
  5
227
100
AcDbEntity
  8
ASSI
100
AcDbLine
 62
7
  6
CONTINUOUS
 10
-203.0481103005
 20
53.973631525
 11
-203.0485801917
 21
53.9646234799
  0
LINE
  5
228
100
AcDbEntity
  8
0
100
AcDbLine
 62
7
  6
CONTINUOUS
 10
-190.2384736077
 20
0.5051985307
 11
-190.2065219838
 21
0.4039524195
  0
LINE
  5
229
100
AcDbEntity
  8
RACCORDO
100
AcDbLine
 62
253
  6
CONTINUOUS
 10
-187.313559371
 20
58.7371340863
 11
-187.2909383563
 21
58.4309237639
  0
LINE
  5
22A
100
AcDbEntity
  8
ASSI
100
AcDbLine
 62
253
  6
CONTINUOUS
 10
-187.313559371
 20
58.7371340863
 11
-187.2909383563
 21
58.4309237639
  0
LINE
  5
22B
100
AcDbEntity
  8
RACCORDO
100
AcDbLine
 62
253
  6
CONTINUOUS
 10
-186.8743980685
 20
58.7695767362
 11
-186.8517770537
 21
58.4633664139
  0
LINE
  5
22C
100
AcDbEntity
  8
ASSI
100
AcDbLine
 62
253
  6
CONTINUOUS
 10
-186.8743980685
 20
58.7695767362
 11
-186.8517770537
 21
58.4633664139
  0
LINE
  5
22D
100
AcDbEntity
  8
0
100
AcDbLine
 62
7
  6
CONTINUOUS
 10
-190.2065219838
 20
0.5004518307
 11
-190.2065219838
 21
0.4039524195
  0
LINE
  5
22E
100
AcDbEntity
  8
0
100
AcDbLine
 62
7
  6
CONTINUOUS
 10
-189.1838321276
 20
0.2544366806
 11
-189.1838321276
 21
0.3485220879
  0
LINE
  5
22F
100
AcDbEntity
  8
RACCORDO
100
AcDbLine
 62
253
  6
CONTINUOUS
 10
-187.2909383563
 20
-1.3417702915
 11
-187.313559371
 21
-1.6479806138
  0
LINE
  5
230
100
AcDbEntity
  8
ASSI
100
AcDbLine
 62
253
  6
CONTINUOUS
 10
-187.2909383563
 20
-1.3417702915
 11
-187.313559371
 21
-1.6479806138
  0
LINE
  5
231
100
AcDbEntity
  8
RACCORDO
100
AcDbLine
 62
253
  6
CONTINUOUS
 10
-186.8517770537
 20
-1.3742129414
 11
-186.8743980685
 21
-1.6804232638
  0
LINE
  5
232
100
AcDbEntity
  8
ASSI
100
AcDbLine
 62
253
  6
CONTINUOUS
 10
-186.8517770537
 20
-1.3742129414
 11
-186.8743980685
 21
-1.6804232638
  0
LINE
  5
233
100
AcDbEntity
  8
0
100
AcDbLine
 62
7
  6
CONTINUOUS
 10
-182.1951770557
 20
-0.0412874989
 11
-182.1951770557
 21
-0.1365544509
  0
LINE
  5
234
100
AcDbEntity
  8
ASSI
100
AcDbLine
 62
7
  6
CONTINUOUS
 10
-182.1951770557
 20
-0.0412874989
 11
-182.1951770557
 21
-0.1365544509
  0
LINE
  5
235
100
AcDbEntity
  8
0
100
AcDbLine
 62
7
  6
CONTINUOUS
 10
-182.1951770557
 20
57.1304409714
 11
-182.1951770557
 21
57.2257079234
  0
LINE
  5
236
100
AcDbEntity
  8
ASSI
100
AcDbLine
 62
7
  6
CONTINUOUS
 10
-182.1951770557
 20
57.1304409714
 11
-182.1951770557
 21
57.2257079234
  0
LINE
  5
237
100
AcDbEntity
  8
0
100
AcDbLine
 62
253
  6
CONTINUOUS
 10
-174.6951770557
 20
-0.0412874989
 11
-174.6951770557
 21
-0.1365544509
  0
LINE
  5
238
100
AcDbEntity
  8
ASSI
100
AcDbLine
 62
253
  6
CONTINUOUS
 10
-174.6951770557
 20
-0.0412874989
 11
-174.6951770557
 21
-0.1365544509
  0
LINE
  5
239
100
AcDbEntity
  8
0
100
AcDbLine
 62
253
  6
CONTINUOUS
 10
-174.6951770557
 20
57.1304409714
 11
-174.6951770557
 21
57.2257079234
  0
LINE
  5
23A
100
AcDbEntity
  8
ASSI
100
AcDbLine
 62
253
  6
CONTINUOUS
 10
-174.6951770557
 20
57.1304409714
 11
-174.6951770557
 21
57.2257079234
  0
LINE
  5
23B
100
AcDbEntity
  8
0
100
AcDbLine
 62
7
  6
CONTINUOUS
 10
-189.1527284159
 20
0.3439013528
 11
-189.1838321276
 21
0.2544366806
  0
LINE
  5
23C
100
AcDbEntity
  8
DRAFT
100
AcDbLine
 62
7
  6
CONTINUOUS
 10
-158.2649973154
 20
57.1304409714
 11
-158.2649973154
 21
54.9747564765
  0
LINE
  5
23D
100
AcDbEntity
  8
DRAFT
100
AcDbLine
 62
7
  6
CONTINUOUS
 10
-158.2649973154
 20
-0.0412874989
 11
-158.2649973154
 21
2.1143969959
  0
LINE
  5
23E
100
AcDbEntity
  8
DRAFT
100
AcDbLine
 62
7
  6
CONTINUOUS
 10
-158.1951770557
 20
57.0606207117
 11
-158.1951770557
 21
55.0445767362
  0
LINE
  5
23F
100
AcDbEntity
  8
DRAFT
100
AcDbLine
 62
7
  6
CONTINUOUS
 10
-158.1951770557
 20
0.0285327608
 11
-158.1951770557
 21
2.0445767362
  0
LINE
  5
240
100
AcDbEntity
  8
0
100
AcDbLine
 62
7
  6
CONTINUOUS
 10
-157.9451770557
 20
-0.2412874989
 11
-157.9451770557
 21
1.5445767362
  0
LINE
  5
241
100
AcDbEntity
  8
ASSI
100
AcDbLine
 62
7
  6
CONTINUOUS
 10
-157.9451770557
 20
-0.2412874989
 11
-157.9451770557
 21
1.5445767362
  0
LINE
  5
242
100
AcDbEntity
  8
0
100
AcDbLine
 62
7
  6
CONTINUOUS
 10
-157.9451770557
 20
55.5445767362
 11
-157.9451770557
 21
57.3304409714
  0
LINE
  5
243
100
AcDbEntity
  8
ASSI
100
AcDbLine
 62
7
  6
CONTINUOUS
 10
-157.9451770557
 20
55.5445767362
 11
-157.9451770557
 21
57.3304409714
  0
LINE
  5
244
100
AcDbEntity
  8
RACCORDO
100
AcDbLine
 62
7
  6
CONTINUOUS
 10
-150.257900762
 20
57.1304409714
 11
-150.2499766502
 21
57.146290402
  0
LINE
  5
245
100
AcDbEntity
  8
ASSI
100
AcDbLine
 62
7
  6
CONTINUOUS
 10
-150.257900762
 20
57.1304409714
 11
-150.2499766502
 21
57.146290402
  0
LINE
  5
246
100
AcDbEntity
  8
DRAFT
100
AcDbLine
 62
7
  6
CONTINUOUS
 10
-158.1951770557
 20
55.0445767362
 11
-158.2649973154
 21
54.9747564765
  0
LINE
  5
247
100
AcDbEntity
  8
DRAFT
100
AcDbLine
 62
7
  6
CONTINUOUS
 10
-151.125356796
 20
57.1304409714
 11
-151.1951770557
 21
57.0606207117
  0
LINE
  5
248
100
AcDbEntity
  8
DRAFT
100
AcDbLine
 62
7
  6
CONTINUOUS
 10
-158.1951770557
 20
2.0445767362
 11
-158.2649973154
 21
2.1143969959
  0
LINE
  5
249
100
AcDbEntity
  8
DRAFT
100
AcDbLine
 62
7
  6
CONTINUOUS
 10
-151.125356796
 20
-0.0412874989
 11
-151.1951770557
 21
0.0285327608
  0
LINE
  5
24A
100
AcDbEntity
  8
RACCORDO
100
AcDbLine
 62
7
  6
CONTINUOUS
 10
-150.257900762
 20
-0.0412874989
 11
-150.2499766502
 21
-0.0571369295
  0
LINE
  5
24B
100
AcDbEntity
  8
ASSI
100
AcDbLine
 62
7
  6
CONTINUOUS
 10
-150.257900762
 20
-0.0412874989
 11
-150.2499766502
 21
-0.0571369295
  0
LINE
  5
24C
100
AcDbEntity
  8
0
100
AcDbLine
 62
7
  6
CONTINUOUS
 10
-151.4451770557
 20
-0.2412874989
 11
-151.4451770557
 21
1.5445767362
  0
LINE
  5
24D
100
AcDbEntity
  8
ASSI
100
AcDbLine
 62
7
  6
CONTINUOUS
 10
-151.4451770557
 20
-0.2412874989
 11
-151.4451770557
 21
1.5445767362
  0
LINE
  5
24E
100
AcDbEntity
  8
0
100
AcDbLine
 62
7
  6
CONTINUOUS
 10
-151.4451770557
 20
55.5445767362
 11
-151.4451770557
 21
57.3304409714
  0
LINE
  5
24F
100
AcDbEntity
  8
ASSI
100
AcDbLine
 62
7
  6
CONTINUOUS
 10
-151.4451770557
 20
55.5445767362
 11
-151.4451770557
 21
57.3304409714
  0
LINE
  5
250
100
AcDbEntity
  8
DRAFT
100
AcDbLine
 62
7
  6
CONTINUOUS
 10
-151.1951770557
 20
57.0606207117
 11
-151.1951770557
 21
55.0445767362
  0
LINE
  5
251
100
AcDbEntity
  8
DRAFT
100
AcDbLine
 62
7
  6
CONTINUOUS
 10
-151.1951770557
 20
0.0285327608
 11
-151.1951770557
 21
2.0445767362
  0
LINE
  5
252
100
AcDbEntity
  8
DRAFT
100
AcDbLine
 62
7
  6
CONTINUOUS
 10
-151.125356796
 20
57.1304409714
 11
-151.125356796
 21
54.9747564765
  0
LINE
  5
253
100
AcDbEntity
  8
DRAFT
100
AcDbLine
 62
7
  6
CONTINUOUS
 10
-151.125356796
 20
-0.0412874989
 11
-151.125356796
 21
2.1143969959
  0
LINE
  5
254
100
AcDbEntity
  8
RACCORDO
100
AcDbLine
 62
7
  6
CONTINUOUS
 10
-146.257900762
 20
57.1304409714
 11
-146.2499766502
 21
57.146290402
  0
LINE
  5
255
100
AcDbEntity
  8
ASSI
100
AcDbLine
 62
7
  6
CONTINUOUS
 10
-146.257900762
 20
57.1304409714
 11
-146.2499766502
 21
57.146290402
  0
LINE
  5
256
100
AcDbEntity
  8
RACCORDO
100
AcDbLine
 62
7
  6
CONTINUOUS
 10
-142.257900762
 20
57.1304409714
 11
-142.2499766502
 21
57.146290402
  0
LINE
  5
257
100
AcDbEntity
  8
ASSI
100
AcDbLine
 62
7
  6
CONTINUOUS
 10
-142.257900762
 20
57.1304409714
 11
-142.2499766502
 21
57.146290402
  0
LINE
  5
258
100
AcDbEntity
  8
RACCORDO
100
AcDbLine
 62
253
  6
CONTINUOUS
 10
-203.0481103005
 20
3.1155219474
 11
-202.7550739654
 21
3.3830438173
  0
LINE
  5
259
100
AcDbEntity
  8
ASSI
100
AcDbLine
 62
253
  6
CONTINUOUS
 10
-203.0481103005
 20
3.1155219474
 11
-202.7550739654
 21
3.3830438173
  0
LINE
  5
25A
100
AcDbEntity
  8
RACCORDO
100
AcDbLine
 62
253
  6
CONTINUOUS
 10
-203.0481103005
 20
53.973631525
 11
-203.0179519162
 21
53.9460931019
  0
LINE
  5
25B
100
AcDbEntity
  8
ASSI
100
AcDbLine
 62
253
  6
CONTINUOUS
 10
-203.0481103005
 20
53.973631525
 11
-203.0179519162
 21
53.9460931019
  0
LINE
  5
25C
100
AcDbEntity
  8
RACCORDO
100
AcDbLine
 62
253
  6
CONTINUOUS
 10
-203.0179519162
 20
53.9460931019
 11
-202.7550739654
 21
53.7061096552
  0
LINE
  5
25D
100
AcDbEntity
  8
ASSI
100
AcDbLine
 62
253
  6
CONTINUOUS
 10
-203.0179519162
 20
53.9460931019
 11
-202.7550739654
 21
53.7061096552
  0
LINE
  5
25E
100
AcDbEntity
  8
RACCORDO
100
AcDbLine
 62
7
  6
CONTINUOUS
 10
-146.257900762
 20
-0.0412874989
 11
-146.2499766502
 21
-0.0571369295
  0
LINE
  5
25F
100
AcDbEntity
  8
ASSI
100
AcDbLine
 62
7
  6
CONTINUOUS
 10
-146.257900762
 20
-0.0412874989
 11
-146.2499766502
 21
-0.0571369295
  0
LINE
  5
260
100
AcDbEntity
  8
RACCORDO
100
AcDbLine
 62
7
  6
CONTINUOUS
 10
-142.257900762
 20
-0.0412874989
 11
-142.2499766502
 21
-0.0571369295
  0
LINE
  5
261
100
AcDbEntity
  8
ASSI
100
AcDbLine
 62
7
  6
CONTINUOUS
 10
-142.257900762
 20
-0.0412874989
 11
-142.2499766502
 21
-0.0571369295
  0
LINE
  5
262
100
AcDbEntity
  8
0
100
AcDbLine
 62
7
  6
CONTINUOUS
 10
-144.4451770557
 20
57.2082555169
 11
-144.4451770557
 21
57.1304409714
  0
LINE
  5
263
100
AcDbEntity
  8
ASSI
100
AcDbLine
 62
7
  6
CONTINUOUS
 10
-144.4451770557
 20
57.2082555169
 11
-144.4451770557
 21
57.1304409714
  0
LINE
  5
264
100
AcDbEntity
  8
0
100
AcDbLine
 62
7
  6
CONTINUOUS
 10
-144.4451770557
 20
-0.0412874989
 11
-144.4451770557
 21
-0.1191020445
  0
LINE
  5
265
100
AcDbEntity
  8
ASSI
100
AcDbLine
 62
7
  6
CONTINUOUS
 10
-144.4451770557
 20
-0.0412874989
 11
-144.4451770557
 21
-0.1191020445
  0
LINE
  5
266
100
AcDbEntity
  8
0
100
AcDbLine
 62
7
  6
CONTINUOUS
 10
-142.9451770557
 20
-0.1191020445
 11
-142.9451770557
 21
-0.0412874989
  0
LINE
  5
267
100
AcDbEntity
  8
ASSI
100
AcDbLine
 62
7
  6
CONTINUOUS
 10
-142.9451770557
 20
-0.1191020445
 11
-142.9451770557
 21
-0.0412874989
  0
LINE
  5
268
100
AcDbEntity
  8
0
100
AcDbLine
 62
7
  6
CONTINUOUS
 10
-142.9451770557
 20
57.1304409714
 11
-142.9451770557
 21
57.2082555169
  0
LINE
  5
269
100
AcDbEntity
  8
ASSI
100
AcDbLine
 62
7
  6
CONTINUOUS
 10
-142.9451770557
 20
57.1304409714
 11
-142.9451770557
 21
57.2082555169
  0
LINE
  5
26A
100
AcDbEntity
  8
RACCORDO
100
AcDbLine
 62
7
  6
CONTINUOUS
 10
-138.257900762
 20
57.1304409714
 11
-138.2499766502
 21
57.146290402
  0
LINE
  5
26B
100
AcDbEntity
  8
ASSI
100
AcDbLine
 62
7
  6
CONTINUOUS
 10
-138.257900762
 20
57.1304409714
 11
-138.2499766502
 21
57.146290402
  0
LINE
  5
26C
100
AcDbEntity
  8
RACCORDO
100
AcDbLine
 62
7
  6
CONTINUOUS
 10
-134.257900762
 20
57.1304409714
 11
-134.2499766502
 21
57.146290402
  0
LINE
  5
26D
100
AcDbEntity
  8
ASSI
100
AcDbLine
 62
7
  6
CONTINUOUS
 10
-134.257900762
 20
57.1304409714
 11
-134.2499766502
 21
57.146290402
  0
LINE
  5
26E
100
AcDbEntity
  8
RACCORDO
100
AcDbLine
 62
7
  6
CONTINUOUS
 10
-130.257900762
 20
57.1304409714
 11
-130.2499766502
 21
57.146290402
  0
LINE
  5
26F
100
AcDbEntity
  8
ASSI
100
AcDbLine
 62
7
  6
CONTINUOUS
 10
-130.257900762
 20
57.1304409714
 11
-130.2499766502
 21
57.146290402
  0
LINE
  5
270
100
AcDbEntity
  8
RACCORDO
100
AcDbLine
 62
253
  6
CONTINUOUS
 10
-200.5025551326
 20
0.3113741857
 11
-200.2094423792
 21
0.5773892483
  0
LINE
  5
271
100
AcDbEntity
  8
ASSI
100
AcDbLine
 62
253
  6
CONTINUOUS
 10
-200.5025551326
 20
0.3113741857
 11
-200.2094423792
 21
0.5773892483
  0
LWPOLYLINE
  5
272
100
AcDbEntity
  8
RACCORDO
100
AcDbPolyline
 62
7
  6
CONTINUOUS
 90
31
 70
0
 10
10.8190882679
 20
0.5773892483
 10
10.953891069
 20
0.6005242729
 10
11.0872082383
 20
0.6297413603
 10
11.2190397758
 20
0.6650405105
 10
11.3498080506
 20
0.7065667984
 10
11.4790906937
 20
0.754175149
 10
11.6056205973
 20
0.8074303376
 10
11.7292339795
 20
0.8663578895
 10
11.8500946223
 20
0.9309322794
 10
11.9674267633
 20
1.0006417058
 10
12.0810369173
 20
1.0753517735
 10
12.1911185695
 20
1.1551968777
 10
12.2974764135
 20
1.2400684035
 10
12.4003583577
 20
1.3301945165
 10
12.4995164936
 20
1.425347051
 10
12.5940117897
 20
1.5247328948
 10
12.6837651415
 20
1.6284258819
 10
12.7688556534
 20
1.7363521784
 10
12.8485816072
 20
1.8474971699
 10
12.9227396882
 20
1.9615936716
 10
12.9915332111
 20
2.0789088684
 10
13.0548704014
 20
2.1992297001
 10
13.1128636715
 20
2.3227564721
 10
13.165400609
 20
2.4492888791
 10
13.2120522031
 20
2.5780129454
 10
13.2527788457
 20
2.7090910651
 10
13.2876201449
 20
2.8423608442
 10
13.316265914
 20
2.9765211248
 10
13.3386127574
 20
3.1111381875
 10
13.3547640708
 20
3.2466457516
 10
13.3647198541
 20
3.3830438173
  0
LWPOLYLINE
  5
273
100
AcDbEntity
  8
ASSI
100
AcDbPolyline
 62
7
  6
CONTINUOUS
 90
31
 70
0
 10
10.8190882679
 20
0.5773892483
 10
10.953891069
 20
0.6005242729
 10
11.0872082383
 20
0.6297413603
 10
11.2190397758
 20
0.6650405105
 10
11.3498080506
 20
0.7065667984
 10
11.4790906937
 20
0.754175149
 10
11.6056205973
 20
0.8074303376
 10
11.7292339795
 20
0.8663578895
 10
11.8500946223
 20
0.9309322794
 10
11.9674267633
 20
1.0006417058
 10
12.0810369173
 20
1.0753517735
 10
12.1911185695
 20
1.1551968777
 10
12.2974764135
 20
1.2400684035
 10
12.4003583577
 20
1.3301945165
 10
12.4995164936
 20
1.425347051
 10
12.5940117897
 20
1.5247328948
 10
12.6837651415
 20
1.6284258819
 10
12.7688556534
 20
1.7363521784
 10
12.8485816072
 20
1.8474971699
 10
12.9227396882
 20
1.9615936716
 10
12.9915332111
 20
2.0789088684
 10
13.0548704014
 20
2.1992297001
 10
13.1128636715
 20
2.3227564721
 10
13.165400609
 20
2.4492888791
 10
13.2120522031
 20
2.5780129454
 10
13.2527788457
 20
2.7090910651
 10
13.2876201449
 20
2.8423608442
 10
13.316265914
 20
2.9765211248
 10
13.3386127574
 20
3.1111381875
 10
13.3547640708
 20
3.2466457516
 10
13.3647198541
 20
3.3830438173
  0
LINE
  5
274
100
AcDbEntity
  8
RACCORDO
100
AcDbLine
 62
253
  6
CONTINUOUS
 10
-200.5025551326
 20
56.7777792868
 11
-200.4723889937
 21
56.7503955831
  0
LINE
  5
275
100
AcDbEntity
  8
ASSI
100
AcDbLine
 62
253
  6
CONTINUOUS
 10
-200.5025551326
 20
56.7777792868
 11
-200.4723889937
 21
56.7503955831
  0
LINE
  5
276
100
AcDbEntity
  8
RACCORDO
100
AcDbLine
 62
253
  6
CONTINUOUS
 10
-200.4723889937
 20
56.7503955831
 11
-200.2094423792
 21
56.5117642241
  0
LINE
  5
277
100
AcDbEntity
  8
ASSI
100
AcDbLine
 62
253
  6
CONTINUOUS
 10
-200.4723889937
 20
56.7503955831
 11
-200.2094423792
 21
56.5117642241
  0
LINE
  5
278
100
AcDbEntity
  8
RACCORDO
100
AcDbLine
 62
7
  6
CONTINUOUS
 10
-138.257900762
 20
-0.0412874989
 11
-138.2499766502
 21
-0.0571369295
  0
LINE
  5
279
100
AcDbEntity
  8
ASSI
100
AcDbLine
 62
7
  6
CONTINUOUS
 10
-138.257900762
 20
-0.0412874989
 11
-138.2499766502
 21
-0.0571369295
  0
LINE
  5
27A
100
AcDbEntity
  8
RACCORDO
100
AcDbLine
 62
7
  6
CONTINUOUS
 10
-134.257900762
 20
-0.0412874989
 11
-134.2499766502
 21
-0.0571369295
  0
LINE
  5
27B
100
AcDbEntity
  8
ASSI
100
AcDbLine
 62
7
  6
CONTINUOUS
 10
-134.257900762
 20
-0.0412874989
 11
-134.2499766502
 21
-0.0571369295
  0
LINE
  5
27C
100
AcDbEntity
  8
RACCORDO
100
AcDbLine
 62
7
  6
CONTINUOUS
 10
-130.257900762
 20
-0.0412874989
 11
-130.2499766502
 21
-0.0571369295
  0
LINE
  5
27D
100
AcDbEntity
  8
ASSI
100
AcDbLine
 62
7
  6
CONTINUOUS
 10
-130.257900762
 20
-0.0412874989
 11
-130.2499766502
 21
-0.0571369295
  0
LINE
  5
27E
100
AcDbEntity
  8
RACCORDO
100
AcDbLine
 62
7
  6
CONTINUOUS
 10
-126.257900762
 20
57.1304409714
 11
-126.2499766502
 21
57.146290402
  0
LINE
  5
27F
100
AcDbEntity
  8
ASSI
100
AcDbLine
 62
7
  6
CONTINUOUS
 10
-126.257900762
 20
57.1304409714
 11
-126.2499766502
 21
57.146290402
  0
LINE
  5
280
100
AcDbEntity
  8
RACCORDO
100
AcDbLine
 62
7
  6
CONTINUOUS
 10
-122.257900762
 20
57.1304409714
 11
-122.2499766502
 21
57.146290402
  0
LINE
  5
281
100
AcDbEntity
  8
ASSI
100
AcDbLine
 62
7
  6
CONTINUOUS
 10
-122.257900762
 20
57.1304409714
 11
-122.2499766502
 21
57.146290402
  0
LINE
  5
282
100
AcDbEntity
  8
RACCORDO
100
AcDbLine
 62
7
  6
CONTINUOUS
 10
-2.0767947403
 20
-1.6479806138
 11
11.1122010213
 21
0.3113741857
  0
LINE
  5
283
100
AcDbEntity
  8
ASSI
100
AcDbLine
 62
7
  6
CONTINUOUS
 10
-2.0767947403
 20
-1.6479806138
 11
11.1122010213
 21
0.3113741857
  0
LINE
  5
284
100
AcDbEntity
  8
RACCORDO
100
AcDbLine
 62
7
  6
CONTINUOUS
 10
-2.0994157551
 20
-1.3417702915
 11
10.8190882679
 21
0.5773892483
  0
LINE
  5
285
100
AcDbEntity
  8
ASSI
100
AcDbLine
 62
7
  6
CONTINUOUS
 10
-2.0994157551
 20
-1.3417702915
 11
10.8190882679
 21
0.5773892483
  0
LINE
  5
286
100
AcDbEntity
  8
RACCORDO
100
AcDbLine
 62
7
  6
CONTINUOUS
 10
-2.81568572
 20
-0.2412874989
 11
10.8825441004
 21
1.7937072955
  0
LINE
  5
287
100
AcDbEntity
  8
ASSI
100
AcDbLine
 62
7
  6
CONTINUOUS
 10
-2.81568572
 20
-0.2412874989
 11
10.8825441004
 21
1.7937072955
  0
LINE
  5
288
100
AcDbEntity
  8
DRAFT
100
AcDbLine
 62
7
  6
CONTINUOUS
 10
-2.8304605418
 20
-0.0412874989
 11
10.8531548453
 21
1.9915361904
  0
LINE
  5
289
100
AcDbEntity
  8
0
100
AcDbLine
 62
7
  6
CONTINUOUS
 10
-2.2563542956
 20
-0.1191020445
 11
10.8272897551
 21
1.7937072955
  0
LINE
  5
28A
100
AcDbEntity
  8
RACCORDO
100
AcDbLine
 62
7
  6
CONTINUOUS
 10
-2.2563542956
 20
-0.1191020445
 11
10.8272897551
 21
1.7937072955
  0
LINE
  5
28B
100
AcDbEntity
  8
ASSI
100
AcDbLine
 62
7
  6
CONTINUOUS
 10
-2.2563542956
 20
-0.1191020445
 11
10.8272897551
 21
1.7937072955
  0
LINE
  5
28C
100
AcDbEntity
  8
0
100
AcDbLine
 62
7
  6
CONTINUOUS
 10
-200.2176438665
 20
1.7937072955
 11
-187.1339998158
 21
-0.1191020445
  0
LINE
  5
28D
100
AcDbEntity
  8
RACCORDO
100
AcDbLine
 62
7
  6
CONTINUOUS
 10
-187.1339998158
 20
-0.1191020445
 11
-200.2176438665
 21
1.7937072955
  0
LINE
  5
28E
100
AcDbEntity
  8
ASSI
100
AcDbLine
 62
7
  6
CONTINUOUS
 10
-187.1339998158
 20
-0.1191020445
 11
-200.2176438665
 21
1.7937072955
  0
LINE
  5
28F
100
AcDbEntity
  8
0
100
AcDbLine
 62
7
  6
CONTINUOUS
 10
-189.1838321276
 20
0.2544366806
 11
-190.2065219838
 21
0.4039524195
  0
LINE
  5
290
100
AcDbEntity
  8
RACCORDO
100
AcDbLine
 62
7
  6
CONTINUOUS
 10
-200.2094423792
 20
0.5773892483
 11
-187.2909383563
 21
-1.3417702915
  0
LINE
  5
291
100
AcDbEntity
  8
ASSI
100
AcDbLine
 62
7
  6
CONTINUOUS
 10
-200.2094423792
 20
0.5773892483
 11
-187.2909383563
 21
-1.3417702915
  0
LINE
  5
292
100
AcDbEntity
  8
RACCORDO
100
AcDbLine
 62
7
  6
CONTINUOUS
 10
-186.5746683914
 20
-0.2412874989
 11
-200.2728982118
 21
1.7937072955
  0
LINE
  5
293
100
AcDbEntity
  8
ASSI
100
AcDbLine
 62
7
  6
CONTINUOUS
 10
-186.5746683914
 20
-0.2412874989
 11
-200.2728982118
 21
1.7937072955
  0
LINE
  5
294
100
AcDbEntity
  8
DRAFT
100
AcDbLine
 62
7
  6
CONTINUOUS
 10
-200.2435089566
 20
1.9915361904
 11
-186.5598935696
 21
-0.0412874989
  0
LINE
  5
295
100
AcDbEntity
  8
RACCORDO
100
AcDbLine
 62
7
  6
CONTINUOUS
 10
-200.5025551326
 20
0.3113741857
 11
-187.3143601683
 21
-1.6478616482
  0
LINE
  5
296
100
AcDbEntity
  8
ASSI
100
AcDbLine
 62
7
  6
CONTINUOUS
 10
-200.5025551326
 20
0.3113741857
 11
-187.3143601683
 21
-1.6478616482
  0
LINE
  5
297
100
AcDbEntity
  8
RACCORDO
100
AcDbLine
 62
7
  6
CONTINUOUS
 10
-126.257900762
 20
-0.0412874989
 11
-126.2499766502
 21
-0.0571369295
  0
LINE
  5
298
100
AcDbEntity
  8
ASSI
100
AcDbLine
 62
7
  6
CONTINUOUS
 10
-126.257900762
 20
-0.0412874989
 11
-126.2499766502
 21
-0.0571369295
  0
LINE
  5
299
100
AcDbEntity
  8
RACCORDO
100
AcDbLine
 62
7
  6
CONTINUOUS
 10
-122.257900762
 20
-0.0412874989
 11
-122.2499766502
 21
-0.0571369295
  0
LINE
  5
29A
100
AcDbEntity
  8
ASSI
100
AcDbLine
 62
7
  6
CONTINUOUS
 10
-122.257900762
 20
-0.0412874989
 11
-122.2499766502
 21
-0.0571369295
  0
LINE
  5
29B
100
AcDbEntity
  8
RACCORDO
100
AcDbLine
 62
7
  6
CONTINUOUS
 10
-149.1324533494
 20
-0.0412874989
 11
-149.1403774612
 21
-0.0571369295
  0
LINE
  5
29C
100
AcDbEntity
  8
ASSI
100
AcDbLine
 62
7
  6
CONTINUOUS
 10
-149.1324533494
 20
-0.0412874989
 11
-149.1403774612
 21
-0.0571369295
  0
LINE
  5
29D
100
AcDbEntity
  8
RACCORDO
100
AcDbLine
 62
7
  6
CONTINUOUS
 10
-118.257900762
 20
57.1304409714
 11
-118.2499766502
 21
57.146290402
  0
LINE
  5
29E
100
AcDbEntity
  8
ASSI
100
AcDbLine
 62
7
  6
CONTINUOUS
 10
-118.257900762
 20
57.1304409714
 11
-118.2499766502
 21
57.146290402
  0
LINE
  5
29F
100
AcDbEntity
  8
RACCORDO
100
AcDbLine
 62
7
  6
CONTINUOUS
 10
-145.1324533494
 20
-0.0412874989
 11
-145.1403774612
 21
-0.0571369295
  0
LINE
  5
2A0
100
AcDbEntity
  8
ASSI
100
AcDbLine
 62
7
  6
CONTINUOUS
 10
-145.1324533494
 20
-0.0412874989
 11
-145.1403774612
 21
-0.0571369295
  0
LINE
  5
2A1
100
AcDbEntity
  8
RACCORDO
100
AcDbLine
 62
7
  6
CONTINUOUS
 10
-114.257900762
 20
57.1304409714
 11
-114.2499766502
 21
57.146290402
  0
LINE
  5
2A2
100
AcDbEntity
  8
ASSI
100
AcDbLine
 62
7
  6
CONTINUOUS
 10
-114.257900762
 20
57.1304409714
 11
-114.2499766502
 21
57.146290402
  0
LWPOLYLINE
  5
2A3
100
AcDbEntity
  8
RACCORDO
100
AcDbPolyline
 62
7
  6
CONTINUOUS
 90
10
 70
0
 10
-2.5159560429
 20
-1.6804232638
 10
-2.4671803014
 20
-1.6800154484
 10
-2.4183203387
 20
-1.6788108301
 10
-2.3693892392
 20
-1.6768049892
 10
-2.3203354167
 20
-1.6739894577
 10
-2.2712372257
 20
-1.6703623726
 10
-2.2223021764
 20
-1.6659390635
 10
-2.1736074988
 20
-1.6607328871
 10
-2.1251009225
 20
-1.6547446391
 10
-2.0767947403
 20
-1.6479806138
  0
LWPOLYLINE
  5
2A4
100
AcDbEntity
  8
ASSI
100
AcDbPolyline
 62
7
  6
CONTINUOUS
 90
10
 70
0
 10
-2.5159560429
 20
-1.6804232638
 10
-2.4671803014
 20
-1.6800154484
 10
-2.4183203387
 20
-1.6788108301
 10
-2.3693892392
 20
-1.6768049892
 10
-2.3203354167
 20
-1.6739894577
 10
-2.2712372257
 20
-1.6703623726
 10
-2.2223021764
 20
-1.6659390635
 10
-2.1736074988
 20
-1.6607328871
 10
-2.1251009225
 20
-1.6547446391
 10
-2.0767947403
 20
-1.6479806138
  0
LINE
  5
2A5
100
AcDbEntity
  8
RACCORDO
100
AcDbLine
 62
7
  6
CONTINUOUS
 10
-2.5167656286
 20
-1.6804232638
 11
-186.8735884828
 21
-1.6804232638
  0
LINE
  5
2A6
100
AcDbEntity
  8
ASSI
100
AcDbLine
 62
7
  6
CONTINUOUS
 10
-2.5167656286
 20
-1.6804232638
 11
-186.8735884828
 21
-1.6804232638
  0
LINE
  5
2A7
100
AcDbEntity
  8
RACCORDO
100
AcDbLine
 62
7
  6
CONTINUOUS
 10
-2.5385770576
 20
-1.3742129414
 11
-186.8517770537
 21
-1.3742129414
  0
LINE
  5
2A8
100
AcDbEntity
  8
ASSI
100
AcDbLine
 62
7
  6
CONTINUOUS
 10
-2.5385770576
 20
-1.3742129414
 11
-186.8517770537
 21
-1.3742129414
  0
LWPOLYLINE
  5
2A9
100
AcDbEntity
  8
RACCORDO
100
AcDbPolyline
 62
7
  6
CONTINUOUS
 90
10
 70
0
 10
-186.8735884828
 20
-1.6804232638
 10
-186.9227375662
 20
-1.6800225344
 10
-186.9718741527
 20
-1.6788160162
 10
-187.0209850518
 20
-1.6768039968
 10
-187.0700575779
 20
-1.673986947
 10
-187.1190780555
 20
-1.6703656029
 10
-187.1680318286
 20
-1.6659410471
 10
-187.2169052618
 20
-1.6607145613
 10
-187.2656857382
 20
-1.6546875437
 10
-187.3143601683
 20
-1.6478616482
  0
LWPOLYLINE
  5
2AA
100
AcDbEntity
  8
ASSI
100
AcDbPolyline
 62
7
  6
CONTINUOUS
 90
10
 70
0
 10
-186.8735884828
 20
-1.6804232638
 10
-186.9227375662
 20
-1.6800225344
 10
-186.9718741527
 20
-1.6788160162
 10
-187.0209850518
 20
-1.6768039968
 10
-187.0700575779
 20
-1.673986947
 10
-187.1190780555
 20
-1.6703656029
 10
-187.1680318286
 20
-1.6659410471
 10
-187.2169052618
 20
-1.6607145613
 10
-187.2656857382
 20
-1.6546875437
 10
-187.3143601683
 20
-1.6478616482
  0
LINE
  5
2AB
100
AcDbEntity
  8
RACCORDO
100
AcDbLine
 62
7
  6
CONTINUOUS
 10
-149.1324533494
 20
57.1304409714
 11
-149.1403774612
 21
57.146290402
  0
LINE
  5
2AC
100
AcDbEntity
  8
ASSI
100
AcDbLine
 62
7
  6
CONTINUOUS
 10
-149.1324533494
 20
57.1304409714
 11
-149.1403774612
 21
57.146290402
  0
LINE
  5
2AD
100
AcDbEntity
  8
RACCORDO
100
AcDbLine
 62
7
  6
CONTINUOUS
 10
-118.257900762
 20
-0.0412874989
 11
-118.2499766502
 21
-0.0571369295
  0
LINE
  5
2AE
100
AcDbEntity
  8
ASSI
100
AcDbLine
 62
7
  6
CONTINUOUS
 10
-118.257900762
 20
-0.0412874989
 11
-118.2499766502
 21
-0.0571369295
  0
LINE
  5
2AF
100
AcDbEntity
  8
RACCORDO
100
AcDbLine
 62
7
  6
CONTINUOUS
 10
-145.1324533494
 20
57.1304409714
 11
-145.1403774612
 21
57.146290402
  0
LINE
  5
2B0
100
AcDbEntity
  8
ASSI
100
AcDbLine
 62
7
  6
CONTINUOUS
 10
-145.1324533494
 20
57.1304409714
 11
-145.1403774612
 21
57.146290402
  0
LINE
  5
2B1
100
AcDbEntity
  8
RACCORDO
100
AcDbLine
 62
7
  6
CONTINUOUS
 10
-114.257900762
 20
-0.0412874989
 11
-114.2499766502
 21
-0.0571369295
  0
LINE
  5
2B2
100
AcDbEntity
  8
ASSI
100
AcDbLine
 62
7
  6
CONTINUOUS
 10
-114.257900762
 20
-0.0412874989
 11
-114.2499766502
 21
-0.0571369295
  0
LINE
  5
2B3
100
AcDbEntity
  8
0
100
AcDbLine
 62
7
  6
CONTINUOUS
 10
-116.4451770557
 20
57.2082555169
 11
-116.4451770557
 21
57.1304409714
  0
LINE
  5
2B4
100
AcDbEntity
  8
ASSI
100
AcDbLine
 62
7
  6
CONTINUOUS
 10
-116.4451770557
 20
57.2082555169
 11
-116.4451770557
 21
57.1304409714
  0
LINE
  5
2B5
100
AcDbEntity
  8
0
100
AcDbLine
 62
7
  6
CONTINUOUS
 10
-116.4451770557
 20
-0.0412874989
 11
-116.4451770557
 21
-0.1191020445
  0
LINE
  5
2B6
100
AcDbEntity
  8
ASSI
100
AcDbLine
 62
7
  6
CONTINUOUS
 10
-116.4451770557
 20
-0.0412874989
 11
-116.4451770557
 21
-0.1191020445
  0
LINE
  5
2B7
100
AcDbEntity
  8
RACCORDO
100
AcDbLine
 62
7
  6
CONTINUOUS
 10
-141.1324533494
 20
-0.0412874989
 11
-141.1403774612
 21
-0.0571369295
  0
LINE
  5
2B8
100
AcDbEntity
  8
ASSI
100
AcDbLine
 62
7
  6
CONTINUOUS
 10
-141.1324533494
 20
-0.0412874989
 11
-141.1403774612
 21
-0.0571369295
  0
LINE
  5
2B9
100
AcDbEntity
  8
RACCORDO
100
AcDbLine
 62
7
  6
CONTINUOUS
 10
-110.257900762
 20
57.1304409714
 11
-110.2499766502
 21
57.146290402
  0
LINE
  5
2BA
100
AcDbEntity
  8
ASSI
100
AcDbLine
 62
7
  6
CONTINUOUS
 10
-110.257900762
 20
57.1304409714
 11
-110.2499766502
 21
57.146290402
  0
LINE
  5
2BB
100
AcDbEntity
  8
RACCORDO
100
AcDbLine
 62
7
  6
CONTINUOUS
 10
-137.1324533494
 20
-0.0412874989
 11
-137.1403774612
 21
-0.0571369295
  0
LINE
  5
2BC
100
AcDbEntity
  8
ASSI
100
AcDbLine
 62
7
  6
CONTINUOUS
 10
-137.1324533494
 20
-0.0412874989
 11
-137.1403774612
 21
-0.0571369295
  0
LINE
  5
2BD
100
AcDbEntity
  8
DRAFT
100
AcDbLine
 62
7
  6
CONTINUOUS
 10
-158.2649973154
 20
-0.0412874989
 11
-158.1951770557
 21
0.0285327608
  0
LINE
  5
2BE
100
AcDbEntity
  8
0
100
AcDbLine
 62
7
  6
CONTINUOUS
 10
-165.4099239141
 20
-0.0503776302
 11
-165.0810809913
 21
-0.0412874989
  0
LINE
  5
2BF
100
AcDbEntity
  8
ASSI
100
AcDbLine
 62
7
  6
CONTINUOUS
 10
-165.4099239141
 20
-0.0503776302
 11
-165.0810809913
 21
-0.0412874989
  0
LINE
  5
2C0
100
AcDbEntity
  8
0
100
AcDbLine
 62
7
  6
CONTINUOUS
 10
-165.8693765638
 20
-0.0614160164
 11
-165.4099239141
 21
-0.0503776302
  0
LINE
  5
2C1
100
AcDbEntity
  8
ASSI
100
AcDbLine
 62
7
  6
CONTINUOUS
 10
-165.8693765638
 20
-0.0614160164
 11
-165.4099239141
 21
-0.0503776302
  0
LINE
  5
2C2
100
AcDbEntity
  8
0
100
AcDbLine
 62
7
  6
CONTINUOUS
 10
-166.372132063
 20
-0.0718748731
 11
-165.8693765638
 21
-0.0614160164
  0
LINE
  5
2C3
100
AcDbEntity
  8
ASSI
100
AcDbLine
 62
7
  6
CONTINUOUS
 10
-166.372132063
 20
-0.0718748731
 11
-165.8693765638
 21
-0.0614160164
  0
LINE
  5
2C4
100
AcDbEntity
  8
0
100
AcDbLine
 62
7
  6
CONTINUOUS
 10
-166.9155198579
 20
-0.0816951322
 11
-166.372132063
 21
-0.0718748731
  0
LINE
  5
2C5
100
AcDbEntity
  8
ASSI
100
AcDbLine
 62
7
  6
CONTINUOUS
 10
-166.9155198579
 20
-0.0816951322
 11
-166.372132063
 21
-0.0718748731
  0
LINE
  5
2C6
100
AcDbEntity
  8
0
100
AcDbLine
 62
7
  6
CONTINUOUS
 10
-167.4964546971
 20
-0.0908242528
 11
-166.9155198579
 21
-0.0816951322
  0
LINE
  5
2C7
100
AcDbEntity
  8
ASSI
100
AcDbLine
 62
7
  6
CONTINUOUS
 10
-167.4964546971
 20
-0.0908242528
 11
-166.9155198579
 21
-0.0816951322
  0
LINE
  5
2C8
100
AcDbEntity
  8
0
100
AcDbLine
 62
7
  6
CONTINUOUS
 10
-168.1128071728
 20
-0.0992288451
 11
-167.4964546971
 21
-0.0908242528
  0
LINE
  5
2C9
100
AcDbEntity
  8
ASSI
100
AcDbLine
 62
7
  6
CONTINUOUS
 10
-168.1128071728
 20
-0.0992288451
 11
-167.4964546971
 21
-0.0908242528
  0
LINE
  5
2CA
100
AcDbEntity
  8
0
100
AcDbLine
 62
7
  6
CONTINUOUS
 10
-168.7612583059
 20
-0.1068610411
 11
-168.1128071728
 21
-0.0992288451
  0
LINE
  5
2CB
100
AcDbEntity
  8
ASSI
100
AcDbLine
 62
7
  6
CONTINUOUS
 10
-168.7612583059
 20
-0.1068610411
 11
-168.1128071728
 21
-0.0992288451
  0
LINE
  5
2CC
100
AcDbEntity
  8
0
100
AcDbLine
 62
7
  6
CONTINUOUS
 10
-169.7868343471
 20
-0.1167808198
 11
-168.7612583059
 21
-0.1068610411
  0
LINE
  5
2CD
100
AcDbEntity
  8
ASSI
100
AcDbLine
 62
7
  6
CONTINUOUS
 10
-169.7868343471
 20
-0.1167808198
 11
-168.7612583059
 21
-0.1068610411
  0
LINE
  5
2CE
100
AcDbEntity
  8
0
100
AcDbLine
 62
7
  6
CONTINUOUS
 10
-170.8660695701
 20
-0.1247738695
 11
-169.7868343471
 21
-0.1167808198
  0
LINE
  5
2CF
100
AcDbEntity
  8
ASSI
100
AcDbLine
 62
7
  6
CONTINUOUS
 10
-170.8660695701
 20
-0.1247738695
 11
-169.7868343471
 21
-0.1167808198
  0
LINE
  5
2D0
100
AcDbEntity
  8
0
100
AcDbLine
 62
7
  6
CONTINUOUS
 10
-171.9870753797
 20
-0.1307531502
 11
-170.8660695701
 21
-0.1247738695
  0
LINE
  5
2D1
100
AcDbEntity
  8
ASSI
100
AcDbLine
 62
7
  6
CONTINUOUS
 10
-171.9870753797
 20
-0.1307531502
 11
-170.8660695701
 21
-0.1247738695
  0
LINE
  5
2D2
100
AcDbEntity
  8
0
100
AcDbLine
 62
7
  6
CONTINUOUS
 10
-173.1375186743
 20
-0.1346540863
 11
-171.9870753797
 21
-0.1307531502
  0
LINE
  5
2D3
100
AcDbEntity
  8
ASSI
100
AcDbLine
 62
7
  6
CONTINUOUS
 10
-173.1375186743
 20
-0.1346540863
 11
-171.9870753797
 21
-0.1307531502
  0
LINE
  5
2D4
100
AcDbEntity
  8
0
100
AcDbLine
 62
7
  6
CONTINUOUS
 10
-174.303793686
 20
-0.1364344206
 11
-173.1375186743
 21
-0.1346540863
  0
LINE
  5
2D5
100
AcDbEntity
  8
ASSI
100
AcDbLine
 62
7
  6
CONTINUOUS
 10
-174.303793686
 20
-0.1364344206
 11
-173.1375186743
 21
-0.1346540863
  0
LINE
  5
2D6
100
AcDbEntity
  8
0
100
AcDbLine
 62
7
  6
CONTINUOUS
 10
-2.81568572
 20
-0.2412874989
 11
-186.5746683914
 21
-0.2412874989
  0
LINE
  5
2D7
100
AcDbEntity
  8
ASSI
100
AcDbLine
 62
7
  6
CONTINUOUS
 10
-2.81568572
 20
-0.2412874989
 11
-186.5746683914
 21
-0.2412874989
  0
LINE
  5
2D8
100
AcDbEntity
  8
0
100
AcDbLine
 62
7
  6
CONTINUOUS
 10
-182.1951770557
 20
-0.1365544509
 11
-174.303793686
 21
-0.1364344206
  0
LINE
  5
2D9
100
AcDbEntity
  8
ASSI
100
AcDbLine
 62
7
  6
CONTINUOUS
 10
-182.1951770557
 20
-0.1365544509
 11
-174.303793686
 21
-0.1364344206
  0
LINE
  5
2DA
100
AcDbEntity
  8
RACCORDO
100
AcDbLine
 62
7
  6
CONTINUOUS
 10
-187.1339998158
 20
-0.1191020445
 11
-182.1951770557
 21
-0.1191020445
  0
LINE
  5
2DB
100
AcDbEntity
  8
ASSI
100
AcDbLine
 62
7
  6
CONTINUOUS
 10
-187.1339998158
 20
-0.1191020445
 11
-182.1951770557
 21
-0.1191020445
  0
LINE
  5
2DC
100
AcDbEntity
  8
0
100
AcDbLine
 62
7
  6
CONTINUOUS
 10
-144.4451770557
 20
-0.1191020445
 11
-142.9451770557
 21
-0.1191020445
  0
LINE
  5
2DD
100
AcDbEntity
  8
ASSI
100
AcDbLine
 62
7
  6
CONTINUOUS
 10
-144.4451770557
 20
-0.1191020445
 11
-142.9451770557
 21
-0.1191020445
  0
LINE
  5
2DE
100
AcDbEntity
  8
0
100
AcDbLine
 62
7
  6
CONTINUOUS
 10
-116.4451770557
 20
-0.1191020445
 11
-114.9451770557
 21
-0.1191020445
  0
LINE
  5
2DF
100
AcDbEntity
  8
ASSI
100
AcDbLine
 62
7
  6
CONTINUOUS
 10
-116.4451770557
 20
-0.1191020445
 11
-114.9451770557
 21
-0.1191020445
  0
LINE
  5
2E0
100
AcDbEntity
  8
DRAFT
100
AcDbLine
 62
7
  6
CONTINUOUS
 10
-74.4451770557
 20
-0.1191020445
 11
-72.9451770557
 21
-0.1191020445
  0
LINE
  5
2E1
100
AcDbEntity
  8
ASSI
100
AcDbLine
 62
7
  6
CONTINUOUS
 10
-74.4451770557
 20
-0.1191020445
 11
-72.9451770557
 21
-0.1191020445
  0
LINE
  5
2E2
100
AcDbEntity
  8
DRAFT
100
AcDbLine
 62
7
  6
CONTINUOUS
 10
-46.4451770557
 20
-0.1191020445
 11
-44.9451770557
 21
-0.1191020445
  0
LINE
  5
2E3
100
AcDbEntity
  8
ASSI
100
AcDbLine
 62
7
  6
CONTINUOUS
 10
-46.4451770557
 20
-0.1191020445
 11
-44.9451770557
 21
-0.1191020445
  0
LINE
  5
2E4
100
AcDbEntity
  8
0
100
AcDbLine
 62
7
  6
CONTINUOUS
 10
-14.1951770557
 20
-0.1191020445
 11
-2.2563542956
 21
-0.1191020445
  0
LINE
  5
2E5
100
AcDbEntity
  8
RACCORDO
100
AcDbLine
 62
7
  6
CONTINUOUS
 10
-2.2563542956
 20
-0.1191020445
 11
-14.1951770557
 21
-0.1191020445
  0
LINE
  5
2E6
100
AcDbEntity
  8
ASSI
100
AcDbLine
 62
7
  6
CONTINUOUS
 10
-2.2563542956
 20
-0.1191020445
 11
-14.1951770557
 21
-0.1191020445
  0
LINE
  5
2E7
100
AcDbEntity
  8
0
100
AcDbLine
 62
7
  6
CONTINUOUS
 10
-182.1951770557
 20
-0.1191020445
 11
-187.1339998158
 21
-0.1191020445
  0
LINE
  5
2E8
100
AcDbEntity
  8
DRAFT
100
AcDbLine
 62
7
  6
CONTINUOUS
 10
-186.5598935696
 20
-0.0412874989
 11
-158.2649973154
 21
-0.0412874989
  0
LINE
  5
2E9
100
AcDbEntity
  8
DRAFT
100
AcDbLine
 62
7
  6
CONTINUOUS
 10
-151.125356796
 20
-0.0412874989
 11
-38.2649973154
 21
-0.0412874989
  0
LINE
  5
2EA
100
AcDbEntity
  8
DRAFT
100
AcDbLine
 62
7
  6
CONTINUOUS
 10
-31.125356796
 20
-0.0412874989
 11
-2.8304605418
 21
-0.0412874989
  0
LINE
  5
2EB
100
AcDbEntity
  8
DRAFT
100
AcDbLine
 62
7
  6
CONTINUOUS
 10
-158.1951770557
 20
0.0285327608
 11
-157.9451770557
 21
0.0285327608
  0
LINE
  5
2EC
100
AcDbEntity
  8
DRAFT
100
AcDbLine
 62
7
  6
CONTINUOUS
 10
-151.4451770557
 20
0.0285327608
 11
-151.1951770557
 21
0.0285327608
  0
LINE
  5
2ED
100
AcDbEntity
  8
DRAFT
100
AcDbLine
 62
7
  6
CONTINUOUS
 10
-38.1951770557
 20
0.0285327608
 11
-37.9451770557
 21
0.0285327608
  0
LINE
  5
2EE
100
AcDbEntity
  8
DRAFT
100
AcDbLine
 62
7
  6
CONTINUOUS
 10
-31.4451770557
 20
0.0285327608
 11
-31.1951770557
 21
0.0285327608
  0
LINE
  5
2EF
100
AcDbEntity
  8
0
100
AcDbLine
 62
7
  6
CONTINUOUS
 10
-37.9451770557
 20
1.5445767362
 11
-31.4451770557
 21
1.5445767362
  0
LINE
  5
2F0
100
AcDbEntity
  8
ASSI
100
AcDbLine
 62
7
  6
CONTINUOUS
 10
-37.9451770557
 20
1.5445767362
 11
-31.4451770557
 21
1.5445767362
  0
LINE
  5
2F1
100
AcDbEntity
  8
0
100
AcDbLine
 62
7
  6
CONTINUOUS
 10
-151.4451770557
 20
1.5445767362
 11
-157.9451770557
 21
1.5445767362
  0
LINE
  5
2F2
100
AcDbEntity
  8
ASSI
100
AcDbLine
 62
7
  6
CONTINUOUS
 10
-151.4451770557
 20
1.5445767362
 11
-157.9451770557
 21
1.5445767362
  0
LINE
  5
2F3
100
AcDbEntity
  8
0
100
AcDbLine
 62
253
  6
CONTINUOUS
 10
-200.2176438665
 20
1.7937072955
 11
-198.9118565732
 21
1.7937072955
  0
LINE
  5
2F4
100
AcDbEntity
  8
RACCORDO
100
AcDbLine
 62
253
  6
CONTINUOUS
 10
10.8825441004
 20
1.7937072955
 11
10.8272897551
 21
1.7937072955
  0
LINE
  5
2F5
100
AcDbEntity
  8
ASSI
100
AcDbLine
 62
253
  6
CONTINUOUS
 10
10.8825441004
 20
1.7937072955
 11
10.8272897551
 21
1.7937072955
  0
LINE
  5
2F6
100
AcDbEntity
  8
0
100
AcDbLine
 62
253
  6
CONTINUOUS
 10
10.8272897551
 20
1.7937072955
 11
9.5215024618
 21
1.7937072955
  0
LINE
  5
2F7
100
AcDbEntity
  8
RACCORDO
100
AcDbLine
 62
253
  6
CONTINUOUS
 10
-200.2176438665
 20
1.7937072955
 11
-200.2728982118
 21
1.7937072955
  0
LINE
  5
2F8
100
AcDbEntity
  8
ASSI
100
AcDbLine
 62
253
  6
CONTINUOUS
 10
-200.2176438665
 20
1.7937072955
 11
-200.2728982118
 21
1.7937072955
  0
LINE
  5
2F9
100
AcDbEntity
  8
DRAFT
100
AcDbLine
 62
7
  6
CONTINUOUS
 10
-158.1951770557
 20
2.0445767362
 11
-151.1951770557
 21
2.0445767362
  0
LINE
  5
2FA
100
AcDbEntity
  8
DRAFT
100
AcDbLine
 62
7
  6
CONTINUOUS
 10
-31.1951770557
 20
2.0445767362
 11
-38.1951770557
 21
2.0445767362
  0
LINE
  5
2FB
100
AcDbEntity
  8
DRAFT
100
AcDbLine
 62
7
  6
CONTINUOUS
 10
-31.125356796
 20
2.1143969959
 11
-38.2649973154
 21
2.1143969959
  0
LINE
  5
2FC
100
AcDbEntity
  8
DRAFT
100
AcDbLine
 62
7
  6
CONTINUOUS
 10
-151.125356796
 20
2.1143969959
 11
-158.2649973154
 21
2.1143969959
  0
LINE
  5
2FD
100
AcDbEntity
  8
0
100
AcDbLine
 62
253
  6
CONTINUOUS
 10
-201.5159128484
 20
3.2011649954
 11
-201.350797696
 21
3.2011649954
  0
LINE
  5
2FE
100
AcDbEntity
  8
0
100
AcDbLine
 62
253
  6
CONTINUOUS
 10
12.1255587371
 20
3.2011649954
 11
11.9604435846
 21
3.2011649954
  0
LINE
  5
2FF
100
AcDbEntity
  8
RACCORDO
100
AcDbLine
 62
253
  6
CONTINUOUS
 10
12.1601849535
 20
3.2011649954
 11
12.1255587371
 21
3.2011649954
  0
LINE
  5
300
100
AcDbEntity
  8
ASSI
100
AcDbLine
 62
253
  6
CONTINUOUS
 10
12.1601849535
 20
3.2011649954
 11
12.1255587371
 21
3.2011649954
  0
LINE
  5
301
100
AcDbEntity
  8
RACCORDO
100
AcDbLine
 62
253
  6
CONTINUOUS
 10
-201.5159128484
 20
3.2011649954
 11
-201.5505390649
 21
3.2011649954
  0
LINE
  5
302
100
AcDbEntity
  8
ASSI
100
AcDbLine
 62
253
  6
CONTINUOUS
 10
-201.5159128484
 20
3.2011649954
 11
-201.5505390649
 21
3.2011649954
  0
LINE
  5
303
100
AcDbEntity
  8
0
100
AcDbLine
 62
253
  6
CONTINUOUS
 10
12.1427617659
 20
3.5360015202
 11
11.9755908724
 21
3.5360015202
  0
LINE
  5
304
100
AcDbEntity
  8
0
100
AcDbLine
 62
253
  6
CONTINUOUS
 10
-201.3659449837
 20
3.5360015202
 11
-201.5331158773
 21
3.5360015202
  0
LINE
  5
305
100
AcDbEntity
  8
RACCORDO
100
AcDbLine
 62
7
  6
CONTINUOUS
 10
12.1900381295
 20
3.7945767362
 11
11.9876545968
 21
3.7945767362
  0
LINE
  5
306
100
AcDbEntity
  8
ASSI
100
AcDbLine
 62
7
  6
CONTINUOUS
 10
12.1900381295
 20
3.7945767362
 11
11.9876545968
 21
3.7945767362
  0
LINE
  5
307
100
AcDbEntity
  8
RACCORDO
100
AcDbLine
 62
7
  6
CONTINUOUS
 10
-201.3780087082
 20
3.7945767362
 11
-201.5803922409
 21
3.7945767362
  0
LINE
  5
308
100
AcDbEntity
  8
ASSI
100
AcDbLine
 62
7
  6
CONTINUOUS
 10
-201.3780087082
 20
3.7945767362
 11
-201.5803922409
 21
3.7945767362
  0
LINE
  5
309
100
AcDbEntity
  8
0
100
AcDbLine
 62
7
  6
CONTINUOUS
 10
-14.1951770557
 20
-0.1365544509
 11
-15.4765526809
 21
-0.1360778914
  0
LINE
  5
30A
100
AcDbEntity
  8
ASSI
100
AcDbLine
 62
7
  6
CONTINUOUS
 10
-14.1951770557
 20
-0.1365544509
 11
-15.4765526809
 21
-0.1360778914
  0
LINE
  5
30B
100
AcDbEntity
  8
0
100
AcDbLine
 62
7
  6
CONTINUOUS
 10
-15.4765526809
 20
-0.1360778914
 11
-16.252835437
 21
-0.1346540863
  0
LINE
  5
30C
100
AcDbEntity
  8
ASSI
100
AcDbLine
 62
7
  6
CONTINUOUS
 10
-15.4765526809
 20
-0.1360778914
 11
-16.252835437
 21
-0.1346540863
  0
LINE
  5
30D
100
AcDbEntity
  8
0
100
AcDbLine
 62
7
  6
CONTINUOUS
 10
-16.252835437
 20
-0.1346540863
 11
-17.0226105599
 21
-0.1322867844
  0
LINE
  5
30E
100
AcDbEntity
  8
ASSI
100
AcDbLine
 62
7
  6
CONTINUOUS
 10
-16.252835437
 20
-0.1346540863
 11
-17.0226105599
 21
-0.1322867844
  0
LINE
  5
30F
100
AcDbEntity
  8
0
100
AcDbLine
 62
7
  6
CONTINUOUS
 10
-17.0226105599
 20
-0.1322867844
 11
-17.7811410248
 21
-0.1289867657
  0
LINE
  5
310
100
AcDbEntity
  8
ASSI
100
AcDbLine
 62
7
  6
CONTINUOUS
 10
-17.0226105599
 20
-0.1322867844
 11
-17.7811410248
 21
-0.1289867657
  0
LINE
  5
311
100
AcDbEntity
  8
0
100
AcDbLine
 62
7
  6
CONTINUOUS
 10
-17.7811410248
 20
-0.1289867657
 11
-18.5242845412
 21
-0.1247738695
  0
LINE
  5
312
100
AcDbEntity
  8
ASSI
100
AcDbLine
 62
7
  6
CONTINUOUS
 10
-17.7811410248
 20
-0.1289867657
 11
-18.5242845412
 21
-0.1247738695
  0
LINE
  5
313
100
AcDbEntity
  8
0
100
AcDbLine
 62
7
  6
CONTINUOUS
 10
-18.5242845412
 20
-0.1247738695
 11
-19.2493178739
 21
-0.1196632749
  0
LINE
  5
314
100
AcDbEntity
  8
ASSI
100
AcDbLine
 62
7
  6
CONTINUOUS
 10
-18.5242845412
 20
-0.1247738695
 11
-19.2493178739
 21
-0.1196632749
  0
LINE
  5
315
100
AcDbEntity
  8
0
100
AcDbLine
 62
7
  6
CONTINUOUS
 10
-19.2493178739
 20
-0.1196632749
 11
-19.952192541
 21
-0.1136807937
  0
LINE
  5
316
100
AcDbEntity
  8
ASSI
100
AcDbLine
 62
7
  6
CONTINUOUS
 10
-19.2493178739
 20
-0.1196632749
 11
-19.952192541
 21
-0.1136807937
  0
LINE
  5
317
100
AcDbEntity
  8
0
100
AcDbLine
 62
7
  6
CONTINUOUS
 10
-19.952192541
 20
-0.1136807937
 11
-20.6290958055
 21
-0.1068610411
  0
LINE
  5
318
100
AcDbEntity
  8
ASSI
100
AcDbLine
 62
7
  6
CONTINUOUS
 10
-19.952192541
 20
-0.1136807937
 11
-20.6290958055
 21
-0.1068610411
  0
LINE
  5
319
100
AcDbEntity
  8
0
100
AcDbLine
 62
7
  6
CONTINUOUS
 10
-20.6290958055
 20
-0.1068610411
 11
-21.2775469385
 21
-0.0992288451
  0
LINE
  5
31A
100
AcDbEntity
  8
ASSI
100
AcDbLine
 62
7
  6
CONTINUOUS
 10
-20.6290958055
 20
-0.1068610411
 11
-21.2775469385
 21
-0.0992288451
  0
LINE
  5
31B
100
AcDbEntity
  8
0
100
AcDbLine
 62
7
  6
CONTINUOUS
 10
-21.2775469385
 20
-0.0992288451
 11
-21.8938994143
 21
-0.0908242528
  0
LINE
  5
31C
100
AcDbEntity
  8
ASSI
100
AcDbLine
 62
7
  6
CONTINUOUS
 10
-21.2775469385
 20
-0.0992288451
 11
-21.8938994143
 21
-0.0908242528
  0
LINE
  5
31D
100
AcDbEntity
  8
0
100
AcDbLine
 62
7
  6
CONTINUOUS
 10
-21.8938994143
 20
-0.0908242528
 11
-22.4748342535
 21
-0.0816951322
  0
LINE
  5
31E
100
AcDbEntity
  8
ASSI
100
AcDbLine
 62
7
  6
CONTINUOUS
 10
-21.8938994143
 20
-0.0908242528
 11
-22.4748342535
 21
-0.0816951322
  0
LINE
  5
31F
100
AcDbEntity
  8
0
100
AcDbLine
 62
7
  6
CONTINUOUS
 10
-22.4748342535
 20
-0.0816951322
 11
-23.0182220484
 21
-0.0718748731
  0
LINE
  5
320
100
AcDbEntity
  8
ASSI
100
AcDbLine
 62
7
  6
CONTINUOUS
 10
-22.4748342535
 20
-0.0816951322
 11
-23.0182220484
 21
-0.0718748731
  0
LINE
  5
321
100
AcDbEntity
  8
0
100
AcDbLine
 62
7
  6
CONTINUOUS
 10
-23.0182220484
 20
-0.0718748731
 11
-23.5209775476
 21
-0.0614160164
  0
LINE
  5
322
100
AcDbEntity
  8
ASSI
100
AcDbLine
 62
7
  6
CONTINUOUS
 10
-23.0182220484
 20
-0.0718748731
 11
-23.5209775476
 21
-0.0614160164
  0
LINE
  5
323
100
AcDbEntity
  8
0
100
AcDbLine
 62
7
  6
CONTINUOUS
 10
-23.5209775476
 20
-0.0614160164
 11
-23.9804301972
 21
-0.0503776302
  0
LINE
  5
324
100
AcDbEntity
  8
ASSI
100
AcDbLine
 62
7
  6
CONTINUOUS
 10
-23.5209775476
 20
-0.0614160164
 11
-23.9804301972
 21
-0.0503776302
  0
LINE
  5
325
100
AcDbEntity
  8
0
100
AcDbLine
 62
7
  6
CONTINUOUS
 10
-23.9804301972
 20
-0.0503776302
 11
-24.3092731201
 21
-0.0412874989
  0
LINE
  5
326
100
AcDbEntity
  8
ASSI
100
AcDbLine
 62
7
  6
CONTINUOUS
 10
-23.9804301972
 20
-0.0503776302
 11
-24.3092731201
 21
-0.0412874989
  0
LINE
  5
327
100
AcDbEntity
  8
DRAFT
100
AcDbLine
 62
7
  6
CONTINUOUS
 10
-158.2649973154
 20
57.1304409714
 11
-158.1951770557
 21
57.0606207117
  0
LINE
  5
328
100
AcDbEntity
  8
RACCORDO
100
AcDbLine
 62
7
  6
CONTINUOUS
 10
-141.1324533494
 20
57.1304409714
 11
-141.1403774612
 21
57.146290402
  0
LINE
  5
329
100
AcDbEntity
  8
ASSI
100
AcDbLine
 62
7
  6
CONTINUOUS
 10
-141.1324533494
 20
57.1304409714
 11
-141.1403774612
 21
57.146290402
  0
LINE
  5
32A
100
AcDbEntity
  8
RACCORDO
100
AcDbLine
 62
7
  6
CONTINUOUS
 10
-110.257900762
 20
-0.0412874989
 11
-110.2499766502
 21
-0.0571369295
  0
LINE
  5
32B
100
AcDbEntity
  8
ASSI
100
AcDbLine
 62
7
  6
CONTINUOUS
 10
-110.257900762
 20
-0.0412874989
 11
-110.2499766502
 21
-0.0571369295
  0
LINE
  5
32C
100
AcDbEntity
  8
RACCORDO
100
AcDbLine
 62
7
  6
CONTINUOUS
 10
-137.1324533494
 20
57.1304409714
 11
-137.1403774612
 21
57.146290402
  0
LINE
  5
32D
100
AcDbEntity
  8
ASSI
100
AcDbLine
 62
7
  6
CONTINUOUS
 10
-137.1324533494
 20
57.1304409714
 11
-137.1403774612
 21
57.146290402
  0
LINE
  5
32E
100
AcDbEntity
  8
0
100
AcDbLine
 62
7
  6
CONTINUOUS
 10
-114.9451770557
 20
-0.1191020445
 11
-114.9451770557
 21
-0.0412874989
  0
LINE
  5
32F
100
AcDbEntity
  8
ASSI
100
AcDbLine
 62
7
  6
CONTINUOUS
 10
-114.9451770557
 20
-0.1191020445
 11
-114.9451770557
 21
-0.0412874989
  0
LINE
  5
330
100
AcDbEntity
  8
0
100
AcDbLine
 62
7
  6
CONTINUOUS
 10
-114.9451770557
 20
57.1304409714
 11
-114.9451770557
 21
57.2082555169
  0
LINE
  5
331
100
AcDbEntity
  8
ASSI
100
AcDbLine
 62
7
  6
CONTINUOUS
 10
-114.9451770557
 20
57.1304409714
 11
-114.9451770557
 21
57.2082555169
  0
LINE
  5
332
100
AcDbEntity
  8
RACCORDO
100
AcDbLine
 62
7
  6
CONTINUOUS
 10
-133.1324533494
 20
-0.0412874989
 11
-133.1403774612
 21
-0.0571369295
  0
LINE
  5
333
100
AcDbEntity
  8
ASSI
100
AcDbLine
 62
7
  6
CONTINUOUS
 10
-133.1324533494
 20
-0.0412874989
 11
-133.1403774612
 21
-0.0571369295
  0
LINE
  5
334
100
AcDbEntity
  8
RACCORDO
100
AcDbLine
 62
7
  6
CONTINUOUS
 10
-129.1324533494
 20
-0.0412874989
 11
-129.1403774612
 21
-0.0571369295
  0
LINE
  5
335
100
AcDbEntity
  8
ASSI
100
AcDbLine
 62
7
  6
CONTINUOUS
 10
-129.1324533494
 20
-0.0412874989
 11
-129.1403774612
 21
-0.0571369295
  0
LINE
  5
336
100
AcDbEntity
  8
RACCORDO
100
AcDbLine
 62
7
  6
CONTINUOUS
 10
-125.1324533494
 20
-0.0412874989
 11
-125.1403774612
 21
-0.0571369295
  0
LINE
  5
337
100
AcDbEntity
  8
ASSI
100
AcDbLine
 62
7
  6
CONTINUOUS
 10
-125.1324533494
 20
-0.0412874989
 11
-125.1403774612
 21
-0.0571369295
  0
LINE
  5
338
100
AcDbEntity
  8
DRAFT
100
AcDbLine
 62
7
  6
CONTINUOUS
 10
-151.1951770557
 20
2.0445767362
 11
-151.125356796
 21
2.1143969959
  0
LINE
  5
339
100
AcDbEntity
  8
DRAFT
100
AcDbLine
 62
7
  6
CONTINUOUS
 10
-151.1951770557
 20
55.0445767362
 11
-151.125356796
 21
54.9747564765
  0
LINE
  5
33A
100
AcDbEntity
  8
RACCORDO
100
AcDbLine
 62
7
  6
CONTINUOUS
 10
-133.1324533494
 20
57.1304409714
 11
-133.1403774612
 21
57.146290402
  0
LINE
  5
33B
100
AcDbEntity
  8
ASSI
100
AcDbLine
 62
7
  6
CONTINUOUS
 10
-133.1324533494
 20
57.1304409714
 11
-133.1403774612
 21
57.146290402
  0
LINE
  5
33C
100
AcDbEntity
  8
RACCORDO
100
AcDbLine
 62
7
  6
CONTINUOUS
 10
-129.1324533494
 20
57.1304409714
 11
-129.1403774612
 21
57.146290402
  0
LINE
  5
33D
100
AcDbEntity
  8
ASSI
100
AcDbLine
 62
7
  6
CONTINUOUS
 10
-129.1324533494
 20
57.1304409714
 11
-129.1403774612
 21
57.146290402
  0
LINE
  5
33E
100
AcDbEntity
  8
RACCORDO
100
AcDbLine
 62
7
  6
CONTINUOUS
 10
-125.1324533494
 20
57.1304409714
 11
-125.1403774612
 21
57.146290402
  0
LINE
  5
33F
100
AcDbEntity
  8
ASSI
100
AcDbLine
 62
7
  6
CONTINUOUS
 10
-125.1324533494
 20
57.1304409714
 11
-125.1403774612
 21
57.146290402
  0
LINE
  5
340
100
AcDbEntity
  8
RACCORDO
100
AcDbLine
 62
7
  6
CONTINUOUS
 10
-121.1324533494
 20
-0.0412874989
 11
-121.1403774612
 21
-0.0571369295
  0
LINE
  5
341
100
AcDbEntity
  8
ASSI
100
AcDbLine
 62
7
  6
CONTINUOUS
 10
-121.1324533494
 20
-0.0412874989
 11
-121.1403774612
 21
-0.0571369295
  0
LINE
  5
342
100
AcDbEntity
  8
RACCORDO
100
AcDbLine
 62
7
  6
CONTINUOUS
 10
-117.1324533494
 20
-0.0412874989
 11
-117.1403774612
 21
-0.0571369295
  0
LINE
  5
343
100
AcDbEntity
  8
ASSI
100
AcDbLine
 62
7
  6
CONTINUOUS
 10
-117.1324533494
 20
-0.0412874989
 11
-117.1403774612
 21
-0.0571369295
  0
LINE
  5
344
100
AcDbEntity
  8
RACCORDO
100
AcDbLine
 62
7
  6
CONTINUOUS
 10
-121.1324533494
 20
57.1304409714
 11
-121.1403774612
 21
57.146290402
  0
LINE
  5
345
100
AcDbEntity
  8
ASSI
100
AcDbLine
 62
7
  6
CONTINUOUS
 10
-121.1324533494
 20
57.1304409714
 11
-121.1403774612
 21
57.146290402
  0
LINE
  5
346
100
AcDbEntity
  8
RACCORDO
100
AcDbLine
 62
7
  6
CONTINUOUS
 10
-117.1324533494
 20
57.1304409714
 11
-117.1403774612
 21
57.146290402
  0
LINE
  5
347
100
AcDbEntity
  8
ASSI
100
AcDbLine
 62
7
  6
CONTINUOUS
 10
-117.1324533494
 20
57.1304409714
 11
-117.1403774612
 21
57.146290402
  0
LINE
  5
348
100
AcDbEntity
  8
RACCORDO
100
AcDbLine
 62
7
  6
CONTINUOUS
 10
-113.1324533494
 20
-0.0412874989
 11
-113.1403774612
 21
-0.0571369295
  0
LINE
  5
349
100
AcDbEntity
  8
ASSI
100
AcDbLine
 62
7
  6
CONTINUOUS
 10
-113.1324533494
 20
-0.0412874989
 11
-113.1403774612
 21
-0.0571369295
  0
LINE
  5
34A
100
AcDbEntity
  8
RACCORDO
100
AcDbLine
 62
7
  6
CONTINUOUS
 10
-109.1324533494
 20
-0.0412874989
 11
-109.1403774612
 21
-0.0571369295
  0
LINE
  5
34B
100
AcDbEntity
  8
ASSI
100
AcDbLine
 62
7
  6
CONTINUOUS
 10
-109.1324533494
 20
-0.0412874989
 11
-109.1403774612
 21
-0.0571369295
  0
LINE
  5
34C
100
AcDbEntity
  8
0
100
AcDbLine
 62
7
  6
CONTINUOUS
 10
-2.6316690433
 20
57.1009087129
 11
-2.2563542956
 21
57.2082555169
  0
LINE
  5
34D
100
AcDbEntity
  8
ASSI
100
AcDbLine
 62
7
  6
CONTINUOUS
 10
-2.2563542956
 20
57.2082555169
 11
-2.1664007196
 21
57.2339838661
  0
LINE
  5
34E
100
AcDbEntity
  8
RACCORDO
100
AcDbLine
 62
7
  6
CONTINUOUS
 10
-201.9824592263
 20
25.5445767362
 11
-202.1861498927
 21
25.5445767362
  0
LINE
  5
34F
100
AcDbEntity
  8
ASSI
100
AcDbLine
 62
7
  6
CONTINUOUS
 10
-201.9824592263
 20
25.5445767362
 11
-202.1861498927
 21
25.5445767362
  0
LINE
  5
350
100
AcDbEntity
  8
0
100
AcDbLine
 62
7
  6
CONTINUOUS
 10
-2.6316690433
 20
-0.0117552404
 11
-2.2563542956
 21
-0.1191020445
  0
LINE
  5
351
100
AcDbEntity
  8
ASSI
100
AcDbLine
 62
7
  6
CONTINUOUS
 10
-2.2563542956
 20
-0.1191020445
 11
-2.1664007196
 21
-0.1448303937
  0
LINE
  5
352
100
AcDbEntity
  8
RACCORDO
100
AcDbLine
 62
7
  6
CONTINUOUS
 10
-113.1324533494
 20
57.1304409714
 11
-113.1403774612
 21
57.146290402
  0
LINE
  5
353
100
AcDbEntity
  8
ASSI
100
AcDbLine
 62
7
  6
CONTINUOUS
 10
-113.1324533494
 20
57.1304409714
 11
-113.1403774612
 21
57.146290402
  0
LINE
  5
354
100
AcDbEntity
  8
RACCORDO
100
AcDbLine
 62
7
  6
CONTINUOUS
 10
-109.1324533494
 20
57.1304409714
 11
-109.1403774612
 21
57.146290402
  0
LINE
  5
355
100
AcDbEntity
  8
ASSI
100
AcDbLine
 62
7
  6
CONTINUOUS
 10
-109.1324533494
 20
57.1304409714
 11
-109.1403774612
 21
57.146290402
  0
LINE
  5
356
100
AcDbEntity
  8
DRAFT
100
AcDbLine
 62
7
  6
CONTINUOUS
 10
-74.4840813653
 20
57.1304409714
 11
-74.4451770557
 21
57.2082555169
  0
LINE
  5
357
100
AcDbEntity
  8
ASSI
100
AcDbLine
 62
7
  6
CONTINUOUS
 10
-74.4840813653
 20
57.1304409714
 11
-74.4451770557
 21
57.2082555169
  0
LINE
  5
358
100
AcDbEntity
  8
0
100
AcDbLine
 62
7
  6
CONTINUOUS
 10
-186.7586850681
 20
-0.0117552404
 11
-187.1339998158
 21
-0.1191020445
  0
LINE
  5
359
100
AcDbEntity
  8
ASSI
100
AcDbLine
 62
7
  6
CONTINUOUS
 10
-187.1339998158
 20
-0.1191020445
 11
-187.2239533918
 21
-0.1448303937
  0
LINE
  5
35A
100
AcDbEntity
  8
RACCORDO
100
AcDbLine
 62
7
  6
CONTINUOUS
 10
-202.1861498927
 20
31.5445767362
 11
-201.9824592263
 21
31.5445767362
  0
LINE
  5
35B
100
AcDbEntity
  8
ASSI
100
AcDbLine
 62
7
  6
CONTINUOUS
 10
-202.1861498927
 20
31.5445767362
 11
-201.9824592263
 21
31.5445767362
  0
LINE
  5
35C
100
AcDbEntity
  8
0
100
AcDbLine
 62
7
  6
CONTINUOUS
 10
-186.7586850681
 20
57.1009087129
 11
-187.1339998158
 21
57.2082555169
  0
LINE
  5
35D
100
AcDbEntity
  8
ASSI
100
AcDbLine
 62
7
  6
CONTINUOUS
 10
-187.1339998158
 20
57.2082555169
 11
-187.2239533918
 21
57.2339838661
  0
LINE
  5
35E
100
AcDbEntity
  8
DRAFT
100
AcDbLine
 62
7
  6
CONTINUOUS
 10
-74.4840813653
 20
-0.0412874989
 11
-74.4451770557
 21
-0.1191020445
  0
LINE
  5
35F
100
AcDbEntity
  8
ASSI
100
AcDbLine
 62
7
  6
CONTINUOUS
 10
-74.4840813653
 20
-0.0412874989
 11
-74.4451770557
 21
-0.1191020445
  0
LINE
  5
360
100
AcDbEntity
  8
DRAFT
100
AcDbLine
 62
7
  6
CONTINUOUS
 10
-74.4451770557
 20
57.2082555169
 11
-74.4451770557
 21
57.1304409714
  0
LINE
  5
361
100
AcDbEntity
  8
ASSI
100
AcDbLine
 62
7
  6
CONTINUOUS
 10
-74.4451770557
 20
57.2082555169
 11
-74.4451770557
 21
57.1304409714
  0
LINE
  5
362
100
AcDbEntity
  8
DRAFT
100
AcDbLine
 62
7
  6
CONTINUOUS
 10
-74.4451770557
 20
-0.1191020445
 11
-74.4451770557
 21
-0.0412874989
  0
LINE
  5
363
100
AcDbEntity
  8
ASSI
100
AcDbLine
 62
7
  6
CONTINUOUS
 10
-74.4451770557
 20
-0.1191020445
 11
-74.4451770557
 21
-0.0412874989
  0
LINE
  5
364
100
AcDbEntity
  8
DRAFT
100
AcDbLine
 62
7
  6
CONTINUOUS
 10
-72.9451770557
 20
57.2082555169
 11
-72.9451770557
 21
57.1304409714
  0
LINE
  5
365
100
AcDbEntity
  8
ASSI
100
AcDbLine
 62
7
  6
CONTINUOUS
 10
-72.9451770557
 20
57.2082555169
 11
-72.9451770557
 21
57.1304409714
  0
LINE
  5
366
100
AcDbEntity
  8
DRAFT
100
AcDbLine
 62
7
  6
CONTINUOUS
 10
-72.9451770557
 20
-0.1191020445
 11
-72.9451770557
 21
-0.0412874989
  0
LINE
  5
367
100
AcDbEntity
  8
ASSI
100
AcDbLine
 62
7
  6
CONTINUOUS
 10
-72.9451770557
 20
-0.1191020445
 11
-72.9451770557
 21
-0.0412874989
  0
LINE
  5
368
100
AcDbEntity
  8
DRAFT
100
AcDbLine
 62
7
  6
CONTINUOUS
 10
-38.1951770557
 20
55.0445767362
 11
-38.2649973154
 21
54.9747564765
  0
LINE
  5
369
100
AcDbEntity
  8
DRAFT
100
AcDbLine
 62
7
  6
CONTINUOUS
 10
-38.1951770557
 20
2.0445767362
 11
-38.2649973154
 21
2.1143969959
  0
LINE
  5
36A
100
AcDbEntity
  8
DRAFT
100
AcDbLine
 62
7
  6
CONTINUOUS
 10
-46.4840813653
 20
57.1304409714
 11
-46.4451770557
 21
57.2082555169
  0
LINE
  5
36B
100
AcDbEntity
  8
ASSI
100
AcDbLine
 62
7
  6
CONTINUOUS
 10
-46.4840813653
 20
57.1304409714
 11
-46.4451770557
 21
57.2082555169
  0
LINE
  5
36C
100
AcDbEntity
  8
DRAFT
100
AcDbLine
 62
7
  6
CONTINUOUS
 10
-31.125356796
 20
57.1304409714
 11
-31.1951770557
 21
57.0606207117
  0
LINE
  5
36D
100
AcDbEntity
  8
0
100
AcDbLine
 62
7
  6
CONTINUOUS
 10
-24.3092730196
 20
57.1304409714
 11
-23.9804399547
 21
57.1395308501
  0
LINE
  5
36E
100
AcDbEntity
  8
ASSI
100
AcDbLine
 62
7
  6
CONTINUOUS
 10
-24.3092730196
 20
57.1304409714
 11
-23.9804399547
 21
57.1395308501
  0
LINE
  5
36F
100
AcDbEntity
  8
0
100
AcDbLine
 62
7
  6
CONTINUOUS
 10
-23.9804399547
 20
57.1395308501
 11
-23.5209845846
 21
57.1505693312
  0
LINE
  5
370
100
AcDbEntity
  8
ASSI
100
AcDbLine
 62
7
  6
CONTINUOUS
 10
-23.9804399547
 20
57.1395308501
 11
-23.5209845846
 21
57.1505693312
  0
LINE
  5
371
100
AcDbEntity
  8
0
100
AcDbLine
 62
7
  6
CONTINUOUS
 10
-23.5209845846
 20
57.1505693312
 11
-23.0182252368
 21
57.1610282838
  0
LINE
  5
372
100
AcDbEntity
  8
ASSI
100
AcDbLine
 62
7
  6
CONTINUOUS
 10
-23.5209845846
 20
57.1505693312
 11
-23.0182252368
 21
57.1610282838
  0
LINE
  5
373
100
AcDbEntity
  8
0
100
AcDbLine
 62
7
  6
CONTINUOUS
 10
-23.0182252368
 20
57.1610282838
 11
-22.4748326705
 21
57.1708486311
  0
LINE
  5
374
100
AcDbEntity
  8
ASSI
100
AcDbLine
 62
7
  6
CONTINUOUS
 10
-23.0182252368
 20
57.1610282838
 11
-22.4748326705
 21
57.1708486311
  0
LINE
  5
375
100
AcDbEntity
  8
0
100
AcDbLine
 62
7
  6
CONTINUOUS
 10
-22.4748326705
 20
57.1708486311
 11
-21.8938925351
 21
57.1799778259
  0
LINE
  5
376
100
AcDbEntity
  8
ASSI
100
AcDbLine
 62
7
  6
CONTINUOUS
 10
-22.4748326705
 20
57.1708486311
 11
-21.8938925351
 21
57.1799778259
  0
LINE
  5
377
100
AcDbEntity
  8
0
100
AcDbLine
 62
7
  6
CONTINUOUS
 10
-21.8938925351
 20
57.1799778259
 11
-21.2775345236
 21
57.188382475
  0
LINE
  5
378
100
AcDbEntity
  8
ASSI
100
AcDbLine
 62
7
  6
CONTINUOUS
 10
-21.8938925351
 20
57.1799778259
 11
-21.2775345236
 21
57.188382475
  0
LINE
  5
379
100
AcDbEntity
  8
0
100
AcDbLine
 62
7
  6
CONTINUOUS
 10
-21.2775345236
 20
57.188382475
 11
-20.6290780947
 21
57.1960147063
  0
LINE
  5
37A
100
AcDbEntity
  8
ASSI
100
AcDbLine
 62
7
  6
CONTINUOUS
 10
-21.2775345236
 20
57.188382475
 11
-20.6290780947
 21
57.1960147063
  0
LINE
  5
37B
100
AcDbEntity
  8
0
100
AcDbLine
 62
7
  6
CONTINUOUS
 10
-20.6290780947
 20
57.1960147063
 11
-19.9521703296
 21
57.2028344723
  0
LINE
  5
37C
100
AcDbEntity
  8
ASSI
100
AcDbLine
 62
7
  6
CONTINUOUS
 10
-20.6290780947
 20
57.1960147063
 11
-19.9521703296
 21
57.2028344723
  0
LWPOLYLINE
  5
37D
100
AcDbEntity
  8
RACCORDO
100
AcDbPolyline
 62
7
  6
CONTINUOUS
 90
10
 70
0
 10
-186.8743980685
 20
58.7695767362
 10
-186.92317381
 20
58.7691689209
 10
-186.9720337727
 20
58.7679643026
 10
-187.0209648722
 20
58.7659584617
 10
-187.0700186946
 20
58.7631429302
 10
-187.1191168857
 20
58.759515845
 10
-187.168051935
 20
58.755092536
 10
-187.2167466126
 20
58.7498863596
 10
-187.2652531888
 20
58.7438981116
 10
-187.313559371
 20
58.7371340863
  0
LWPOLYLINE
  5
37E
100
AcDbEntity
  8
ASSI
100
AcDbPolyline
 62
7
  6
CONTINUOUS
 90
10
 70
0
 10
-186.8743980685
 20
58.7695767362
 10
-186.92317381
 20
58.7691689209
 10
-186.9720337727
 20
58.7679643026
 10
-187.0209648722
 20
58.7659584617
 10
-187.0700186946
 20
58.7631429302
 10
-187.1191168857
 20
58.759515845
 10
-187.168051935
 20
58.755092536
 10
-187.2167466126
 20
58.7498863596
 10
-187.2652531888
 20
58.7438981116
 10
-187.313559371
 20
58.7371340863
  0
LINE
  5
37F
100
AcDbEntity
  8
0
100
AcDbLine
 62
7
  6
CONTINUOUS
 10
-19.9521703296
 20
57.2028344723
 11
-19.2492923071
 21
57.208816946
  0
LINE
  5
380
100
AcDbEntity
  8
ASSI
100
AcDbLine
 62
7
  6
CONTINUOUS
 10
-19.9521703296
 20
57.2028344723
 11
-19.2492923071
 21
57.208816946
  0
LINE
  5
381
100
AcDbEntity
  8
0
100
AcDbLine
 62
7
  6
CONTINUOUS
 10
-19.2492923071
 20
57.208816946
 11
-18.5242572995
 21
57.2139275145
  0
LINE
  5
382
100
AcDbEntity
  8
ASSI
100
AcDbLine
 62
7
  6
CONTINUOUS
 10
-19.2492923071
 20
57.208816946
 11
-18.5242572995
 21
57.2139275145
  0
LINE
  5
383
100
AcDbEntity
  8
0
100
AcDbLine
 62
7
  6
CONTINUOUS
 10
-18.5242572995
 20
57.2139275145
 11
-17.7811141558
 21
57.2181403729
  0
LINE
  5
384
100
AcDbEntity
  8
ASSI
100
AcDbLine
 62
7
  6
CONTINUOUS
 10
-18.5242572995
 20
57.2139275145
 11
-17.7811141558
 21
57.2181403729
  0
LINE
  5
385
100
AcDbEntity
  8
0
100
AcDbLine
 62
7
  6
CONTINUOUS
 10
-17.7811141558
 20
57.2181403729
 11
-17.0225863416
 21
57.2214403467
  0
LINE
  5
386
100
AcDbEntity
  8
ASSI
100
AcDbLine
 62
7
  6
CONTINUOUS
 10
-17.7811141558
 20
57.2181403729
 11
-17.0225863416
 21
57.2214403467
  0
LINE
  5
387
100
AcDbEntity
  8
0
100
AcDbLine
 62
7
  6
CONTINUOUS
 10
-17.0225863416
 20
57.2214403467
 11
-16.2528164658
 21
57.2238076048
  0
LINE
  5
388
100
AcDbEntity
  8
ASSI
100
AcDbLine
 62
7
  6
CONTINUOUS
 10
-17.0225863416
 20
57.2214403467
 11
-16.2528164658
 21
57.2238076048
  0
LINE
  5
389
100
AcDbEntity
  8
0
100
AcDbLine
 62
7
  6
CONTINUOUS
 10
-16.2528164658
 20
57.2238076048
 11
-15.4765417595
 21
57.2252313788
  0
LINE
  5
38A
100
AcDbEntity
  8
ASSI
100
AcDbLine
 62
7
  6
CONTINUOUS
 10
-16.2528164658
 20
57.2238076048
 11
-15.4765417595
 21
57.2252313788
  0
LINE
  5
38B
100
AcDbEntity
  8
RACCORDO
100
AcDbLine
 62
7
  6
CONTINUOUS
 10
-201.5803922409
 20
53.2945767362
 11
-201.3780087082
 21
53.2945767362
  0
LINE
  5
38C
100
AcDbEntity
  8
ASSI
100
AcDbLine
 62
7
  6
CONTINUOUS
 10
-201.5803922409
 20
53.2945767362
 11
-201.3780087082
 21
53.2945767362
  0
LINE
  5
38D
100
AcDbEntity
  8
RACCORDO
100
AcDbLine
 62
7
  6
CONTINUOUS
 10
11.9876545968
 20
53.2945767362
 11
12.1900381295
 21
53.2945767362
  0
LINE
  5
38E
100
AcDbEntity
  8
ASSI
100
AcDbLine
 62
7
  6
CONTINUOUS
 10
11.9876545968
 20
53.2945767362
 11
12.1900381295
 21
53.2945767362
  0
LINE
  5
38F
100
AcDbEntity
  8
0
100
AcDbLine
 62
253
  6
CONTINUOUS
 10
-201.5331158773
 20
53.5531519523
 11
-201.3659449837
 21
53.5531519523
  0
LINE
  5
390
100
AcDbEntity
  8
0
100
AcDbLine
 62
253
  6
CONTINUOUS
 10
11.9755908724
 20
53.5531519523
 11
12.1427617659
 21
53.5531519523
  0
LINE
  5
391
100
AcDbEntity
  8
0
100
AcDbLine
 62
253
  6
CONTINUOUS
 10
-201.5159128484
 20
53.8879884771
 11
-201.350797696
 21
53.8879884771
  0
LINE
  5
392
100
AcDbEntity
  8
0
100
AcDbLine
 62
253
  6
CONTINUOUS
 10
12.1255587371
 20
53.8879884771
 11
11.9604435846
 21
53.8879884771
  0
LINE
  5
393
100
AcDbEntity
  8
RACCORDO
100
AcDbLine
 62
253
  6
CONTINUOUS
 10
12.1601849535
 20
53.8879884771
 11
12.1255587371
 21
53.8879884771
  0
LINE
  5
394
100
AcDbEntity
  8
ASSI
100
AcDbLine
 62
253
  6
CONTINUOUS
 10
12.1601849535
 20
53.8879884771
 11
12.1255587371
 21
53.8879884771
  0
LINE
  5
395
100
AcDbEntity
  8
RACCORDO
100
AcDbLine
 62
253
  6
CONTINUOUS
 10
-201.5159128484
 20
53.8879884771
 11
-201.5505390649
 21
53.8879884771
  0
LINE
  5
396
100
AcDbEntity
  8
ASSI
100
AcDbLine
 62
253
  6
CONTINUOUS
 10
-201.5159128484
 20
53.8879884771
 11
-201.5505390649
 21
53.8879884771
  0
LINE
  5
397
100
AcDbEntity
  8
DRAFT
100
AcDbLine
 62
7
  6
CONTINUOUS
 10
-158.2649973154
 20
54.9747564765
 11
-151.125356796
 21
54.9747564765
  0
LINE
  5
398
100
AcDbEntity
  8
DRAFT
100
AcDbLine
 62
7
  6
CONTINUOUS
 10
-38.2649973154
 20
54.9747564765
 11
-31.125356796
 21
54.9747564765
  0
LINE
  5
399
100
AcDbEntity
  8
DRAFT
100
AcDbLine
 62
7
  6
CONTINUOUS
 10
-158.1951770557
 20
55.0445767362
 11
-151.1951770557
 21
55.0445767362
  0
LINE
  5
39A
100
AcDbEntity
  8
DRAFT
100
AcDbLine
 62
7
  6
CONTINUOUS
 10
-31.1951770557
 20
55.0445767362
 11
-38.1951770557
 21
55.0445767362
  0
LINE
  5
39B
100
AcDbEntity
  8
0
100
AcDbLine
 62
253
  6
CONTINUOUS
 10
-200.2176438665
 20
55.295446177
 11
-198.9118565732
 21
55.295446177
  0
LINE
  5
39C
100
AcDbEntity
  8
RACCORDO
100
AcDbLine
 62
253
  6
CONTINUOUS
 10
10.8825441004
 20
55.295446177
 11
10.8272897551
 21
55.295446177
  0
LINE
  5
39D
100
AcDbEntity
  8
ASSI
100
AcDbLine
 62
253
  6
CONTINUOUS
 10
10.8825441004
 20
55.295446177
 11
10.8272897551
 21
55.295446177
  0
LINE
  5
39E
100
AcDbEntity
  8
0
100
AcDbLine
 62
253
  6
CONTINUOUS
 10
10.8272897551
 20
55.295446177
 11
9.5215024618
 21
55.295446177
  0
LINE
  5
39F
100
AcDbEntity
  8
RACCORDO
100
AcDbLine
 62
253
  6
CONTINUOUS
 10
-200.2176438665
 20
55.295446177
 11
-200.2728982118
 21
55.295446177
  0
LINE
  5
3A0
100
AcDbEntity
  8
ASSI
100
AcDbLine
 62
253
  6
CONTINUOUS
 10
-200.2176438665
 20
55.295446177
 11
-200.2728982118
 21
55.295446177
  0
LINE
  5
3A1
100
AcDbEntity
  8
0
100
AcDbLine
 62
7
  6
CONTINUOUS
 10
-37.9451770557
 20
55.5445767362
 11
-31.4451770557
 21
55.5445767362
  0
LINE
  5
3A2
100
AcDbEntity
  8
ASSI
100
AcDbLine
 62
7
  6
CONTINUOUS
 10
-37.9451770557
 20
55.5445767362
 11
-31.4451770557
 21
55.5445767362
  0
LINE
  5
3A3
100
AcDbEntity
  8
0
100
AcDbLine
 62
7
  6
CONTINUOUS
 10
-151.4451770557
 20
55.5445767362
 11
-157.9451770557
 21
55.5445767362
  0
LINE
  5
3A4
100
AcDbEntity
  8
ASSI
100
AcDbLine
 62
7
  6
CONTINUOUS
 10
-151.4451770557
 20
55.5445767362
 11
-157.9451770557
 21
55.5445767362
  0
LINE
  5
3A5
100
AcDbEntity
  8
DRAFT
100
AcDbLine
 62
7
  6
CONTINUOUS
 10
-158.1951770557
 20
57.0606207117
 11
-157.9451770557
 21
57.0606207117
  0
LINE
  5
3A6
100
AcDbEntity
  8
DRAFT
100
AcDbLine
 62
7
  6
CONTINUOUS
 10
-151.4451770557
 20
57.0606207117
 11
-151.1951770557
 21
57.0606207117
  0
LINE
  5
3A7
100
AcDbEntity
  8
DRAFT
100
AcDbLine
 62
7
  6
CONTINUOUS
 10
-38.1951770557
 20
57.0606207117
 11
-37.9451770557
 21
57.0606207117
  0
LINE
  5
3A8
100
AcDbEntity
  8
DRAFT
100
AcDbLine
 62
7
  6
CONTINUOUS
 10
-31.4451770557
 20
57.0606207117
 11
-31.1951770557
 21
57.0606207117
  0
LINE
  5
3A9
100
AcDbEntity
  8
DRAFT
100
AcDbLine
 62
7
  6
CONTINUOUS
 10
-2.8304605418
 20
57.1304409714
 11
-31.125356796
 21
57.1304409714
  0
LINE
  5
3AA
100
AcDbEntity
  8
DRAFT
100
AcDbLine
 62
7
  6
CONTINUOUS
 10
-38.2649973154
 20
57.1304409714
 11
-151.125356796
 21
57.1304409714
  0
LINE
  5
3AB
100
AcDbEntity
  8
DRAFT
100
AcDbLine
 62
7
  6
CONTINUOUS
 10
-158.2649973154
 20
57.1304409714
 11
-186.5598935696
 21
57.1304409714
  0
LINE
  5
3AC
100
AcDbEntity
  8
RACCORDO
100
AcDbLine
 62
7
  6
CONTINUOUS
 10
-187.1339998158
 20
57.2082555169
 11
-182.1951770557
 21
57.2082555169
  0
LINE
  5
3AD
100
AcDbEntity
  8
ASSI
100
AcDbLine
 62
7
  6
CONTINUOUS
 10
-187.1339998158
 20
57.2082555169
 11
-182.1951770557
 21
57.2082555169
  0
LINE
  5
3AE
100
AcDbEntity
  8
0
100
AcDbLine
 62
7
  6
CONTINUOUS
 10
-144.4451770557
 20
57.2082555169
 11
-142.9451770557
 21
57.2082555169
  0
LINE
  5
3AF
100
AcDbEntity
  8
ASSI
100
AcDbLine
 62
7
  6
CONTINUOUS
 10
-144.4451770557
 20
57.2082555169
 11
-142.9451770557
 21
57.2082555169
  0
LINE
  5
3B0
100
AcDbEntity
  8
0
100
AcDbLine
 62
7
  6
CONTINUOUS
 10
-116.4451770557
 20
57.2082555169
 11
-114.9451770557
 21
57.2082555169
  0
LINE
  5
3B1
100
AcDbEntity
  8
ASSI
100
AcDbLine
 62
7
  6
CONTINUOUS
 10
-116.4451770557
 20
57.2082555169
 11
-114.9451770557
 21
57.2082555169
  0
LINE
  5
3B2
100
AcDbEntity
  8
DRAFT
100
AcDbLine
 62
7
  6
CONTINUOUS
 10
-74.4451770557
 20
57.2082555169
 11
-72.9451770557
 21
57.2082555169
  0
LINE
  5
3B3
100
AcDbEntity
  8
ASSI
100
AcDbLine
 62
7
  6
CONTINUOUS
 10
-74.4451770557
 20
57.2082555169
 11
-72.9451770557
 21
57.2082555169
  0
LINE
  5
3B4
100
AcDbEntity
  8
DRAFT
100
AcDbLine
 62
7
  6
CONTINUOUS
 10
-46.4451770557
 20
57.2082555169
 11
-44.9451770557
 21
57.2082555169
  0
LINE
  5
3B5
100
AcDbEntity
  8
ASSI
100
AcDbLine
 62
7
  6
CONTINUOUS
 10
-46.4451770557
 20
57.2082555169
 11
-44.9451770557
 21
57.2082555169
  0
LINE
  5
3B6
100
AcDbEntity
  8
0
100
AcDbLine
 62
7
  6
CONTINUOUS
 10
-14.1951770557
 20
57.2082555169
 11
-2.2563542956
 21
57.2082555169
  0
LINE
  5
3B7
100
AcDbEntity
  8
RACCORDO
100
AcDbLine
 62
7
  6
CONTINUOUS
 10
-2.2563542956
 20
57.2082555169
 11
-14.1951770557
 21
57.2082555169
  0
LINE
  5
3B8
100
AcDbEntity
  8
ASSI
100
AcDbLine
 62
7
  6
CONTINUOUS
 10
-2.2563542956
 20
57.2082555169
 11
-14.1951770557
 21
57.2082555169
  0
LINE
  5
3B9
100
AcDbEntity
  8
0
100
AcDbLine
 62
7
  6
CONTINUOUS
 10
-182.1951770557
 20
57.2082555169
 11
-187.1339998158
 21
57.2082555169
  0
LINE
  5
3BA
100
AcDbEntity
  8
0
100
AcDbLine
 62
7
  6
CONTINUOUS
 10
-15.4765417595
 20
57.2252313788
 11
-14.1951770557
 21
57.2257079234
  0
LINE
  5
3BB
100
AcDbEntity
  8
ASSI
100
AcDbLine
 62
7
  6
CONTINUOUS
 10
-15.4765417595
 20
57.2252313788
 11
-14.1951770557
 21
57.2257079234
  0
LINE
  5
3BC
100
AcDbEntity
  8
0
100
AcDbLine
 62
7
  6
CONTINUOUS
 10
-2.81568572
 20
57.3304409714
 11
-186.5746683914
 21
57.3304409714
  0
LINE
  5
3BD
100
AcDbEntity
  8
ASSI
100
AcDbLine
 62
7
  6
CONTINUOUS
 10
-2.81568572
 20
57.3304409714
 11
-186.5746683914
 21
57.3304409714
  0
LINE
  5
3BE
100
AcDbEntity
  8
RACCORDO
100
AcDbLine
 62
7
  6
CONTINUOUS
 10
-2.5385770576
 20
58.4633664139
 11
-186.8517770537
 21
58.4633664139
  0
LINE
  5
3BF
100
AcDbEntity
  8
ASSI
100
AcDbLine
 62
7
  6
CONTINUOUS
 10
-2.5385770576
 20
58.4633664139
 11
-186.8517770537
 21
58.4633664139
  0
LINE
  5
3C0
100
AcDbEntity
  8
RACCORDO
100
AcDbLine
 62
7
  6
CONTINUOUS
 10
-2.5159560429
 20
58.7695767362
 11
-186.8743980685
 21
58.7695767362
  0
LINE
  5
3C1
100
AcDbEntity
  8
ASSI
100
AcDbLine
 62
7
  6
CONTINUOUS
 10
-2.5159560429
 20
58.7695767362
 11
-186.8743980685
 21
58.7695767362
  0
LINE
  5
3C2
100
AcDbEntity
  8
0
100
AcDbLine
 62
7
  6
CONTINUOUS
 10
-173.9138123518
 20
57.2252313788
 11
-182.1951770557
 21
57.2257079234
  0
LINE
  5
3C3
100
AcDbEntity
  8
ASSI
100
AcDbLine
 62
7
  6
CONTINUOUS
 10
-173.9138123518
 20
57.2252313788
 11
-182.1951770557
 21
57.2257079234
  0
LINE
  5
3C4
100
AcDbEntity
  8
0
100
AcDbLine
 62
7
  6
CONTINUOUS
 10
-172.7512500901
 20
57.2227403506
 11
-173.9138123518
 21
57.2252313788
  0
LINE
  5
3C5
100
AcDbEntity
  8
ASSI
100
AcDbLine
 62
7
  6
CONTINUOUS
 10
-172.7512500901
 20
57.2227403506
 11
-173.9138123518
 21
57.2252313788
  0
LINE
  5
3C6
100
AcDbEntity
  8
0
100
AcDbLine
 62
7
  6
CONTINUOUS
 10
-171.6092399555
 20
57.2181403729
 11
-172.7512500901
 21
57.2227403506
  0
LINE
  5
3C7
100
AcDbEntity
  8
ASSI
100
AcDbLine
 62
7
  6
CONTINUOUS
 10
-171.6092399555
 20
57.2181403729
 11
-172.7512500901
 21
57.2227403506
  0
LINE
  5
3C8
100
AcDbEntity
  8
0
100
AcDbLine
 62
7
  6
CONTINUOUS
 10
-170.5008149578
 20
57.211481018
 11
-171.6092399555
 21
57.2181403729
  0
LINE
  5
3C9
100
AcDbEntity
  8
ASSI
100
AcDbLine
 62
7
  6
CONTINUOUS
 10
-170.5008149578
 20
57.211481018
 11
-171.6092399555
 21
57.2181403729
  0
LWPOLYLINE
  5
3CA
100
AcDbEntity
  8
RACCORDO
100
AcDbPolyline
 62
7
  6
CONTINUOUS
 90
10
 70
0
 10
-2.5167656286
 20
58.7695767362
 10
-2.4676165451
 20
58.7691760069
 10
-2.4184799586
 20
58.7679694887
 10
-2.3693690596
 20
58.7659574692
 10
-2.3202965335
 20
58.7631404194
 10
-2.2712760558
 20
58.7595190753
 10
-2.2223222828
 20
58.7550945196
 10
-2.1734488495
 20
58.7498680338
 10
-2.1246683731
 20
58.7438410162
 10
-2.0759939431
 20
58.7370151207
  0
LWPOLYLINE
  5
3CB
100
AcDbEntity
  8
ASSI
100
AcDbPolyline
 62
7
  6
CONTINUOUS
 90
10
 70
0
 10
-2.5167656286
 20
58.7695767362
 10
-2.4676165451
 20
58.7691760069
 10
-2.4184799586
 20
58.7679694887
 10
-2.3693690596
 20
58.7659574692
 10
-2.3202965335
 20
58.7631404194
 10
-2.2712760558
 20
58.7595190753
 10
-2.2223222828
 20
58.7550945196
 10
-2.1734488495
 20
58.7498680338
 10
-2.1246683731
 20
58.7438410162
 10
-2.0759939431
 20
58.7370151207
  0
LINE
  5
3CC
100
AcDbEntity
  8
0
100
AcDbLine
 62
7
  6
CONTINUOUS
 10
-169.4381837818
 20
57.2028344723
 11
-170.5008149578
 21
57.211481018
  0
LINE
  5
3CD
100
AcDbEntity
  8
ASSI
100
AcDbLine
 62
7
  6
CONTINUOUS
 10
-169.4381837818
 20
57.2028344723
 11
-170.5008149578
 21
57.211481018
  0
LINE
  5
3CE
100
AcDbEntity
  8
0
100
AcDbLine
 62
7
  6
CONTINUOUS
 10
-168.4330429125
 20
57.1922949649
 11
-169.4381837818
 21
57.2028344723
  0
LINE
  5
3CF
100
AcDbEntity
  8
ASSI
100
AcDbLine
 62
7
  6
CONTINUOUS
 10
-168.4330429125
 20
57.1922949649
 11
-169.4381837818
 21
57.2028344723
  0
LINE
  5
3D0
100
AcDbEntity
  8
0
100
AcDbLine
 62
7
  6
CONTINUOUS
 10
-167.8006356924
 20
57.1842765247
 11
-168.4330429125
 21
57.1922949649
  0
LINE
  5
3D1
100
AcDbEntity
  8
ASSI
100
AcDbLine
 62
7
  6
CONTINUOUS
 10
-167.8006356924
 20
57.1842765247
 11
-168.4330429125
 21
57.1922949649
  0
LINE
  5
3D2
100
AcDbEntity
  8
0
100
AcDbLine
 62
7
  6
CONTINUOUS
 10
-167.2014123277
 20
57.1755020821
 11
-167.8006356924
 21
57.1842765247
  0
LINE
  5
3D3
100
AcDbEntity
  8
ASSI
100
AcDbLine
 62
7
  6
CONTINUOUS
 10
-167.2014123277
 20
57.1755020821
 11
-167.8006356924
 21
57.1842765247
  0
LINE
  5
3D4
100
AcDbEntity
  8
0
100
AcDbLine
 62
7
  6
CONTINUOUS
 10
-166.6387554215
 20
57.1660181351
 11
-167.2014123277
 21
57.1755020821
  0
LINE
  5
3D5
100
AcDbEntity
  8
ASSI
100
AcDbLine
 62
7
  6
CONTINUOUS
 10
-166.6387554215
 20
57.1660181351
 11
-167.2014123277
 21
57.1755020821
  0
LINE
  5
3D6
100
AcDbEntity
  8
0
100
AcDbLine
 62
7
  6
CONTINUOUS
 10
-166.1156794644
 20
57.1558784851
 11
-166.6387554215
 21
57.1660181351
  0
LINE
  5
3D7
100
AcDbEntity
  8
ASSI
100
AcDbLine
 62
7
  6
CONTINUOUS
 10
-166.1156794644
 20
57.1558784851
 11
-166.6387554215
 21
57.1660181351
  0
LINE
  5
3D8
100
AcDbEntity
  8
0
100
AcDbLine
 62
7
  6
CONTINUOUS
 10
-165.634100674
 20
57.1451202883
 11
-166.1156794644
 21
57.1558784851
  0
LINE
  5
3D9
100
AcDbEntity
  8
ASSI
100
AcDbLine
 62
7
  6
CONTINUOUS
 10
-165.634100674
 20
57.1451202883
 11
-166.1156794644
 21
57.1558784851
  0
LINE
  5
3DA
100
AcDbEntity
  8
0
100
AcDbLine
 62
7
  6
CONTINUOUS
 10
-165.0810810918
 20
57.1304409714
 11
-165.634100674
 21
57.1451202883
  0
LINE
  5
3DB
100
AcDbEntity
  8
ASSI
100
AcDbLine
 62
7
  6
CONTINUOUS
 10
-165.0810810918
 20
57.1304409714
 11
-165.634100674
 21
57.1451202883
  0
LINE
  5
3DC
100
AcDbEntity
  8
DRAFT
100
AcDbLine
 62
7
  6
CONTINUOUS
 10
-31.125356796
 20
-0.0412874989
 11
-31.1951770557
 21
0.0285327608
  0
LINE
  5
3DD
100
AcDbEntity
  8
DRAFT
100
AcDbLine
 62
7
  6
CONTINUOUS
 10
-46.4840813653
 20
-0.0412874989
 11
-46.4451770557
 21
-0.1191020445
  0
LINE
  5
3DE
100
AcDbEntity
  8
ASSI
100
AcDbLine
 62
7
  6
CONTINUOUS
 10
-46.4840813653
 20
-0.0412874989
 11
-46.4451770557
 21
-0.1191020445
  0
LINE
  5
3DF
100
AcDbEntity
  8
DRAFT
100
AcDbLine
 62
7
  6
CONTINUOUS
 10
-72.906272746
 20
-0.0412874989
 11
-72.9451770557
 21
-0.1191020445
  0
LINE
  5
3E0
100
AcDbEntity
  8
ASSI
100
AcDbLine
 62
7
  6
CONTINUOUS
 10
-72.906272746
 20
-0.0412874989
 11
-72.9451770557
 21
-0.1191020445
  0
LINE
  5
3E1
100
AcDbEntity
  8
DRAFT
100
AcDbLine
 62
7
  6
CONTINUOUS
 10
-72.906272746
 20
57.1304409714
 11
-72.9451770557
 21
57.2082555169
  0
LINE
  5
3E2
100
AcDbEntity
  8
ASSI
100
AcDbLine
 62
7
  6
CONTINUOUS
 10
-72.906272746
 20
57.1304409714
 11
-72.9451770557
 21
57.2082555169
  0
LWPOLYLINE
  5
3E3
100
AcDbEntity
  8
RACCORDO
100
AcDbPolyline
 62
7
  6
CONTINUOUS
 90
31
 70
0
 10
-200.5025551326
 20
56.7777792868
 10
-200.6371033569
 20
56.7543049994
 10
-200.77052223
 20
56.724711881
 10
-200.9025326799
 20
56.689049644
 10
-201.0329480746
 20
56.6473497621
 10
-201.1614005044
 20
56.599710324
 10
-201.2873565355
 20
56.5463367782
 10
-201.410367726
 20
56.4874650341
 10
-201.5303973627
 20
56.4231594753
 10
-201.6475302541
 20
56.3533757901
 10
-201.7616948252
 20
56.2781106321
 10
-201.8724470444
 20
56.1976094143
 10
-201.9793194909
 20
56.1122058362
 10
-202.0820010658
 20
56.0221794779
 10
-202.1803951416
 20
55.9276473957
 10
-202.2743828599
 20
55.8287341933
 10
-202.3637697828
 20
55.7256444711
 10
-202.4483710176
 20
55.6185914939
 10
-202.5280740049
 20
55.5077055844
 10
-202.6027715542
 20
55.3930942096
 10
-202.6722153942
 20
55.2750939837
 10
-202.7361184639
 20
55.1542023334
 10
-202.7942793215
 20
55.0308848906
 10
-202.846708201
 20
54.9052125738
 10
-202.8934410278
 20
54.777096696
 10
-202.9344172594
 20
54.6465800092
 10
-202.9694453386
 20
54.5141316181
 10
-202.9983722244
 20
54.3803022853
 10
-203.0211357705
 20
54.2454676657
 10
-203.0377226505
 20
54.1098165571
 10
-203.0481103005
 20
53.973631525
  0
LWPOLYLINE
  5
3E4
100
AcDbEntity
  8
ASSI
100
AcDbPolyline
 62
7
  6
CONTINUOUS
 90
31
 70
0
 10
-200.5025551326
 20
56.7777792868
 10
-200.6371033569
 20
56.7543049994
 10
-200.77052223
 20
56.724711881
 10
-200.9025326799
 20
56.689049644
 10
-201.0329480746
 20
56.6473497621
 10
-201.1614005044
 20
56.599710324
 10
-201.2873565355
 20
56.5463367782
 10
-201.410367726
 20
56.4874650341
 10
-201.5303973627
 20
56.4231594753
 10
-201.6475302541
 20
56.3533757901
 10
-201.7616948252
 20
56.2781106321
 10
-201.8724470444
 20
56.1976094143
 10
-201.9793194909
 20
56.1122058362
 10
-202.0820010658
 20
56.0221794779
 10
-202.1803951416
 20
55.9276473957
 10
-202.2743828599
 20
55.8287341933
 10
-202.3637697828
 20
55.7256444711
 10
-202.4483710176
 20
55.6185914939
 10
-202.5280740049
 20
55.5077055844
 10
-202.6027715542
 20
55.3930942096
 10
-202.6722153942
 20
55.2750939837
 10
-202.7361184639
 20
55.1542023334
 10
-202.7942793215
 20
55.0308848906
 10
-202.846708201
 20
54.9052125738
 10
-202.8934410278
 20
54.777096696
 10
-202.9344172594
 20
54.6465800092
 10
-202.9694453386
 20
54.5141316181
 10
-202.9983722244
 20
54.3803022853
 10
-203.0211357705
 20
54.2454676657
 10
-203.0377226505
 20
54.1098165571
 10
-203.0481103005
 20
53.973631525
  0
LWPOLYLINE
  5
3E5
100
AcDbEntity
  8
RACCORDO
100
AcDbPolyline
 62
7
  6
CONTINUOUS
 90
31
 70
0
 10
-200.2094423792
 20
56.5117642241
 10
-200.344232649
 20
56.4886311957
 10
-200.477535937
 20
56.4594181609
 10
-200.6093522434
 20
56.4241251199
 10
-200.7401032193
 20
56.382607114
 10
-200.8693672134
 20
56.3350091018
 10
-200.9958792725
 20
56.2817659593
 10
-201.1194739271
 20
56.2228540096
 10
-201.2403166466
 20
56.1582969295
 10
-201.3576388848
 20
56.0886006256
 10
-201.471252179
 20
56.0138964004
 10
-201.5813449919
 20
55.9340529513
 10
-201.6877141652
 20
55.849182277
 10
-201.7906059132
 20
55.7590561163
 10
-201.8897740217
 20
55.6639027304
 10
-201.9842766898
 20
55.5645189015
 10
-202.0740327617
 20
55.4608330562
 10
-202.1591233931
 20
55.3529167678
 10
-202.2388502499
 20
55.2417815386
 10
-202.3130102768
 20
55.1276962302
 10
-202.3818065291
 20
55.0103919811
 10
-202.4451498388
 20
54.8900737083
 10
-202.5031552094
 20
54.7665358079
 10
-202.5557076375
 20
54.6399838839
 10
-202.6023729446
 20
54.5112396656
 10
-202.6431098464
 20
54.3801426175
 10
-202.6779596273
 20
54.2468532751
 10
-202.7066119621
 20
54.1126749741
 10
-202.7289634092
 20
53.9780421597
 10
-202.7451174104
 20
53.8425203868
 10
-202.7550739654
 20
53.7061096552
  0
LWPOLYLINE
  5
3E6
100
AcDbEntity
  8
ASSI
100
AcDbPolyline
 62
7
  6
CONTINUOUS
 90
31
 70
0
 10
-200.2094423792
 20
56.5117642241
 10
-200.344232649
 20
56.4886311957
 10
-200.477535937
 20
56.4594181609
 10
-200.6093522434
 20
56.4241251199
 10
-200.7401032193
 20
56.382607114
 10
-200.8693672134
 20
56.3350091018
 10
-200.9958792725
 20
56.2817659593
 10
-201.1194739271
 20
56.2228540096
 10
-201.2403166466
 20
56.1582969295
 10
-201.3576388848
 20
56.0886006256
 10
-201.471252179
 20
56.0138964004
 10
-201.5813449919
 20
55.9340529513
 10
-201.6877141652
 20
55.849182277
 10
-201.7906059132
 20
55.7590561163
 10
-201.8897740217
 20
55.6639027304
 10
-201.9842766898
 20
55.5645189015
 10
-202.0740327617
 20
55.4608330562
 10
-202.1591233931
 20
55.3529167678
 10
-202.2388502499
 20
55.2417815386
 10
-202.3130102768
 20
55.1276962302
 10
-202.3818065291
 20
55.0103919811
 10
-202.4451498388
 20
54.8900737083
 10
-202.5031552094
 20
54.7665358079
 10
-202.5557076375
 20
54.6399838839
 10
-202.6023729446
 20
54.5112396656
 10
-202.6431098464
 20
54.3801426175
 10
-202.6779596273
 20
54.2468532751
 10
-202.7066119621
 20
54.1126749741
 10
-202.7289634092
 20
53.9780421597
 10
-202.7451174104
 20
53.8425203868
 10
-202.7550739654
 20
53.7061096552
  0
LINE
  5
3E7
100
AcDbEntity
  8
DRAFT
100
AcDbLine
 62
7
  6
CONTINUOUS
 10
-186.5598935696
 20
57.1304409714
 11
-200.2435089566
 21
55.097617282
  0
LINE
  5
3E8
100
AcDbEntity
  8
RACCORDO
100
AcDbLine
 62
7
  6
CONTINUOUS
 10
-200.2728982118
 20
55.295446177
 11
-186.5746683914
 21
57.3304409714
  0
LINE
  5
3E9
100
AcDbEntity
  8
ASSI
100
AcDbLine
 62
7
  6
CONTINUOUS
 10
-200.2728982118
 20
55.295446177
 11
-186.5746683914
 21
57.3304409714
  0
LINE
  5
3EA
100
AcDbEntity
  8
RACCORDO
100
AcDbLine
 62
7
  6
CONTINUOUS
 10
-187.2909383563
 20
58.4309237639
 11
-200.2094423792
 21
56.5117642241
  0
LINE
  5
3EB
100
AcDbEntity
  8
ASSI
100
AcDbLine
 62
7
  6
CONTINUOUS
 10
-187.2909383563
 20
58.4309237639
 11
-200.2094423792
 21
56.5117642241
  0
LINE
  5
3EC
100
AcDbEntity
  8
RACCORDO
100
AcDbLine
 62
7
  6
CONTINUOUS
 10
-200.5025551326
 20
56.7777792868
 11
-187.3143601683
 21
58.7370151207
  0
LINE
  5
3ED
100
AcDbEntity
  8
ASSI
100
AcDbLine
 62
7
  6
CONTINUOUS
 10
-200.5025551326
 20
56.7777792868
 11
-187.3143601683
 21
58.7370151207
  0
LINE
  5
3EE
100
AcDbEntity
  8
RACCORDO
100
AcDbLine
 62
7
  6
CONTINUOUS
 10
-200.2176438665
 20
55.295446177
 11
-187.1339998158
 21
57.2082555169
  0
LINE
  5
3EF
100
AcDbEntity
  8
ASSI
100
AcDbLine
 62
7
  6
CONTINUOUS
 10
-200.2176438665
 20
55.295446177
 11
-187.1339998158
 21
57.2082555169
  0
LINE
  5
3F0
100
AcDbEntity
  8
0
100
AcDbLine
 62
7
  6
CONTINUOUS
 10
-187.1339998158
 20
57.2082555169
 11
-200.2176438665
 21
55.295446177
  0
LINE
  5
3F1
100
AcDbEntity
  8
0
100
AcDbLine
 62
7
  6
CONTINUOUS
 10
-0.2065219838
 20
56.8347167919
 11
0.8161678724
 21
56.6852010529
  0
LINE
  5
3F2
100
AcDbEntity
  8
0
100
AcDbLine
 62
7
  6
CONTINUOUS
 10
10.8272897551
 20
55.295446177
 11
-2.2563542956
 21
57.2082555169
  0
LINE
  5
3F3
100
AcDbEntity
  8
RACCORDO
100
AcDbLine
 62
7
  6
CONTINUOUS
 10
10.8272897551
 20
55.295446177
 11
-2.2563542956
 21
57.2082555169
  0
LINE
  5
3F4
100
AcDbEntity
  8
ASSI
100
AcDbLine
 62
7
  6
CONTINUOUS
 10
10.8272897551
 20
55.295446177
 11
-2.2563542956
 21
57.2082555169
  0
LINE
  5
3F5
100
AcDbEntity
  8
DRAFT
100
AcDbLine
 62
7
  6
CONTINUOUS
 10
10.8531548453
 20
55.097617282
 11
-2.8304605418
 21
57.1304409714
  0
LINE
  5
3F6
100
AcDbEntity
  8
RACCORDO
100
AcDbLine
 62
7
  6
CONTINUOUS
 10
10.8825441004
 20
55.295446177
 11
-2.81568572
 21
57.3304409714
  0
LINE
  5
3F7
100
AcDbEntity
  8
ASSI
100
AcDbLine
 62
7
  6
CONTINUOUS
 10
10.8825441004
 20
55.295446177
 11
-2.81568572
 21
57.3304409714
  0
LINE
  5
3F8
100
AcDbEntity
  8
RACCORDO
100
AcDbLine
 62
7
  6
CONTINUOUS
 10
10.8190882679
 20
56.5117642241
 11
-2.0994157551
 21
58.4309237639
  0
LINE
  5
3F9
100
AcDbEntity
  8
ASSI
100
AcDbLine
 62
7
  6
CONTINUOUS
 10
10.8190882679
 20
56.5117642241
 11
-2.0994157551
 21
58.4309237639
  0
LINE
  5
3FA
100
AcDbEntity
  8
RACCORDO
100
AcDbLine
 62
7
  6
CONTINUOUS
 10
11.1122010213
 20
56.7777792868
 11
-2.0767947403
 21
58.7371340863
  0
LINE
  5
3FB
100
AcDbEntity
  8
ASSI
100
AcDbLine
 62
7
  6
CONTINUOUS
 10
11.1122010213
 20
56.7777792868
 11
-2.0767947403
 21
58.7371340863
  0
LWPOLYLINE
  5
3FC
100
AcDbEntity
  8
RACCORDO
100
AcDbPolyline
 62
7
  6
CONTINUOUS
 90
31
 70
0
 10
11.1122010213
 20
56.7777792868
 10
11.2467504683
 20
56.7543061094
 10
11.3801690814
 20
56.724712755
 10
11.5121785686
 20
56.689049644
 10
11.6425935781
 20
56.6473494125
 10
11.7710463762
 20
56.5997103087
 10
11.8970024241
 20
56.5463367782
 10
12.0200135397
 20
56.487464966
 10
12.1400434584
 20
56.4231596632
 10
12.2571761427
 20
56.3533757901
 10
12.3713404017
 20
56.2781103487
 10
12.4820928058
 20
56.1976092988
 10
12.5889653795
 20
56.1122058362
 10
12.6916468889
 20
56.0221794185
 10
12.7900410002
 20
55.9276473683
 10
12.8840287485
 20
55.8287341933
 10
12.9734156414
 20
55.7256444438
 10
13.0580168406
 20
55.6185914344
 10
13.1377198936
 20
55.5077055844
 10
13.2124173157
 20
55.3930940942
 10
13.2818609707
 20
55.2750937003
 10
13.3457643526
 20
55.1542023334
 10
13.4039254172
 20
55.0308850786
 10
13.4563540146
 20
54.9052125057
 10
13.5030869164
 20
54.777096696
 10
13.5440631313
 20
54.646579994
 10
13.579090842
 20
54.5141312685
 10
13.6080181131
 20
54.3803022853
 10
13.630782622
 20
54.2454685398
 10
13.647369762
 20
54.1098176672
 10
13.6577561891
 20
53.973631525
  0
LWPOLYLINE
  5
3FD
100
AcDbEntity
  8
ASSI
100
AcDbPolyline
 62
7
  6
CONTINUOUS
 90
31
 70
0
 10
11.1122010213
 20
56.7777792868
 10
11.2467504683
 20
56.7543061094
 10
11.3801690814
 20
56.724712755
 10
11.5121785686
 20
56.689049644
 10
11.6425935781
 20
56.6473494125
 10
11.7710463762
 20
56.5997103087
 10
11.8970024241
 20
56.5463367782
 10
12.0200135397
 20
56.487464966
 10
12.1400434584
 20
56.4231596632
 10
12.2571761427
 20
56.3533757901
 10
12.3713404017
 20
56.2781103487
 10
12.4820928058
 20
56.1976092988
 10
12.5889653795
 20
56.1122058362
 10
12.6916468889
 20
56.0221794185
 10
12.7900410002
 20
55.9276473683
 10
12.8840287485
 20
55.8287341933
 10
12.9734156414
 20
55.7256444438
 10
13.0580168406
 20
55.6185914344
 10
13.1377198936
 20
55.5077055844
 10
13.2124173157
 20
55.3930940942
 10
13.2818609707
 20
55.2750937003
 10
13.3457643526
 20
55.1542023334
 10
13.4039254172
 20
55.0308850786
 10
13.4563540146
 20
54.9052125057
 10
13.5030869164
 20
54.777096696
 10
13.5440631313
 20
54.646579994
 10
13.579090842
 20
54.5141312685
 10
13.6080181131
 20
54.3803022853
 10
13.630782622
 20
54.2454685398
 10
13.647369762
 20
54.1098176672
 10
13.6577561891
 20
53.973631525
  0
LINE
  5
3FE
100
AcDbEntity
  8
DRAFT
100
AcDbLine
 62
7
  6
CONTINUOUS
 10
-46.4451770557
 20
57.2082555169
 11
-46.4451770557
 21
57.1304409714
  0
LINE
  5
3FF
100
AcDbEntity
  8
ASSI
100
AcDbLine
 62
7
  6
CONTINUOUS
 10
-46.4451770557
 20
57.2082555169
 11
-46.4451770557
 21
57.1304409714
  0
LINE
  5
400
100
AcDbEntity
  8
DRAFT
100
AcDbLine
 62
7
  6
CONTINUOUS
 10
-46.4451770557
 20
-0.1191020445
 11
-46.4451770557
 21
-0.0412874989
  0
LINE
  5
401
100
AcDbEntity
  8
ASSI
100
AcDbLine
 62
7
  6
CONTINUOUS
 10
-46.4451770557
 20
-0.1191020445
 11
-46.4451770557
 21
-0.0412874989
  0
LINE
  5
402
100
AcDbEntity
  8
DRAFT
100
AcDbLine
 62
7
  6
CONTINUOUS
 10
-44.9451770557
 20
57.2082555169
 11
-44.9451770557
 21
57.1304409714
  0
LINE
  5
403
100
AcDbEntity
  8
ASSI
100
AcDbLine
 62
7
  6
CONTINUOUS
 10
-44.9451770557
 20
57.2082555169
 11
-44.9451770557
 21
57.1304409714
  0
LINE
  5
404
100
AcDbEntity
  8
DRAFT
100
AcDbLine
 62
7
  6
CONTINUOUS
 10
-44.9451770557
 20
-0.1191020445
 11
-44.9451770557
 21
-0.0412874989
  0
LINE
  5
405
100
AcDbEntity
  8
ASSI
100
AcDbLine
 62
7
  6
CONTINUOUS
 10
-44.9451770557
 20
-0.1191020445
 11
-44.9451770557
 21
-0.0412874989
  0
LINE
  5
406
100
AcDbEntity
  8
RACCORDO
100
AcDbLine
 62
253
  6
CONTINUOUS
 10
10.8190882679
 20
56.5117642241
 11
11.1122010213
 21
56.7777792868
  0
LINE
  5
407
100
AcDbEntity
  8
ASSI
100
AcDbLine
 62
253
  6
CONTINUOUS
 10
10.8190882679
 20
56.5117642241
 11
11.1122010213
 21
56.7777792868
  0
LINE
  5
408
100
AcDbEntity
  8
RACCORDO
100
AcDbLine
 62
253
  6
CONTINUOUS
 10
10.8190882679
 20
0.5773892483
 11
11.1080007606
 21
0.3151869653
  0
LINE
  5
409
100
AcDbEntity
  8
ASSI
100
AcDbLine
 62
253
  6
CONTINUOUS
 10
10.8190882679
 20
0.5773892483
 11
11.1080007606
 21
0.3151869653
  0
LINE
  5
40A
100
AcDbEntity
  8
RACCORDO
100
AcDbLine
 62
253
  6
CONTINUOUS
 10
11.1080007606
 20
0.3151869653
 11
11.1122010213
 21
0.3113741857
  0
LINE
  5
40B
100
AcDbEntity
  8
ASSI
100
AcDbLine
 62
253
  6
CONTINUOUS
 10
11.1080007606
 20
0.3151869653
 11
11.1122010213
 21
0.3113741857
  0
LINE
  5
40C
100
AcDbEntity
  8
DRAFT
100
AcDbLine
 62
7
  6
CONTINUOUS
 10
-38.2649973154
 20
57.1304409714
 11
-38.2649973154
 21
54.9747564765
  0
LINE
  5
40D
100
AcDbEntity
  8
DRAFT
100
AcDbLine
 62
7
  6
CONTINUOUS
 10
-38.2649973154
 20
-0.0412874989
 11
-38.2649973154
 21
2.1143969959
  0
LINE
  5
40E
100
AcDbEntity
  8
DRAFT
100
AcDbLine
 62
7
  6
CONTINUOUS
 10
-38.1951770557
 20
57.0606207117
 11
-38.1951770557
 21
55.0445767362
  0
LINE
  5
40F
100
AcDbEntity
  8
DRAFT
100
AcDbLine
 62
7
  6
CONTINUOUS
 10
-38.1951770557
 20
0.0285327608
 11
-38.1951770557
 21
2.0445767362
  0
LINE
  5
410
100
AcDbEntity
  8
0
100
AcDbLine
 62
7
  6
CONTINUOUS
 10
-37.9451770557
 20
-0.2412874989
 11
-37.9451770557
 21
1.5445767362
  0
LINE
  5
411
100
AcDbEntity
  8
ASSI
100
AcDbLine
 62
7
  6
CONTINUOUS
 10
-37.9451770557
 20
-0.2412874989
 11
-37.9451770557
 21
1.5445767362
  0
LINE
  5
412
100
AcDbEntity
  8
0
100
AcDbLine
 62
7
  6
CONTINUOUS
 10
-37.9451770557
 20
55.5445767362
 11
-37.9451770557
 21
57.3304409714
  0
LINE
  5
413
100
AcDbEntity
  8
ASSI
100
AcDbLine
 62
7
  6
CONTINUOUS
 10
-37.9451770557
 20
55.5445767362
 11
-37.9451770557
 21
57.3304409714
  0
LINE
  5
414
100
AcDbEntity
  8
DRAFT
100
AcDbLine
 62
7
  6
CONTINUOUS
 10
-44.906272746
 20
-0.0412874989
 11
-44.9451770557
 21
-0.1191020445
  0
LINE
  5
415
100
AcDbEntity
  8
ASSI
100
AcDbLine
 62
7
  6
CONTINUOUS
 10
-44.906272746
 20
-0.0412874989
 11
-44.9451770557
 21
-0.1191020445
  0
LINE
  5
416
100
AcDbEntity
  8
DRAFT
100
AcDbLine
 62
7
  6
CONTINUOUS
 10
-38.2649973154
 20
-0.0412874989
 11
-38.1951770557
 21
0.0285327608
  0
LINE
  5
417
100
AcDbEntity
  8
RACCORDO
100
AcDbLine
 62
253
  6
CONTINUOUS
 10
13.3647198541
 20
53.7061096552
 11
13.6577561891
 21
53.973631525
  0
LINE
  5
418
100
AcDbEntity
  8
ASSI
100
AcDbLine
 62
253
  6
CONTINUOUS
 10
13.3647198541
 20
53.7061096552
 11
13.6577561891
 21
53.973631525
  0
LINE
  5
419
100
AcDbEntity
  8
RACCORDO
100
AcDbLine
 62
253
  6
CONTINUOUS
 10
13.3647198541
 20
3.3830438173
 11
13.6535269287
 21
3.119383878
  0
LINE
  5
41A
100
AcDbEntity
  8
ASSI
100
AcDbLine
 62
253
  6
CONTINUOUS
 10
13.3647198541
 20
3.3830438173
 11
13.6535269287
 21
3.119383878
  0
LINE
  5
41B
100
AcDbEntity
  8
RACCORDO
100
AcDbLine
 62
253
  6
CONTINUOUS
 10
13.6535269287
 20
3.119383878
 11
13.6577561891
 21
3.1155219474
  0
LINE
  5
41C
100
AcDbEntity
  8
ASSI
100
AcDbLine
 62
253
  6
CONTINUOUS
 10
13.6535269287
 20
3.119383878
 11
13.6577561891
 21
3.1155219474
  0
LINE
  5
41D
100
AcDbEntity
  8
DRAFT
100
AcDbLine
 62
7
  6
CONTINUOUS
 10
-38.2649973154
 20
57.1304409714
 11
-38.1951770557
 21
57.0606207117
  0
LINE
  5
41E
100
AcDbEntity
  8
DRAFT
100
AcDbLine
 62
7
  6
CONTINUOUS
 10
-44.906272746
 20
57.1304409714
 11
-44.9451770557
 21
57.2082555169
  0
LINE
  5
41F
100
AcDbEntity
  8
ASSI
100
AcDbLine
 62
7
  6
CONTINUOUS
 10
-44.906272746
 20
57.1304409714
 11
-44.9451770557
 21
57.2082555169
  0
LINE
  5
420
100
AcDbEntity
  8
0
100
AcDbLine
 62
7
  6
CONTINUOUS
 10
-31.4451770557
 20
-0.2412874989
 11
-31.4451770557
 21
1.5445767362
  0
LINE
  5
421
100
AcDbEntity
  8
ASSI
100
AcDbLine
 62
7
  6
CONTINUOUS
 10
-31.4451770557
 20
-0.2412874989
 11
-31.4451770557
 21
1.5445767362
  0
LINE
  5
422
100
AcDbEntity
  8
0
100
AcDbLine
 62
7
  6
CONTINUOUS
 10
-31.4451770557
 20
55.5445767362
 11
-31.4451770557
 21
57.3304409714
  0
LINE
  5
423
100
AcDbEntity
  8
ASSI
100
AcDbLine
 62
7
  6
CONTINUOUS
 10
-31.4451770557
 20
55.5445767362
 11
-31.4451770557
 21
57.3304409714
  0
LINE
  5
424
100
AcDbEntity
  8
DRAFT
100
AcDbLine
 62
7
  6
CONTINUOUS
 10
-31.1951770557
 20
57.0606207117
 11
-31.1951770557
 21
55.0445767362
  0
LINE
  5
425
100
AcDbEntity
  8
DRAFT
100
AcDbLine
 62
7
  6
CONTINUOUS
 10
-31.1951770557
 20
0.0285327608
 11
-31.1951770557
 21
2.0445767362
  0
LINE
  5
426
100
AcDbEntity
  8
DRAFT
100
AcDbLine
 62
7
  6
CONTINUOUS
 10
-31.125356796
 20
57.1304409714
 11
-31.125356796
 21
54.9747564765
  0
LINE
  5
427
100
AcDbEntity
  8
DRAFT
100
AcDbLine
 62
7
  6
CONTINUOUS
 10
-31.125356796
 20
-0.0412874989
 11
-31.125356796
 21
2.1143969959
  0
LINE
  5
428
100
AcDbEntity
  8
DRAFT
100
AcDbLine
 62
7
  6
CONTINUOUS
 10
-31.1951770557
 20
2.0445767362
 11
-31.125356796
 21
2.1143969959
  0
LINE
  5
429
100
AcDbEntity
  8
DRAFT
100
AcDbLine
 62
7
  6
CONTINUOUS
 10
-31.1951770557
 20
55.0445767362
 11
-31.125356796
 21
54.9747564765
  0
LINE
  5
42A
100
AcDbEntity
  8
0
100
AcDbLine
 62
253
  6
CONTINUOUS
 10
-14.6951770557
 20
57.2257079234
 11
-14.6951770557
 21
57.1304409714
  0
LINE
  5
42B
100
AcDbEntity
  8
ASSI
100
AcDbLine
 62
253
  6
CONTINUOUS
 10
-14.6951770557
 20
57.2257079234
 11
-14.6951770557
 21
57.1304409714
  0
LINE
  5
42C
100
AcDbEntity
  8
0
100
AcDbLine
 62
253
  6
CONTINUOUS
 10
-14.6951770557
 20
-0.1365544509
 11
-14.6951770557
 21
-0.0412874989
  0
LINE
  5
42D
100
AcDbEntity
  8
ASSI
100
AcDbLine
 62
253
  6
CONTINUOUS
 10
-14.6951770557
 20
-0.1365544509
 11
-14.6951770557
 21
-0.0412874989
  0
LINE
  5
42E
100
AcDbEntity
  8
0
100
AcDbLine
 62
7
  6
CONTINUOUS
 10
-14.1951770557
 20
57.2257079234
 11
-14.1951770557
 21
57.1304409714
  0
LINE
  5
42F
100
AcDbEntity
  8
ASSI
100
AcDbLine
 62
7
  6
CONTINUOUS
 10
-14.1951770557
 20
57.2257079234
 11
-14.1951770557
 21
57.1304409714
  0
LINE
  5
430
100
AcDbEntity
  8
0
100
AcDbLine
 62
7
  6
CONTINUOUS
 10
-14.1951770557
 20
-0.1365544509
 11
-14.1951770557
 21
-0.0412874989
  0
LINE
  5
431
100
AcDbEntity
  8
ASSI
100
AcDbLine
 62
7
  6
CONTINUOUS
 10
-14.1951770557
 20
-0.1365544509
 11
-14.1951770557
 21
-0.0412874989
  0
LINE
  5
432
100
AcDbEntity
  8
0
100
AcDbLine
 62
7
  6
CONTINUOUS
 10
-0.2376256955
 20
56.7452521197
 11
-0.2065219838
 21
56.8347167919
  0
LINE
  5
433
100
AcDbEntity
  8
RACCORDO
100
AcDbLine
 62
253
  6
CONTINUOUS
 10
-2.5159560429
 20
-1.6804232638
 11
-2.5385770576
 21
-1.3742129414
  0
LINE
  5
434
100
AcDbEntity
  8
ASSI
100
AcDbLine
 62
253
  6
CONTINUOUS
 10
-2.5159560429
 20
-1.6804232638
 11
-2.5385770576
 21
-1.3742129414
  0
LINE
  5
435
100
AcDbEntity
  8
RACCORDO
100
AcDbLine
 62
253
  6
CONTINUOUS
 10
-2.0767947403
 20
-1.6479806138
 11
-2.0994157551
 21
-1.3417702915
  0
LINE
  5
436
100
AcDbEntity
  8
ASSI
100
AcDbLine
 62
253
  6
CONTINUOUS
 10
-2.0767947403
 20
-1.6479806138
 11
-2.0994157551
 21
-1.3417702915
  0
LINE
  5
437
100
AcDbEntity
  8
RACCORDO
100
AcDbLine
 62
253
  6
CONTINUOUS
 10
-2.5385770576
 20
58.4633664139
 11
-2.5159560429
 21
58.7695767362
  0
LINE
  5
438
100
AcDbEntity
  8
ASSI
100
AcDbLine
 62
253
  6
CONTINUOUS
 10
-2.5385770576
 20
58.4633664139
 11
-2.5159560429
 21
58.7695767362
  0
LINE
  5
439
100
AcDbEntity
  8
RACCORDO
100
AcDbLine
 62
253
  6
CONTINUOUS
 10
-2.0994157551
 20
58.4309237639
 11
-2.0767947403
 21
58.7371340863
  0
LINE
  5
43A
100
AcDbEntity
  8
ASSI
100
AcDbLine
 62
253
  6
CONTINUOUS
 10
-2.0994157551
 20
58.4309237639
 11
-2.0767947403
 21
58.7371340863
  0
LINE
  5
43B
100
AcDbEntity
  8
0
100
AcDbLine
 62
7
  6
CONTINUOUS
 10
-0.2065219838
 20
56.8347167919
 11
-0.2065219838
 21
56.7406313846
  0
LINE
  5
43C
100
AcDbEntity
  8
0
100
AcDbLine
 62
7
  6
CONTINUOUS
 10
0.8161678724
 20
56.5887016418
 11
0.8161678724
 21
56.6852010529
  0
LWPOLYLINE
  5
43D
100
AcDbEntity
  8
RACCORDO
100
AcDbPolyline
 62
7
  6
CONTINUOUS
 90
31
 70
0
 10
13.3647198541
 20
53.7061096552
 10
13.354763299
 20
53.8425203868
 10
13.3386092979
 20
53.9780421597
 10
13.3162578508
 20
54.1126749741
 10
13.2876055159
 20
54.2468532751
 10
13.252755735
 20
54.3801426175
 10
13.2120188332
 20
54.5112396656
 10
13.1653535261
 20
54.6399838839
 10
13.112801098
 20
54.7665358079
 10
13.0547957274
 20
54.8900737083
 10
12.9914524177
 20
55.0103919811
 10
12.9226561654
 20
55.1276962302
 10
12.8484961386
 20
55.2417815386
 10
12.7687692817
 20
55.3529167678
 10
12.6836786503
 20
55.4608330562
 10
12.5939225784
 20
55.5645189015
 10
12.4994199104
 20
55.6639027304
 10
12.4002518019
 20
55.7590561163
 10
12.2973600538
 20
55.849182277
 10
12.1909908805
 20
55.9340529513
 10
12.0808980677
 20
56.0138964004
 10
11.9672847735
 20
56.0886006256
 10
11.8499625353
 20
56.1582969295
 10
11.7291198158
 20
56.2228540096
 10
11.6055251611
 20
56.2817659593
 10
11.4790131021
 20
56.3350091018
 10
11.3497491079
 20
56.382607114
 10
11.218998132
 20
56.4241251199
 10
11.0871818257
 20
56.4594181609
 10
10.9538785376
 20
56.4886311957
 10
10.8190882679
 20
56.5117642241
  0
LWPOLYLINE
  5
43E
100
AcDbEntity
  8
ASSI
100
AcDbPolyline
 62
7
  6
CONTINUOUS
 90
31
 70
0
 10
13.3647198541
 20
53.7061096552
 10
13.354763299
 20
53.8425203868
 10
13.3386092979
 20
53.9780421597
 10
13.3162578508
 20
54.1126749741
 10
13.2876055159
 20
54.2468532751
 10
13.252755735
 20
54.3801426175
 10
13.2120188332
 20
54.5112396656
 10
13.1653535261
 20
54.6399838839
 10
13.112801098
 20
54.7665358079
 10
13.0547957274
 20
54.8900737083
 10
12.9914524177
 20
55.0103919811
 10
12.9226561654
 20
55.1276962302
 10
12.8484961386
 20
55.2417815386
 10
12.7687692817
 20
55.3529167678
 10
12.6836786503
 20
55.4608330562
 10
12.5939225784
 20
55.5645189015
 10
12.4994199104
 20
55.6639027304
 10
12.4002518019
 20
55.7590561163
 10
12.2973600538
 20
55.849182277
 10
12.1909908805
 20
55.9340529513
 10
12.0808980677
 20
56.0138964004
 10
11.9672847735
 20
56.0886006256
 10
11.8499625353
 20
56.1582969295
 10
11.7291198158
 20
56.2228540096
 10
11.6055251611
 20
56.2817659593
 10
11.4790131021
 20
56.3350091018
 10
11.3497491079
 20
56.382607114
 10
11.218998132
 20
56.4241251199
 10
11.0871818257
 20
56.4594181609
 10
10.9538785376
 20
56.4886311957
 10
10.8190882679
 20
56.5117642241
  0
LINE
  5
43F
100
AcDbEntity
  8
RACCORDO
100
AcDbLine
 62
7
  6
CONTINUOUS
 10
13.6582260804
 20
53.9646234799
 11
13.6577561891
 21
53.973631525
  0
LINE
  5
440
100
AcDbEntity
  8
ASSI
100
AcDbLine
 62
7
  6
CONTINUOUS
 10
13.6582260804
 20
53.9646234799
 11
13.6577561891
 21
53.973631525
  0
LINE
  5
441
100
AcDbEntity
  8
0
100
AcDbLine
 62
7
  6
CONTINUOUS
 10
12.1360567391
 20
53.6842172557
 11
12.1356391124
 21
53.692355207
  0
LINE
  5
442
100
AcDbEntity
  8
ASSI
100
AcDbLine
 62
7
  6
CONTINUOUS
 10
4.5048229443
 20
7.0445767362
 11
4.5048229443
 21
11.0445767362
  0
LINE
  5
443
100
AcDbEntity
  8
ASSI
100
AcDbLine
 62
7
  6
CONTINUOUS
 10
8.5048229443
 20
11.0445767362
 11
8.5048229443
 21
7.0445767362
  0
LINE
  5
444
100
AcDbEntity
  8
0
100
AcDbLine
 62
7
  6
CONTINUOUS
 10
12.1356391124
 20
3.3967982651
 11
12.1360567391
 21
3.4049362168
  0
LINE
  5
445
100
AcDbEntity
  8
RACCORDO
100
AcDbLine
 62
7
  6
CONTINUOUS
 10
13.6577561891
 20
3.1155219474
 11
13.6582260804
 21
3.1245299926
  0
LINE
  5
446
100
AcDbEntity
  8
ASSI
100
AcDbLine
 62
7
  6
CONTINUOUS
 10
13.6577561891
 20
3.1155219474
 11
13.6582260804
 21
3.1245299926
  0
LWPOLYLINE
  5
447
100
AcDbEntity
  8
RACCORDO
100
AcDbPolyline
 62
7
  6
CONTINUOUS
 90
31
 70
0
 10
13.6577561891
 20
3.1155219474
 10
13.647369762
 20
2.9793358053
 10
13.630782622
 20
2.8436849327
 10
13.6080181131
 20
2.7088511872
 10
13.579090842
 20
2.575022204
 10
13.5440631313
 20
2.4425734785
 10
13.5030869164
 20
2.3120567765
 10
13.4563540146
 20
2.1839409668
 10
13.4039254172
 20
2.0582683939
 10
13.3457643526
 20
1.9349511391
 10
13.2818609707
 20
1.8140597722
 10
13.2124173157
 20
1.6960593782
 10
13.1377198936
 20
1.5814478881
 10
13.0580168406
 20
1.4705620381
 10
12.9734156414
 20
1.3635090287
 10
12.8840287485
 20
1.2604192792
 10
12.7900410002
 20
1.1615061041
 10
12.6916468889
 20
1.066974054
 10
12.5889653795
 20
0.9769476363
 10
12.4820928058
 20
0.8915441736
 10
12.3713404017
 20
0.8110431237
 10
12.2571761427
 20
0.7357776824
 10
12.1400434584
 20
0.6659938092
 10
12.0200135397
 20
0.6016885064
 10
11.8970024241
 20
0.5428166943
 10
11.7710463762
 20
0.4894431637
 10
11.6425935781
 20
0.44180406
 10
11.5121785686
 20
0.4001038285
 10
11.3801690814
 20
0.3644407174
 10
11.2467504683
 20
0.3348473631
 10
11.1122010213
 20
0.3113741857
  0
LWPOLYLINE
  5
448
100
AcDbEntity
  8
ASSI
100
AcDbPolyline
 62
7
  6
CONTINUOUS
 90
31
 70
0
 10
13.6577561891
 20
3.1155219474
 10
13.647369762
 20
2.9793358053
 10
13.630782622
 20
2.8436849327
 10
13.6080181131
 20
2.7088511872
 10
13.579090842
 20
2.575022204
 10
13.5440631313
 20
2.4425734785
 10
13.5030869164
 20
2.3120567765
 10
13.4563540146
 20
2.1839409668
 10
13.4039254172
 20
2.0582683939
 10
13.3457643526
 20
1.9349511391
 10
13.2818609707
 20
1.8140597722
 10
13.2124173157
 20
1.6960593782
 10
13.1377198936
 20
1.5814478881
 10
13.0580168406
 20
1.4705620381
 10
12.9734156414
 20
1.3635090287
 10
12.8840287485
 20
1.2604192792
 10
12.7900410002
 20
1.1615061041
 10
12.6916468889
 20
1.066974054
 10
12.5889653795
 20
0.9769476363
 10
12.4820928058
 20
0.8915441736
 10
12.3713404017
 20
0.8110431237
 10
12.2571761427
 20
0.7357776824
 10
12.1400434584
 20
0.6659938092
 10
12.0200135397
 20
0.6016885064
 10
11.8970024241
 20
0.5428166943
 10
11.7710463762
 20
0.4894431637
 10
11.6425935781
 20
0.44180406
 10
11.5121785686
 20
0.4001038285
 10
11.3801690814
 20
0.3644407174
 10
11.2467504683
 20
0.3348473631
 10
11.1122010213
 20
0.3113741857
  0
LINE
  5
449
100
AcDbEntity
  8
0
100
AcDbLine
 62
7
  6
CONTINUOUS
 10
0.8481194963
 20
56.5839549417
 11
0.8161678724
 21
56.6852010529
  0
ARC
  5
44A
100
AcDbEntity
  8
RACCORDO
100
AcDbCircle
 62
7
  6
CONTINUOUS
 10
296.3048229443
 20
28.5445767362
 40
500.0
100
AcDbArc
 50
177.0858209054
 51
182.9141790946
  0
ARC
  5
44B
100
AcDbEntity
  8
RACCORDO
100
AcDbCircle
 62
7
  6
CONTINUOUS
 10
-485.6951770557
 20
28.5445767362
 40
500.0
100
AcDbArc
 50
357.0858209054
 51
2.9141790946
  0
ARC
  5
44C
100
AcDbEntity
  8
ASSI
100
AcDbCircle
 62
7
  6
CONTINUOUS
 10
296.3048229443
 20
28.5445767362
 40
500.0
100
AcDbArc
 50
177.0858209054
 51
182.9141790946
  0
ARC
  5
44D
100
AcDbEntity
  8
ASSI
100
AcDbCircle
 62
7
  6
CONTINUOUS
 10
-485.6951770557
 20
28.5445767362
 40
500.0
100
AcDbArc
 50
357.0858209054
 51
2.9141790946
  0
ARC
  5
44E
100
AcDbEntity
  8
RACCORDO
100
AcDbCircle
 62
7
  6
CONTINUOUS
 10
296.3048229443
 20
28.5445767362
 40
499.6937896777
100
AcDbArc
 50
177.1137132597
 51
182.8862867403
  0
ARC
  5
44F
100
AcDbEntity
  8
RACCORDO
100
AcDbCircle
 62
7
  6
CONTINUOUS
 10
-485.6951770557
 20
28.5445767362
 40
499.6937896777
100
AcDbArc
 50
357.1137132597
 51
2.8862867403
  0
ARC
  5
450
100
AcDbEntity
  8
ASSI
100
AcDbCircle
 62
7
  6
CONTINUOUS
 10
-485.6951770557
 20
28.5445767362
 40
499.6937896777
100
AcDbArc
 50
357.1137132597
 51
2.8862867403
  0
ARC
  5
451
100
AcDbEntity
  8
ASSI
100
AcDbCircle
 62
7
  6
CONTINUOUS
 10
296.3048229443
 20
28.5445767362
 40
499.6937896777
100
AcDbArc
 50
177.1137132597
 51
182.8862867403
  0
ARC
  5
452
100
AcDbEntity
  8
RACCORDO
100
AcDbCircle
 62
7
  6
CONTINUOUS
 10
296.3048229443
 20
28.5445767362
 40
498.5
100
AcDbArc
 50
177.0858640466
 51
182.9141359534
  0
ARC
  5
453
100
AcDbEntity
  8
RACCORDO
100
AcDbCircle
 62
7
  6
CONTINUOUS
 10
-485.6951770557
 20
28.5445767362
 40
498.5
100
AcDbArc
 50
357.0858640466
 51
2.9141359534
  0
ARC
  5
454
100
AcDbEntity
  8
ASSI
100
AcDbCircle
 62
7
  6
CONTINUOUS
 10
296.3048229443
 20
28.5445767362
 40
498.5
100
AcDbArc
 50
177.0858640466
 51
182.9141359534
  0
ARC
  5
455
100
AcDbEntity
  8
ASSI
100
AcDbCircle
 62
7
  6
CONTINUOUS
 10
-485.6951770557
 20
28.5445767362
 40
498.5
100
AcDbArc
 50
357.0858640466
 51
2.9141359534
  0
ARC
  5
456
100
AcDbEntity
  8
DRAFT
100
AcDbCircle
 62
7
  6
CONTINUOUS
 10
-485.6951770557
 20
28.5445767362
 40
498.3
100
AcDbArc
 50
357.0858640466
 51
2.9141359534
  0
ARC
  5
457
100
AcDbEntity
  8
DRAFT
100
AcDbCircle
 62
7
  6
CONTINUOUS
 10
296.3048229443
 20
28.5445767362
 40
498.3
100
AcDbArc
 50
177.0858640466
 51
182.9141359534
  0
CIRCLE
  5
458
100
AcDbEntity
  8
ASSI
100
AcDbCircle
 62
7
  6
CONTINUOUS
 10
-195.8951770557
 20
50.0445767362
 40
2.0
  0
ARC
  5
459
100
AcDbEntity
  8
ASSI
100
AcDbCircle
 62
7
  6
CONTINUOUS
 10
6.5048229443
 20
7.0445767362
 40
2.0
100
AcDbArc
 50
180.0
 51
360.0
  0
ARC
  5
45A
100
AcDbEntity
  8
ASSI
100
AcDbCircle
 62
7
  6
CONTINUOUS
 10
6.5048229443
 20
11.0445767362
 40
2.0
100
AcDbArc
 50
0.0
 51
180.0
  0
ARC
  5
45B
100
AcDbEntity
  8
RACCORDO
100
AcDbCircle
 62
7
  6
CONTINUOUS
 10
-200.0524787981
 20
3.2774240077
 40
1.5
100
AcDbArc
 50
182.9141359534
 51
261.55
  0
ARC
  5
45C
100
AcDbEntity
  8
RACCORDO
100
AcDbCircle
 62
7
  6
CONTINUOUS
 10
-200.0524787981
 20
53.8117294648
 40
1.5
100
AcDbArc
 50
98.45
 51
177.0858640466
  0
ARC
  5
45D
100
AcDbEntity
  8
RACCORDO
100
AcDbCircle
 62
7
  6
CONTINUOUS
 10
10.6621246867
 20
53.8117294648
 40
1.5
100
AcDbArc
 50
2.9141359534
 51
81.55
  0
ARC
  5
45E
100
AcDbEntity
  8
RACCORDO
100
AcDbCircle
 62
7
  6
CONTINUOUS
 10
10.6621246867
 20
3.2774240077
 40
1.5
100
AcDbArc
 50
278.45
 51
357.0858640466
  0
ARC
  5
45F
100
AcDbEntity
  8
ASSI
100
AcDbCircle
 62
7
  6
CONTINUOUS
 10
10.6621246867
 20
3.2774240077
 40
1.5
100
AcDbArc
 50
278.45
 51
357.0858640466
  0
ARC
  5
460
100
AcDbEntity
  8
ASSI
100
AcDbCircle
 62
7
  6
CONTINUOUS
 10
10.6621246867
 20
53.8117294648
 40
1.5
100
AcDbArc
 50
2.9141359534
 51
81.55
  0
ARC
  5
461
100
AcDbEntity
  8
ASSI
100
AcDbCircle
 62
7
  6
CONTINUOUS
 10
-200.0524787981
 20
53.8117294648
 40
1.5
100
AcDbArc
 50
98.45
 51
177.0858640466
  0
ARC
  5
462
100
AcDbEntity
  8
ASSI
100
AcDbCircle
 62
7
  6
CONTINUOUS
 10
-200.0524787981
 20
3.2774240077
 40
1.5
100
AcDbArc
 50
182.9141359534
 51
261.55
  0
ARC
  5
463
100
AcDbEntity
  8
DRAFT
100
AcDbCircle
 62
7
  6
CONTINUOUS
 10
10.6621246867
 20
53.8117294648
 40
1.3
100
AcDbArc
 50
2.9141359534
 51
81.55
  0
ARC
  5
464
100
AcDbEntity
  8
DRAFT
100
AcDbCircle
 62
7
  6
CONTINUOUS
 10
10.6621246867
 20
3.2774240077
 40
1.3
100
AcDbArc
 50
278.45
 51
357.0858640466
  0
ARC
  5
465
100
AcDbEntity
  8
DRAFT
100
AcDbCircle
 62
7
  6
CONTINUOUS
 10
-200.0524787981
 20
3.2774240077
 40
1.3
100
AcDbArc
 50
182.9141359534
 51
261.55
  0
ARC
  5
466
100
AcDbEntity
  8
DRAFT
100
AcDbCircle
 62
7
  6
CONTINUOUS
 10
-200.0524787981
 20
53.8117294648
 40
1.3
100
AcDbArc
 50
98.45
 51
177.0858640466
  0
ELLIPSE
  5
467
100
AcDbEntity
  8
0
100
AcDbEllipse
 62
7
  6
CONTINUOUS
 10
564.2283599284
 20
28.5445767362
 30
0.0
 11
5177.4812061315
 21
496.1518584059
 31
0.0
 40
0.0093342442
 41
1.71831501
 42
1.7183473948
  0
ELLIPSE
  5
468
100
AcDbEntity
  8
0
100
AcDbEllipse
 62
7
  6
CONTINUOUS
 10
304.3775645001
 20
28.5445767362
 30
0.0
 11
-506.5485233311
 21
0.0
 31
0.0
 40
0.9841110516
 41
6.2323240399
 42
6.232716988
  0
ELLIPSE
  5
469
100
AcDbEntity
  8
0
100
AcDbEllipse
 62
7
  6
CONTINUOUS
 10
304.3775645001
 20
28.5445767362
 30
0.0
 11
-506.5485233311
 21
0.0
 31
0.0
 40
0.9841110516
 41
-0.0060178492
 42
0.0060178492
  0
ELLIPSE
  5
46A
100
AcDbEntity
  8
0
100
AcDbEllipse
 62
7
  6
CONTINUOUS
 10
-199.9936656749
 20
53.8117294648
 30
0.0
 11
1.5242182247
 21
0.0
 31
0.0
 40
0.9841110516
 41
1.7182766486
 42
3.0907313864
  0
ELLIPSE
  5
46B
100
AcDbEntity
  8
0
100
AcDbEllipse
 62
7
  6
CONTINUOUS
 10
-199.9936656749
 20
3.2774240077
 30
0.0
 11
1.5242182247
 21
0.0
 31
0.0
 40
0.9841110516
 41
-3.0907313864
 42
-1.7182766486
  0
ELLIPSE
  5
46C
100
AcDbEntity
  8
0
100
AcDbEllipse
 62
7
  6
CONTINUOUS
 10
304.3775645001
 20
28.5445767362
 30
0.0
 11
-506.5485233311
 21
0.0
 31
0.0
 40
0.9841110516
 41
6.3336536263
 42
6.3340465744
  0
ELLIPSE
  5
46D
100
AcDbEntity
  8
0
100
AcDbEllipse
 62
7
  6
CONTINUOUS
 10
564.2283599284
 20
28.5445767362
 30
0.0
 11
5177.4812061315
 21
-496.1518584059
 31
0.0
 40
0.0093342442
 41
-1.7183473948
 42
-1.71831501
  0
ELLIPSE
  5
46E
100
AcDbEntity
  8
0
100
AcDbEllipse
 62
7
  6
CONTINUOUS
 10
-753.6187140398
 20
28.5445767362
 30
0.0
 11
5177.4812061315
 21
496.1518584059
 31
0.0
 40
0.0093342442
 41
-1.4232776436
 42
-1.4232452588
  0
ELLIPSE
  5
46F
100
AcDbEntity
  8
0
100
AcDbEllipse
 62
7
  6
CONTINUOUS
 10
10.6033115635
 20
3.2774240077
 30
0.0
 11
1.5242182247
 21
-0.0
 31
0.0
 40
0.9841110516
 41
-1.423316005
 42
-0.0508612672
  0
ELLIPSE
  5
470
100
AcDbEntity
  8
0
100
AcDbEllipse
 62
7
  6
CONTINUOUS
 10
10.6033115635
 20
53.8117294648
 30
0.0
 11
1.5242182247
 21
0.0
 31
0.0
 40
0.9841110516
 41
0.0508612672
 42
1.423316005
  0
ELLIPSE
  5
471
100
AcDbEntity
  8
0
100
AcDbEllipse
 62
7
  6
CONTINUOUS
 10
-753.6187140398
 20
28.5445767362
 30
0.0
 11
5177.4812061315
 21
-496.1518584059
 31
0.0
 40
0.0093342442
 41
1.4232452588
 42
1.4232776436
  0
ELLIPSE
  5
472
100
AcDbEntity
  8
RACCORDO
100
AcDbEllipse
 62
7
  6
CONTINUOUS
 10
-149.6951770557
 20
57.1462058904
 30
0.0
 11
0.5548207204
 21
0.0
 31
0.0
 40
0.0174550649
 41
0.0087266463
 42
3.1328660073
  0
ELLIPSE
  5
473
100
AcDbEntity
  8
RACCORDO
100
AcDbEllipse
 62
7
  6
CONTINUOUS
 10
-149.6951770557
 20
-0.057052418
 30
0.0
 11
0.5548207204
 21
0.0
 31
0.0
 40
0.0174550649
 41
-3.1328660073
 42
-0.0087266463
  0
ELLIPSE
  5
474
100
AcDbEntity
  8
RACCORDO
100
AcDbEllipse
 62
7
  6
CONTINUOUS
 10
-145.6951770557
 20
57.1462058904
 30
0.0
 11
0.5548207204
 21
0.0
 31
0.0
 40
0.0174550649
 41
0.0087266463
 42
3.1328660073
  0
ELLIPSE
  5
475
100
AcDbEntity
  8
RACCORDO
100
AcDbEllipse
 62
7
  6
CONTINUOUS
 10
-145.6951770557
 20
-0.057052418
 30
0.0
 11
0.5548207204
 21
0.0
 31
0.0
 40
0.0174550649
 41
-3.1328660073
 42
-0.0087266463
  0
ELLIPSE
  5
476
100
AcDbEntity
  8
RACCORDO
100
AcDbEllipse
 62
7
  6
CONTINUOUS
 10
-141.6951770557
 20
57.1462058904
 30
0.0
 11
0.5548207204
 21
-0.0
 31
0.0
 40
0.0174550649
 41
0.0087266463
 42
3.1328660073
  0
ELLIPSE
  5
477
100
AcDbEntity
  8
RACCORDO
100
AcDbEllipse
 62
7
  6
CONTINUOUS
 10
-141.6951770557
 20
-0.057052418
 30
0.0
 11
0.5548207204
 21
0.0
 31
0.0
 40
0.0174550649
 41
-3.1328660073
 42
-0.0087266463
  0
ELLIPSE
  5
478
100
AcDbEntity
  8
RACCORDO
100
AcDbEllipse
 62
7
  6
CONTINUOUS
 10
-137.6951770557
 20
57.1462058904
 30
0.0
 11
0.5548207204
 21
0.0
 31
0.0
 40
0.0174550649
 41
0.0087266463
 42
3.1328660073
  0
ELLIPSE
  5
479
100
AcDbEntity
  8
RACCORDO
100
AcDbEllipse
 62
7
  6
CONTINUOUS
 10
-137.6951770557
 20
-0.057052418
 30
0.0
 11
0.5548207204
 21
0.0
 31
0.0
 40
0.0174550649
 41
-3.1328660073
 42
-0.0087266463
  0
ELLIPSE
  5
47A
100
AcDbEntity
  8
RACCORDO
100
AcDbEllipse
 62
7
  6
CONTINUOUS
 10
-133.6951770557
 20
57.1462058904
 30
0.0
 11
0.5548207204
 21
0.0
 31
0.0
 40
0.0174550649
 41
0.0087266463
 42
3.1328660073
  0
ELLIPSE
  5
47B
100
AcDbEntity
  8
RACCORDO
100
AcDbEllipse
 62
7
  6
CONTINUOUS
 10
-133.6951770557
 20
-0.057052418
 30
0.0
 11
0.5548207204
 21
0.0
 31
0.0
 40
0.0174550649
 41
-3.1328660073
 42
-0.0087266463
  0
ELLIPSE
  5
47C
100
AcDbEntity
  8
RACCORDO
100
AcDbEllipse
 62
7
  6
CONTINUOUS
 10
-129.6951770557
 20
57.1462058904
 30
0.0
 11
0.5548207204
 21
0.0
 31
0.0
 40
0.0174550649
 41
0.0087266463
 42
3.1328660073
  0
ELLIPSE
  5
47D
100
AcDbEntity
  8
RACCORDO
100
AcDbEllipse
 62
7
  6
CONTINUOUS
 10
-129.6951770557
 20
-0.057052418
 30
0.0
 11
0.5548207204
 21
0.0
 31
0.0
 40
0.0174550649
 41
-3.1328660073
 42
-0.0087266463
  0
ELLIPSE
  5
47E
100
AcDbEntity
  8
RACCORDO
100
AcDbEllipse
 62
7
  6
CONTINUOUS
 10
-125.6951770557
 20
57.1462058904
 30
0.0
 11
0.5548207204
 21
0.0
 31
0.0
 40
0.0174550649
 41
0.0087266463
 42
3.1328660073
  0
ELLIPSE
  5
47F
100
AcDbEntity
  8
RACCORDO
100
AcDbEllipse
 62
7
  6
CONTINUOUS
 10
-125.6951770557
 20
-0.057052418
 30
0.0
 11
0.5548207204
 21
-0.0
 31
0.0
 40
0.0174550649
 41
-3.1328660073
 42
-0.0087266463
  0
ELLIPSE
  5
480
100
AcDbEntity
  8
RACCORDO
100
AcDbEllipse
 62
7
  6
CONTINUOUS
 10
-121.6951770557
 20
57.1462058904
 30
0.0
 11
0.5548207204
 21
0.0
 31
0.0
 40
0.0174550649
 41
0.0087266463
 42
3.1328660073
  0
ELLIPSE
  5
481
100
AcDbEntity
  8
RACCORDO
100
AcDbEllipse
 62
7
  6
CONTINUOUS
 10
-121.6951770557
 20
-0.057052418
 30
0.0
 11
0.5548207204
 21
0.0
 31
0.0
 40
0.0174550649
 41
-3.1328660073
 42
-0.0087266463
  0
ELLIPSE
  5
482
100
AcDbEntity
  8
RACCORDO
100
AcDbEllipse
 62
7
  6
CONTINUOUS
 10
-117.6951770557
 20
57.1462058904
 30
0.0
 11
0.5548207204
 21
0.0
 31
0.0
 40
0.0174550649
 41
0.0087266463
 42
3.1328660073
  0
ELLIPSE
  5
483
100
AcDbEntity
  8
RACCORDO
100
AcDbEllipse
 62
7
  6
CONTINUOUS
 10
-117.6951770557
 20
-0.057052418
 30
0.0
 11
0.5548207204
 21
-0.0
 31
0.0
 40
0.0174550649
 41
-3.1328660073
 42
-0.0087266463
  0
ELLIPSE
  5
484
100
AcDbEntity
  8
RACCORDO
100
AcDbEllipse
 62
7
  6
CONTINUOUS
 10
-113.6951770557
 20
57.1462058904
 30
0.0
 11
0.5548207204
 21
0.0
 31
0.0
 40
0.0174550649
 41
0.0087266463
 42
3.1328660073
  0
ELLIPSE
  5
485
100
AcDbEntity
  8
RACCORDO
100
AcDbEllipse
 62
7
  6
CONTINUOUS
 10
-113.6951770557
 20
-0.057052418
 30
0.0
 11
0.5548207204
 21
-0.0
 31
0.0
 40
0.0174550649
 41
-3.1328660073
 42
-0.0087266463
  0
ELLIPSE
  5
486
100
AcDbEntity
  8
RACCORDO
100
AcDbEllipse
 62
7
  6
CONTINUOUS
 10
-109.6951770557
 20
57.1462058904
 30
0.0
 11
0.5548207204
 21
0.0
 31
0.0
 40
0.0174550649
 41
0.0087266463
 42
3.1328660073
  0
ELLIPSE
  5
487
100
AcDbEntity
  8
RACCORDO
100
AcDbEllipse
 62
7
  6
CONTINUOUS
 10
-109.6951770557
 20
-0.057052418
 30
0.0
 11
0.5548207204
 21
-0.0
 31
0.0
 40
0.0174550649
 41
-3.1328660073
 42
-0.0087266463
  0
ELLIPSE
  5
488
100
AcDbEntity
  8
0
100
AcDbEllipse
 62
7
  6
CONTINUOUS
 10
-493.7679186115
 20
28.5445767362
 30
0.0
 11
506.5485233311
 21
-0.0
 31
0.0
 40
0.9841110516
 41
6.2323240399
 42
6.2335159401
  0
ELLIPSE
  5
489
100
AcDbEntity
  8
0
100
AcDbEllipse
 62
7
  6
CONTINUOUS
 10
-493.7679186115
 20
28.5445767362
 30
0.0
 11
506.5485233311
 21
-0.0
 31
0.0
 40
0.9841110516
 41
6.3328546743
 42
6.3340465744
  0
ELLIPSE
  5
48A
100
AcDbEntity
  8
0
100
AcDbEllipse
 62
7
  6
CONTINUOUS
 10
304.3775645001
 20
28.5445767362
 30
0.0
 11
506.5485233311
 21
-0.0
 31
0.0
 40
0.9841110516
 41
3.0907313864
 42
3.0919232865
  0
ELLIPSE
  5
48B
100
AcDbEntity
  8
0
100
AcDbEllipse
 62
7
  6
CONTINUOUS
 10
304.3775645001
 20
28.5445767362
 30
0.0
 11
506.5485233311
 21
-0.0
 31
0.0
 40
0.9841110516
 41
-3.0919232865
 42
-3.0907313864
  0
ELLIPSE
  5
48C
100
AcDbEntity
  8
RACCORDO
100
AcDbEllipse
 62
7
  6
CONTINUOUS
 10
-199.9936656749
 20
3.2774240077
 30
0.0
 11
-1.5242182247
 21
0.0
 31
0.0
 40
0.9841110516
 41
6.3340465744
 42
7.7065013122
  0
ELLIPSE
  5
48D
100
AcDbEntity
  8
RACCORDO
100
AcDbEllipse
 62
7
  6
CONTINUOUS
 10
-199.9936656749
 20
53.8117294648
 30
0.0
 11
-1.5242182247
 21
0.0
 31
0.0
 40
0.9841110516
 41
4.8598693022
 42
6.2323240399
  0
ELLIPSE
  5
48E
100
AcDbEntity
  8
RACCORDO
100
AcDbEllipse
 62
7
  6
CONTINUOUS
 10
10.6033115635
 20
53.8117294648
 30
0.0
 11
-1.5242182247
 21
-0.0
 31
0.0
 40
0.9841110516
 41
3.1924539208
 42
4.5649086586
  0
ELLIPSE
  5
48F
100
AcDbEntity
  8
RACCORDO
100
AcDbEllipse
 62
7
  6
CONTINUOUS
 10
10.6033115635
 20
3.2774240077
 30
0.0
 11
-1.5242182247
 21
0.0
 31
0.0
 40
0.9841110516
 41
8.0014619558
 42
9.3739166935
  0
ELLIPSE
  5
490
100
AcDbEntity
  8
RACCORDO
100
AcDbEllipse
 62
7
  6
CONTINUOUS
 10
-2.5402669588
 20
1.6372465712
 30
0.0
 11
0.2218689114
 21
-3.0033378985
 31
0.0
 40
0.9961740501
 41
-0.0734590505
 42
0.0734590505
  0
ELLIPSE
  5
491
100
AcDbEntity
  8
RACCORDO
100
AcDbEllipse
 62
7
  6
CONTINUOUS
 10
-186.8500871526
 20
1.6372465712
 30
0.0
 11
0.2218689114
 21
3.0033378985
 31
0.0
 40
0.9961740501
 41
3.0681336031
 42
3.2150517041
  0
ELLIPSE
  5
492
100
AcDbEntity
  8
RACCORDO
100
AcDbEllipse
 62
7
  6
CONTINUOUS
 10
-186.8500871526
 20
55.4519069013
 30
0.0
 11
-0.2218689114
 21
3.0033378985
 31
0.0
 40
0.9961740501
 41
-0.0734590505
 42
0.0734590505
  0
ELLIPSE
  5
493
100
AcDbEntity
  8
RACCORDO
100
AcDbEllipse
 62
7
  6
CONTINUOUS
 10
-2.5402669588
 20
55.4519069013
 30
0.0
 11
-0.2218689114
 21
-3.0033378985
 31
0.0
 40
0.9961740501
 41
3.0681336031
 42
3.2150517041
  0
ELLIPSE
  5
494
100
AcDbEntity
  8
ASSI
100
AcDbEllipse
 62
7
  6
CONTINUOUS
 10
-493.7679186115
 20
28.5445767362
 30
0.0
 11
506.5485233311
 21
-0.0
 31
0.0
 40
0.9841110516
 41
6.2323240399
 42
6.2335159401
  0
ELLIPSE
  5
495
100
AcDbEntity
  8
ASSI
100
AcDbEllipse
 62
7
  6
CONTINUOUS
 10
-493.7679186115
 20
28.5445767362
 30
0.0
 11
506.5485233311
 21
-0.0
 31
0.0
 40
0.9841110516
 41
6.3328546743
 42
6.3340465744
  0
ELLIPSE
  5
496
100
AcDbEntity
  8
ASSI
100
AcDbEllipse
 62
7
  6
CONTINUOUS
 10
304.3775645001
 20
28.5445767362
 30
0.0
 11
506.5485233311
 21
-0.0
 31
0.0
 40
0.9841110516
 41
3.0907313864
 42
3.0919232865
  0
ELLIPSE
  5
497
100
AcDbEntity
  8
ASSI
100
AcDbEllipse
 62
7
  6
CONTINUOUS
 10
304.3775645001
 20
28.5445767362
 30
0.0
 11
506.5485233311
 21
-0.0
 31
0.0
 40
0.9841110516
 41
-3.0919232865
 42
-3.0907313864
  0
ELLIPSE
  5
498
100
AcDbEntity
  8
ASSI
100
AcDbEllipse
 62
7
  6
CONTINUOUS
 10
10.6033115635
 20
3.2774240077
 30
0.0
 11
-1.5242182247
 21
0.0
 31
0.0
 40
0.9841110516
 41
8.0014619558
 42
9.3739166935
  0
ELLIPSE
  5
499
100
AcDbEntity
  8
ASSI
100
AcDbEllipse
 62
7
  6
CONTINUOUS
 10
10.6033115635
 20
53.8117294648
 30
0.0
 11
-1.5242182247
 21
-0.0
 31
0.0
 40
0.9841110516
 41
3.1924539208
 42
4.5649086586
  0
ELLIPSE
  5
49A
100
AcDbEntity
  8
ASSI
100
AcDbEllipse
 62
7
  6
CONTINUOUS
 10
-199.9936656749
 20
53.8117294648
 30
0.0
 11
-1.5242182247
 21
0.0
 31
0.0
 40
0.9841110516
 41
4.8598693022
 42
6.2323240399
  0
ELLIPSE
  5
49B
100
AcDbEntity
  8
ASSI
100
AcDbEllipse
 62
7
  6
CONTINUOUS
 10
-199.9936656749
 20
3.2774240077
 30
0.0
 11
-1.5242182247
 21
0.0
 31
0.0
 40
0.9841110516
 41
6.3340465744
 42
7.7065013122
  0
ELLIPSE
  5
49C
100
AcDbEntity
  8
ASSI
100
AcDbEllipse
 62
7
  6
CONTINUOUS
 10
-109.6951770557
 20
-0.057052418
 30
0.0
 11
0.5548207204
 21
-0.0
 31
0.0
 40
0.0174550649
 41
-3.1328660073
 42
-0.0087266463
  0
ELLIPSE
  5
49D
100
AcDbEntity
  8
ASSI
100
AcDbEllipse
 62
7
  6
CONTINUOUS
 10
-109.6951770557
 20
57.1462058904
 30
0.0
 11
0.5548207204
 21
0.0
 31
0.0
 40
0.0174550649
 41
0.0087266463
 42
3.1328660073
  0
ELLIPSE
  5
49E
100
AcDbEntity
  8
ASSI
100
AcDbEllipse
 62
7
  6
CONTINUOUS
 10
-113.6951770557
 20
-0.057052418
 30
0.0
 11
0.5548207204
 21
-0.0
 31
0.0
 40
0.0174550649
 41
-3.1328660073
 42
-0.0087266463
  0
ELLIPSE
  5
49F
100
AcDbEntity
  8
ASSI
100
AcDbEllipse
 62
7
  6
CONTINUOUS
 10
-113.6951770557
 20
57.1462058904
 30
0.0
 11
0.5548207204
 21
0.0
 31
0.0
 40
0.0174550649
 41
0.0087266463
 42
3.1328660073
  0
ELLIPSE
  5
4A0
100
AcDbEntity
  8
ASSI
100
AcDbEllipse
 62
7
  6
CONTINUOUS
 10
-117.6951770557
 20
-0.057052418
 30
0.0
 11
0.5548207204
 21
-0.0
 31
0.0
 40
0.0174550649
 41
-3.1328660073
 42
-0.0087266463
  0
ELLIPSE
  5
4A1
100
AcDbEntity
  8
ASSI
100
AcDbEllipse
 62
7
  6
CONTINUOUS
 10
-117.6951770557
 20
57.1462058904
 30
0.0
 11
0.5548207204
 21
0.0
 31
0.0
 40
0.0174550649
 41
0.0087266463
 42
3.1328660073
  0
ELLIPSE
  5
4A2
100
AcDbEntity
  8
ASSI
100
AcDbEllipse
 62
7
  6
CONTINUOUS
 10
-121.6951770557
 20
-0.057052418
 30
0.0
 11
0.5548207204
 21
0.0
 31
0.0
 40
0.0174550649
 41
-3.1328660073
 42
-0.0087266463
  0
ELLIPSE
  5
4A3
100
AcDbEntity
  8
ASSI
100
AcDbEllipse
 62
7
  6
CONTINUOUS
 10
-121.6951770557
 20
57.1462058904
 30
0.0
 11
0.5548207204
 21
0.0
 31
0.0
 40
0.0174550649
 41
0.0087266463
 42
3.1328660073
  0
ELLIPSE
  5
4A4
100
AcDbEntity
  8
ASSI
100
AcDbEllipse
 62
7
  6
CONTINUOUS
 10
-125.6951770557
 20
-0.057052418
 30
0.0
 11
0.5548207204
 21
-0.0
 31
0.0
 40
0.0174550649
 41
-3.1328660073
 42
-0.0087266463
  0
ELLIPSE
  5
4A5
100
AcDbEntity
  8
ASSI
100
AcDbEllipse
 62
7
  6
CONTINUOUS
 10
-125.6951770557
 20
57.1462058904
 30
0.0
 11
0.5548207204
 21
0.0
 31
0.0
 40
0.0174550649
 41
0.0087266463
 42
3.1328660073
  0
ELLIPSE
  5
4A6
100
AcDbEntity
  8
ASSI
100
AcDbEllipse
 62
7
  6
CONTINUOUS
 10
-129.6951770557
 20
-0.057052418
 30
0.0
 11
0.5548207204
 21
0.0
 31
0.0
 40
0.0174550649
 41
-3.1328660073
 42
-0.0087266463
  0
ELLIPSE
  5
4A7
100
AcDbEntity
  8
ASSI
100
AcDbEllipse
 62
7
  6
CONTINUOUS
 10
-129.6951770557
 20
57.1462058904
 30
0.0
 11
0.5548207204
 21
0.0
 31
0.0
 40
0.0174550649
 41
0.0087266463
 42
3.1328660073
  0
ELLIPSE
  5
4A8
100
AcDbEntity
  8
ASSI
100
AcDbEllipse
 62
7
  6
CONTINUOUS
 10
-133.6951770557
 20
-0.057052418
 30
0.0
 11
0.5548207204
 21
0.0
 31
0.0
 40
0.0174550649
 41
-3.1328660073
 42
-0.0087266463
  0
ELLIPSE
  5
4A9
100
AcDbEntity
  8
ASSI
100
AcDbEllipse
 62
7
  6
CONTINUOUS
 10
-133.6951770557
 20
57.1462058904
 30
0.0
 11
0.5548207204
 21
0.0
 31
0.0
 40
0.0174550649
 41
0.0087266463
 42
3.1328660073
  0
ELLIPSE
  5
4AA
100
AcDbEntity
  8
ASSI
100
AcDbEllipse
 62
7
  6
CONTINUOUS
 10
-137.6951770557
 20
-0.057052418
 30
0.0
 11
0.5548207204
 21
0.0
 31
0.0
 40
0.0174550649
 41
-3.1328660073
 42
-0.0087266463
  0
ELLIPSE
  5
4AB
100
AcDbEntity
  8
ASSI
100
AcDbEllipse
 62
7
  6
CONTINUOUS
 10
-137.6951770557
 20
57.1462058904
 30
0.0
 11
0.5548207204
 21
0.0
 31
0.0
 40
0.0174550649
 41
0.0087266463
 42
3.1328660073
  0
ELLIPSE
  5
4AC
100
AcDbEntity
  8
ASSI
100
AcDbEllipse
 62
7
  6
CONTINUOUS
 10
-141.6951770557
 20
-0.057052418
 30
0.0
 11
0.5548207204
 21
0.0
 31
0.0
 40
0.0174550649
 41
-3.1328660073
 42
-0.0087266463
  0
ELLIPSE
  5
4AD
100
AcDbEntity
  8
ASSI
100
AcDbEllipse
 62
7
  6
CONTINUOUS
 10
-141.6951770557
 20
57.1462058904
 30
0.0
 11
0.5548207204
 21
-0.0
 31
0.0
 40
0.0174550649
 41
0.0087266463
 42
3.1328660073
  0
ELLIPSE
  5
4AE
100
AcDbEntity
  8
ASSI
100
AcDbEllipse
 62
7
  6
CONTINUOUS
 10
-145.6951770557
 20
-0.057052418
 30
0.0
 11
0.5548207204
 21
0.0
 31
0.0
 40
0.0174550649
 41
-3.1328660073
 42
-0.0087266463
  0
ELLIPSE
  5
4AF
100
AcDbEntity
  8
ASSI
100
AcDbEllipse
 62
7
  6
CONTINUOUS
 10
-145.6951770557
 20
57.1462058904
 30
0.0
 11
0.5548207204
 21
0.0
 31
0.0
 40
0.0174550649
 41
0.0087266463
 42
3.1328660073
  0
ELLIPSE
  5
4B0
100
AcDbEntity
  8
ASSI
100
AcDbEllipse
 62
7
  6
CONTINUOUS
 10
-149.6951770557
 20
-0.057052418
 30
0.0
 11
0.5548207204
 21
0.0
 31
0.0
 40
0.0174550649
 41
-3.1328660073
 42
-0.0087266463
  0
ELLIPSE
  5
4B1
100
AcDbEntity
  8
ASSI
100
AcDbEllipse
 62
7
  6
CONTINUOUS
 10
-149.6951770557
 20
57.1462058904
 30
0.0
 11
0.5548207204
 21
0.0
 31
0.0
 40
0.0174550649
 41
0.0087266463
 42
3.1328660073
  0
ELLIPSE
  5
4B2
100
AcDbEntity
  8
ASSI
100
AcDbEllipse
 62
7
  6
CONTINUOUS
 10
-2.5402669588
 20
1.6372465712
 30
0.0
 11
0.2218689114
 21
-3.0033378985
 31
0.0
 40
0.9961740501
 41
-0.0734590505
 42
0.0734590505
  0
ELLIPSE
  5
4B3
100
AcDbEntity
  8
ASSI
100
AcDbEllipse
 62
7
  6
CONTINUOUS
 10
-186.8500871526
 20
1.6372465712
 30
0.0
 11
0.2218689114
 21
3.0033378985
 31
0.0
 40
0.9961740501
 41
3.0681336031
 42
3.2150517041
  0
ELLIPSE
  5
4B4
100
AcDbEntity
  8
ASSI
100
AcDbEllipse
 62
7
  6
CONTINUOUS
 10
-186.8500871526
 20
55.4519069013
 30
0.0
 11
-0.2218689114
 21
3.0033378985
 31
0.0
 40
0.9961740501
 41
-0.0734590505
 42
0.0734590505
  0
ELLIPSE
  5
4B5
100
AcDbEntity
  8
ASSI
100
AcDbEllipse
 62
7
  6
CONTINUOUS
 10
-2.5402669588
 20
55.4519069013
 30
0.0
 11
-0.2218689114
 21
-3.0033378985
 31
0.0
 40
0.9961740501
 41
3.0681336031
 42
3.2150517041
  0
ENDSEC
  0
SECTION
  2
OBJECTS
  0
DICTIONARY
  5
C
100
AcDbDictionary
280
0
281
1
  3
ACAD_GROUP
350
D
  3
ACAD_MLINESTYLE
350
17
  3
ACAD_LAYOUT
350
1A
  3
ACAD_PLOTSETTINGS
350
19
  3
ACAD_PLOTSTYLENAME
350
E
  0
DICTIONARY
  5
D
102
{ACAD_REACTORS
330
C
102
}
100
AcDbDictionary
280
0
281
1
  0
ACDBDICTIONARYWDFLT
  5
E
102
{ACAD_REACTORS
330
C
102
}
100
AcDbDictionary
281
1
  3
Normal
350
F
100
AcDbDictionaryWithDefault
340
F
  0
DICTIONARY
  5
17
102
{ACAD_REACTORS
330
C
102
}
100
AcDbDictionary
280
0
281
1
  3
Standard
350
18
  0
DICTIONARY
  5
19
102
{ACAD_REACTORS
330
C
102
}
100
AcDbDictionary
281
1
  0
DICTIONARY
  5
1A
102
{ACAD_REACTORS
330
C
102
}
100
AcDbDictionary
281
1
  3
Model
350
4B6
  3
Layout1
350
4B7
  0
ACDBPLACEHOLDER
  5
F
102
{ACAD_REACTORS
330
E
102
}
  0
MLINESTYLE
  5
18
102
{ACAD_REACTORS
330
17
102
}
100
AcDbMlineStyle
  2
STANDARD
 70
0
  3

 62
256
 51
90.0
 52
90.0
 71
2
 49
0.5
 62
256
  6
BYLAYER
 49
-0.5
 62
256
  6
BYLAYER
  0
LAYOUT
  5
4B6
102
{ACAD_REACTORS
330
1A
102
}
100
AcDbPlotSettings
  1

  2
none_device
  4
ISO_A4_(297.00_x_210.00_MM)
  6

 40
0.0
 41
0.0
 42
0.0
 43
0.0
 44
297.0
 45
210.0
 46
0.0
 47
0.0
 48
0.0
 49
0.0
140
0.0
141
0.0
142
1.0
143
1.0
 70
1024
 72
1
 73
0
 74
0
  7

 75
0
147
1.0
148
0.0
149
0.0
100
AcDbLayout
  1
Model
 70
0
 71
0
 10
0.0
 20
0.0
 11
297.0
 21
210.0
 12
0.0
 22
0.0
 32
0.0
 14
0.0
 24
0.0
 34
0.0
 15
0.0
 25
0.0
 35
0.0
146
0.0
 13
0.0
 23
0.0
 33
0.0
 16
1.0
 26
0.0
 36
0.0
 17
0.0
 27
1.0
 37
0.0
 76
0
330
21B
345
0
346
0
  0
LAYOUT
  5
4B7
102
{ACAD_REACTORS
330
1A
102
}
100
AcDbPlotSettings
  1

  2
none_device
  4
ISO_A4_(297.00_x_210.00_MM)
  6

 40
0.0
 41
0.0
 42
0.0
 43
0.0
 44
297.0
 45
210.0
 46
0.0
 47
0.0
 48
0.0
 49
0.0
140
0.0
141
0.0
142
1.0
143
1.0
 70
0
 72
1
 73
0
 74
0
  7

 75
0
147
1.0
148
0.0
149
0.0
100
AcDbLayout
  1
Layout1
 70
0
 71
1
 10
0.0
 20
0.0
 11
297.0
 21
210.0
 12
0.0
 22
0.0
 32
0.0
 14
0.0
 24
0.0
 34
0.0
 15
0.0
 25
0.0
 35
0.0
146
0.0
 13
0.0
 23
0.0
 33
0.0
 16
1.0
 26
0.0
 36
0.0
 17
0.0
 27
1.0
 37
0.0
 76
0
330
21C
345
0
346
0
  0
ENDSEC
  0
EOF
