  0
SECTION
  2
HEADER
  9
$ACADVER
  1
AC1015
  9
$DWGCODEPAGE
  3
ANSI_1252
  9
$EXTMAX
 10
297.0
 20
210.0
 30
0.0
  9
$EXTMIN
 10
0.0
 20
0.0
 30
0.0
  9
$LIMMIN
 10
0.0
 20
0.0
  9
$LIMMAX
 10
297.0
 20
210.0
  9
$VIEWCTR
 10
148.5
 20
105.0
  9
$VIEWSIZE
 40
210.0
  9
$CLAYER
  8
0
  9
$LTSCALE
 40
16.335
  9
$CELTYPE
  6
BYLAYER
  9
$DIMSCALE
 40
1.0
  9
$DIMASZ
 40
3.0
  9
$DIMEXO
 40
0.5
  9
$DIMDLI
 40
11.286
  9
$DIMEXE
 40
1.5
  9
$DIMCEN
 40
2.673
  9
$DIMLFAC
 40
1.0
  9
$DIMBLK
  1
_FILLED
  9
$DIMTXT
 40
3.0
  9
$DIMTOL
 70
1
  9
$DIMLIM
 70
0
  9
$DIMTFAC
 40
1.0
  9
$DIMTP
 40
0.01
  9
$DIMTM
 40
0.01
  9
$DIMGAP
 40
0.625
  9
$DIMDSEP
 70
44
  9
$PDMODE
 70
3
  9
$PDSIZE
 40
3.0
  9
$HANDSEED
  5
4B8
  9
$TILEMODE
 70
1
  9
$MEASUREMENT
 70
1
  9
$INSUNITS
 70
4
  0
ENDSEC
  0
SECTION
  2
CLASSES
  0
CLASS
  1
ACDBDICTIONARYWDFLT
  2
AcDbDictionaryWithDefault
  3
AutoCAD 2000
 90
0
280
0
281
0
  0
CLASS
  1
ACDBPLACEHOLDER
  2
AcDbPlaceHolder
  3
AutoCAD 2000
 90
0
280
0
281
0
  0
CLASS
  1
LAYOUT
  2
AcDbLayout
  3
AutoCAD 2000
 90
0
280
0
281
0
  0
ENDSEC
  0
SECTION
  2
TABLES
  0
TABLE
  2
VPORT
  5
8
100
AcDbSymbolTable
 70
2
  0
VPORT
  5
1F4
100
AcDbSymbolTableRecord
100
AcDbViewportTableRecord
  2
*ACTIVE
 70
0
 10
0.0
 20
0.0
 11
1.0
 21
1.0
 12
148.5
 22
105.0
 13
0.0
 23
0.0
 14
1.0
 24
1.0
 15
0.0
 25
0.0
 16
0.0
 26
0.0
 36
1.0
 17
0.0
 27
0.0
 37
0.0
 40
210.0
 41
1.4142857143
 42
50.0
 43
0.0
 44
0.0
 50
0.0
 51
0.0
 71
0
 72
100
 73
1
 74
1
 75
0
 76
0
 77
0
 78
0
  0
ENDTAB
  0
TABLE
  2
LTYPE
  5
5
100
AcDbSymbolTable
 70
6
  0
LTYPE
  5
14
100
AcDbSymbolTableRecord
100
AcDbLinetypeTableRecord
  2
BYBLOCK
 70
0
  3

 72
65
 73
0
 40
0.0
  0
LTYPE
  5
15
100
AcDbSymbolTableRecord
100
AcDbLinetypeTableRecord
  2
BYLAYER
 70
0
  3

 72
65
 73
0
 40
0.0
  0
LTYPE
  5
16
100
AcDbSymbolTableRecord
100
AcDbLinetypeTableRecord
  2
CONTINUOUS
 70
64
  3
Solid line
 72
65
 73
0
 40
0.0
  0
LTYPE
  5
1F5
100
AcDbSymbolTableRecord
100
AcDbLinetypeTableRecord
  2
CENTER
 70
64
  3
____ _ ____ _ ____ _ ____ _ ____ _ ____ _ ____
 72
65
 73
4
 40
0.6
 49
0.375
 74
0
 49
-0.075
 74
0
 49
0.075
 74
0
 49
-0.075
 74
0
  0
LTYPE
  5
1F6
100
AcDbSymbolTableRecord
100
AcDbLinetypeTableRecord
  2
HIDDEN
 70
64
  3
- - - - - - - - - - - - - - - - - - - -
 72
65
 73
2
 40
0.2
 49
0.1
 74
0
 49
-0.1
 74
0
  0
LTYPE
  5
1F7
100
AcDbSymbolTableRecord
100
AcDbLinetypeTableRecord
  2
PHANTOM
 70
64
  3
_____ _ _ _____ _ _ _____ _ _ _____
 72
65
 73
6
 40
0.8
 49
0.45
 74
0
 49
-0.05
 74
0
 49
0.1
 74
0
 49
-0.05
 74
0
 49
0.1
 74
0
 49
-0.05
 74
0
  0
LTYPE
  5
1F8
100
AcDbSymbolTableRecord
100
AcDbLinetypeTableRecord
  2
DOT
 70
64
  3
. . . . . . . . . . . . . . . . . . . .
 72
65
 73
2
 40
0.2
 49
0.1
 74
0
 49
-0.1
 74
0
  0
LTYPE
  5
1F9
100
AcDbSymbolTableRecord
100
AcDbLinetypeTableRecord
  2
DASHED
 70
64
  3
- - - - - - - - - - - - - - - - - - - -
 72
65
 73
2
 40
0.2
 49
0.1
 74
0
 49
-0.1
 74
0
  0
ENDTAB
  0
TABLE
  2
LAYER
  5
2
100
AcDbSymbolTable
 70
36
  0
LAYER
  5
10
100
AcDbSymbolTableRecord
100
AcDbLayerTableRecord
  2
0
 70
0
 62
7
  6
CONTINUOUS
370
-3
390
F
  0
LAYER
  5
1FA
100
AcDbSymbolTableRecord
100
AcDbLayerTableRecord
  2
DEFAULT_1
 70
0
 62
7
  6
CENTER
370
-3
390
F
  0
LAYER
  5
1FB
100
AcDbSymbolTableRecord
100
AcDbLayerTableRecord
  2
DEFAULT_2
 70
0
 62
7
  6
HIDDEN
370
-3
390
F
  0
LAYER
  5
1FC
100
AcDbSymbolTableRecord
100
AcDbLayerTableRecord
  2
DEFAULT_3
 70
0
 62
7
  6
PHANTOM
370
-3
390
F
  0
LAYER
  5
1FD
100
AcDbSymbolTableRecord
100
AcDbLayerTableRecord
  2
ASSI
 70
0
 62
7
  6
CONTINUOUS
370
-3
390
F
  0
LAYER
  5
1FE
100
AcDbSymbolTableRecord
100
AcDbLayerTableRecord
  2
COLOR1
 70
0
 62
7
  6
CONTINUOUS
370
-3
390
F
  0
LAYER
  5
1FF
100
AcDbSymbolTableRecord
100
AcDbLayerTableRecord
  2
COLOR14
 70
0
 62
7
  6
CONTINUOUS
370
-3
390
F
  0
LAYER
  5
200
100
AcDbSymbolTableRecord
100
AcDbLayerTableRecord
  2
COLOR5
 70
0
 62
7
  6
CONTINUOUS
370
-3
390
F
  0
LAYER
  5
201
100
AcDbSymbolTableRecord
100
AcDbLayerTableRecord
  2
COORDINATE
 70
0
 62
7
  6
CONTINUOUS
370
-3
390
F
  0
LAYER
  5
202
100
AcDbSymbolTableRecord
100
AcDbLayerTableRecord
  2
COORD_ORIGINE
 70
0
 62
7
  6
CONTINUOUS
370
-3
390
F
  0
LAYER
  5
203
100
AcDbSymbolTableRecord
100
AcDbLayerTableRecord
  2
COPY_PUBLISH
 70
0
 62
7
  6
CONTINUOUS
370
-3
390
F
  0
LAYER
  5
204
100
AcDbSymbolTableRecord
100
AcDbLayerTableRecord
  2
COSMETIC
 70
0
 62
7
  6
CONTINUOUS
370
-3
390
F
  0
LAYER
  5
205
100
AcDbSymbolTableRecord
100
AcDbLayerTableRecord
  2
COSMETICI
 70
0
 62
7
  6
CONTINUOUS
370
-3
390
F
  0
LAYER
  5
206
100
AcDbSymbolTableRecord
100
AcDbLayerTableRecord
  2
CURVE
 70
0
 62
7
  6
CONTINUOUS
370
-3
390
F
  0
LAYER
  5
207
100
AcDbSymbolTableRecord
100
AcDbLayerTableRecord
  2
DRAFT
 70
0
 62
7
  6
CONTINUOUS
370
-3
390
F
  0
LAYER
  5
208
100
AcDbSymbolTableRecord
100
AcDbLayerTableRecord
  2
IMPORT_IGES
 70
0
 62
7
  6
CONTINUOUS
370
-3
390
F
  0
LAYER
  5
209
100
AcDbSymbolTableRecord
100
AcDbLayerTableRecord
  2
INTFCLR_1
 70
0
 62
7
  6
CONTINUOUS
370
-3
390
F
  0
LAYER
  5
20A
100
AcDbSymbolTableRecord
100
AcDbLayerTableRecord
  2
INTFCLR_229
 70
0
 62
7
  6
CONTINUOUS
370
-3
390
F
  0
LAYER
  5
20B
100
AcDbSymbolTableRecord
100
AcDbLayerTableRecord
  2
INTF_1
 70
0
 62
7
  6
CONTINUOUS
370
-3
390
F
  0
LAYER
  5
20C
100
AcDbSymbolTableRecord
100
AcDbLayerTableRecord
  2
INTF_2
 70
0
 62
7
  6
CONTINUOUS
370
-3
390
F
  0
LAYER
  5
20D
100
AcDbSymbolTableRecord
100
AcDbLayerTableRecord
  2
INTF_8
 70
0
 62
7
  6
CONTINUOUS
370
-3
390
F
  0
LAYER
  5
20E
100
AcDbSymbolTableRecord
100
AcDbLayerTableRecord
  2
INTF_YELLOW
 70
0
 62
7
  6
CONTINUOUS
370
-3
390
F
  0
LAYER
  5
20F
100
AcDbSymbolTableRecord
100
AcDbLayerTableRecord
  2
NOTE
 70
0
 62
7
  6
CONTINUOUS
370
-3
390
F
  0
LAYER
  5
210
100
AcDbSymbolTableRecord
100
AcDbLayerTableRecord
  2
PIANI
 70
0
 62
7
  6
CONTINUOUS
370
-3
390
F
  0
LAYER
  5
211
100
AcDbSymbolTableRecord
100
AcDbLayerTableRecord
  2
PIANI_ORIGINE
 70
0
 62
7
  6
CONTINUOUS
370
-3
390
F
  0
LAYER
  5
212
100
AcDbSymbolTableRecord
100
AcDbLayerTableRecord
  2
PUNTI
 70
0
 62
7
  6
CONTINUOUS
370
-3
390
F
  0
LAYER
  5
213
100
AcDbSymbolTableRecord
100
AcDbLayerTableRecord
  2
RACCORDO
 70
0
 62
7
  6
CONTINUOUS
370
-3
390
F
  0
LAYER
  5
214
100
AcDbSymbolTableRecord
100
AcDbLayerTableRecord
  2
SIMBOLI
 70
0
 62
7
  6
CONTINUOUS
370
-3
390
F
  0
LAYER
  5
215
100
AcDbSymbolTableRecord
100
AcDbLayerTableRecord
  2
SMUSSO
 70
0
 62
7
  6
CONTINUOUS
370
-3
390
F
  0
LAYER
  5
216
100
AcDbSymbolTableRecord
100
AcDbLayerTableRecord
  2
SNAPLINE
 70
0
 62
7
  6
CONTINUOUS
370
-3
390
F
  0
LAYER
  5
217
100
AcDbSymbolTableRecord
100
AcDbLayerTableRecord
  2
SUPERFICI
 70
0
 62
7
  6
CONTINUOUS
370
-3
390
F
  0
LAYER
  5
218
100
AcDbSymbolTableRecord
100
AcDbLayerTableRecord
  2
TRASH
 70
0
 62
7
  6
CONTINUOUS
370
-3
390
F
  0
ENDTAB
  0
TABLE
  2
STYLE
  5
3
100
AcDbSymbolTable
 70
1
  0
STYLE
  5
11
100
AcDbSymbolTableRecord
100
AcDbTextStyleTableRecord
  2
STANDARD
 70
0
 40
0.0
 41
0.8
 50
0.0
 71
0
 42
0.2
  3
txt
  4

  0
STYLE
  5
219
100
AcDbSymbolTableRecord
100
AcDbTextStyleTableRecord
  2
TEXTSTYLE_1
 70
0
 40
0.0
 41
0.8
 50
0.0
 71
0
 42
0.2
  3
gdt
  4

  0
ENDTAB
  0
TABLE
  2
VIEW
  5
6
100
AcDbSymbolTable
 70
0
  0
ENDTAB
  0
TABLE
  2
UCS
  5
7
100
AcDbSymbolTable
 70
0
  0
ENDTAB
  0
TABLE
  2
APPID
  5
9
100
AcDbSymbolTable
 70
1
  0
APPID
  5
21A
100
AcDbSymbolTableRecord
100
AcDbRegAppTableRecord
  2
ACAD
 70
0
  0
ENDTAB
  0
TABLE
  2
BLOCK_RECORD
  5
1
100
AcDbSymbolTable
 70
0
  0
BLOCK_RECORD
  5
21B
100
AcDbSymbolTableRecord
100
AcDbBlockTableRecord
  2
*Model_Space
  0
BLOCK_RECORD
  5
21C
100
AcDbSymbolTableRecord
100
AcDbBlockTableRecord
  2
*Paper_Space
  0
ENDTAB
  0
TABLE
  2
DIMSTYLE
  5
A
100
AcDbSymbolTable
 70
1
100
AcDbDimStyleTable
 71
0
  0
DIMSTYLE
105
21D
100
AcDbSymbolTableRecord
100
AcDbDimStyleTableRecord
  2
STANDARD
 70
0
  3

  4

 40
1.0
 41
3.0
 42
0.5
 43
0.38
 44
1.5
 45
0.0
 46
0.0
 47
0.01
 48
0.01
140
3.0
141
0.09
142
0.0
143
25.4
144
1.0
145
0.0
146
1.0
147
0.625
 71
1.0
 72
0.0
 73
0
 74
0
 75
0
 76
0
 77
1
 78
8
170
0
171
2
172
0
173
0
174
0
175
0
176
0
177
0
178
0
270
2
271
2
272
2
273
2
274
2
275
0
280
0
281
0
282
0
283
1
284
8
285
0
286
0
287
3
288
0
340
11
278
44
  0
ENDTAB
  0
ENDSEC
  0
SECTION
  2
BLOCKS
  0
BLOCK
  5
20
100
AcDbEntity
  8
0
100
AcDbBlockBegin
  2
*Model_Space
 70
0
 10
0.0
 20
0.0
 30
0.0
  3
*Model_Space
  1

  0
ENDBLK
  5
21
100
AcDbEntity
  8
0
100
AcDbBlockEnd
  0
BLOCK
  5
1C
100
AcDbEntity
  8
0
100
AcDbBlockBegin
  2
*Paper_Space
 70
0
 10
0.0
 20
0.0
 30
0.0
  3
*Paper_Space
  1

  0
ENDBLK
  5
1D
100
AcDbEntity
  8
0
100
AcDbBlockEnd
  0
ENDSEC
  0
SECTION
  2
ENTITIES
  0
LWPOLYLINE
  5
21E
100
AcDbEntity
  8
RACCORDO
100
AcDbPolyline
 62
7
  6
CONTINUOUS
 90
31
 70
0
 10
-218.8379332448
 20
6.2809452112
 10
-218.8275455948
 20
6.1447601791
 10
-218.8109587148
 20
6.0091090706
 10
-218.7881951687
 20
5.874274451
 10
-218.7592682829
 20
5.7404451181
 10
-218.7242402038
 20
5.607996727
 10
-218.6832639721
 20
5.4774800402
 10
-218.6365311453
 20
5.3493641625
 10
-218.5841022658
 20
5.2236918456
 10
-218.5259414083
 20
5.1003744028
 10
-218.4620383385
 20
4.9794827526
 10
-218.3925944985
 20
4.8614825266
 10
-218.3178969492
 20
4.7468711518
 10
-218.2381939619
 20
4.6359852423
 10
-218.1535927272
 20
4.5289322652
 10
-218.0642058042
 20
4.425842543
 10
-217.9702180859
 20
4.3269293406
 10
-217.8718240101
 20
4.2323972583
 10
-217.7691424352
 20
4.1423709001
 10
-217.6622699887
 20
4.0569673219
 10
-217.5515177695
 20
3.9764661041
 10
-217.4373531984
 20
3.9012009462
 10
-217.320220307
 20
3.8314172609
 10
-217.2001906703
 20
3.7671117021
 10
-217.0771794798
 20
3.7082399581
 10
-216.9512234487
 20
3.6548664122
 10
-216.8227710189
 20
3.6072269741
 10
-216.6923556243
 20
3.5655270922
 10
-216.5603451743
 20
3.5298648552
 10
-216.4269263012
 20
3.5002717369
 10
-216.2923780769
 20
3.4767974495
  0
LWPOLYLINE
  5
21F
100
AcDbEntity
  8
ASSI
100
AcDbPolyline
 62
7
  6
CONTINUOUS
 90
31
 70
0
 10
-218.8379332448
 20
6.2809452112
 10
-218.8275455948
 20
6.1447601791
 10
-218.8109587148
 20
6.0091090706
 10
-218.7881951687
 20
5.874274451
 10
-218.7592682829
 20
5.7404451181
 10
-218.7242402038
 20
5.607996727
 10
-218.6832639721
 20
5.4774800402
 10
-218.6365311453
 20
5.3493641625
 10
-218.5841022658
 20
5.2236918456
 10
-218.5259414083
 20
5.1003744028
 10
-218.4620383385
 20
4.9794827526
 10
-218.3925944985
 20
4.8614825266
 10
-218.3178969492
 20
4.7468711518
 10
-218.2381939619
 20
4.6359852423
 10
-218.1535927272
 20
4.5289322652
 10
-218.0642058042
 20
4.425842543
 10
-217.9702180859
 20
4.3269293406
 10
-217.8718240101
 20
4.2323972583
 10
-217.7691424352
 20
4.1423709001
 10
-217.6622699887
 20
4.0569673219
 10
-217.5515177695
 20
3.9764661041
 10
-217.4373531984
 20
3.9012009462
 10
-217.320220307
 20
3.8314172609
 10
-217.2001906703
 20
3.7671117021
 10
-217.0771794798
 20
3.7082399581
 10
-216.9512234487
 20
3.6548664122
 10
-216.8227710189
 20
3.6072269741
 10
-216.6923556243
 20
3.5655270922
 10
-216.5603451743
 20
3.5298648552
 10
-216.4269263012
 20
3.5002717369
 10
-216.2923780769
 20
3.4767974495
  0
LWPOLYLINE
  5
220
100
AcDbEntity
  8
RACCORDO
100
AcDbPolyline
 62
7
  6
CONTINUOUS
 90
31
 70
0
 10
-218.5448969098
 20
6.548467081
 10
-218.5349411265
 20
6.4120690154
 10
-218.5187898131
 20
6.2765614513
 10
-218.4964429696
 20
6.1419443886
 10
-218.4677972005
 20
6.007784108
 10
-218.4329559013
 20
5.8745143289
 10
-218.3922292587
 20
5.7434362092
 10
-218.3455776647
 20
5.6147121428
 10
-218.2930407271
 20
5.4881797358
 10
-218.2350474571
 20
5.3646529639
 10
-218.1717102668
 20
5.2443321321
 10
-218.1029167439
 20
5.1270169354
 10
-218.0287586629
 20
5.0129204337
 10
-217.9490327091
 20
4.9017754422
 10
-217.8639421972
 20
4.7938491457
 10
-217.7741888454
 20
4.6901561585
 10
-217.6796935493
 20
4.5907703147
 10
-217.5805354134
 20
4.4956177802
 10
-217.4776534692
 20
4.4054916672
 10
-217.3712956252
 20
4.3206201415
 10
-217.261213973
 20
4.2407750372
 10
-217.147603819
 20
4.1660649696
 10
-217.0302716779
 20
4.0963555431
 10
-216.9094110352
 20
4.0317811533
 10
-216.7857976529
 20
3.9728536013
 10
-216.6592677494
 20
3.9195984128
 10
-216.5299851063
 20
3.8719900621
 10
-216.3992168314
 20
3.8304637742
 10
-216.267385294
 20
3.7951646241
 10
-216.1340681247
 20
3.7659475367
 10
-215.9992653236
 20
3.7428125121
  0
LWPOLYLINE
  5
221
100
AcDbEntity
  8
ASSI
100
AcDbPolyline
 62
7
  6
CONTINUOUS
 90
31
 70
0
 10
-218.5448969098
 20
6.548467081
 10
-218.5349411265
 20
6.4120690154
 10
-218.5187898131
 20
6.2765614513
 10
-218.4964429696
 20
6.1419443886
 10
-218.4677972005
 20
6.007784108
 10
-218.4329559013
 20
5.8745143289
 10
-218.3922292587
 20
5.7434362092
 10
-218.3455776647
 20
5.6147121428
 10
-218.2930407271
 20
5.4881797358
 10
-218.2350474571
 20
5.3646529639
 10
-218.1717102668
 20
5.2443321321
 10
-218.1029167439
 20
5.1270169354
 10
-218.0287586629
 20
5.0129204337
 10
-217.9490327091
 20
4.9017754422
 10
-217.8639421972
 20
4.7938491457
 10
-217.7741888454
 20
4.6901561585
 10
-217.6796935493
 20
4.5907703147
 10
-217.5805354134
 20
4.4956177802
 10
-217.4776534692
 20
4.4054916672
 10
-217.3712956252
 20
4.3206201415
 10
-217.261213973
 20
4.2407750372
 10
-217.147603819
 20
4.1660649696
 10
-217.0302716779
 20
4.0963555431
 10
-216.9094110352
 20
4.0317811533
 10
-216.7857976529
 20
3.9728536013
 10
-216.6592677494
 20
3.9195984128
 10
-216.5299851063
 20
3.8719900621
 10
-216.3992168314
 20
3.8304637742
 10
-216.267385294
 20
3.7951646241
 10
-216.1340681247
 20
3.7659475367
 10
-215.9992653236
 20
3.7428125121
  0
LINE
  5
222
100
AcDbEntity
  8
RACCORDO
100
AcDbLine
 62
7
  6
CONTINUOUS
 10
-218.838403136
 20
6.2899532563
 11
-218.8379332448
 21
6.2809452112
  0
LINE
  5
223
100
AcDbEntity
  8
ASSI
100
AcDbLine
 62
7
  6
CONTINUOUS
 10
-218.838403136
 20
6.2899532563
 11
-218.8379332448
 21
6.2809452112
  0
LINE
  5
224
100
AcDbEntity
  8
0
100
AcDbLine
 62
7
  6
CONTINUOUS
 10
-217.3162337948
 20
6.5703594806
 11
-217.3158161681
 21
6.562221529
  0
LINE
  5
225
100
AcDbEntity
  8
0
100
AcDbLine
 62
7
  6
CONTINUOUS
 10
-217.3158161681
 20
56.8577784698
 11
-217.3162337948
 21
56.8496405194
  0
LINE
  5
226
100
AcDbEntity
  8
RACCORDO
100
AcDbLine
 62
7
  6
CONTINUOUS
 10
-218.8379332448
 20
57.1390547888
 11
-218.838403136
 21
57.1300467437
  0
LINE
  5
227
100
AcDbEntity
  8
ASSI
100
AcDbLine
 62
7
  6
CONTINUOUS
 10
-218.8379332448
 20
57.1390547888
 11
-218.838403136
 21
57.1300467437
  0
LINE
  5
228
100
AcDbEntity
  8
0
100
AcDbLine
 62
7
  6
CONTINUOUS
 10
-206.028296552
 20
3.6706217945
 11
-205.9963449281
 21
3.5693756833
  0
LINE
  5
229
100
AcDbEntity
  8
RACCORDO
100
AcDbLine
 62
253
  6
CONTINUOUS
 10
-203.1033823154
 20
61.9025573501
 11
-203.0807613006
 21
61.5963470277
  0
LINE
  5
22A
100
AcDbEntity
  8
ASSI
100
AcDbLine
 62
253
  6
CONTINUOUS
 10
-203.1033823154
 20
61.9025573501
 11
-203.0807613006
 21
61.5963470277
  0
LINE
  5
22B
100
AcDbEntity
  8
RACCORDO
100
AcDbLine
 62
253
  6
CONTINUOUS
 10
-202.6642210128
 20
61.935
 11
-202.641599998
 21
61.6287896777
  0
LINE
  5
22C
100
AcDbEntity
  8
ASSI
100
AcDbLine
 62
253
  6
CONTINUOUS
 10
-202.6642210128
 20
61.935
 11
-202.641599998
 21
61.6287896777
  0
LINE
  5
22D
100
AcDbEntity
  8
0
100
AcDbLine
 62
7
  6
CONTINUOUS
 10
-205.9963449281
 20
3.6658750945
 11
-205.9963449281
 21
3.5693756833
  0
LINE
  5
22E
100
AcDbEntity
  8
0
100
AcDbLine
 62
7
  6
CONTINUOUS
 10
-204.9736550719
 20
3.4198599443
 11
-204.9736550719
 21
3.5139453516
  0
LINE
  5
22F
100
AcDbEntity
  8
RACCORDO
100
AcDbLine
 62
253
  6
CONTINUOUS
 10
-203.0807613006
 20
1.8236529723
 11
-203.1033823154
 21
1.5174426499
  0
LINE
  5
230
100
AcDbEntity
  8
ASSI
100
AcDbLine
 62
253
  6
CONTINUOUS
 10
-203.0807613006
 20
1.8236529723
 11
-203.1033823154
 21
1.5174426499
  0
LINE
  5
231
100
AcDbEntity
  8
RACCORDO
100
AcDbLine
 62
253
  6
CONTINUOUS
 10
-202.6415999981
 20
1.7912103223
 11
-202.6642210128
 21
1.485
  0
LINE
  5
232
100
AcDbEntity
  8
ASSI
100
AcDbLine
 62
253
  6
CONTINUOUS
 10
-202.6415999981
 20
1.7912103223
 11
-202.6642210128
 21
1.485
  0
LINE
  5
233
100
AcDbEntity
  8
0
100
AcDbLine
 62
7
  6
CONTINUOUS
 10
-197.985
 20
3.1241357648
 11
-197.985
 21
3.0288688129
  0
LINE
  5
234
100
AcDbEntity
  8
ASSI
100
AcDbLine
 62
7
  6
CONTINUOUS
 10
-197.985
 20
3.1241357648
 11
-197.985
 21
3.0288688129
  0
LINE
  5
235
100
AcDbEntity
  8
0
100
AcDbLine
 62
7
  6
CONTINUOUS
 10
-197.985
 20
60.2958642352
 11
-197.985
 21
60.3911311871
  0
LINE
  5
236
100
AcDbEntity
  8
ASSI
100
AcDbLine
 62
7
  6
CONTINUOUS
 10
-197.985
 20
60.2958642352
 11
-197.985
 21
60.3911311871
  0
LINE
  5
237
100
AcDbEntity
  8
0
100
AcDbLine
 62
253
  6
CONTINUOUS
 10
-190.485
 20
3.1241357648
 11
-190.485
 21
3.0288688129
  0
LINE
  5
238
100
AcDbEntity
  8
ASSI
100
AcDbLine
 62
253
  6
CONTINUOUS
 10
-190.485
 20
3.1241357648
 11
-190.485
 21
3.0288688129
  0
LINE
  5
239
100
AcDbEntity
  8
0
100
AcDbLine
 62
253
  6
CONTINUOUS
 10
-190.485
 20
60.2958642352
 11
-190.485
 21
60.3911311871
  0
LINE
  5
23A
100
AcDbEntity
  8
ASSI
100
AcDbLine
 62
253
  6
CONTINUOUS
 10
-190.485
 20
60.2958642352
 11
-190.485
 21
60.3911311871
  0
LINE
  5
23B
100
AcDbEntity
  8
0
100
AcDbLine
 62
7
  6
CONTINUOUS
 10
-204.9425513602
 20
3.5093246165
 11
-204.9736550719
 21
3.4198599443
  0
LINE
  5
23C
100
AcDbEntity
  8
DRAFT
100
AcDbLine
 62
7
  6
CONTINUOUS
 10
-174.0548202597
 20
60.2958642352
 11
-174.0548202597
 21
58.1401797403
  0
LINE
  5
23D
100
AcDbEntity
  8
DRAFT
100
AcDbLine
 62
7
  6
CONTINUOUS
 10
-174.0548202597
 20
3.1241357648
 11
-174.0548202597
 21
5.2798202597
  0
LINE
  5
23E
100
AcDbEntity
  8
DRAFT
100
AcDbLine
 62
7
  6
CONTINUOUS
 10
-173.985
 20
60.2260439755
 11
-173.985
 21
58.21
  0
LINE
  5
23F
100
AcDbEntity
  8
DRAFT
100
AcDbLine
 62
7
  6
CONTINUOUS
 10
-173.985
 20
3.1939560245
 11
-173.985
 21
5.21
  0
LINE
  5
240
100
AcDbEntity
  8
0
100
AcDbLine
 62
7
  6
CONTINUOUS
 10
-173.735
 20
2.9241357648
 11
-173.735
 21
4.71
  0
LINE
  5
241
100
AcDbEntity
  8
ASSI
100
AcDbLine
 62
7
  6
CONTINUOUS
 10
-173.735
 20
2.9241357648
 11
-173.735
 21
4.71
  0
LINE
  5
242
100
AcDbEntity
  8
0
100
AcDbLine
 62
7
  6
CONTINUOUS
 10
-173.735
 20
58.71
 11
-173.735
 21
60.4958642352
  0
LINE
  5
243
100
AcDbEntity
  8
ASSI
100
AcDbLine
 62
7
  6
CONTINUOUS
 10
-173.735
 20
58.71
 11
-173.735
 21
60.4958642352
  0
LINE
  5
244
100
AcDbEntity
  8
RACCORDO
100
AcDbLine
 62
7
  6
CONTINUOUS
 10
-166.0477237063
 20
60.2958642352
 11
-166.0397995945
 21
60.3117136657
  0
LINE
  5
245
100
AcDbEntity
  8
ASSI
100
AcDbLine
 62
7
  6
CONTINUOUS
 10
-166.0477237063
 20
60.2958642352
 11
-166.0397995945
 21
60.3117136657
  0
LINE
  5
246
100
AcDbEntity
  8
DRAFT
100
AcDbLine
 62
7
  6
CONTINUOUS
 10
-173.985
 20
58.21
 11
-174.0548202597
 21
58.1401797403
  0
LINE
  5
247
100
AcDbEntity
  8
DRAFT
100
AcDbLine
 62
7
  6
CONTINUOUS
 10
-166.9151797403
 20
60.2958642352
 11
-166.985
 21
60.2260439755
  0
LINE
  5
248
100
AcDbEntity
  8
DRAFT
100
AcDbLine
 62
7
  6
CONTINUOUS
 10
-173.985
 20
5.21
 11
-174.0548202597
 21
5.2798202597
  0
LINE
  5
249
100
AcDbEntity
  8
DRAFT
100
AcDbLine
 62
7
  6
CONTINUOUS
 10
-166.9151797403
 20
3.1241357648
 11
-166.985
 21
3.1939560245
  0
LINE
  5
24A
100
AcDbEntity
  8
RACCORDO
100
AcDbLine
 62
7
  6
CONTINUOUS
 10
-166.0477237063
 20
3.1241357648
 11
-166.0397995945
 21
3.1082863343
  0
LINE
  5
24B
100
AcDbEntity
  8
ASSI
100
AcDbLine
 62
7
  6
CONTINUOUS
 10
-166.0477237063
 20
3.1241357648
 11
-166.0397995945
 21
3.1082863343
  0
LINE
  5
24C
100
AcDbEntity
  8
0
100
AcDbLine
 62
7
  6
CONTINUOUS
 10
-167.235
 20
2.9241357648
 11
-167.235
 21
4.71
  0
LINE
  5
24D
100
AcDbEntity
  8
ASSI
100
AcDbLine
 62
7
  6
CONTINUOUS
 10
-167.235
 20
2.9241357648
 11
-167.235
 21
4.71
  0
LINE
  5
24E
100
AcDbEntity
  8
0
100
AcDbLine
 62
7
  6
CONTINUOUS
 10
-167.235
 20
58.71
 11
-167.235
 21
60.4958642352
  0
LINE
  5
24F
100
AcDbEntity
  8
ASSI
100
AcDbLine
 62
7
  6
CONTINUOUS
 10
-167.235
 20
58.71
 11
-167.235
 21
60.4958642352
  0
LINE
  5
250
100
AcDbEntity
  8
DRAFT
100
AcDbLine
 62
7
  6
CONTINUOUS
 10
-166.985
 20
60.2260439755
 11
-166.985
 21
58.21
  0
LINE
  5
251
100
AcDbEntity
  8
DRAFT
100
AcDbLine
 62
7
  6
CONTINUOUS
 10
-166.985
 20
3.1939560245
 11
-166.985
 21
5.21
  0
LINE
  5
252
100
AcDbEntity
  8
DRAFT
100
AcDbLine
 62
7
  6
CONTINUOUS
 10
-166.9151797403
 20
60.2958642352
 11
-166.9151797403
 21
58.1401797403
  0
LINE
  5
253
100
AcDbEntity
  8
DRAFT
100
AcDbLine
 62
7
  6
CONTINUOUS
 10
-166.9151797403
 20
3.1241357648
 11
-166.9151797403
 21
5.2798202597
  0
LINE
  5
254
100
AcDbEntity
  8
RACCORDO
100
AcDbLine
 62
7
  6
CONTINUOUS
 10
-162.0477237063
 20
60.2958642352
 11
-162.0397995945
 21
60.3117136657
  0
LINE
  5
255
100
AcDbEntity
  8
ASSI
100
AcDbLine
 62
7
  6
CONTINUOUS
 10
-162.0477237063
 20
60.2958642352
 11
-162.0397995945
 21
60.3117136657
  0
LINE
  5
256
100
AcDbEntity
  8
RACCORDO
100
AcDbLine
 62
7
  6
CONTINUOUS
 10
-158.0477237063
 20
60.2958642352
 11
-158.0397995945
 21
60.3117136657
  0
LINE
  5
257
100
AcDbEntity
  8
ASSI
100
AcDbLine
 62
7
  6
CONTINUOUS
 10
-158.0477237063
 20
60.2958642352
 11
-158.0397995945
 21
60.3117136657
  0
LINE
  5
258
100
AcDbEntity
  8
RACCORDO
100
AcDbLine
 62
253
  6
CONTINUOUS
 10
-218.8379332448
 20
6.2809452112
 11
-218.5448969098
 21
6.548467081
  0
LINE
  5
259
100
AcDbEntity
  8
ASSI
100
AcDbLine
 62
253
  6
CONTINUOUS
 10
-218.8379332448
 20
6.2809452112
 11
-218.5448969098
 21
6.548467081
  0
LINE
  5
25A
100
AcDbEntity
  8
RACCORDO
100
AcDbLine
 62
253
  6
CONTINUOUS
 10
-218.8379332448
 20
57.1390547888
 11
-218.8077748605
 21
57.1115163656
  0
LINE
  5
25B
100
AcDbEntity
  8
ASSI
100
AcDbLine
 62
253
  6
CONTINUOUS
 10
-218.8379332448
 20
57.1390547888
 11
-218.8077748605
 21
57.1115163656
  0
LINE
  5
25C
100
AcDbEntity
  8
RACCORDO
100
AcDbLine
 62
253
  6
CONTINUOUS
 10
-218.8077748605
 20
57.1115163656
 11
-218.5448969098
 21
56.871532919
  0
LINE
  5
25D
100
AcDbEntity
  8
ASSI
100
AcDbLine
 62
253
  6
CONTINUOUS
 10
-218.8077748605
 20
57.1115163656
 11
-218.5448969098
 21
56.871532919
  0
LINE
  5
25E
100
AcDbEntity
  8
RACCORDO
100
AcDbLine
 62
7
  6
CONTINUOUS
 10
-162.0477237063
 20
3.1241357648
 11
-162.0397995945
 21
3.1082863343
  0
LINE
  5
25F
100
AcDbEntity
  8
ASSI
100
AcDbLine
 62
7
  6
CONTINUOUS
 10
-162.0477237063
 20
3.1241357648
 11
-162.0397995945
 21
3.1082863343
  0
LINE
  5
260
100
AcDbEntity
  8
RACCORDO
100
AcDbLine
 62
7
  6
CONTINUOUS
 10
-158.0477237063
 20
3.1241357648
 11
-158.0397995945
 21
3.1082863343
  0
LINE
  5
261
100
AcDbEntity
  8
ASSI
100
AcDbLine
 62
7
  6
CONTINUOUS
 10
-158.0477237063
 20
3.1241357648
 11
-158.0397995945
 21
3.1082863343
  0
LINE
  5
262
100
AcDbEntity
  8
0
100
AcDbLine
 62
7
  6
CONTINUOUS
 10
-160.235
 20
60.3736787807
 11
-160.235
 21
60.2958642352
  0
LINE
  5
263
100
AcDbEntity
  8
ASSI
100
AcDbLine
 62
7
  6
CONTINUOUS
 10
-160.235
 20
60.3736787807
 11
-160.235
 21
60.2958642352
  0
LINE
  5
264
100
AcDbEntity
  8
0
100
AcDbLine
 62
7
  6
CONTINUOUS
 10
-160.235
 20
3.1241357648
 11
-160.235
 21
3.0463212193
  0
LINE
  5
265
100
AcDbEntity
  8
ASSI
100
AcDbLine
 62
7
  6
CONTINUOUS
 10
-160.235
 20
3.1241357648
 11
-160.235
 21
3.0463212193
  0
LINE
  5
266
100
AcDbEntity
  8
0
100
AcDbLine
 62
7
  6
CONTINUOUS
 10
-158.735
 20
3.0463212193
 11
-158.735
 21
3.1241357648
  0
LINE
  5
267
100
AcDbEntity
  8
ASSI
100
AcDbLine
 62
7
  6
CONTINUOUS
 10
-158.735
 20
3.0463212193
 11
-158.735
 21
3.1241357648
  0
LINE
  5
268
100
AcDbEntity
  8
0
100
AcDbLine
 62
7
  6
CONTINUOUS
 10
-158.735
 20
60.2958642352
 11
-158.735
 21
60.3736787807
  0
LINE
  5
269
100
AcDbEntity
  8
ASSI
100
AcDbLine
 62
7
  6
CONTINUOUS
 10
-158.735
 20
60.2958642352
 11
-158.735
 21
60.3736787807
  0
LINE
  5
26A
100
AcDbEntity
  8
RACCORDO
100
AcDbLine
 62
7
  6
CONTINUOUS
 10
-154.0477237063
 20
60.2958642352
 11
-154.0397995945
 21
60.3117136657
  0
LINE
  5
26B
100
AcDbEntity
  8
ASSI
100
AcDbLine
 62
7
  6
CONTINUOUS
 10
-154.0477237063
 20
60.2958642352
 11
-154.0397995945
 21
60.3117136657
  0
LINE
  5
26C
100
AcDbEntity
  8
RACCORDO
100
AcDbLine
 62
7
  6
CONTINUOUS
 10
-150.0477237063
 20
60.2958642352
 11
-150.0397995945
 21
60.3117136657
  0
LINE
  5
26D
100
AcDbEntity
  8
ASSI
100
AcDbLine
 62
7
  6
CONTINUOUS
 10
-150.0477237063
 20
60.2958642352
 11
-150.0397995945
 21
60.3117136657
  0
LINE
  5
26E
100
AcDbEntity
  8
RACCORDO
100
AcDbLine
 62
7
  6
CONTINUOUS
 10
-146.0477237063
 20
60.2958642352
 11
-146.0397995945
 21
60.3117136657
  0
LINE
  5
26F
100
AcDbEntity
  8
ASSI
100
AcDbLine
 62
7
  6
CONTINUOUS
 10
-146.0477237063
 20
60.2958642352
 11
-146.0397995945
 21
60.3117136657
  0
LINE
  5
270
100
AcDbEntity
  8
RACCORDO
100
AcDbLine
 62
253
  6
CONTINUOUS
 10
-216.2923780769
 20
3.4767974495
 11
-215.9992653236
 21
3.7428125121
  0
LINE
  5
271
100
AcDbEntity
  8
ASSI
100
AcDbLine
 62
253
  6
CONTINUOUS
 10
-216.2923780769
 20
3.4767974495
 11
-215.9992653236
 21
3.7428125121
  0
LWPOLYLINE
  5
272
100
AcDbEntity
  8
RACCORDO
100
AcDbPolyline
 62
7
  6
CONTINUOUS
 90
31
 70
0
 10
-4.9707346764
 20
3.7428125121
 10
-4.8359318753
 20
3.7659475367
 10
-4.702614706
 20
3.7951646241
 10
-4.5707831686
 20
3.8304637742
 10
-4.4400148937
 20
3.8719900621
 10
-4.3107322506
 20
3.9195984128
 10
-4.1842023471
 20
3.9728536013
 10
-4.0605889648
 20
4.0317811533
 10
-3.9397283221
 20
4.0963555431
 10
-3.822396181
 20
4.1660649696
 10
-3.708786027
 20
4.2407750372
 10
-3.5987043748
 20
4.3206201415
 10
-3.4923465308
 20
4.4054916672
 10
-3.3894645866
 20
4.4956177802
 10
-3.2903064507
 20
4.5907703147
 10
-3.1958111546
 20
4.6901561585
 10
-3.1060578028
 20
4.7938491457
 10
-3.0209672909
 20
4.9017754422
 10
-2.9412413371
 20
5.0129204337
 10
-2.8670832561
 20
5.1270169354
 10
-2.7982897332
 20
5.2443321321
 10
-2.7349525429
 20
5.3646529639
 10
-2.6769592729
 20
5.4881797358
 10
-2.6244223353
 20
5.6147121428
 10
-2.5777707413
 20
5.7434362092
 10
-2.5370440987
 20
5.8745143289
 10
-2.5022027995
 20
6.007784108
 10
-2.4735570304
 20
6.1419443886
 10
-2.4512101869
 20
6.2765614513
 10
-2.4350588735
 20
6.4120690154
 10
-2.4251030902
 20
6.548467081
  0
LWPOLYLINE
  5
273
100
AcDbEntity
  8
ASSI
100
AcDbPolyline
 62
7
  6
CONTINUOUS
 90
31
 70
0
 10
-4.9707346764
 20
3.7428125121
 10
-4.8359318753
 20
3.7659475367
 10
-4.702614706
 20
3.7951646241
 10
-4.5707831686
 20
3.8304637742
 10
-4.4400148937
 20
3.8719900621
 10
-4.3107322506
 20
3.9195984128
 10
-4.1842023471
 20
3.9728536013
 10
-4.0605889648
 20
4.0317811533
 10
-3.9397283221
 20
4.0963555431
 10
-3.822396181
 20
4.1660649696
 10
-3.708786027
 20
4.2407750372
 10
-3.5987043748
 20
4.3206201415
 10
-3.4923465308
 20
4.4054916672
 10
-3.3894645866
 20
4.4956177802
 10
-3.2903064507
 20
4.5907703147
 10
-3.1958111546
 20
4.6901561585
 10
-3.1060578028
 20
4.7938491457
 10
-3.0209672909
 20
4.9017754422
 10
-2.9412413371
 20
5.0129204337
 10
-2.8670832561
 20
5.1270169354
 10
-2.7982897332
 20
5.2443321321
 10
-2.7349525429
 20
5.3646529639
 10
-2.6769592729
 20
5.4881797358
 10
-2.6244223353
 20
5.6147121428
 10
-2.5777707413
 20
5.7434362092
 10
-2.5370440987
 20
5.8745143289
 10
-2.5022027995
 20
6.007784108
 10
-2.4735570304
 20
6.1419443886
 10
-2.4512101869
 20
6.2765614513
 10
-2.4350588735
 20
6.4120690154
 10
-2.4251030902
 20
6.548467081
  0
LINE
  5
274
100
AcDbEntity
  8
RACCORDO
100
AcDbLine
 62
253
  6
CONTINUOUS
 10
-216.2923780769
 20
59.9432025505
 11
-216.262211938
 21
59.9158188469
  0
LINE
  5
275
100
AcDbEntity
  8
ASSI
100
AcDbLine
 62
253
  6
CONTINUOUS
 10
-216.2923780769
 20
59.9432025505
 11
-216.262211938
 21
59.9158188469
  0
LINE
  5
276
100
AcDbEntity
  8
RACCORDO
100
AcDbLine
 62
253
  6
CONTINUOUS
 10
-216.262211938
 20
59.9158188469
 11
-215.9992653236
 21
59.6771874879
  0
LINE
  5
277
100
AcDbEntity
  8
ASSI
100
AcDbLine
 62
253
  6
CONTINUOUS
 10
-216.262211938
 20
59.9158188469
 11
-215.9992653236
 21
59.6771874879
  0
LINE
  5
278
100
AcDbEntity
  8
RACCORDO
100
AcDbLine
 62
7
  6
CONTINUOUS
 10
-154.0477237063
 20
3.1241357648
 11
-154.0397995945
 21
3.1082863343
  0
LINE
  5
279
100
AcDbEntity
  8
ASSI
100
AcDbLine
 62
7
  6
CONTINUOUS
 10
-154.0477237063
 20
3.1241357648
 11
-154.0397995945
 21
3.1082863343
  0
LINE
  5
27A
100
AcDbEntity
  8
RACCORDO
100
AcDbLine
 62
7
  6
CONTINUOUS
 10
-150.0477237063
 20
3.1241357648
 11
-150.0397995945
 21
3.1082863343
  0
LINE
  5
27B
100
AcDbEntity
  8
ASSI
100
AcDbLine
 62
7
  6
CONTINUOUS
 10
-150.0477237063
 20
3.1241357648
 11
-150.0397995945
 21
3.1082863343
  0
LINE
  5
27C
100
AcDbEntity
  8
RACCORDO
100
AcDbLine
 62
7
  6
CONTINUOUS
 10
-146.0477237063
 20
3.1241357648
 11
-146.0397995945
 21
3.1082863343
  0
LINE
  5
27D
100
AcDbEntity
  8
ASSI
100
AcDbLine
 62
7
  6
CONTINUOUS
 10
-146.0477237063
 20
3.1241357648
 11
-146.0397995945
 21
3.1082863343
  0
LINE
  5
27E
100
AcDbEntity
  8
RACCORDO
100
AcDbLine
 62
7
  6
CONTINUOUS
 10
-142.0477237063
 20
60.2958642352
 11
-142.0397995945
 21
60.3117136657
  0
LINE
  5
27F
100
AcDbEntity
  8
ASSI
100
AcDbLine
 62
7
  6
CONTINUOUS
 10
-142.0477237063
 20
60.2958642352
 11
-142.0397995945
 21
60.3117136657
  0
LINE
  5
280
100
AcDbEntity
  8
RACCORDO
100
AcDbLine
 62
7
  6
CONTINUOUS
 10
-138.0477237063
 20
60.2958642352
 11
-138.0397995945
 21
60.3117136657
  0
LINE
  5
281
100
AcDbEntity
  8
ASSI
100
AcDbLine
 62
7
  6
CONTINUOUS
 10
-138.0477237063
 20
60.2958642352
 11
-138.0397995945
 21
60.3117136657
  0
LINE
  5
282
100
AcDbEntity
  8
RACCORDO
100
AcDbLine
 62
7
  6
CONTINUOUS
 10
-17.8666176846
 20
1.5174426499
 11
-4.6776219231
 21
3.4767974495
  0
LINE
  5
283
100
AcDbEntity
  8
ASSI
100
AcDbLine
 62
7
  6
CONTINUOUS
 10
-17.8666176846
 20
1.5174426499
 11
-4.6776219231
 21
3.4767974495
  0
LINE
  5
284
100
AcDbEntity
  8
RACCORDO
100
AcDbLine
 62
7
  6
CONTINUOUS
 10
-17.8892386994
 20
1.8236529723
 11
-4.9707346764
 21
3.7428125121
  0
LINE
  5
285
100
AcDbEntity
  8
ASSI
100
AcDbLine
 62
7
  6
CONTINUOUS
 10
-17.8892386994
 20
1.8236529723
 11
-4.9707346764
 21
3.7428125121
  0
LINE
  5
286
100
AcDbEntity
  8
RACCORDO
100
AcDbLine
 62
7
  6
CONTINUOUS
 10
-18.6055086643
 20
2.9241357648
 11
-4.9072788439
 21
4.9591305592
  0
LINE
  5
287
100
AcDbEntity
  8
ASSI
100
AcDbLine
 62
7
  6
CONTINUOUS
 10
-18.6055086643
 20
2.9241357648
 11
-4.9072788439
 21
4.9591305592
  0
LINE
  5
288
100
AcDbEntity
  8
DRAFT
100
AcDbLine
 62
7
  6
CONTINUOUS
 10
-18.6202834861
 20
3.1241357648
 11
-4.9366680991
 21
5.1569594542
  0
LINE
  5
289
100
AcDbEntity
  8
0
100
AcDbLine
 62
7
  6
CONTINUOUS
 10
-18.0461772399
 20
3.0463212193
 11
-4.9625331892
 21
4.9591305592
  0
LINE
  5
28A
100
AcDbEntity
  8
RACCORDO
100
AcDbLine
 62
7
  6
CONTINUOUS
 10
-18.0461772399
 20
3.0463212193
 11
-4.9625331892
 21
4.9591305592
  0
LINE
  5
28B
100
AcDbEntity
  8
ASSI
100
AcDbLine
 62
7
  6
CONTINUOUS
 10
-18.0461772399
 20
3.0463212193
 11
-4.9625331892
 21
4.9591305592
  0
LINE
  5
28C
100
AcDbEntity
  8
0
100
AcDbLine
 62
7
  6
CONTINUOUS
 10
-216.0074668108
 20
4.9591305592
 11
-202.9238227601
 21
3.0463212193
  0
LINE
  5
28D
100
AcDbEntity
  8
RACCORDO
100
AcDbLine
 62
7
  6
CONTINUOUS
 10
-202.9238227601
 20
3.0463212193
 11
-216.0074668108
 21
4.9591305592
  0
LINE
  5
28E
100
AcDbEntity
  8
ASSI
100
AcDbLine
 62
7
  6
CONTINUOUS
 10
-202.9238227601
 20
3.0463212193
 11
-216.0074668108
 21
4.9591305592
  0
LINE
  5
28F
100
AcDbEntity
  8
0
100
AcDbLine
 62
7
  6
CONTINUOUS
 10
-204.9736550719
 20
3.4198599443
 11
-205.9963449281
 21
3.5693756833
  0
LINE
  5
290
100
AcDbEntity
  8
RACCORDO
100
AcDbLine
 62
7
  6
CONTINUOUS
 10
-215.9992653236
 20
3.7428125121
 11
-203.0807613006
 21
1.8236529723
  0
LINE
  5
291
100
AcDbEntity
  8
ASSI
100
AcDbLine
 62
7
  6
CONTINUOUS
 10
-215.9992653236
 20
3.7428125121
 11
-203.0807613006
 21
1.8236529723
  0
LINE
  5
292
100
AcDbEntity
  8
RACCORDO
100
AcDbLine
 62
7
  6
CONTINUOUS
 10
-202.3644913357
 20
2.9241357648
 11
-216.0627211561
 21
4.9591305592
  0
LINE
  5
293
100
AcDbEntity
  8
ASSI
100
AcDbLine
 62
7
  6
CONTINUOUS
 10
-202.3644913357
 20
2.9241357648
 11
-216.0627211561
 21
4.9591305592
  0
LINE
  5
294
100
AcDbEntity
  8
DRAFT
100
AcDbLine
 62
7
  6
CONTINUOUS
 10
-216.0333319009
 20
5.1569594542
 11
-202.3497165139
 21
3.1241357648
  0
LINE
  5
295
100
AcDbEntity
  8
RACCORDO
100
AcDbLine
 62
7
  6
CONTINUOUS
 10
-216.2923780769
 20
3.4767974495
 11
-203.1041831126
 21
1.5175616156
  0
LINE
  5
296
100
AcDbEntity
  8
ASSI
100
AcDbLine
 62
7
  6
CONTINUOUS
 10
-216.2923780769
 20
3.4767974495
 11
-203.1041831126
 21
1.5175616156
  0
LINE
  5
297
100
AcDbEntity
  8
RACCORDO
100
AcDbLine
 62
7
  6
CONTINUOUS
 10
-142.0477237063
 20
3.1241357648
 11
-142.0397995945
 21
3.1082863343
  0
LINE
  5
298
100
AcDbEntity
  8
ASSI
100
AcDbLine
 62
7
  6
CONTINUOUS
 10
-142.0477237063
 20
3.1241357648
 11
-142.0397995945
 21
3.1082863343
  0
LINE
  5
299
100
AcDbEntity
  8
RACCORDO
100
AcDbLine
 62
7
  6
CONTINUOUS
 10
-138.0477237063
 20
3.1241357648
 11
-138.0397995945
 21
3.1082863343
  0
LINE
  5
29A
100
AcDbEntity
  8
ASSI
100
AcDbLine
 62
7
  6
CONTINUOUS
 10
-138.0477237063
 20
3.1241357648
 11
-138.0397995945
 21
3.1082863343
  0
LINE
  5
29B
100
AcDbEntity
  8
RACCORDO
100
AcDbLine
 62
7
  6
CONTINUOUS
 10
-164.9222762937
 20
3.1241357648
 11
-164.9302004055
 21
3.1082863343
  0
LINE
  5
29C
100
AcDbEntity
  8
ASSI
100
AcDbLine
 62
7
  6
CONTINUOUS
 10
-164.9222762937
 20
3.1241357648
 11
-164.9302004055
 21
3.1082863343
  0
LINE
  5
29D
100
AcDbEntity
  8
RACCORDO
100
AcDbLine
 62
7
  6
CONTINUOUS
 10
-134.0477237063
 20
60.2958642352
 11
-134.0397995945
 21
60.3117136657
  0
LINE
  5
29E
100
AcDbEntity
  8
ASSI
100
AcDbLine
 62
7
  6
CONTINUOUS
 10
-134.0477237063
 20
60.2958642352
 11
-134.0397995945
 21
60.3117136657
  0
LINE
  5
29F
100
AcDbEntity
  8
RACCORDO
100
AcDbLine
 62
7
  6
CONTINUOUS
 10
-160.9222762937
 20
3.1241357648
 11
-160.9302004055
 21
3.1082863343
  0
LINE
  5
2A0
100
AcDbEntity
  8
ASSI
100
AcDbLine
 62
7
  6
CONTINUOUS
 10
-160.9222762937
 20
3.1241357648
 11
-160.9302004055
 21
3.1082863343
  0
LINE
  5
2A1
100
AcDbEntity
  8
RACCORDO
100
AcDbLine
 62
7
  6
CONTINUOUS
 10
-130.0477237063
 20
60.2958642352
 11
-130.0397995945
 21
60.3117136657
  0
LINE
  5
2A2
100
AcDbEntity
  8
ASSI
100
AcDbLine
 62
7
  6
CONTINUOUS
 10
-130.0477237063
 20
60.2958642352
 11
-130.0397995945
 21
60.3117136657
  0
LWPOLYLINE
  5
2A3
100
AcDbEntity
  8
RACCORDO
100
AcDbPolyline
 62
7
  6
CONTINUOUS
 90
10
 70
0
 10
-18.3057789872
 20
1.485
 10
-18.2570032457
 20
1.4854078153
 10
-18.208143283
 20
1.4866124336
 10
-18.1592121835
 20
1.4886182746
 10
-18.110158361
 20
1.4914338061
 10
-18.06106017
 20
1.4950608912
 10
-18.0121251207
 20
1.4994842003
 10
-17.9634304431
 20
1.5046903767
 10
-17.9149238668
 20
1.5106786247
 10
-17.8666176846
 20
1.5174426499
  0
LWPOLYLINE
  5
2A4
100
AcDbEntity
  8
ASSI
100
AcDbPolyline
 62
7
  6
CONTINUOUS
 90
10
 70
0
 10
-18.3057789872
 20
1.485
 10
-18.2570032457
 20
1.4854078153
 10
-18.208143283
 20
1.4866124336
 10
-18.1592121835
 20
1.4886182746
 10
-18.110158361
 20
1.4914338061
 10
-18.06106017
 20
1.4950608912
 10
-18.0121251207
 20
1.4994842003
 10
-17.9634304431
 20
1.5046903767
 10
-17.9149238668
 20
1.5106786247
 10
-17.8666176846
 20
1.5174426499
  0
LINE
  5
2A5
100
AcDbEntity
  8
RACCORDO
100
AcDbLine
 62
7
  6
CONTINUOUS
 10
-18.3065885729
 20
1.485
 11
-202.6634114271
 21
1.485
  0
LINE
  5
2A6
100
AcDbEntity
  8
ASSI
100
AcDbLine
 62
7
  6
CONTINUOUS
 10
-18.3065885729
 20
1.485
 11
-202.6634114271
 21
1.485
  0
LINE
  5
2A7
100
AcDbEntity
  8
RACCORDO
100
AcDbLine
 62
7
  6
CONTINUOUS
 10
-18.3284000019
 20
1.7912103223
 11
-202.6415999981
 21
1.7912103223
  0
LINE
  5
2A8
100
AcDbEntity
  8
ASSI
100
AcDbLine
 62
7
  6
CONTINUOUS
 10
-18.3284000019
 20
1.7912103223
 11
-202.6415999981
 21
1.7912103223
  0
LWPOLYLINE
  5
2A9
100
AcDbEntity
  8
RACCORDO
100
AcDbPolyline
 62
7
  6
CONTINUOUS
 90
10
 70
0
 10
-202.6634114271
 20
1.485
 10
-202.7125605105
 20
1.4854007294
 10
-202.7616970971
 20
1.4866072476
 10
-202.8108079961
 20
1.488619267
 10
-202.8598805222
 20
1.4914363168
 10
-202.9089009999
 20
1.4950576609
 10
-202.9578547729
 20
1.4994822166
 10
-203.0067282061
 20
1.5047087024
 10
-203.0555086825
 20
1.51073572
 10
-203.1041831126
 20
1.5175616156
  0
LWPOLYLINE
  5
2AA
100
AcDbEntity
  8
ASSI
100
AcDbPolyline
 62
7
  6
CONTINUOUS
 90
10
 70
0
 10
-202.6634114271
 20
1.485
 10
-202.7125605105
 20
1.4854007294
 10
-202.7616970971
 20
1.4866072476
 10
-202.8108079961
 20
1.488619267
 10
-202.8598805222
 20
1.4914363168
 10
-202.9089009999
 20
1.4950576609
 10
-202.9578547729
 20
1.4994822166
 10
-203.0067282061
 20
1.5047087024
 10
-203.0555086825
 20
1.51073572
 10
-203.1041831126
 20
1.5175616156
  0
LINE
  5
2AB
100
AcDbEntity
  8
RACCORDO
100
AcDbLine
 62
7
  6
CONTINUOUS
 10
-164.9222762937
 20
60.2958642352
 11
-164.9302004055
 21
60.3117136657
  0
LINE
  5
2AC
100
AcDbEntity
  8
ASSI
100
AcDbLine
 62
7
  6
CONTINUOUS
 10
-164.9222762937
 20
60.2958642352
 11
-164.9302004055
 21
60.3117136657
  0
LINE
  5
2AD
100
AcDbEntity
  8
RACCORDO
100
AcDbLine
 62
7
  6
CONTINUOUS
 10
-134.0477237063
 20
3.1241357648
 11
-134.0397995945
 21
3.1082863343
  0
LINE
  5
2AE
100
AcDbEntity
  8
ASSI
100
AcDbLine
 62
7
  6
CONTINUOUS
 10
-134.0477237063
 20
3.1241357648
 11
-134.0397995945
 21
3.1082863343
  0
LINE
  5
2AF
100
AcDbEntity
  8
RACCORDO
100
AcDbLine
 62
7
  6
CONTINUOUS
 10
-160.9222762937
 20
60.2958642352
 11
-160.9302004055
 21
60.3117136657
  0
LINE
  5
2B0
100
AcDbEntity
  8
ASSI
100
AcDbLine
 62
7
  6
CONTINUOUS
 10
-160.9222762937
 20
60.2958642352
 11
-160.9302004055
 21
60.3117136657
  0
LINE
  5
2B1
100
AcDbEntity
  8
RACCORDO
100
AcDbLine
 62
7
  6
CONTINUOUS
 10
-130.0477237063
 20
3.1241357648
 11
-130.0397995945
 21
3.1082863343
  0
LINE
  5
2B2
100
AcDbEntity
  8
ASSI
100
AcDbLine
 62
7
  6
CONTINUOUS
 10
-130.0477237063
 20
3.1241357648
 11
-130.0397995945
 21
3.1082863343
  0
LINE
  5
2B3
100
AcDbEntity
  8
0
100
AcDbLine
 62
7
  6
CONTINUOUS
 10
-132.235
 20
60.3736787807
 11
-132.235
 21
60.2958642352
  0
LINE
  5
2B4
100
AcDbEntity
  8
ASSI
100
AcDbLine
 62
7
  6
CONTINUOUS
 10
-132.235
 20
60.3736787807
 11
-132.235
 21
60.2958642352
  0
LINE
  5
2B5
100
AcDbEntity
  8
0
100
AcDbLine
 62
7
  6
CONTINUOUS
 10
-132.235
 20
3.1241357648
 11
-132.235
 21
3.0463212193
  0
LINE
  5
2B6
100
AcDbEntity
  8
ASSI
100
AcDbLine
 62
7
  6
CONTINUOUS
 10
-132.235
 20
3.1241357648
 11
-132.235
 21
3.0463212193
  0
LINE
  5
2B7
100
AcDbEntity
  8
RACCORDO
100
AcDbLine
 62
7
  6
CONTINUOUS
 10
-156.9222762937
 20
3.1241357648
 11
-156.9302004055
 21
3.1082863343
  0
LINE
  5
2B8
100
AcDbEntity
  8
ASSI
100
AcDbLine
 62
7
  6
CONTINUOUS
 10
-156.9222762937
 20
3.1241357648
 11
-156.9302004055
 21
3.1082863343
  0
LINE
  5
2B9
100
AcDbEntity
  8
RACCORDO
100
AcDbLine
 62
7
  6
CONTINUOUS
 10
-126.0477237063
 20
60.2958642352
 11
-126.0397995945
 21
60.3117136657
  0
LINE
  5
2BA
100
AcDbEntity
  8
ASSI
100
AcDbLine
 62
7
  6
CONTINUOUS
 10
-126.0477237063
 20
60.2958642352
 11
-126.0397995945
 21
60.3117136657
  0
LINE
  5
2BB
100
AcDbEntity
  8
RACCORDO
100
AcDbLine
 62
7
  6
CONTINUOUS
 10
-152.9222762937
 20
3.1241357648
 11
-152.9302004055
 21
3.1082863343
  0
LINE
  5
2BC
100
AcDbEntity
  8
ASSI
100
AcDbLine
 62
7
  6
CONTINUOUS
 10
-152.9222762937
 20
3.1241357648
 11
-152.9302004055
 21
3.1082863343
  0
LINE
  5
2BD
100
AcDbEntity
  8
DRAFT
100
AcDbLine
 62
7
  6
CONTINUOUS
 10
-174.0548202597
 20
3.1241357648
 11
-173.985
 21
3.1939560245
  0
LINE
  5
2BE
100
AcDbEntity
  8
0
100
AcDbLine
 62
7
  6
CONTINUOUS
 10
-181.1997468585
 20
3.1150456336
 11
-180.8709039356
 21
3.1241357648
  0
LINE
  5
2BF
100
AcDbEntity
  8
ASSI
100
AcDbLine
 62
7
  6
CONTINUOUS
 10
-181.1997468585
 20
3.1150456336
 11
-180.8709039356
 21
3.1241357648
  0
LINE
  5
2C0
100
AcDbEntity
  8
0
100
AcDbLine
 62
7
  6
CONTINUOUS
 10
-181.6591995081
 20
3.1040072474
 11
-181.1997468585
 21
3.1150456336
  0
LINE
  5
2C1
100
AcDbEntity
  8
ASSI
100
AcDbLine
 62
7
  6
CONTINUOUS
 10
-181.6591995081
 20
3.1040072474
 11
-181.1997468585
 21
3.1150456336
  0
LINE
  5
2C2
100
AcDbEntity
  8
0
100
AcDbLine
 62
7
  6
CONTINUOUS
 10
-182.1619550073
 20
3.0935483907
 11
-181.6591995081
 21
3.1040072474
  0
LINE
  5
2C3
100
AcDbEntity
  8
ASSI
100
AcDbLine
 62
7
  6
CONTINUOUS
 10
-182.1619550073
 20
3.0935483907
 11
-181.6591995081
 21
3.1040072474
  0
LINE
  5
2C4
100
AcDbEntity
  8
0
100
AcDbLine
 62
7
  6
CONTINUOUS
 10
-182.7053428022
 20
3.0837281315
 11
-182.1619550073
 21
3.0935483907
  0
LINE
  5
2C5
100
AcDbEntity
  8
ASSI
100
AcDbLine
 62
7
  6
CONTINUOUS
 10
-182.7053428022
 20
3.0837281315
 11
-182.1619550073
 21
3.0935483907
  0
LINE
  5
2C6
100
AcDbEntity
  8
0
100
AcDbLine
 62
7
  6
CONTINUOUS
 10
-183.2862776414
 20
3.0745990109
 11
-182.7053428022
 21
3.0837281315
  0
LINE
  5
2C7
100
AcDbEntity
  8
ASSI
100
AcDbLine
 62
7
  6
CONTINUOUS
 10
-183.2862776414
 20
3.0745990109
 11
-182.7053428022
 21
3.0837281315
  0
LINE
  5
2C8
100
AcDbEntity
  8
0
100
AcDbLine
 62
7
  6
CONTINUOUS
 10
-183.9026301172
 20
3.0661944187
 11
-183.2862776414
 21
3.0745990109
  0
LINE
  5
2C9
100
AcDbEntity
  8
ASSI
100
AcDbLine
 62
7
  6
CONTINUOUS
 10
-183.9026301172
 20
3.0661944187
 11
-183.2862776414
 21
3.0745990109
  0
LINE
  5
2CA
100
AcDbEntity
  8
0
100
AcDbLine
 62
7
  6
CONTINUOUS
 10
-184.5510812502
 20
3.0585622226
 11
-183.9026301172
 21
3.0661944187
  0
LINE
  5
2CB
100
AcDbEntity
  8
ASSI
100
AcDbLine
 62
7
  6
CONTINUOUS
 10
-184.5510812502
 20
3.0585622226
 11
-183.9026301172
 21
3.0661944187
  0
LINE
  5
2CC
100
AcDbEntity
  8
0
100
AcDbLine
 62
7
  6
CONTINUOUS
 10
-185.5766572914
 20
3.048642444
 11
-184.5510812502
 21
3.0585622226
  0
LINE
  5
2CD
100
AcDbEntity
  8
ASSI
100
AcDbLine
 62
7
  6
CONTINUOUS
 10
-185.5766572914
 20
3.048642444
 11
-184.5510812502
 21
3.0585622226
  0
LINE
  5
2CE
100
AcDbEntity
  8
0
100
AcDbLine
 62
7
  6
CONTINUOUS
 10
-186.6558925145
 20
3.0406493943
 11
-185.5766572914
 21
3.048642444
  0
LINE
  5
2CF
100
AcDbEntity
  8
ASSI
100
AcDbLine
 62
7
  6
CONTINUOUS
 10
-186.6558925145
 20
3.0406493943
 11
-185.5766572914
 21
3.048642444
  0
LINE
  5
2D0
100
AcDbEntity
  8
0
100
AcDbLine
 62
7
  6
CONTINUOUS
 10
-187.776898324
 20
3.0346701136
 11
-186.6558925145
 21
3.0406493943
  0
LINE
  5
2D1
100
AcDbEntity
  8
ASSI
100
AcDbLine
 62
7
  6
CONTINUOUS
 10
-187.776898324
 20
3.0346701136
 11
-186.6558925145
 21
3.0406493943
  0
LINE
  5
2D2
100
AcDbEntity
  8
0
100
AcDbLine
 62
7
  6
CONTINUOUS
 10
-188.9273416186
 20
3.0307691775
 11
-187.776898324
 21
3.0346701136
  0
LINE
  5
2D3
100
AcDbEntity
  8
ASSI
100
AcDbLine
 62
7
  6
CONTINUOUS
 10
-188.9273416186
 20
3.0307691775
 11
-187.776898324
 21
3.0346701136
  0
LINE
  5
2D4
100
AcDbEntity
  8
0
100
AcDbLine
 62
7
  6
CONTINUOUS
 10
-190.0936166303
 20
3.0289888431
 11
-188.9273416186
 21
3.0307691775
  0
LINE
  5
2D5
100
AcDbEntity
  8
ASSI
100
AcDbLine
 62
7
  6
CONTINUOUS
 10
-190.0936166303
 20
3.0289888431
 11
-188.9273416186
 21
3.0307691775
  0
LINE
  5
2D6
100
AcDbEntity
  8
0
100
AcDbLine
 62
7
  6
CONTINUOUS
 10
-18.6055086643
 20
2.9241357648
 11
-202.3644913357
 21
2.9241357648
  0
LINE
  5
2D7
100
AcDbEntity
  8
ASSI
100
AcDbLine
 62
7
  6
CONTINUOUS
 10
-18.6055086643
 20
2.9241357648
 11
-202.3644913357
 21
2.9241357648
  0
LINE
  5
2D8
100
AcDbEntity
  8
0
100
AcDbLine
 62
7
  6
CONTINUOUS
 10
-197.985
 20
3.0288688129
 11
-190.0936166303
 21
3.0289888431
  0
LINE
  5
2D9
100
AcDbEntity
  8
ASSI
100
AcDbLine
 62
7
  6
CONTINUOUS
 10
-197.985
 20
3.0288688129
 11
-190.0936166303
 21
3.0289888431
  0
LINE
  5
2DA
100
AcDbEntity
  8
RACCORDO
100
AcDbLine
 62
7
  6
CONTINUOUS
 10
-202.9238227601
 20
3.0463212193
 11
-197.985
 21
3.0463212193
  0
LINE
  5
2DB
100
AcDbEntity
  8
ASSI
100
AcDbLine
 62
7
  6
CONTINUOUS
 10
-202.9238227601
 20
3.0463212193
 11
-197.985
 21
3.0463212193
  0
LINE
  5
2DC
100
AcDbEntity
  8
0
100
AcDbLine
 62
7
  6
CONTINUOUS
 10
-160.235
 20
3.0463212193
 11
-158.735
 21
3.0463212193
  0
LINE
  5
2DD
100
AcDbEntity
  8
ASSI
100
AcDbLine
 62
7
  6
CONTINUOUS
 10
-160.235
 20
3.0463212193
 11
-158.735
 21
3.0463212193
  0
LINE
  5
2DE
100
AcDbEntity
  8
0
100
AcDbLine
 62
7
  6
CONTINUOUS
 10
-132.235
 20
3.0463212193
 11
-130.735
 21
3.0463212193
  0
LINE
  5
2DF
100
AcDbEntity
  8
ASSI
100
AcDbLine
 62
7
  6
CONTINUOUS
 10
-132.235
 20
3.0463212193
 11
-130.735
 21
3.0463212193
  0
LINE
  5
2E0
100
AcDbEntity
  8
DRAFT
100
AcDbLine
 62
7
  6
CONTINUOUS
 10
-90.235
 20
3.0463212193
 11
-88.735
 21
3.0463212193
  0
LINE
  5
2E1
100
AcDbEntity
  8
ASSI
100
AcDbLine
 62
7
  6
CONTINUOUS
 10
-90.235
 20
3.0463212193
 11
-88.735
 21
3.0463212193
  0
LINE
  5
2E2
100
AcDbEntity
  8
DRAFT
100
AcDbLine
 62
7
  6
CONTINUOUS
 10
-62.235
 20
3.0463212193
 11
-60.735
 21
3.0463212193
  0
LINE
  5
2E3
100
AcDbEntity
  8
ASSI
100
AcDbLine
 62
7
  6
CONTINUOUS
 10
-62.235
 20
3.0463212193
 11
-60.735
 21
3.0463212193
  0
LINE
  5
2E4
100
AcDbEntity
  8
0
100
AcDbLine
 62
7
  6
CONTINUOUS
 10
-29.985
 20
3.0463212193
 11
-18.0461772399
 21
3.0463212193
  0
LINE
  5
2E5
100
AcDbEntity
  8
RACCORDO
100
AcDbLine
 62
7
  6
CONTINUOUS
 10
-18.0461772399
 20
3.0463212193
 11
-29.985
 21
3.0463212193
  0
LINE
  5
2E6
100
AcDbEntity
  8
ASSI
100
AcDbLine
 62
7
  6
CONTINUOUS
 10
-18.0461772399
 20
3.0463212193
 11
-29.985
 21
3.0463212193
  0
LINE
  5
2E7
100
AcDbEntity
  8
0
100
AcDbLine
 62
7
  6
CONTINUOUS
 10
-197.985
 20
3.0463212193
 11
-202.9238227601
 21
3.0463212193
  0
LINE
  5
2E8
100
AcDbEntity
  8
DRAFT
100
AcDbLine
 62
7
  6
CONTINUOUS
 10
-202.3497165139
 20
3.1241357648
 11
-174.0548202597
 21
3.1241357648
  0
LINE
  5
2E9
100
AcDbEntity
  8
DRAFT
100
AcDbLine
 62
7
  6
CONTINUOUS
 10
-166.9151797403
 20
3.1241357648
 11
-54.0548202597
 21
3.1241357648
  0
LINE
  5
2EA
100
AcDbEntity
  8
DRAFT
100
AcDbLine
 62
7
  6
CONTINUOUS
 10
-46.9151797403
 20
3.1241357648
 11
-18.6202834861
 21
3.1241357648
  0
LINE
  5
2EB
100
AcDbEntity
  8
DRAFT
100
AcDbLine
 62
7
  6
CONTINUOUS
 10
-173.985
 20
3.1939560245
 11
-173.735
 21
3.1939560245
  0
LINE
  5
2EC
100
AcDbEntity
  8
DRAFT
100
AcDbLine
 62
7
  6
CONTINUOUS
 10
-167.235
 20
3.1939560245
 11
-166.985
 21
3.1939560245
  0
LINE
  5
2ED
100
AcDbEntity
  8
DRAFT
100
AcDbLine
 62
7
  6
CONTINUOUS
 10
-53.985
 20
3.1939560245
 11
-53.735
 21
3.1939560245
  0
LINE
  5
2EE
100
AcDbEntity
  8
DRAFT
100
AcDbLine
 62
7
  6
CONTINUOUS
 10
-47.235
 20
3.1939560245
 11
-46.985
 21
3.1939560245
  0
LINE
  5
2EF
100
AcDbEntity
  8
0
100
AcDbLine
 62
7
  6
CONTINUOUS
 10
-53.735
 20
4.71
 11
-47.235
 21
4.71
  0
LINE
  5
2F0
100
AcDbEntity
  8
ASSI
100
AcDbLine
 62
7
  6
CONTINUOUS
 10
-53.735
 20
4.71
 11
-47.235
 21
4.71
  0
LINE
  5
2F1
100
AcDbEntity
  8
0
100
AcDbLine
 62
7
  6
CONTINUOUS
 10
-167.235
 20
4.71
 11
-173.735
 21
4.71
  0
LINE
  5
2F2
100
AcDbEntity
  8
ASSI
100
AcDbLine
 62
7
  6
CONTINUOUS
 10
-167.235
 20
4.71
 11
-173.735
 21
4.71
  0
LINE
  5
2F3
100
AcDbEntity
  8
0
100
AcDbLine
 62
253
  6
CONTINUOUS
 10
-216.0074668108
 20
4.9591305592
 11
-214.7016795175
 21
4.9591305592
  0
LINE
  5
2F4
100
AcDbEntity
  8
RACCORDO
100
AcDbLine
 62
253
  6
CONTINUOUS
 10
-4.9072788439
 20
4.9591305592
 11
-4.9625331892
 21
4.9591305592
  0
LINE
  5
2F5
100
AcDbEntity
  8
ASSI
100
AcDbLine
 62
253
  6
CONTINUOUS
 10
-4.9072788439
 20
4.9591305592
 11
-4.9625331892
 21
4.9591305592
  0
LINE
  5
2F6
100
AcDbEntity
  8
0
100
AcDbLine
 62
253
  6
CONTINUOUS
 10
-4.9625331892
 20
4.9591305592
 11
-6.2683204825
 21
4.9591305592
  0
LINE
  5
2F7
100
AcDbEntity
  8
RACCORDO
100
AcDbLine
 62
253
  6
CONTINUOUS
 10
-216.0074668108
 20
4.9591305592
 11
-216.0627211561
 21
4.9591305592
  0
LINE
  5
2F8
100
AcDbEntity
  8
ASSI
100
AcDbLine
 62
253
  6
CONTINUOUS
 10
-216.0074668108
 20
4.9591305592
 11
-216.0627211561
 21
4.9591305592
  0
LINE
  5
2F9
100
AcDbEntity
  8
DRAFT
100
AcDbLine
 62
7
  6
CONTINUOUS
 10
-173.985
 20
5.21
 11
-166.985
 21
5.21
  0
LINE
  5
2FA
100
AcDbEntity
  8
DRAFT
100
AcDbLine
 62
7
  6
CONTINUOUS
 10
-46.985
 20
5.21
 11
-53.985
 21
5.21
  0
LINE
  5
2FB
100
AcDbEntity
  8
DRAFT
100
AcDbLine
 62
7
  6
CONTINUOUS
 10
-46.9151797403
 20
5.2798202597
 11
-54.0548202597
 21
5.2798202597
  0
LINE
  5
2FC
100
AcDbEntity
  8
DRAFT
100
AcDbLine
 62
7
  6
CONTINUOUS
 10
-166.9151797403
 20
5.2798202597
 11
-174.0548202597
 21
5.2798202597
  0
LINE
  5
2FD
100
AcDbEntity
  8
0
100
AcDbLine
 62
253
  6
CONTINUOUS
 10
-217.3057357928
 20
6.3665882592
 11
-217.1406206403
 21
6.3665882592
  0
LINE
  5
2FE
100
AcDbEntity
  8
0
100
AcDbLine
 62
253
  6
CONTINUOUS
 10
-3.6642642072
 20
6.3665882592
 11
-3.8293793597
 21
6.3665882592
  0
LINE
  5
2FF
100
AcDbEntity
  8
RACCORDO
100
AcDbLine
 62
253
  6
CONTINUOUS
 10
-3.6296379908
 20
6.3665882592
 11
-3.6642642072
 21
6.3665882592
  0
LINE
  5
300
100
AcDbEntity
  8
ASSI
100
AcDbLine
 62
253
  6
CONTINUOUS
 10
-3.6296379908
 20
6.3665882592
 11
-3.6642642072
 21
6.3665882592
  0
LINE
  5
301
100
AcDbEntity
  8
RACCORDO
100
AcDbLine
 62
253
  6
CONTINUOUS
 10
-217.3057357928
 20
6.3665882592
 11
-217.3403620092
 21
6.3665882592
  0
LINE
  5
302
100
AcDbEntity
  8
ASSI
100
AcDbLine
 62
253
  6
CONTINUOUS
 10
-217.3057357928
 20
6.3665882592
 11
-217.3403620092
 21
6.3665882592
  0
LINE
  5
303
100
AcDbEntity
  8
0
100
AcDbLine
 62
253
  6
CONTINUOUS
 10
-3.6470611784
 20
6.701424784
 11
-3.8142320719
 21
6.701424784
  0
LINE
  5
304
100
AcDbEntity
  8
0
100
AcDbLine
 62
253
  6
CONTINUOUS
 10
-217.1557679281
 20
6.701424784
 11
-217.3229388216
 21
6.701424784
  0
LINE
  5
305
100
AcDbEntity
  8
RACCORDO
100
AcDbLine
 62
7
  6
CONTINUOUS
 10
-3.5997848148
 20
6.96
 11
-3.8021683475
 21
6.96
  0
LINE
  5
306
100
AcDbEntity
  8
ASSI
100
AcDbLine
 62
7
  6
CONTINUOUS
 10
-3.5997848148
 20
6.96
 11
-3.8021683475
 21
6.96
  0
LINE
  5
307
100
AcDbEntity
  8
RACCORDO
100
AcDbLine
 62
7
  6
CONTINUOUS
 10
-217.1678316525
 20
6.96
 11
-217.3702151852
 21
6.96
  0
LINE
  5
308
100
AcDbEntity
  8
ASSI
100
AcDbLine
 62
7
  6
CONTINUOUS
 10
-217.1678316525
 20
6.96
 11
-217.3702151852
 21
6.96
  0
LINE
  5
309
100
AcDbEntity
  8
0
100
AcDbLine
 62
7
  6
CONTINUOUS
 10
-29.985
 20
3.0288688129
 11
-31.2663756252
 21
3.0293453724
  0
LINE
  5
30A
100
AcDbEntity
  8
ASSI
100
AcDbLine
 62
7
  6
CONTINUOUS
 10
-29.985
 20
3.0288688129
 11
-31.2663756252
 21
3.0293453724
  0
LINE
  5
30B
100
AcDbEntity
  8
0
100
AcDbLine
 62
7
  6
CONTINUOUS
 10
-31.2663756252
 20
3.0293453724
 11
-32.0426583814
 21
3.0307691775
  0
LINE
  5
30C
100
AcDbEntity
  8
ASSI
100
AcDbLine
 62
7
  6
CONTINUOUS
 10
-31.2663756252
 20
3.0293453724
 11
-32.0426583814
 21
3.0307691775
  0
LINE
  5
30D
100
AcDbEntity
  8
0
100
AcDbLine
 62
7
  6
CONTINUOUS
 10
-32.0426583814
 20
3.0307691775
 11
-32.8124335042
 21
3.0331364794
  0
LINE
  5
30E
100
AcDbEntity
  8
ASSI
100
AcDbLine
 62
7
  6
CONTINUOUS
 10
-32.0426583814
 20
3.0307691775
 11
-32.8124335042
 21
3.0331364794
  0
LINE
  5
30F
100
AcDbEntity
  8
0
100
AcDbLine
 62
7
  6
CONTINUOUS
 10
-32.8124335042
 20
3.0331364794
 11
-33.5709639692
 21
3.036436498
  0
LINE
  5
310
100
AcDbEntity
  8
ASSI
100
AcDbLine
 62
7
  6
CONTINUOUS
 10
-32.8124335042
 20
3.0331364794
 11
-33.5709639692
 21
3.036436498
  0
LINE
  5
311
100
AcDbEntity
  8
0
100
AcDbLine
 62
7
  6
CONTINUOUS
 10
-33.5709639692
 20
3.036436498
 11
-34.3141074855
 21
3.0406493943
  0
LINE
  5
312
100
AcDbEntity
  8
ASSI
100
AcDbLine
 62
7
  6
CONTINUOUS
 10
-33.5709639692
 20
3.036436498
 11
-34.3141074855
 21
3.0406493943
  0
LINE
  5
313
100
AcDbEntity
  8
0
100
AcDbLine
 62
7
  6
CONTINUOUS
 10
-34.3141074855
 20
3.0406493943
 11
-35.0391408182
 21
3.0457599888
  0
LINE
  5
314
100
AcDbEntity
  8
ASSI
100
AcDbLine
 62
7
  6
CONTINUOUS
 10
-34.3141074855
 20
3.0406493943
 11
-35.0391408182
 21
3.0457599888
  0
LINE
  5
315
100
AcDbEntity
  8
0
100
AcDbLine
 62
7
  6
CONTINUOUS
 10
-35.0391408182
 20
3.0457599888
 11
-35.7420154853
 21
3.0517424701
  0
LINE
  5
316
100
AcDbEntity
  8
ASSI
100
AcDbLine
 62
7
  6
CONTINUOUS
 10
-35.0391408182
 20
3.0457599888
 11
-35.7420154853
 21
3.0517424701
  0
LINE
  5
317
100
AcDbEntity
  8
0
100
AcDbLine
 62
7
  6
CONTINUOUS
 10
-35.7420154853
 20
3.0517424701
 11
-36.4189187498
 21
3.0585622226
  0
LINE
  5
318
100
AcDbEntity
  8
ASSI
100
AcDbLine
 62
7
  6
CONTINUOUS
 10
-35.7420154853
 20
3.0517424701
 11
-36.4189187498
 21
3.0585622226
  0
LINE
  5
319
100
AcDbEntity
  8
0
100
AcDbLine
 62
7
  6
CONTINUOUS
 10
-36.4189187498
 20
3.0585622226
 11
-37.0673698828
 21
3.0661944187
  0
LINE
  5
31A
100
AcDbEntity
  8
ASSI
100
AcDbLine
 62
7
  6
CONTINUOUS
 10
-36.4189187498
 20
3.0585622226
 11
-37.0673698828
 21
3.0661944187
  0
LINE
  5
31B
100
AcDbEntity
  8
0
100
AcDbLine
 62
7
  6
CONTINUOUS
 10
-37.0673698828
 20
3.0661944187
 11
-37.6837223586
 21
3.0745990109
  0
LINE
  5
31C
100
AcDbEntity
  8
ASSI
100
AcDbLine
 62
7
  6
CONTINUOUS
 10
-37.0673698828
 20
3.0661944187
 11
-37.6837223586
 21
3.0745990109
  0
LINE
  5
31D
100
AcDbEntity
  8
0
100
AcDbLine
 62
7
  6
CONTINUOUS
 10
-37.6837223586
 20
3.0745990109
 11
-38.2646571978
 21
3.0837281315
  0
LINE
  5
31E
100
AcDbEntity
  8
ASSI
100
AcDbLine
 62
7
  6
CONTINUOUS
 10
-37.6837223586
 20
3.0745990109
 11
-38.2646571978
 21
3.0837281315
  0
LINE
  5
31F
100
AcDbEntity
  8
0
100
AcDbLine
 62
7
  6
CONTINUOUS
 10
-38.2646571978
 20
3.0837281315
 11
-38.8080449927
 21
3.0935483907
  0
LINE
  5
320
100
AcDbEntity
  8
ASSI
100
AcDbLine
 62
7
  6
CONTINUOUS
 10
-38.2646571978
 20
3.0837281315
 11
-38.8080449927
 21
3.0935483907
  0
LINE
  5
321
100
AcDbEntity
  8
0
100
AcDbLine
 62
7
  6
CONTINUOUS
 10
-38.8080449927
 20
3.0935483907
 11
-39.3108004919
 21
3.1040072474
  0
LINE
  5
322
100
AcDbEntity
  8
ASSI
100
AcDbLine
 62
7
  6
CONTINUOUS
 10
-38.8080449927
 20
3.0935483907
 11
-39.3108004919
 21
3.1040072474
  0
LINE
  5
323
100
AcDbEntity
  8
0
100
AcDbLine
 62
7
  6
CONTINUOUS
 10
-39.3108004919
 20
3.1040072474
 11
-39.7702531415
 21
3.1150456336
  0
LINE
  5
324
100
AcDbEntity
  8
ASSI
100
AcDbLine
 62
7
  6
CONTINUOUS
 10
-39.3108004919
 20
3.1040072474
 11
-39.7702531415
 21
3.1150456336
  0
LINE
  5
325
100
AcDbEntity
  8
0
100
AcDbLine
 62
7
  6
CONTINUOUS
 10
-39.7702531415
 20
3.1150456336
 11
-40.0990960644
 21
3.1241357648
  0
LINE
  5
326
100
AcDbEntity
  8
ASSI
100
AcDbLine
 62
7
  6
CONTINUOUS
 10
-39.7702531415
 20
3.1150456336
 11
-40.0990960644
 21
3.1241357648
  0
LINE
  5
327
100
AcDbEntity
  8
DRAFT
100
AcDbLine
 62
7
  6
CONTINUOUS
 10
-174.0548202597
 20
60.2958642352
 11
-173.985
 21
60.2260439755
  0
LINE
  5
328
100
AcDbEntity
  8
RACCORDO
100
AcDbLine
 62
7
  6
CONTINUOUS
 10
-156.9222762937
 20
60.2958642352
 11
-156.9302004055
 21
60.3117136657
  0
LINE
  5
329
100
AcDbEntity
  8
ASSI
100
AcDbLine
 62
7
  6
CONTINUOUS
 10
-156.9222762937
 20
60.2958642352
 11
-156.9302004055
 21
60.3117136657
  0
LINE
  5
32A
100
AcDbEntity
  8
RACCORDO
100
AcDbLine
 62
7
  6
CONTINUOUS
 10
-126.0477237063
 20
3.1241357648
 11
-126.0397995945
 21
3.1082863343
  0
LINE
  5
32B
100
AcDbEntity
  8
ASSI
100
AcDbLine
 62
7
  6
CONTINUOUS
 10
-126.0477237063
 20
3.1241357648
 11
-126.0397995945
 21
3.1082863343
  0
LINE
  5
32C
100
AcDbEntity
  8
RACCORDO
100
AcDbLine
 62
7
  6
CONTINUOUS
 10
-152.9222762937
 20
60.2958642352
 11
-152.9302004055
 21
60.3117136657
  0
LINE
  5
32D
100
AcDbEntity
  8
ASSI
100
AcDbLine
 62
7
  6
CONTINUOUS
 10
-152.9222762937
 20
60.2958642352
 11
-152.9302004055
 21
60.3117136657
  0
LINE
  5
32E
100
AcDbEntity
  8
0
100
AcDbLine
 62
7
  6
CONTINUOUS
 10
-130.735
 20
3.0463212193
 11
-130.735
 21
3.1241357648
  0
LINE
  5
32F
100
AcDbEntity
  8
ASSI
100
AcDbLine
 62
7
  6
CONTINUOUS
 10
-130.735
 20
3.0463212193
 11
-130.735
 21
3.1241357648
  0
LINE
  5
330
100
AcDbEntity
  8
0
100
AcDbLine
 62
7
  6
CONTINUOUS
 10
-130.735
 20
60.2958642352
 11
-130.735
 21
60.3736787807
  0
LINE
  5
331
100
AcDbEntity
  8
ASSI
100
AcDbLine
 62
7
  6
CONTINUOUS
 10
-130.735
 20
60.2958642352
 11
-130.735
 21
60.3736787807
  0
LINE
  5
332
100
AcDbEntity
  8
RACCORDO
100
AcDbLine
 62
7
  6
CONTINUOUS
 10
-148.9222762937
 20
3.1241357648
 11
-148.9302004055
 21
3.1082863343
  0
LINE
  5
333
100
AcDbEntity
  8
ASSI
100
AcDbLine
 62
7
  6
CONTINUOUS
 10
-148.9222762937
 20
3.1241357648
 11
-148.9302004055
 21
3.1082863343
  0
LINE
  5
334
100
AcDbEntity
  8
RACCORDO
100
AcDbLine
 62
7
  6
CONTINUOUS
 10
-144.9222762937
 20
3.1241357648
 11
-144.9302004055
 21
3.1082863343
  0
LINE
  5
335
100
AcDbEntity
  8
ASSI
100
AcDbLine
 62
7
  6
CONTINUOUS
 10
-144.9222762937
 20
3.1241357648
 11
-144.9302004055
 21
3.1082863343
  0
LINE
  5
336
100
AcDbEntity
  8
RACCORDO
100
AcDbLine
 62
7
  6
CONTINUOUS
 10
-140.9222762937
 20
3.1241357648
 11
-140.9302004055
 21
3.1082863343
  0
LINE
  5
337
100
AcDbEntity
  8
ASSI
100
AcDbLine
 62
7
  6
CONTINUOUS
 10
-140.9222762937
 20
3.1241357648
 11
-140.9302004055
 21
3.1082863343
  0
LINE
  5
338
100
AcDbEntity
  8
DRAFT
100
AcDbLine
 62
7
  6
CONTINUOUS
 10
-166.985
 20
5.21
 11
-166.9151797403
 21
5.2798202597
  0
LINE
  5
339
100
AcDbEntity
  8
DRAFT
100
AcDbLine
 62
7
  6
CONTINUOUS
 10
-166.985
 20
58.21
 11
-166.9151797403
 21
58.1401797403
  0
LINE
  5
33A
100
AcDbEntity
  8
RACCORDO
100
AcDbLine
 62
7
  6
CONTINUOUS
 10
-148.9222762937
 20
60.2958642352
 11
-148.9302004055
 21
60.3117136657
  0
LINE
  5
33B
100
AcDbEntity
  8
ASSI
100
AcDbLine
 62
7
  6
CONTINUOUS
 10
-148.9222762937
 20
60.2958642352
 11
-148.9302004055
 21
60.3117136657
  0
LINE
  5
33C
100
AcDbEntity
  8
RACCORDO
100
AcDbLine
 62
7
  6
CONTINUOUS
 10
-144.9222762937
 20
60.2958642352
 11
-144.9302004055
 21
60.3117136657
  0
LINE
  5
33D
100
AcDbEntity
  8
ASSI
100
AcDbLine
 62
7
  6
CONTINUOUS
 10
-144.9222762937
 20
60.2958642352
 11
-144.9302004055
 21
60.3117136657
  0
LINE
  5
33E
100
AcDbEntity
  8
RACCORDO
100
AcDbLine
 62
7
  6
CONTINUOUS
 10
-140.9222762937
 20
60.2958642352
 11
-140.9302004055
 21
60.3117136657
  0
LINE
  5
33F
100
AcDbEntity
  8
ASSI
100
AcDbLine
 62
7
  6
CONTINUOUS
 10
-140.9222762937
 20
60.2958642352
 11
-140.9302004055
 21
60.3117136657
  0
LINE
  5
340
100
AcDbEntity
  8
RACCORDO
100
AcDbLine
 62
7
  6
CONTINUOUS
 10
-136.9222762937
 20
3.1241357648
 11
-136.9302004055
 21
3.1082863343
  0
LINE
  5
341
100
AcDbEntity
  8
ASSI
100
AcDbLine
 62
7
  6
CONTINUOUS
 10
-136.9222762937
 20
3.1241357648
 11
-136.9302004055
 21
3.1082863343
  0
LINE
  5
342
100
AcDbEntity
  8
RACCORDO
100
AcDbLine
 62
7
  6
CONTINUOUS
 10
-132.9222762937
 20
3.1241357648
 11
-132.9302004055
 21
3.1082863343
  0
LINE
  5
343
100
AcDbEntity
  8
ASSI
100
AcDbLine
 62
7
  6
CONTINUOUS
 10
-132.9222762937
 20
3.1241357648
 11
-132.9302004055
 21
3.1082863343
  0
LINE
  5
344
100
AcDbEntity
  8
RACCORDO
100
AcDbLine
 62
7
  6
CONTINUOUS
 10
-136.9222762937
 20
60.2958642352
 11
-136.9302004055
 21
60.3117136657
  0
LINE
  5
345
100
AcDbEntity
  8
ASSI
100
AcDbLine
 62
7
  6
CONTINUOUS
 10
-136.9222762937
 20
60.2958642352
 11
-136.9302004055
 21
60.3117136657
  0
LINE
  5
346
100
AcDbEntity
  8
RACCORDO
100
AcDbLine
 62
7
  6
CONTINUOUS
 10
-132.9222762937
 20
60.2958642352
 11
-132.9302004055
 21
60.3117136657
  0
LINE
  5
347
100
AcDbEntity
  8
ASSI
100
AcDbLine
 62
7
  6
CONTINUOUS
 10
-132.9222762937
 20
60.2958642352
 11
-132.9302004055
 21
60.3117136657
  0
LINE
  5
348
100
AcDbEntity
  8
RACCORDO
100
AcDbLine
 62
7
  6
CONTINUOUS
 10
-128.9222762937
 20
3.1241357648
 11
-128.9302004055
 21
3.1082863343
  0
LINE
  5
349
100
AcDbEntity
  8
ASSI
100
AcDbLine
 62
7
  6
CONTINUOUS
 10
-128.9222762937
 20
3.1241357648
 11
-128.9302004055
 21
3.1082863343
  0
LINE
  5
34A
100
AcDbEntity
  8
RACCORDO
100
AcDbLine
 62
7
  6
CONTINUOUS
 10
-124.9222762937
 20
3.1241357648
 11
-124.9302004055
 21
3.1082863343
  0
LINE
  5
34B
100
AcDbEntity
  8
ASSI
100
AcDbLine
 62
7
  6
CONTINUOUS
 10
-124.9222762937
 20
3.1241357648
 11
-124.9302004055
 21
3.1082863343
  0
LINE
  5
34C
100
AcDbEntity
  8
0
100
AcDbLine
 62
7
  6
CONTINUOUS
 10
-18.4214919876
 20
60.2663319766
 11
-18.0461772399
 21
60.3736787807
  0
LINE
  5
34D
100
AcDbEntity
  8
ASSI
100
AcDbLine
 62
7
  6
CONTINUOUS
 10
-18.0461772399
 20
60.3736787807
 11
-17.9562236639
 21
60.3994071299
  0
LINE
  5
34E
100
AcDbEntity
  8
RACCORDO
100
AcDbLine
 62
7
  6
CONTINUOUS
 10
-217.7722821706
 20
28.71
 11
-217.975972837
 21
28.71
  0
LINE
  5
34F
100
AcDbEntity
  8
ASSI
100
AcDbLine
 62
7
  6
CONTINUOUS
 10
-217.7722821706
 20
28.71
 11
-217.975972837
 21
28.71
  0
LINE
  5
350
100
AcDbEntity
  8
0
100
AcDbLine
 62
7
  6
CONTINUOUS
 10
-18.4214919876
 20
3.1536680234
 11
-18.0461772399
 21
3.0463212193
  0
LINE
  5
351
100
AcDbEntity
  8
ASSI
100
AcDbLine
 62
7
  6
CONTINUOUS
 10
-18.0461772399
 20
3.0463212193
 11
-17.9562236639
 21
3.0205928701
  0
LINE
  5
352
100
AcDbEntity
  8
RACCORDO
100
AcDbLine
 62
7
  6
CONTINUOUS
 10
-128.9222762937
 20
60.2958642352
 11
-128.9302004055
 21
60.3117136657
  0
LINE
  5
353
100
AcDbEntity
  8
ASSI
100
AcDbLine
 62
7
  6
CONTINUOUS
 10
-128.9222762937
 20
60.2958642352
 11
-128.9302004055
 21
60.3117136657
  0
LINE
  5
354
100
AcDbEntity
  8
RACCORDO
100
AcDbLine
 62
7
  6
CONTINUOUS
 10
-124.9222762937
 20
60.2958642352
 11
-124.9302004055
 21
60.3117136657
  0
LINE
  5
355
100
AcDbEntity
  8
ASSI
100
AcDbLine
 62
7
  6
CONTINUOUS
 10
-124.9222762937
 20
60.2958642352
 11
-124.9302004055
 21
60.3117136657
  0
LINE
  5
356
100
AcDbEntity
  8
DRAFT
100
AcDbLine
 62
7
  6
CONTINUOUS
 10
-90.2739043096
 20
60.2958642352
 11
-90.235
 21
60.3736787807
  0
LINE
  5
357
100
AcDbEntity
  8
ASSI
100
AcDbLine
 62
7
  6
CONTINUOUS
 10
-90.2739043096
 20
60.2958642352
 11
-90.235
 21
60.3736787807
  0
LINE
  5
358
100
AcDbEntity
  8
0
100
AcDbLine
 62
7
  6
CONTINUOUS
 10
-202.5485080124
 20
3.1536680234
 11
-202.9238227601
 21
3.0463212193
  0
LINE
  5
359
100
AcDbEntity
  8
ASSI
100
AcDbLine
 62
7
  6
CONTINUOUS
 10
-202.9238227601
 20
3.0463212193
 11
-203.0137763361
 21
3.0205928701
  0
LINE
  5
35A
100
AcDbEntity
  8
RACCORDO
100
AcDbLine
 62
7
  6
CONTINUOUS
 10
-217.975972837
 20
34.71
 11
-217.7722821706
 21
34.71
  0
LINE
  5
35B
100
AcDbEntity
  8
ASSI
100
AcDbLine
 62
7
  6
CONTINUOUS
 10
-217.975972837
 20
34.71
 11
-217.7722821706
 21
34.71
  0
LINE
  5
35C
100
AcDbEntity
  8
0
100
AcDbLine
 62
7
  6
CONTINUOUS
 10
-202.5485080124
 20
60.2663319766
 11
-202.9238227601
 21
60.3736787807
  0
LINE
  5
35D
100
AcDbEntity
  8
ASSI
100
AcDbLine
 62
7
  6
CONTINUOUS
 10
-202.9238227601
 20
60.3736787807
 11
-203.0137763361
 21
60.3994071299
  0
LINE
  5
35E
100
AcDbEntity
  8
DRAFT
100
AcDbLine
 62
7
  6
CONTINUOUS
 10
-90.2739043096
 20
3.1241357648
 11
-90.235
 21
3.0463212193
  0
LINE
  5
35F
100
AcDbEntity
  8
ASSI
100
AcDbLine
 62
7
  6
CONTINUOUS
 10
-90.2739043096
 20
3.1241357648
 11
-90.235
 21
3.0463212193
  0
LINE
  5
360
100
AcDbEntity
  8
DRAFT
100
AcDbLine
 62
7
  6
CONTINUOUS
 10
-90.235
 20
60.3736787807
 11
-90.235
 21
60.2958642352
  0
LINE
  5
361
100
AcDbEntity
  8
ASSI
100
AcDbLine
 62
7
  6
CONTINUOUS
 10
-90.235
 20
60.3736787807
 11
-90.235
 21
60.2958642352
  0
LINE
  5
362
100
AcDbEntity
  8
DRAFT
100
AcDbLine
 62
7
  6
CONTINUOUS
 10
-90.235
 20
3.0463212193
 11
-90.235
 21
3.1241357648
  0
LINE
  5
363
100
AcDbEntity
  8
ASSI
100
AcDbLine
 62
7
  6
CONTINUOUS
 10
-90.235
 20
3.0463212193
 11
-90.235
 21
3.1241357648
  0
LINE
  5
364
100
AcDbEntity
  8
DRAFT
100
AcDbLine
 62
7
  6
CONTINUOUS
 10
-88.735
 20
60.3736787807
 11
-88.735
 21
60.2958642352
  0
LINE
  5
365
100
AcDbEntity
  8
ASSI
100
AcDbLine
 62
7
  6
CONTINUOUS
 10
-88.735
 20
60.3736787807
 11
-88.735
 21
60.2958642352
  0
LINE
  5
366
100
AcDbEntity
  8
DRAFT
100
AcDbLine
 62
7
  6
CONTINUOUS
 10
-88.735
 20
3.0463212193
 11
-88.735
 21
3.1241357648
  0
LINE
  5
367
100
AcDbEntity
  8
ASSI
100
AcDbLine
 62
7
  6
CONTINUOUS
 10
-88.735
 20
3.0463212193
 11
-88.735
 21
3.1241357648
  0
LINE
  5
368
100
AcDbEntity
  8
DRAFT
100
AcDbLine
 62
7
  6
CONTINUOUS
 10
-53.985
 20
58.21
 11
-54.0548202597
 21
58.1401797403
  0
LINE
  5
369
100
AcDbEntity
  8
DRAFT
100
AcDbLine
 62
7
  6
CONTINUOUS
 10
-53.985
 20
5.21
 11
-54.0548202597
 21
5.2798202597
  0
LINE
  5
36A
100
AcDbEntity
  8
DRAFT
100
AcDbLine
 62
7
  6
CONTINUOUS
 10
-62.2739043096
 20
60.2958642352
 11
-62.235
 21
60.3736787807
  0
LINE
  5
36B
100
AcDbEntity
  8
ASSI
100
AcDbLine
 62
7
  6
CONTINUOUS
 10
-62.2739043096
 20
60.2958642352
 11
-62.235
 21
60.3736787807
  0
LINE
  5
36C
100
AcDbEntity
  8
DRAFT
100
AcDbLine
 62
7
  6
CONTINUOUS
 10
-46.9151797403
 20
60.2958642352
 11
-46.985
 21
60.2260439755
  0
LINE
  5
36D
100
AcDbEntity
  8
0
100
AcDbLine
 62
7
  6
CONTINUOUS
 10
-40.0990959639
 20
60.2958642352
 11
-39.770262899
 21
60.3049541139
  0
LINE
  5
36E
100
AcDbEntity
  8
ASSI
100
AcDbLine
 62
7
  6
CONTINUOUS
 10
-40.0990959639
 20
60.2958642352
 11
-39.770262899
 21
60.3049541139
  0
LINE
  5
36F
100
AcDbEntity
  8
0
100
AcDbLine
 62
7
  6
CONTINUOUS
 10
-39.770262899
 20
60.3049541139
 11
-39.3108075289
 21
60.3159925949
  0
LINE
  5
370
100
AcDbEntity
  8
ASSI
100
AcDbLine
 62
7
  6
CONTINUOUS
 10
-39.770262899
 20
60.3049541139
 11
-39.3108075289
 21
60.3159925949
  0
LINE
  5
371
100
AcDbEntity
  8
0
100
AcDbLine
 62
7
  6
CONTINUOUS
 10
-39.3108075289
 20
60.3159925949
 11
-38.8080481811
 21
60.3264515475
  0
LINE
  5
372
100
AcDbEntity
  8
ASSI
100
AcDbLine
 62
7
  6
CONTINUOUS
 10
-39.3108075289
 20
60.3159925949
 11
-38.8080481811
 21
60.3264515475
  0
LINE
  5
373
100
AcDbEntity
  8
0
100
AcDbLine
 62
7
  6
CONTINUOUS
 10
-38.8080481811
 20
60.3264515475
 11
-38.2646556148
 21
60.3362718949
  0
LINE
  5
374
100
AcDbEntity
  8
ASSI
100
AcDbLine
 62
7
  6
CONTINUOUS
 10
-38.8080481811
 20
60.3264515475
 11
-38.2646556148
 21
60.3362718949
  0
LINE
  5
375
100
AcDbEntity
  8
0
100
AcDbLine
 62
7
  6
CONTINUOUS
 10
-38.2646556148
 20
60.3362718949
 11
-37.6837154794
 21
60.3454010897
  0
LINE
  5
376
100
AcDbEntity
  8
ASSI
100
AcDbLine
 62
7
  6
CONTINUOUS
 10
-38.2646556148
 20
60.3362718949
 11
-37.6837154794
 21
60.3454010897
  0
LINE
  5
377
100
AcDbEntity
  8
0
100
AcDbLine
 62
7
  6
CONTINUOUS
 10
-37.6837154794
 20
60.3454010897
 11
-37.0673574679
 21
60.3538057388
  0
LINE
  5
378
100
AcDbEntity
  8
ASSI
100
AcDbLine
 62
7
  6
CONTINUOUS
 10
-37.6837154794
 20
60.3454010897
 11
-37.0673574679
 21
60.3538057388
  0
LINE
  5
379
100
AcDbEntity
  8
0
100
AcDbLine
 62
7
  6
CONTINUOUS
 10
-37.0673574679
 20
60.3538057388
 11
-36.418901039
 21
60.3614379701
  0
LINE
  5
37A
100
AcDbEntity
  8
ASSI
100
AcDbLine
 62
7
  6
CONTINUOUS
 10
-37.0673574679
 20
60.3538057388
 11
-36.418901039
 21
60.3614379701
  0
LINE
  5
37B
100
AcDbEntity
  8
0
100
AcDbLine
 62
7
  6
CONTINUOUS
 10
-36.418901039
 20
60.3614379701
 11
-35.7419932739
 21
60.3682577361
  0
LINE
  5
37C
100
AcDbEntity
  8
ASSI
100
AcDbLine
 62
7
  6
CONTINUOUS
 10
-36.418901039
 20
60.3614379701
 11
-35.7419932739
 21
60.3682577361
  0
LWPOLYLINE
  5
37D
100
AcDbEntity
  8
RACCORDO
100
AcDbPolyline
 62
7
  6
CONTINUOUS
 90
10
 70
0
 10
-202.6642210128
 20
61.935
 10
-202.7129967543
 20
61.9345921847
 10
-202.761856717
 20
61.9333875664
 10
-202.8107878165
 20
61.9313817254
 10
-202.859841639
 20
61.9285661939
 10
-202.90893983
 20
61.9249391088
 10
-202.9578748793
 20
61.9205157997
 10
-203.0065695569
 20
61.9153096233
 10
-203.0550761332
 20
61.9093213753
 10
-203.1033823154
 20
61.9025573501
  0
LWPOLYLINE
  5
37E
100
AcDbEntity
  8
ASSI
100
AcDbPolyline
 62
7
  6
CONTINUOUS
 90
10
 70
0
 10
-202.6642210128
 20
61.935
 10
-202.7129967543
 20
61.9345921847
 10
-202.761856717
 20
61.9333875664
 10
-202.8107878165
 20
61.9313817254
 10
-202.859841639
 20
61.9285661939
 10
-202.90893983
 20
61.9249391088
 10
-202.9578748793
 20
61.9205157997
 10
-203.0065695569
 20
61.9153096233
 10
-203.0550761332
 20
61.9093213753
 10
-203.1033823154
 20
61.9025573501
  0
LINE
  5
37F
100
AcDbEntity
  8
0
100
AcDbLine
 62
7
  6
CONTINUOUS
 10
-35.7419932739
 20
60.3682577361
 11
-35.0391152514
 21
60.3742402098
  0
LINE
  5
380
100
AcDbEntity
  8
ASSI
100
AcDbLine
 62
7
  6
CONTINUOUS
 10
-35.7419932739
 20
60.3682577361
 11
-35.0391152514
 21
60.3742402098
  0
LINE
  5
381
100
AcDbEntity
  8
0
100
AcDbLine
 62
7
  6
CONTINUOUS
 10
-35.0391152514
 20
60.3742402098
 11
-34.3140802438
 21
60.3793507783
  0
LINE
  5
382
100
AcDbEntity
  8
ASSI
100
AcDbLine
 62
7
  6
CONTINUOUS
 10
-35.0391152514
 20
60.3742402098
 11
-34.3140802438
 21
60.3793507783
  0
LINE
  5
383
100
AcDbEntity
  8
0
100
AcDbLine
 62
7
  6
CONTINUOUS
 10
-34.3140802438
 20
60.3793507783
 11
-33.5709371001
 21
60.3835636367
  0
LINE
  5
384
100
AcDbEntity
  8
ASSI
100
AcDbLine
 62
7
  6
CONTINUOUS
 10
-34.3140802438
 20
60.3793507783
 11
-33.5709371001
 21
60.3835636367
  0
LINE
  5
385
100
AcDbEntity
  8
0
100
AcDbLine
 62
7
  6
CONTINUOUS
 10
-33.5709371001
 20
60.3835636367
 11
-32.8124092859
 21
60.3868636104
  0
LINE
  5
386
100
AcDbEntity
  8
ASSI
100
AcDbLine
 62
7
  6
CONTINUOUS
 10
-33.5709371001
 20
60.3835636367
 11
-32.8124092859
 21
60.3868636104
  0
LINE
  5
387
100
AcDbEntity
  8
0
100
AcDbLine
 62
7
  6
CONTINUOUS
 10
-32.8124092859
 20
60.3868636104
 11
-32.0426394101
 21
60.3892308686
  0
LINE
  5
388
100
AcDbEntity
  8
ASSI
100
AcDbLine
 62
7
  6
CONTINUOUS
 10
-32.8124092859
 20
60.3868636104
 11
-32.0426394101
 21
60.3892308686
  0
LINE
  5
389
100
AcDbEntity
  8
0
100
AcDbLine
 62
7
  6
CONTINUOUS
 10
-32.0426394101
 20
60.3892308686
 11
-31.2663647038
 21
60.3906546426
  0
LINE
  5
38A
100
AcDbEntity
  8
ASSI
100
AcDbLine
 62
7
  6
CONTINUOUS
 10
-32.0426394101
 20
60.3892308686
 11
-31.2663647038
 21
60.3906546426
  0
LINE
  5
38B
100
AcDbEntity
  8
RACCORDO
100
AcDbLine
 62
7
  6
CONTINUOUS
 10
-217.3702151852
 20
56.46
 11
-217.1678316525
 21
56.46
  0
LINE
  5
38C
100
AcDbEntity
  8
ASSI
100
AcDbLine
 62
7
  6
CONTINUOUS
 10
-217.3702151852
 20
56.46
 11
-217.1678316525
 21
56.46
  0
LINE
  5
38D
100
AcDbEntity
  8
RACCORDO
100
AcDbLine
 62
7
  6
CONTINUOUS
 10
-3.8021683475
 20
56.46
 11
-3.5997848148
 21
56.46
  0
LINE
  5
38E
100
AcDbEntity
  8
ASSI
100
AcDbLine
 62
7
  6
CONTINUOUS
 10
-3.8021683475
 20
56.46
 11
-3.5997848148
 21
56.46
  0
LINE
  5
38F
100
AcDbEntity
  8
0
100
AcDbLine
 62
253
  6
CONTINUOUS
 10
-217.3229388216
 20
56.718575216
 11
-217.1557679281
 21
56.718575216
  0
LINE
  5
390
100
AcDbEntity
  8
0
100
AcDbLine
 62
253
  6
CONTINUOUS
 10
-3.8142320719
 20
56.718575216
 11
-3.6470611784
 21
56.718575216
  0
LINE
  5
391
100
AcDbEntity
  8
0
100
AcDbLine
 62
253
  6
CONTINUOUS
 10
-217.3057357928
 20
57.0534117408
 11
-217.1406206403
 21
57.0534117408
  0
LINE
  5
392
100
AcDbEntity
  8
0
100
AcDbLine
 62
253
  6
CONTINUOUS
 10
-3.6642642072
 20
57.0534117408
 11
-3.8293793597
 21
57.0534117408
  0
LINE
  5
393
100
AcDbEntity
  8
RACCORDO
100
AcDbLine
 62
253
  6
CONTINUOUS
 10
-3.6296379908
 20
57.0534117408
 11
-3.6642642072
 21
57.0534117408
  0
LINE
  5
394
100
AcDbEntity
  8
ASSI
100
AcDbLine
 62
253
  6
CONTINUOUS
 10
-3.6296379908
 20
57.0534117408
 11
-3.6642642072
 21
57.0534117408
  0
LINE
  5
395
100
AcDbEntity
  8
RACCORDO
100
AcDbLine
 62
253
  6
CONTINUOUS
 10
-217.3057357928
 20
57.0534117408
 11
-217.3403620092
 21
57.0534117408
  0
LINE
  5
396
100
AcDbEntity
  8
ASSI
100
AcDbLine
 62
253
  6
CONTINUOUS
 10
-217.3057357928
 20
57.0534117408
 11
-217.3403620092
 21
57.0534117408
  0
LINE
  5
397
100
AcDbEntity
  8
DRAFT
100
AcDbLine
 62
7
  6
CONTINUOUS
 10
-174.0548202597
 20
58.1401797403
 11
-166.9151797403
 21
58.1401797403
  0
LINE
  5
398
100
AcDbEntity
  8
DRAFT
100
AcDbLine
 62
7
  6
CONTINUOUS
 10
-54.0548202597
 20
58.1401797403
 11
-46.9151797403
 21
58.1401797403
  0
LINE
  5
399
100
AcDbEntity
  8
DRAFT
100
AcDbLine
 62
7
  6
CONTINUOUS
 10
-173.985
 20
58.21
 11
-166.985
 21
58.21
  0
LINE
  5
39A
100
AcDbEntity
  8
DRAFT
100
AcDbLine
 62
7
  6
CONTINUOUS
 10
-46.985
 20
58.21
 11
-53.985
 21
58.21
  0
LINE
  5
39B
100
AcDbEntity
  8
0
100
AcDbLine
 62
253
  6
CONTINUOUS
 10
-216.0074668108
 20
58.4608694408
 11
-214.7016795175
 21
58.4608694408
  0
LINE
  5
39C
100
AcDbEntity
  8
RACCORDO
100
AcDbLine
 62
253
  6
CONTINUOUS
 10
-4.9072788439
 20
58.4608694408
 11
-4.9625331892
 21
58.4608694408
  0
LINE
  5
39D
100
AcDbEntity
  8
ASSI
100
AcDbLine
 62
253
  6
CONTINUOUS
 10
-4.9072788439
 20
58.4608694408
 11
-4.9625331892
 21
58.4608694408
  0
LINE
  5
39E
100
AcDbEntity
  8
0
100
AcDbLine
 62
253
  6
CONTINUOUS
 10
-4.9625331892
 20
58.4608694408
 11
-6.2683204825
 21
58.4608694408
  0
LINE
  5
39F
100
AcDbEntity
  8
RACCORDO
100
AcDbLine
 62
253
  6
CONTINUOUS
 10
-216.0074668108
 20
58.4608694408
 11
-216.0627211561
 21
58.4608694408
  0
LINE
  5
3A0
100
AcDbEntity
  8
ASSI
100
AcDbLine
 62
253
  6
CONTINUOUS
 10
-216.0074668108
 20
58.4608694408
 11
-216.0627211561
 21
58.4608694408
  0
LINE
  5
3A1
100
AcDbEntity
  8
0
100
AcDbLine
 62
7
  6
CONTINUOUS
 10
-53.735
 20
58.71
 11
-47.235
 21
58.71
  0
LINE
  5
3A2
100
AcDbEntity
  8
ASSI
100
AcDbLine
 62
7
  6
CONTINUOUS
 10
-53.735
 20
58.71
 11
-47.235
 21
58.71
  0
LINE
  5
3A3
100
AcDbEntity
  8
0
100
AcDbLine
 62
7
  6
CONTINUOUS
 10
-167.235
 20
58.71
 11
-173.735
 21
58.71
  0
LINE
  5
3A4
100
AcDbEntity
  8
ASSI
100
AcDbLine
 62
7
  6
CONTINUOUS
 10
-167.235
 20
58.71
 11
-173.735
 21
58.71
  0
LINE
  5
3A5
100
AcDbEntity
  8
DRAFT
100
AcDbLine
 62
7
  6
CONTINUOUS
 10
-173.985
 20
60.2260439755
 11
-173.735
 21
60.2260439755
  0
LINE
  5
3A6
100
AcDbEntity
  8
DRAFT
100
AcDbLine
 62
7
  6
CONTINUOUS
 10
-167.235
 20
60.2260439755
 11
-166.985
 21
60.2260439755
  0
LINE
  5
3A7
100
AcDbEntity
  8
DRAFT
100
AcDbLine
 62
7
  6
CONTINUOUS
 10
-53.985
 20
60.2260439755
 11
-53.735
 21
60.2260439755
  0
LINE
  5
3A8
100
AcDbEntity
  8
DRAFT
100
AcDbLine
 62
7
  6
CONTINUOUS
 10
-47.235
 20
60.2260439755
 11
-46.985
 21
60.2260439755
  0
LINE
  5
3A9
100
AcDbEntity
  8
DRAFT
100
AcDbLine
 62
7
  6
CONTINUOUS
 10
-18.6202834861
 20
60.2958642352
 11
-46.9151797403
 21
60.2958642352
  0
LINE
  5
3AA
100
AcDbEntity
  8
DRAFT
100
AcDbLine
 62
7
  6
CONTINUOUS
 10
-54.0548202597
 20
60.2958642352
 11
-166.9151797403
 21
60.2958642352
  0
LINE
  5
3AB
100
AcDbEntity
  8
DRAFT
100
AcDbLine
 62
7
  6
CONTINUOUS
 10
-174.0548202597
 20
60.2958642352
 11
-202.3497165139
 21
60.2958642352
  0
LINE
  5
3AC
100
AcDbEntity
  8
RACCORDO
100
AcDbLine
 62
7
  6
CONTINUOUS
 10
-202.9238227601
 20
60.3736787807
 11
-197.985
 21
60.3736787807
  0
LINE
  5
3AD
100
AcDbEntity
  8
ASSI
100
AcDbLine
 62
7
  6
CONTINUOUS
 10
-202.9238227601
 20
60.3736787807
 11
-197.985
 21
60.3736787807
  0
LINE
  5
3AE
100
AcDbEntity
  8
0
100
AcDbLine
 62
7
  6
CONTINUOUS
 10
-160.235
 20
60.3736787807
 11
-158.735
 21
60.3736787807
  0
LINE
  5
3AF
100
AcDbEntity
  8
ASSI
100
AcDbLine
 62
7
  6
CONTINUOUS
 10
-160.235
 20
60.3736787807
 11
-158.735
 21
60.3736787807
  0
LINE
  5
3B0
100
AcDbEntity
  8
0
100
AcDbLine
 62
7
  6
CONTINUOUS
 10
-132.235
 20
60.3736787807
 11
-130.735
 21
60.3736787807
  0
LINE
  5
3B1
100
AcDbEntity
  8
ASSI
100
AcDbLine
 62
7
  6
CONTINUOUS
 10
-132.235
 20
60.3736787807
 11
-130.735
 21
60.3736787807
  0
LINE
  5
3B2
100
AcDbEntity
  8
DRAFT
100
AcDbLine
 62
7
  6
CONTINUOUS
 10
-90.235
 20
60.3736787807
 11
-88.735
 21
60.3736787807
  0
LINE
  5
3B3
100
AcDbEntity
  8
ASSI
100
AcDbLine
 62
7
  6
CONTINUOUS
 10
-90.235
 20
60.3736787807
 11
-88.735
 21
60.3736787807
  0
LINE
  5
3B4
100
AcDbEntity
  8
DRAFT
100
AcDbLine
 62
7
  6
CONTINUOUS
 10
-62.235
 20
60.3736787807
 11
-60.735
 21
60.3736787807
  0
LINE
  5
3B5
100
AcDbEntity
  8
ASSI
100
AcDbLine
 62
7
  6
CONTINUOUS
 10
-62.235
 20
60.3736787807
 11
-60.735
 21
60.3736787807
  0
LINE
  5
3B6
100
AcDbEntity
  8
0
100
AcDbLine
 62
7
  6
CONTINUOUS
 10
-29.985
 20
60.3736787807
 11
-18.0461772399
 21
60.3736787807
  0
LINE
  5
3B7
100
AcDbEntity
  8
RACCORDO
100
AcDbLine
 62
7
  6
CONTINUOUS
 10
-18.0461772399
 20
60.3736787807
 11
-29.985
 21
60.3736787807
  0
LINE
  5
3B8
100
AcDbEntity
  8
ASSI
100
AcDbLine
 62
7
  6
CONTINUOUS
 10
-18.0461772399
 20
60.3736787807
 11
-29.985
 21
60.3736787807
  0
LINE
  5
3B9
100
AcDbEntity
  8
0
100
AcDbLine
 62
7
  6
CONTINUOUS
 10
-197.985
 20
60.3736787807
 11
-202.9238227601
 21
60.3736787807
  0
LINE
  5
3BA
100
AcDbEntity
  8
0
100
AcDbLine
 62
7
  6
CONTINUOUS
 10
-31.2663647038
 20
60.3906546426
 11
-29.985
 21
60.3911311871
  0
LINE
  5
3BB
100
AcDbEntity
  8
ASSI
100
AcDbLine
 62
7
  6
CONTINUOUS
 10
-31.2663647038
 20
60.3906546426
 11
-29.985
 21
60.3911311871
  0
LINE
  5
3BC
100
AcDbEntity
  8
0
100
AcDbLine
 62
7
  6
CONTINUOUS
 10
-18.6055086643
 20
60.4958642352
 11
-202.3644913357
 21
60.4958642352
  0
LINE
  5
3BD
100
AcDbEntity
  8
ASSI
100
AcDbLine
 62
7
  6
CONTINUOUS
 10
-18.6055086643
 20
60.4958642352
 11
-202.3644913357
 21
60.4958642352
  0
LINE
  5
3BE
100
AcDbEntity
  8
RACCORDO
100
AcDbLine
 62
7
  6
CONTINUOUS
 10
-18.3284000019
 20
61.6287896777
 11
-202.641599998
 21
61.6287896777
  0
LINE
  5
3BF
100
AcDbEntity
  8
ASSI
100
AcDbLine
 62
7
  6
CONTINUOUS
 10
-18.3284000019
 20
61.6287896777
 11
-202.641599998
 21
61.6287896777
  0
LINE
  5
3C0
100
AcDbEntity
  8
RACCORDO
100
AcDbLine
 62
7
  6
CONTINUOUS
 10
-18.3057789872
 20
61.935
 11
-202.6642210128
 21
61.935
  0
LINE
  5
3C1
100
AcDbEntity
  8
ASSI
100
AcDbLine
 62
7
  6
CONTINUOUS
 10
-18.3057789872
 20
61.935
 11
-202.6642210128
 21
61.935
  0
LINE
  5
3C2
100
AcDbEntity
  8
0
100
AcDbLine
 62
7
  6
CONTINUOUS
 10
-189.7036352962
 20
60.3906546426
 11
-197.985
 21
60.3911311871
  0
LINE
  5
3C3
100
AcDbEntity
  8
ASSI
100
AcDbLine
 62
7
  6
CONTINUOUS
 10
-189.7036352962
 20
60.3906546426
 11
-197.985
 21
60.3911311871
  0
LINE
  5
3C4
100
AcDbEntity
  8
0
100
AcDbLine
 62
7
  6
CONTINUOUS
 10
-188.5410730345
 20
60.3881636144
 11
-189.7036352962
 21
60.3906546426
  0
LINE
  5
3C5
100
AcDbEntity
  8
ASSI
100
AcDbLine
 62
7
  6
CONTINUOUS
 10
-188.5410730345
 20
60.3881636144
 11
-189.7036352962
 21
60.3906546426
  0
LINE
  5
3C6
100
AcDbEntity
  8
0
100
AcDbLine
 62
7
  6
CONTINUOUS
 10
-187.3990628999
 20
60.3835636367
 11
-188.5410730345
 21
60.3881636144
  0
LINE
  5
3C7
100
AcDbEntity
  8
ASSI
100
AcDbLine
 62
7
  6
CONTINUOUS
 10
-187.3990628999
 20
60.3835636367
 11
-188.5410730345
 21
60.3881636144
  0
LINE
  5
3C8
100
AcDbEntity
  8
0
100
AcDbLine
 62
7
  6
CONTINUOUS
 10
-186.2906379022
 20
60.3769042818
 11
-187.3990628999
 21
60.3835636367
  0
LINE
  5
3C9
100
AcDbEntity
  8
ASSI
100
AcDbLine
 62
7
  6
CONTINUOUS
 10
-186.2906379022
 20
60.3769042818
 11
-187.3990628999
 21
60.3835636367
  0
LWPOLYLINE
  5
3CA
100
AcDbEntity
  8
RACCORDO
100
AcDbPolyline
 62
7
  6
CONTINUOUS
 90
10
 70
0
 10
-18.3065885729
 20
61.935
 10
-18.2574394895
 20
61.9345992706
 10
-18.2083029029
 20
61.9333927524
 10
-18.1591920039
 20
61.931380733
 10
-18.1101194778
 20
61.9285636832
 10
-18.0610990001
 20
61.9249423391
 10
-18.0121452271
 20
61.9205177834
 10
-17.9632717939
 20
61.9152912976
 10
-17.9144913175
 20
61.90926428
 10
-17.8658168874
 20
61.9024383844
  0
LWPOLYLINE
  5
3CB
100
AcDbEntity
  8
ASSI
100
AcDbPolyline
 62
7
  6
CONTINUOUS
 90
10
 70
0
 10
-18.3065885729
 20
61.935
 10
-18.2574394895
 20
61.9345992706
 10
-18.2083029029
 20
61.9333927524
 10
-18.1591920039
 20
61.931380733
 10
-18.1101194778
 20
61.9285636832
 10
-18.0610990001
 20
61.9249423391
 10
-18.0121452271
 20
61.9205177834
 10
-17.9632717939
 20
61.9152912976
 10
-17.9144913175
 20
61.90926428
 10
-17.8658168874
 20
61.9024383844
  0
LINE
  5
3CC
100
AcDbEntity
  8
0
100
AcDbLine
 62
7
  6
CONTINUOUS
 10
-185.2280067261
 20
60.3682577361
 11
-186.2906379022
 21
60.3769042818
  0
LINE
  5
3CD
100
AcDbEntity
  8
ASSI
100
AcDbLine
 62
7
  6
CONTINUOUS
 10
-185.2280067261
 20
60.3682577361
 11
-186.2906379022
 21
60.3769042818
  0
LINE
  5
3CE
100
AcDbEntity
  8
0
100
AcDbLine
 62
7
  6
CONTINUOUS
 10
-184.2228658569
 20
60.3577182286
 11
-185.2280067261
 21
60.3682577361
  0
LINE
  5
3CF
100
AcDbEntity
  8
ASSI
100
AcDbLine
 62
7
  6
CONTINUOUS
 10
-184.2228658569
 20
60.3577182286
 11
-185.2280067261
 21
60.3682577361
  0
LINE
  5
3D0
100
AcDbEntity
  8
0
100
AcDbLine
 62
7
  6
CONTINUOUS
 10
-183.5904586367
 20
60.3496997884
 11
-184.2228658569
 21
60.3577182286
  0
LINE
  5
3D1
100
AcDbEntity
  8
ASSI
100
AcDbLine
 62
7
  6
CONTINUOUS
 10
-183.5904586367
 20
60.3496997884
 11
-184.2228658569
 21
60.3577182286
  0
LINE
  5
3D2
100
AcDbEntity
  8
0
100
AcDbLine
 62
7
  6
CONTINUOUS
 10
-182.991235272
 20
60.3409253459
 11
-183.5904586367
 21
60.3496997884
  0
LINE
  5
3D3
100
AcDbEntity
  8
ASSI
100
AcDbLine
 62
7
  6
CONTINUOUS
 10
-182.991235272
 20
60.3409253459
 11
-183.5904586367
 21
60.3496997884
  0
LINE
  5
3D4
100
AcDbEntity
  8
0
100
AcDbLine
 62
7
  6
CONTINUOUS
 10
-182.4285783658
 20
60.3314413988
 11
-182.991235272
 21
60.3409253459
  0
LINE
  5
3D5
100
AcDbEntity
  8
ASSI
100
AcDbLine
 62
7
  6
CONTINUOUS
 10
-182.4285783658
 20
60.3314413988
 11
-182.991235272
 21
60.3409253459
  0
LINE
  5
3D6
100
AcDbEntity
  8
0
100
AcDbLine
 62
7
  6
CONTINUOUS
 10
-181.9055024087
 20
60.3213017489
 11
-182.4285783658
 21
60.3314413988
  0
LINE
  5
3D7
100
AcDbEntity
  8
ASSI
100
AcDbLine
 62
7
  6
CONTINUOUS
 10
-181.9055024087
 20
60.3213017489
 11
-182.4285783658
 21
60.3314413988
  0
LINE
  5
3D8
100
AcDbEntity
  8
0
100
AcDbLine
 62
7
  6
CONTINUOUS
 10
-181.4239236184
 20
60.310543552
 11
-181.9055024087
 21
60.3213017489
  0
LINE
  5
3D9
100
AcDbEntity
  8
ASSI
100
AcDbLine
 62
7
  6
CONTINUOUS
 10
-181.4239236184
 20
60.310543552
 11
-181.9055024087
 21
60.3213017489
  0
LINE
  5
3DA
100
AcDbEntity
  8
0
100
AcDbLine
 62
7
  6
CONTINUOUS
 10
-180.8709040361
 20
60.2958642352
 11
-181.4239236184
 21
60.310543552
  0
LINE
  5
3DB
100
AcDbEntity
  8
ASSI
100
AcDbLine
 62
7
  6
CONTINUOUS
 10
-180.8709040361
 20
60.2958642352
 11
-181.4239236184
 21
60.310543552
  0
LINE
  5
3DC
100
AcDbEntity
  8
DRAFT
100
AcDbLine
 62
7
  6
CONTINUOUS
 10
-46.9151797403
 20
3.1241357648
 11
-46.985
 21
3.1939560245
  0
LINE
  5
3DD
100
AcDbEntity
  8
DRAFT
100
AcDbLine
 62
7
  6
CONTINUOUS
 10
-62.2739043096
 20
3.1241357648
 11
-62.235
 21
3.0463212193
  0
LINE
  5
3DE
100
AcDbEntity
  8
ASSI
100
AcDbLine
 62
7
  6
CONTINUOUS
 10
-62.2739043096
 20
3.1241357648
 11
-62.235
 21
3.0463212193
  0
LINE
  5
3DF
100
AcDbEntity
  8
DRAFT
100
AcDbLine
 62
7
  6
CONTINUOUS
 10
-88.6960956904
 20
3.1241357648
 11
-88.735
 21
3.0463212193
  0
LINE
  5
3E0
100
AcDbEntity
  8
ASSI
100
AcDbLine
 62
7
  6
CONTINUOUS
 10
-88.6960956904
 20
3.1241357648
 11
-88.735
 21
3.0463212193
  0
LINE
  5
3E1
100
AcDbEntity
  8
DRAFT
100
AcDbLine
 62
7
  6
CONTINUOUS
 10
-88.6960956904
 20
60.2958642352
 11
-88.735
 21
60.3736787807
  0
LINE
  5
3E2
100
AcDbEntity
  8
ASSI
100
AcDbLine
 62
7
  6
CONTINUOUS
 10
-88.6960956904
 20
60.2958642352
 11
-88.735
 21
60.3736787807
  0
LWPOLYLINE
  5
3E3
100
AcDbEntity
  8
RACCORDO
100
AcDbPolyline
 62
7
  6
CONTINUOUS
 90
31
 70
0
 10
-216.2923780769
 20
59.9432025505
 10
-216.4269263012
 20
59.9197282631
 10
-216.5603451743
 20
59.8901351448
 10
-216.6923556243
 20
59.8544729078
 10
-216.8227710189
 20
59.8127730259
 10
-216.9512234487
 20
59.7651335878
 10
-217.0771794798
 20
59.7117600419
 10
-217.2001906703
 20
59.6528882979
 10
-217.320220307
 20
59.5885827391
 10
-217.4373531984
 20
59.5187990538
 10
-217.5515177695
 20
59.4435338959
 10
-217.6622699887
 20
59.3630326781
 10
-217.7691424352
 20
59.2776290999
 10
-217.8718240101
 20
59.1876027417
 10
-217.9702180859
 20
59.0930706594
 10
-218.0642058042
 20
58.994157457
 10
-218.1535927272
 20
58.8910677348
 10
-218.2381939619
 20
58.7840147577
 10
-218.3178969492
 20
58.6731288482
 10
-218.3925944985
 20
58.5585174734
 10
-218.4620383385
 20
58.4405172474
 10
-218.5259414083
 20
58.3196255972
 10
-218.5841022658
 20
58.1963081544
 10
-218.6365311453
 20
58.0706358375
 10
-218.6832639721
 20
57.9425199598
 10
-218.7242402038
 20
57.812003273
 10
-218.7592682829
 20
57.6795548819
 10
-218.7881951687
 20
57.545725549
 10
-218.8109587148
 20
57.4108909294
 10
-218.8275455948
 20
57.2752398209
 10
-218.8379332448
 20
57.1390547888
  0
LWPOLYLINE
  5
3E4
100
AcDbEntity
  8
ASSI
100
AcDbPolyline
 62
7
  6
CONTINUOUS
 90
31
 70
0
 10
-216.2923780769
 20
59.9432025505
 10
-216.4269263012
 20
59.9197282631
 10
-216.5603451743
 20
59.8901351448
 10
-216.6923556243
 20
59.8544729078
 10
-216.8227710189
 20
59.8127730259
 10
-216.9512234487
 20
59.7651335878
 10
-217.0771794798
 20
59.7117600419
 10
-217.2001906703
 20
59.6528882979
 10
-217.320220307
 20
59.5885827391
 10
-217.4373531984
 20
59.5187990538
 10
-217.5515177695
 20
59.4435338959
 10
-217.6622699887
 20
59.3630326781
 10
-217.7691424352
 20
59.2776290999
 10
-217.8718240101
 20
59.1876027417
 10
-217.9702180859
 20
59.0930706594
 10
-218.0642058042
 20
58.994157457
 10
-218.1535927272
 20
58.8910677348
 10
-218.2381939619
 20
58.7840147577
 10
-218.3178969492
 20
58.6731288482
 10
-218.3925944985
 20
58.5585174734
 10
-218.4620383385
 20
58.4405172474
 10
-218.5259414083
 20
58.3196255972
 10
-218.5841022658
 20
58.1963081544
 10
-218.6365311453
 20
58.0706358375
 10
-218.6832639721
 20
57.9425199598
 10
-218.7242402038
 20
57.812003273
 10
-218.7592682829
 20
57.6795548819
 10
-218.7881951687
 20
57.545725549
 10
-218.8109587148
 20
57.4108909294
 10
-218.8275455948
 20
57.2752398209
 10
-218.8379332448
 20
57.1390547888
  0
LWPOLYLINE
  5
3E5
100
AcDbEntity
  8
RACCORDO
100
AcDbPolyline
 62
7
  6
CONTINUOUS
 90
31
 70
0
 10
-215.9992653236
 20
59.6771874879
 10
-216.1340555933
 20
59.6540544594
 10
-216.2673588813
 20
59.6248414247
 10
-216.3991751877
 20
59.5895483837
 10
-216.5299261636
 20
59.5480303778
 10
-216.6591901578
 20
59.5004323656
 10
-216.7857022168
 20
59.4471892231
 10
-216.9092968715
 20
59.3882772733
 10
-217.030139591
 20
59.3237201933
 10
-217.1474618291
 20
59.2540238894
 10
-217.2610751233
 20
59.1793196641
 10
-217.3711679362
 20
59.099476215
 10
-217.4775371095
 20
59.0146055407
 10
-217.5804288576
 20
58.9244793801
 10
-217.6795969661
 20
58.8293259942
 10
-217.7740996341
 20
58.7299421653
 10
-217.863855706
 20
58.6262563199
 10
-217.9489463374
 20
58.5183400315
 10
-218.0286731942
 20
58.4072048023
 10
-218.1028332211
 20
58.293119494
 10
-218.1716294734
 20
58.1758152449
 10
-218.2349727831
 20
58.0554969721
 10
-218.2929781537
 20
57.9319590717
 10
-218.3455305818
 20
57.8054071477
 10
-218.3921958889
 20
57.6766629293
 10
-218.4329327907
 20
57.5455658812
 10
-218.4677825716
 20
57.4122765388
 10
-218.4964349064
 20
57.2780982378
 10
-218.5187863536
 20
57.1434654235
 10
-218.5349403547
 20
57.0079436505
 10
-218.5448969098
 20
56.871532919
  0
LWPOLYLINE
  5
3E6
100
AcDbEntity
  8
ASSI
100
AcDbPolyline
 62
7
  6
CONTINUOUS
 90
31
 70
0
 10
-215.9992653236
 20
59.6771874879
 10
-216.1340555933
 20
59.6540544594
 10
-216.2673588813
 20
59.6248414247
 10
-216.3991751877
 20
59.5895483837
 10
-216.5299261636
 20
59.5480303778
 10
-216.6591901578
 20
59.5004323656
 10
-216.7857022168
 20
59.4471892231
 10
-216.9092968715
 20
59.3882772733
 10
-217.030139591
 20
59.3237201933
 10
-217.1474618291
 20
59.2540238894
 10
-217.2610751233
 20
59.1793196641
 10
-217.3711679362
 20
59.099476215
 10
-217.4775371095
 20
59.0146055407
 10
-217.5804288576
 20
58.9244793801
 10
-217.6795969661
 20
58.8293259942
 10
-217.7740996341
 20
58.7299421653
 10
-217.863855706
 20
58.6262563199
 10
-217.9489463374
 20
58.5183400315
 10
-218.0286731942
 20
58.4072048023
 10
-218.1028332211
 20
58.293119494
 10
-218.1716294734
 20
58.1758152449
 10
-218.2349727831
 20
58.0554969721
 10
-218.2929781537
 20
57.9319590717
 10
-218.3455305818
 20
57.8054071477
 10
-218.3921958889
 20
57.6766629293
 10
-218.4329327907
 20
57.5455658812
 10
-218.4677825716
 20
57.4122765388
 10
-218.4964349064
 20
57.2780982378
 10
-218.5187863536
 20
57.1434654235
 10
-218.5349403547
 20
57.0079436505
 10
-218.5448969098
 20
56.871532919
  0
LINE
  5
3E7
100
AcDbEntity
  8
DRAFT
100
AcDbLine
 62
7
  6
CONTINUOUS
 10
-202.3497165139
 20
60.2958642352
 11
-216.0333319009
 21
58.2630405458
  0
LINE
  5
3E8
100
AcDbEntity
  8
RACCORDO
100
AcDbLine
 62
7
  6
CONTINUOUS
 10
-216.0627211561
 20
58.4608694408
 11
-202.3644913357
 21
60.4958642352
  0
LINE
  5
3E9
100
AcDbEntity
  8
ASSI
100
AcDbLine
 62
7
  6
CONTINUOUS
 10
-216.0627211561
 20
58.4608694408
 11
-202.3644913357
 21
60.4958642352
  0
LINE
  5
3EA
100
AcDbEntity
  8
RACCORDO
100
AcDbLine
 62
7
  6
CONTINUOUS
 10
-203.0807613006
 20
61.5963470277
 11
-215.9992653236
 21
59.6771874879
  0
LINE
  5
3EB
100
AcDbEntity
  8
ASSI
100
AcDbLine
 62
7
  6
CONTINUOUS
 10
-203.0807613006
 20
61.5963470277
 11
-215.9992653236
 21
59.6771874879
  0
LINE
  5
3EC
100
AcDbEntity
  8
RACCORDO
100
AcDbLine
 62
7
  6
CONTINUOUS
 10
-216.2923780769
 20
59.9432025505
 11
-203.1041831126
 21
61.9024383844
  0
LINE
  5
3ED
100
AcDbEntity
  8
ASSI
100
AcDbLine
 62
7
  6
CONTINUOUS
 10
-216.2923780769
 20
59.9432025505
 11
-203.1041831126
 21
61.9024383844
  0
LINE
  5
3EE
100
AcDbEntity
  8
RACCORDO
100
AcDbLine
 62
7
  6
CONTINUOUS
 10
-216.0074668108
 20
58.4608694408
 11
-202.9238227601
 21
60.3736787807
  0
LINE
  5
3EF
100
AcDbEntity
  8
ASSI
100
AcDbLine
 62
7
  6
CONTINUOUS
 10
-216.0074668108
 20
58.4608694408
 11
-202.9238227601
 21
60.3736787807
  0
LINE
  5
3F0
100
AcDbEntity
  8
0
100
AcDbLine
 62
7
  6
CONTINUOUS
 10
-202.9238227601
 20
60.3736787807
 11
-216.0074668108
 21
58.4608694408
  0
LINE
  5
3F1
100
AcDbEntity
  8
0
100
AcDbLine
 62
7
  6
CONTINUOUS
 10
-15.9963449281
 20
60.0001400557
 11
-14.9736550719
 21
59.8506243167
  0
LINE
  5
3F2
100
AcDbEntity
  8
0
100
AcDbLine
 62
7
  6
CONTINUOUS
 10
-4.9625331892
 20
58.4608694408
 11
-18.0461772399
 21
60.3736787807
  0
LINE
  5
3F3
100
AcDbEntity
  8
RACCORDO
100
AcDbLine
 62
7
  6
CONTINUOUS
 10
-4.9625331892
 20
58.4608694408
 11
-18.0461772399
 21
60.3736787807
  0
LINE
  5
3F4
100
AcDbEntity
  8
ASSI
100
AcDbLine
 62
7
  6
CONTINUOUS
 10
-4.9625331892
 20
58.4608694408
 11
-18.0461772399
 21
60.3736787807
  0
LINE
  5
3F5
100
AcDbEntity
  8
DRAFT
100
AcDbLine
 62
7
  6
CONTINUOUS
 10
-4.9366680991
 20
58.2630405458
 11
-18.6202834861
 21
60.2958642352
  0
LINE
  5
3F6
100
AcDbEntity
  8
RACCORDO
100
AcDbLine
 62
7
  6
CONTINUOUS
 10
-4.9072788439
 20
58.4608694408
 11
-18.6055086643
 21
60.4958642352
  0
LINE
  5
3F7
100
AcDbEntity
  8
ASSI
100
AcDbLine
 62
7
  6
CONTINUOUS
 10
-4.9072788439
 20
58.4608694408
 11
-18.6055086643
 21
60.4958642352
  0
LINE
  5
3F8
100
AcDbEntity
  8
RACCORDO
100
AcDbLine
 62
7
  6
CONTINUOUS
 10
-4.9707346764
 20
59.6771874879
 11
-17.8892386994
 21
61.5963470277
  0
LINE
  5
3F9
100
AcDbEntity
  8
ASSI
100
AcDbLine
 62
7
  6
CONTINUOUS
 10
-4.9707346764
 20
59.6771874879
 11
-17.8892386994
 21
61.5963470277
  0
LINE
  5
3FA
100
AcDbEntity
  8
RACCORDO
100
AcDbLine
 62
7
  6
CONTINUOUS
 10
-4.6776219231
 20
59.9432025505
 11
-17.8666176846
 21
61.9025573501
  0
LINE
  5
3FB
100
AcDbEntity
  8
ASSI
100
AcDbLine
 62
7
  6
CONTINUOUS
 10
-4.6776219231
 20
59.9432025505
 11
-17.8666176846
 21
61.9025573501
  0
LWPOLYLINE
  5
3FC
100
AcDbEntity
  8
RACCORDO
100
AcDbPolyline
 62
7
  6
CONTINUOUS
 90
31
 70
0
 10
-4.6776219231
 20
59.9432025505
 10
-4.543072476
 20
59.9197293731
 10
-4.4096538629
 20
59.8901360188
 10
-4.2776443757
 20
59.8544729078
 10
-4.1472293662
 20
59.8127726762
 10
-4.0187765682
 20
59.7651335725
 10
-3.8928205202
 20
59.7117600419
 10
-3.7698094046
 20
59.6528882298
 10
-3.649779486
 20
59.588582927
 10
-3.5326468016
 20
59.5187990538
 10
-3.4184825426
 20
59.4435336125
 10
-3.3077301385
 20
59.3630325626
 10
-3.2008575648
 20
59.2776290999
 10
-3.0981760554
 20
59.1876026822
 10
-2.9997819442
 20
59.0930706321
 10
-2.9057941958
 20
58.994157457
 10
-2.8164073029
 20
58.8910677076
 10
-2.7318061037
 20
58.7840146981
 10
-2.6521030508
 20
58.6731288482
 10
-2.5774056286
 20
58.558517358
 10
-2.5079619736
 20
58.440516964
 10
-2.4440585917
 20
58.3196255972
 10
-2.3858975271
 20
58.1963083424
 10
-2.3334689297
 20
58.0706357695
 10
-2.2867360279
 20
57.9425199598
 10
-2.2457598131
 20
57.8120032577
 10
-2.2107321023
 20
57.6795545323
 10
-2.1818048313
 20
57.545725549
 10
-2.1590403223
 20
57.4108918036
 10
-2.1424531823
 20
57.275240931
 10
-2.1320667552
 20
57.1390547888
  0
LWPOLYLINE
  5
3FD
100
AcDbEntity
  8
ASSI
100
AcDbPolyline
 62
7
  6
CONTINUOUS
 90
31
 70
0
 10
-4.6776219231
 20
59.9432025505
 10
-4.543072476
 20
59.9197293731
 10
-4.4096538629
 20
59.8901360188
 10
-4.2776443757
 20
59.8544729078
 10
-4.1472293662
 20
59.8127726762
 10
-4.0187765682
 20
59.7651335725
 10
-3.8928205202
 20
59.7117600419
 10
-3.7698094046
 20
59.6528882298
 10
-3.649779486
 20
59.588582927
 10
-3.5326468016
 20
59.5187990538
 10
-3.4184825426
 20
59.4435336125
 10
-3.3077301385
 20
59.3630325626
 10
-3.2008575648
 20
59.2776290999
 10
-3.0981760554
 20
59.1876026822
 10
-2.9997819442
 20
59.0930706321
 10
-2.9057941958
 20
58.994157457
 10
-2.8164073029
 20
58.8910677076
 10
-2.7318061037
 20
58.7840146981
 10
-2.6521030508
 20
58.6731288482
 10
-2.5774056286
 20
58.558517358
 10
-2.5079619736
 20
58.440516964
 10
-2.4440585917
 20
58.3196255972
 10
-2.3858975271
 20
58.1963083424
 10
-2.3334689297
 20
58.0706357695
 10
-2.2867360279
 20
57.9425199598
 10
-2.2457598131
 20
57.8120032577
 10
-2.2107321023
 20
57.6795545323
 10
-2.1818048313
 20
57.545725549
 10
-2.1590403223
 20
57.4108918036
 10
-2.1424531823
 20
57.275240931
 10
-2.1320667552
 20
57.1390547888
  0
LINE
  5
3FE
100
AcDbEntity
  8
DRAFT
100
AcDbLine
 62
7
  6
CONTINUOUS
 10
-62.235
 20
60.3736787807
 11
-62.235
 21
60.2958642352
  0
LINE
  5
3FF
100
AcDbEntity
  8
ASSI
100
AcDbLine
 62
7
  6
CONTINUOUS
 10
-62.235
 20
60.3736787807
 11
-62.235
 21
60.2958642352
  0
LINE
  5
400
100
AcDbEntity
  8
DRAFT
100
AcDbLine
 62
7
  6
CONTINUOUS
 10
-62.235
 20
3.0463212193
 11
-62.235
 21
3.1241357648
  0
LINE
  5
401
100
AcDbEntity
  8
ASSI
100
AcDbLine
 62
7
  6
CONTINUOUS
 10
-62.235
 20
3.0463212193
 11
-62.235
 21
3.1241357648
  0
LINE
  5
402
100
AcDbEntity
  8
DRAFT
100
AcDbLine
 62
7
  6
CONTINUOUS
 10
-60.735
 20
60.3736787807
 11
-60.735
 21
60.2958642352
  0
LINE
  5
403
100
AcDbEntity
  8
ASSI
100
AcDbLine
 62
7
  6
CONTINUOUS
 10
-60.735
 20
60.3736787807
 11
-60.735
 21
60.2958642352
  0
LINE
  5
404
100
AcDbEntity
  8
DRAFT
100
AcDbLine
 62
7
  6
CONTINUOUS
 10
-60.735
 20
3.0463212193
 11
-60.735
 21
3.1241357648
  0
LINE
  5
405
100
AcDbEntity
  8
ASSI
100
AcDbLine
 62
7
  6
CONTINUOUS
 10
-60.735
 20
3.0463212193
 11
-60.735
 21
3.1241357648
  0
LINE
  5
406
100
AcDbEntity
  8
RACCORDO
100
AcDbLine
 62
253
  6
CONTINUOUS
 10
-4.9707346764
 20
59.6771874879
 11
-4.6776219231
 21
59.9432025505
  0
LINE
  5
407
100
AcDbEntity
  8
ASSI
100
AcDbLine
 62
253
  6
CONTINUOUS
 10
-4.9707346764
 20
59.6771874879
 11
-4.6776219231
 21
59.9432025505
  0
LINE
  5
408
100
AcDbEntity
  8
RACCORDO
100
AcDbLine
 62
253
  6
CONTINUOUS
 10
-4.9707346764
 20
3.7428125121
 11
-4.6818221837
 21
3.480610229
  0
LINE
  5
409
100
AcDbEntity
  8
ASSI
100
AcDbLine
 62
253
  6
CONTINUOUS
 10
-4.9707346764
 20
3.7428125121
 11
-4.6818221837
 21
3.480610229
  0
LINE
  5
40A
100
AcDbEntity
  8
RACCORDO
100
AcDbLine
 62
253
  6
CONTINUOUS
 10
-4.6818221837
 20
3.480610229
 11
-4.6776219231
 21
3.4767974495
  0
LINE
  5
40B
100
AcDbEntity
  8
ASSI
100
AcDbLine
 62
253
  6
CONTINUOUS
 10
-4.6818221837
 20
3.480610229
 11
-4.6776219231
 21
3.4767974495
  0
LINE
  5
40C
100
AcDbEntity
  8
DRAFT
100
AcDbLine
 62
7
  6
CONTINUOUS
 10
-54.0548202597
 20
60.2958642352
 11
-54.0548202597
 21
58.1401797403
  0
LINE
  5
40D
100
AcDbEntity
  8
DRAFT
100
AcDbLine
 62
7
  6
CONTINUOUS
 10
-54.0548202597
 20
3.1241357648
 11
-54.0548202597
 21
5.2798202597
  0
LINE
  5
40E
100
AcDbEntity
  8
DRAFT
100
AcDbLine
 62
7
  6
CONTINUOUS
 10
-53.985
 20
60.2260439755
 11
-53.985
 21
58.21
  0
LINE
  5
40F
100
AcDbEntity
  8
DRAFT
100
AcDbLine
 62
7
  6
CONTINUOUS
 10
-53.985
 20
3.1939560245
 11
-53.985
 21
5.21
  0
LINE
  5
410
100
AcDbEntity
  8
0
100
AcDbLine
 62
7
  6
CONTINUOUS
 10
-53.735
 20
2.9241357648
 11
-53.735
 21
4.71
  0
LINE
  5
411
100
AcDbEntity
  8
ASSI
100
AcDbLine
 62
7
  6
CONTINUOUS
 10
-53.735
 20
2.9241357648
 11
-53.735
 21
4.71
  0
LINE
  5
412
100
AcDbEntity
  8
0
100
AcDbLine
 62
7
  6
CONTINUOUS
 10
-53.735
 20
58.71
 11
-53.735
 21
60.4958642352
  0
LINE
  5
413
100
AcDbEntity
  8
ASSI
100
AcDbLine
 62
7
  6
CONTINUOUS
 10
-53.735
 20
58.71
 11
-53.735
 21
60.4958642352
  0
LINE
  5
414
100
AcDbEntity
  8
DRAFT
100
AcDbLine
 62
7
  6
CONTINUOUS
 10
-60.6960956904
 20
3.1241357648
 11
-60.735
 21
3.0463212193
  0
LINE
  5
415
100
AcDbEntity
  8
ASSI
100
AcDbLine
 62
7
  6
CONTINUOUS
 10
-60.6960956904
 20
3.1241357648
 11
-60.735
 21
3.0463212193
  0
LINE
  5
416
100
AcDbEntity
  8
DRAFT
100
AcDbLine
 62
7
  6
CONTINUOUS
 10
-54.0548202597
 20
3.1241357648
 11
-53.985
 21
3.1939560245
  0
LINE
  5
417
100
AcDbEntity
  8
RACCORDO
100
AcDbLine
 62
253
  6
CONTINUOUS
 10
-2.4251030902
 20
56.871532919
 11
-2.1320667552
 21
57.1390547888
  0
LINE
  5
418
100
AcDbEntity
  8
ASSI
100
AcDbLine
 62
253
  6
CONTINUOUS
 10
-2.4251030902
 20
56.871532919
 11
-2.1320667552
 21
57.1390547888
  0
LINE
  5
419
100
AcDbEntity
  8
RACCORDO
100
AcDbLine
 62
253
  6
CONTINUOUS
 10
-2.4251030902
 20
6.548467081
 11
-2.1362960157
 21
6.2848071418
  0
LINE
  5
41A
100
AcDbEntity
  8
ASSI
100
AcDbLine
 62
253
  6
CONTINUOUS
 10
-2.4251030902
 20
6.548467081
 11
-2.1362960157
 21
6.2848071418
  0
LINE
  5
41B
100
AcDbEntity
  8
RACCORDO
100
AcDbLine
 62
253
  6
CONTINUOUS
 10
-2.1362960157
 20
6.2848071418
 11
-2.1320667552
 21
6.2809452112
  0
LINE
  5
41C
100
AcDbEntity
  8
ASSI
100
AcDbLine
 62
253
  6
CONTINUOUS
 10
-2.1362960157
 20
6.2848071418
 11
-2.1320667552
 21
6.2809452112
  0
LINE
  5
41D
100
AcDbEntity
  8
DRAFT
100
AcDbLine
 62
7
  6
CONTINUOUS
 10
-54.0548202597
 20
60.2958642352
 11
-53.985
 21
60.2260439755
  0
LINE
  5
41E
100
AcDbEntity
  8
DRAFT
100
AcDbLine
 62
7
  6
CONTINUOUS
 10
-60.6960956904
 20
60.2958642352
 11
-60.735
 21
60.3736787807
  0
LINE
  5
41F
100
AcDbEntity
  8
ASSI
100
AcDbLine
 62
7
  6
CONTINUOUS
 10
-60.6960956904
 20
60.2958642352
 11
-60.735
 21
60.3736787807
  0
LINE
  5
420
100
AcDbEntity
  8
0
100
AcDbLine
 62
7
  6
CONTINUOUS
 10
-47.235
 20
2.9241357648
 11
-47.235
 21
4.71
  0
LINE
  5
421
100
AcDbEntity
  8
ASSI
100
AcDbLine
 62
7
  6
CONTINUOUS
 10
-47.235
 20
2.9241357648
 11
-47.235
 21
4.71
  0
LINE
  5
422
100
AcDbEntity
  8
0
100
AcDbLine
 62
7
  6
CONTINUOUS
 10
-47.235
 20
58.71
 11
-47.235
 21
60.4958642352
  0
LINE
  5
423
100
AcDbEntity
  8
ASSI
100
AcDbLine
 62
7
  6
CONTINUOUS
 10
-47.235
 20
58.71
 11
-47.235
 21
60.4958642352
  0
LINE
  5
424
100
AcDbEntity
  8
DRAFT
100
AcDbLine
 62
7
  6
CONTINUOUS
 10
-46.985
 20
60.2260439755
 11
-46.985
 21
58.21
  0
LINE
  5
425
100
AcDbEntity
  8
DRAFT
100
AcDbLine
 62
7
  6
CONTINUOUS
 10
-46.985
 20
3.1939560245
 11
-46.985
 21
5.21
  0
LINE
  5
426
100
AcDbEntity
  8
DRAFT
100
AcDbLine
 62
7
  6
CONTINUOUS
 10
-46.9151797403
 20
60.2958642352
 11
-46.9151797403
 21
58.1401797403
  0
LINE
  5
427
100
AcDbEntity
  8
DRAFT
100
AcDbLine
 62
7
  6
CONTINUOUS
 10
-46.9151797403
 20
3.1241357648
 11
-46.9151797403
 21
5.2798202597
  0
LINE
  5
428
100
AcDbEntity
  8
DRAFT
100
AcDbLine
 62
7
  6
CONTINUOUS
 10
-46.985
 20
5.21
 11
-46.9151797403
 21
5.2798202597
  0
LINE
  5
429
100
AcDbEntity
  8
DRAFT
100
AcDbLine
 62
7
  6
CONTINUOUS
 10
-46.985
 20
58.21
 11
-46.9151797403
 21
58.1401797403
  0
LINE
  5
42A
100
AcDbEntity
  8
0
100
AcDbLine
 62
253
  6
CONTINUOUS
 10
-30.485
 20
60.3911311871
 11
-30.485
 21
60.2958642352
  0
LINE
  5
42B
100
AcDbEntity
  8
ASSI
100
AcDbLine
 62
253
  6
CONTINUOUS
 10
-30.485
 20
60.3911311871
 11
-30.485
 21
60.2958642352
  0
LINE
  5
42C
100
AcDbEntity
  8
0
100
AcDbLine
 62
253
  6
CONTINUOUS
 10
-30.485
 20
3.0288688129
 11
-30.485
 21
3.1241357648
  0
LINE
  5
42D
100
AcDbEntity
  8
ASSI
100
AcDbLine
 62
253
  6
CONTINUOUS
 10
-30.485
 20
3.0288688129
 11
-30.485
 21
3.1241357648
  0
LINE
  5
42E
100
AcDbEntity
  8
0
100
AcDbLine
 62
7
  6
CONTINUOUS
 10
-29.985
 20
60.3911311871
 11
-29.985
 21
60.2958642352
  0
LINE
  5
42F
100
AcDbEntity
  8
ASSI
100
AcDbLine
 62
7
  6
CONTINUOUS
 10
-29.985
 20
60.3911311871
 11
-29.985
 21
60.2958642352
  0
LINE
  5
430
100
AcDbEntity
  8
0
100
AcDbLine
 62
7
  6
CONTINUOUS
 10
-29.985
 20
3.0288688129
 11
-29.985
 21
3.1241357648
  0
LINE
  5
431
100
AcDbEntity
  8
ASSI
100
AcDbLine
 62
7
  6
CONTINUOUS
 10
-29.985
 20
3.0288688129
 11
-29.985
 21
3.1241357648
  0
LINE
  5
432
100
AcDbEntity
  8
0
100
AcDbLine
 62
7
  6
CONTINUOUS
 10
-16.0274486398
 20
59.9106753835
 11
-15.9963449281
 21
60.0001400557
  0
LINE
  5
433
100
AcDbEntity
  8
RACCORDO
100
AcDbLine
 62
253
  6
CONTINUOUS
 10
-18.3057789872
 20
1.485
 11
-18.3284000019
 21
1.7912103223
  0
LINE
  5
434
100
AcDbEntity
  8
ASSI
100
AcDbLine
 62
253
  6
CONTINUOUS
 10
-18.3057789872
 20
1.485
 11
-18.3284000019
 21
1.7912103223
  0
LINE
  5
435
100
AcDbEntity
  8
RACCORDO
100
AcDbLine
 62
253
  6
CONTINUOUS
 10
-17.8666176846
 20
1.5174426499
 11
-17.8892386994
 21
1.8236529723
  0
LINE
  5
436
100
AcDbEntity
  8
ASSI
100
AcDbLine
 62
253
  6
CONTINUOUS
 10
-17.8666176846
 20
1.5174426499
 11
-17.8892386994
 21
1.8236529723
  0
LINE
  5
437
100
AcDbEntity
  8
RACCORDO
100
AcDbLine
 62
253
  6
CONTINUOUS
 10
-18.3284000019
 20
61.6287896777
 11
-18.3057789872
 21
61.935
  0
LINE
  5
438
100
AcDbEntity
  8
ASSI
100
AcDbLine
 62
253
  6
CONTINUOUS
 10
-18.3284000019
 20
61.6287896777
 11
-18.3057789872
 21
61.935
  0
LINE
  5
439
100
AcDbEntity
  8
RACCORDO
100
AcDbLine
 62
253
  6
CONTINUOUS
 10
-17.8892386994
 20
61.5963470277
 11
-17.8666176846
 21
61.9025573501
  0
LINE
  5
43A
100
AcDbEntity
  8
ASSI
100
AcDbLine
 62
253
  6
CONTINUOUS
 10
-17.8892386994
 20
61.5963470277
 11
-17.8666176846
 21
61.9025573501
  0
LINE
  5
43B
100
AcDbEntity
  8
0
100
AcDbLine
 62
7
  6
CONTINUOUS
 10
-15.9963449281
 20
60.0001400557
 11
-15.9963449281
 21
59.9060546484
  0
LINE
  5
43C
100
AcDbEntity
  8
0
100
AcDbLine
 62
7
  6
CONTINUOUS
 10
-14.9736550719
 20
59.7541249055
 11
-14.9736550719
 21
59.8506243167
  0
LWPOLYLINE
  5
43D
100
AcDbEntity
  8
RACCORDO
100
AcDbPolyline
 62
7
  6
CONTINUOUS
 90
31
 70
0
 10
-2.4251030902
 20
56.871532919
 10
-2.4350596453
 20
57.0079436505
 10
-2.4512136464
 20
57.1434654235
 10
-2.4735650936
 20
57.2780982378
 10
-2.5022174284
 20
57.4122765388
 10
-2.5370672093
 20
57.5455658812
 10
-2.5778041111
 20
57.6766629293
 10
-2.6244694182
 20
57.8054071477
 10
-2.6770218463
 20
57.9319590717
 10
-2.7350272169
 20
58.0554969721
 10
-2.7983705266
 20
58.1758152449
 10
-2.8671667789
 20
58.293119494
 10
-2.9413268058
 20
58.4072048023
 10
-3.0210536626
 20
58.5183400315
 10
-3.106144294
 20
58.6262563199
 10
-3.1959003659
 20
58.7299421653
 10
-3.2904030339
 20
58.8293259942
 10
-3.3895711424
 20
58.9244793801
 10
-3.4924628905
 20
59.0146055407
 10
-3.5988320638
 20
59.099476215
 10
-3.7089248767
 20
59.1793196641
 10
-3.8225381709
 20
59.2540238894
 10
-3.939860409
 20
59.3237201933
 10
-4.0607031285
 20
59.3882772733
 10
-4.1842977832
 20
59.4471892231
 10
-4.3108098422
 20
59.5004323656
 10
-4.4400738364
 20
59.5480303778
 10
-4.5708248123
 20
59.5895483837
 10
-4.7026411187
 20
59.6248414247
 10
-4.8359444067
 20
59.6540544594
 10
-4.9707346764
 20
59.6771874879
  0
LWPOLYLINE
  5
43E
100
AcDbEntity
  8
ASSI
100
AcDbPolyline
 62
7
  6
CONTINUOUS
 90
31
 70
0
 10
-2.4251030902
 20
56.871532919
 10
-2.4350596453
 20
57.0079436505
 10
-2.4512136464
 20
57.1434654235
 10
-2.4735650936
 20
57.2780982378
 10
-2.5022174284
 20
57.4122765388
 10
-2.5370672093
 20
57.5455658812
 10
-2.5778041111
 20
57.6766629293
 10
-2.6244694182
 20
57.8054071477
 10
-2.6770218463
 20
57.9319590717
 10
-2.7350272169
 20
58.0554969721
 10
-2.7983705266
 20
58.1758152449
 10
-2.8671667789
 20
58.293119494
 10
-2.9413268058
 20
58.4072048023
 10
-3.0210536626
 20
58.5183400315
 10
-3.106144294
 20
58.6262563199
 10
-3.1959003659
 20
58.7299421653
 10
-3.2904030339
 20
58.8293259942
 10
-3.3895711424
 20
58.9244793801
 10
-3.4924628905
 20
59.0146055407
 10
-3.5988320638
 20
59.099476215
 10
-3.7089248767
 20
59.1793196641
 10
-3.8225381709
 20
59.2540238894
 10
-3.939860409
 20
59.3237201933
 10
-4.0607031285
 20
59.3882772733
 10
-4.1842977832
 20
59.4471892231
 10
-4.3108098422
 20
59.5004323656
 10
-4.4400738364
 20
59.5480303778
 10
-4.5708248123
 20
59.5895483837
 10
-4.7026411187
 20
59.6248414247
 10
-4.8359444067
 20
59.6540544594
 10
-4.9707346764
 20
59.6771874879
  0
LINE
  5
43F
100
AcDbEntity
  8
RACCORDO
100
AcDbLine
 62
7
  6
CONTINUOUS
 10
-2.131596864
 20
57.1300467437
 11
-2.1320667552
 21
57.1390547888
  0
LINE
  5
440
100
AcDbEntity
  8
ASSI
100
AcDbLine
 62
7
  6
CONTINUOUS
 10
-2.131596864
 20
57.1300467437
 11
-2.1320667552
 21
57.1390547888
  0
LINE
  5
441
100
AcDbEntity
  8
0
100
AcDbLine
 62
7
  6
CONTINUOUS
 10
-3.6537662052
 20
56.8496405194
 11
-3.6541838319
 21
56.8577784707
  0
LINE
  5
442
100
AcDbEntity
  8
ASSI
100
AcDbLine
 62
7
  6
CONTINUOUS
 10
-11.285
 20
10.21
 11
-11.285
 21
14.21
  0
LINE
  5
443
100
AcDbEntity
  8
ASSI
100
AcDbLine
 62
7
  6
CONTINUOUS
 10
-7.285
 20
14.21
 11
-7.285
 21
10.21
  0
LINE
  5
444
100
AcDbEntity
  8
0
100
AcDbLine
 62
7
  6
CONTINUOUS
 10
-3.6541838319
 20
6.5622215289
 11
-3.6537662052
 21
6.5703594806
  0
LINE
  5
445
100
AcDbEntity
  8
RACCORDO
100
AcDbLine
 62
7
  6
CONTINUOUS
 10
-2.1320667552
 20
6.2809452112
 11
-2.131596864
 21
6.2899532563
  0
LINE
  5
446
100
AcDbEntity
  8
ASSI
100
AcDbLine
 62
7
  6
CONTINUOUS
 10
-2.1320667552
 20
6.2809452112
 11
-2.131596864
 21
6.2899532563
  0
LWPOLYLINE
  5
447
100
AcDbEntity
  8
RACCORDO
100
AcDbPolyline
 62
7
  6
CONTINUOUS
 90
31
 70
0
 10
-2.1320667552
 20
6.2809452112
 10
-2.1424531823
 20
6.144759069
 10
-2.1590403223
 20
6.0091081964
 10
-2.1818048313
 20
5.874274451
 10
-2.2107321023
 20
5.7404454677
 10
-2.2457598131
 20
5.6079967423
 10
-2.2867360279
 20
5.4774800402
 10
-2.3334689297
 20
5.3493642305
 10
-2.3858975271
 20
5.2236916576
 10
-2.4440585917
 20
5.1003744028
 10
-2.5079619736
 20
4.979483036
 10
-2.5774056286
 20
4.861482642
 10
-2.6521030508
 20
4.7468711518
 10
-2.7318061037
 20
4.6359853019
 10
-2.8164073029
 20
4.5289322924
 10
-2.9057941958
 20
4.425842543
 10
-2.9997819442
 20
4.3269293679
 10
-3.0981760554
 20
4.2323973178
 10
-3.2008575648
 20
4.1423709001
 10
-3.3077301385
 20
4.0569674374
 10
-3.4184825426
 20
3.9764663875
 10
-3.5326468016
 20
3.9012009462
 10
-3.649779486
 20
3.831417073
 10
-3.7698094046
 20
3.7671117702
 10
-3.8928205202
 20
3.7082399581
 10
-4.0187765682
 20
3.6548664275
 10
-4.1472293662
 20
3.6072273238
 10
-4.2776443757
 20
3.5655270922
 10
-4.4096538629
 20
3.5298639812
 10
-4.543072476
 20
3.5002706269
 10
-4.6776219231
 20
3.4767974495
  0
LWPOLYLINE
  5
448
100
AcDbEntity
  8
ASSI
100
AcDbPolyline
 62
7
  6
CONTINUOUS
 90
31
 70
0
 10
-2.1320667552
 20
6.2809452112
 10
-2.1424531823
 20
6.144759069
 10
-2.1590403223
 20
6.0091081964
 10
-2.1818048313
 20
5.874274451
 10
-2.2107321023
 20
5.7404454677
 10
-2.2457598131
 20
5.6079967423
 10
-2.2867360279
 20
5.4774800402
 10
-2.3334689297
 20
5.3493642305
 10
-2.3858975271
 20
5.2236916576
 10
-2.4440585917
 20
5.1003744028
 10
-2.5079619736
 20
4.979483036
 10
-2.5774056286
 20
4.861482642
 10
-2.6521030508
 20
4.7468711518
 10
-2.7318061037
 20
4.6359853019
 10
-2.8164073029
 20
4.5289322924
 10
-2.9057941958
 20
4.425842543
 10
-2.9997819442
 20
4.3269293679
 10
-3.0981760554
 20
4.2323973178
 10
-3.2008575648
 20
4.1423709001
 10
-3.3077301385
 20
4.0569674374
 10
-3.4184825426
 20
3.9764663875
 10
-3.5326468016
 20
3.9012009462
 10
-3.649779486
 20
3.831417073
 10
-3.7698094046
 20
3.7671117702
 10
-3.8928205202
 20
3.7082399581
 10
-4.0187765682
 20
3.6548664275
 10
-4.1472293662
 20
3.6072273238
 10
-4.2776443757
 20
3.5655270922
 10
-4.4096538629
 20
3.5298639812
 10
-4.543072476
 20
3.5002706269
 10
-4.6776219231
 20
3.4767974495
  0
LINE
  5
449
100
AcDbEntity
  8
0
100
AcDbLine
 62
7
  6
CONTINUOUS
 10
-14.941703448
 20
59.7493782055
 11
-14.9736550719
 21
59.8506243167
  0
ARC
  5
44A
100
AcDbEntity
  8
RACCORDO
100
AcDbCircle
 62
7
  6
CONTINUOUS
 10
280.515
 20
31.71
 40
500.0
100
AcDbArc
 50
177.0858209054
 51
182.9141790946
  0
ARC
  5
44B
100
AcDbEntity
  8
RACCORDO
100
AcDbCircle
 62
7
  6
CONTINUOUS
 10
-501.485
 20
31.71
 40
500.0
100
AcDbArc
 50
357.0858209054
 51
2.9141790946
  0
ARC
  5
44C
100
AcDbEntity
  8
ASSI
100
AcDbCircle
 62
7
  6
CONTINUOUS
 10
280.515
 20
31.71
 40
500.0
100
AcDbArc
 50
177.0858209054
 51
182.9141790946
  0
ARC
  5
44D
100
AcDbEntity
  8
ASSI
100
AcDbCircle
 62
7
  6
CONTINUOUS
 10
-501.485
 20
31.71
 40
500.0
100
AcDbArc
 50
357.0858209054
 51
2.9141790946
  0
ARC
  5
44E
100
AcDbEntity
  8
RACCORDO
100
AcDbCircle
 62
7
  6
CONTINUOUS
 10
280.515
 20
31.71
 40
499.6937896777
100
AcDbArc
 50
177.1137132597
 51
182.8862867403
  0
ARC
  5
44F
100
AcDbEntity
  8
RACCORDO
100
AcDbCircle
 62
7
  6
CONTINUOUS
 10
-501.485
 20
31.71
 40
499.6937896777
100
AcDbArc
 50
357.1137132597
 51
2.8862867403
  0
ARC
  5
450
100
AcDbEntity
  8
ASSI
100
AcDbCircle
 62
7
  6
CONTINUOUS
 10
-501.485
 20
31.71
 40
499.6937896777
100
AcDbArc
 50
357.1137132597
 51
2.8862867403
  0
ARC
  5
451
100
AcDbEntity
  8
ASSI
100
AcDbCircle
 62
7
  6
CONTINUOUS
 10
280.515
 20
31.71
 40
499.6937896777
100
AcDbArc
 50
177.1137132597
 51
182.8862867403
  0
ARC
  5
452
100
AcDbEntity
  8
RACCORDO
100
AcDbCircle
 62
7
  6
CONTINUOUS
 10
280.515
 20
31.71
 40
498.5
100
AcDbArc
 50
177.0858640466
 51
182.9141359534
  0
ARC
  5
453
100
AcDbEntity
  8
RACCORDO
100
AcDbCircle
 62
7
  6
CONTINUOUS
 10
-501.485
 20
31.71
 40
498.5
100
AcDbArc
 50
357.0858640466
 51
2.9141359534
  0
ARC
  5
454
100
AcDbEntity
  8
ASSI
100
AcDbCircle
 62
7
  6
CONTINUOUS
 10
280.515
 20
31.71
 40
498.5
100
AcDbArc
 50
177.0858640466
 51
182.9141359534
  0
ARC
  5
455
100
AcDbEntity
  8
ASSI
100
AcDbCircle
 62
7
  6
CONTINUOUS
 10
-501.485
 20
31.71
 40
498.5
100
AcDbArc
 50
357.0858640466
 51
2.9141359534
  0
ARC
  5
456
100
AcDbEntity
  8
DRAFT
100
AcDbCircle
 62
7
  6
CONTINUOUS
 10
-501.485
 20
31.71
 40
498.3
100
AcDbArc
 50
357.0858640466
 51
2.9141359534
  0
ARC
  5
457
100
AcDbEntity
  8
DRAFT
100
AcDbCircle
 62
7
  6
CONTINUOUS
 10
280.515
 20
31.71
 40
498.3
100
AcDbArc
 50
177.0858640466
 51
182.9141359534
  0
CIRCLE
  5
458
100
AcDbEntity
  8
ASSI
100
AcDbCircle
 62
7
  6
CONTINUOUS
 10
-211.685
 20
53.21
 40
2.0
  0
ARC
  5
459
100
AcDbEntity
  8
ASSI
100
AcDbCircle
 62
7
  6
CONTINUOUS
 10
-9.285
 20
10.21
 40
2.0
100
AcDbArc
 50
180.0
 51
360.0
  0
ARC
  5
45A
100
AcDbEntity
  8
ASSI
100
AcDbCircle
 62
7
  6
CONTINUOUS
 10
-9.285
 20
14.21
 40
2.0
100
AcDbArc
 50
0.0
 51
180.0
  0
ARC
  5
45B
100
AcDbEntity
  8
RACCORDO
100
AcDbCircle
 62
7
  6
CONTINUOUS
 10
-215.8423017424
 20
6.4428472714
 40
1.5
100
AcDbArc
 50
182.9141359534
 51
261.55
  0
ARC
  5
45C
100
AcDbEntity
  8
RACCORDO
100
AcDbCircle
 62
7
  6
CONTINUOUS
 10
-215.8423017424
 20
56.9771527286
 40
1.5
100
AcDbArc
 50
98.45
 51
177.0858640466
  0
ARC
  5
45D
100
AcDbEntity
  8
RACCORDO
100
AcDbCircle
 62
7
  6
CONTINUOUS
 10
-5.1276982576
 20
56.9771527286
 40
1.5
100
AcDbArc
 50
2.9141359534
 51
81.55
  0
ARC
  5
45E
100
AcDbEntity
  8
RACCORDO
100
AcDbCircle
 62
7
  6
CONTINUOUS
 10
-5.1276982576
 20
6.4428472714
 40
1.5
100
AcDbArc
 50
278.45
 51
357.0858640466
  0
ARC
  5
45F
100
AcDbEntity
  8
ASSI
100
AcDbCircle
 62
7
  6
CONTINUOUS
 10
-5.1276982576
 20
6.4428472714
 40
1.5
100
AcDbArc
 50
278.45
 51
357.0858640466
  0
ARC
  5
460
100
AcDbEntity
  8
ASSI
100
AcDbCircle
 62
7
  6
CONTINUOUS
 10
-5.1276982576
 20
56.9771527286
 40
1.5
100
AcDbArc
 50
2.9141359534
 51
81.55
  0
ARC
  5
461
100
AcDbEntity
  8
ASSI
100
AcDbCircle
 62
7
  6
CONTINUOUS
 10
-215.8423017424
 20
56.9771527286
 40
1.5
100
AcDbArc
 50
98.45
 51
177.0858640466
  0
ARC
  5
462
100
AcDbEntity
  8
ASSI
100
AcDbCircle
 62
7
  6
CONTINUOUS
 10
-215.8423017424
 20
6.4428472714
 40
1.5
100
AcDbArc
 50
182.9141359534
 51
261.55
  0
ARC
  5
463
100
AcDbEntity
  8
DRAFT
100
AcDbCircle
 62
7
  6
CONTINUOUS
 10
-5.1276982576
 20
56.9771527286
 40
1.3
100
AcDbArc
 50
2.9141359534
 51
81.55
  0
ARC
  5
464
100
AcDbEntity
  8
DRAFT
100
AcDbCircle
 62
7
  6
CONTINUOUS
 10
-5.1276982576
 20
6.4428472714
 40
1.3
100
AcDbArc
 50
278.45
 51
357.0858640466
  0
ARC
  5
465
100
AcDbEntity
  8
DRAFT
100
AcDbCircle
 62
7
  6
CONTINUOUS
 10
-215.8423017424
 20
6.4428472714
 40
1.3
100
AcDbArc
 50
182.9141359534
 51
261.55
  0
ARC
  5
466
100
AcDbEntity
  8
DRAFT
100
AcDbCircle
 62
7
  6
CONTINUOUS
 10
-215.8423017424
 20
56.9771527286
 40
1.3
100
AcDbArc
 50
98.45
 51
177.0858640466
  0
ELLIPSE
  5
467
100
AcDbEntity
  8
0
100
AcDbEllipse
 62
7
  6
CONTINUOUS
 10
288.5877415558
 20
31.71
 30
0.0
 11
-506.5485233311
 21
0.0
 31
0.0
 40
0.9841110516
 41
6.3336536263
 42
6.3340465744
  0
ELLIPSE
  5
468
100
AcDbEntity
  8
0
100
AcDbEllipse
 62
7
  6
CONTINUOUS
 10
-215.7834886192
 20
56.9771527286
 30
0.0
 11
1.5242182247
 21
-0.0
 31
0.0
 40
0.9841110516
 41
1.7182766486
 42
3.0907313864
  0
ELLIPSE
  5
469
100
AcDbEntity
  8
0
100
AcDbEllipse
 62
7
  6
CONTINUOUS
 10
548.4385369841
 20
31.71
 30
0.0
 11
5177.4812061315
 21
-496.1518584059
 31
0.0
 40
0.0093342442
 41
-1.7183473948
 42
-1.71831501
  0
ELLIPSE
  5
46A
100
AcDbEntity
  8
0
100
AcDbEllipse
 62
7
  6
CONTINUOUS
 10
-215.7834886192
 20
6.4428472714
 30
0.0
 11
1.5242182247
 21
-0.0
 31
0.0
 40
0.9841110516
 41
-3.0907313864
 42
-1.7182766486
  0
ELLIPSE
  5
46B
100
AcDbEntity
  8
0
100
AcDbEllipse
 62
7
  6
CONTINUOUS
 10
548.4385369841
 20
31.71
 30
0.0
 11
5177.4812061315
 21
496.1518584059
 31
0.0
 40
0.0093342442
 41
1.71831501
 42
1.7183473948
  0
ELLIPSE
  5
46C
100
AcDbEntity
  8
0
100
AcDbEllipse
 62
7
  6
CONTINUOUS
 10
288.5877415558
 20
31.71
 30
0.0
 11
-506.5485233311
 21
0.0
 31
0.0
 40
0.9841110516
 41
-0.0060178492
 42
0.0060178492
  0
ELLIPSE
  5
46D
100
AcDbEntity
  8
0
100
AcDbEllipse
 62
7
  6
CONTINUOUS
 10
288.5877415558
 20
31.71
 30
0.0
 11
-506.5485233311
 21
0.0
 31
0.0
 40
0.9841110516
 41
6.2323240399
 42
6.232716988
  0
ELLIPSE
  5
46E
100
AcDbEntity
  8
0
100
AcDbEllipse
 62
7
  6
CONTINUOUS
 10
-5.1865113808
 20
6.4428472714
 30
0.0
 11
1.5242182247
 21
0.0
 31
0.0
 40
0.9841110516
 41
-1.423316005
 42
-0.0508612672
  0
ELLIPSE
  5
46F
100
AcDbEntity
  8
0
100
AcDbEllipse
 62
7
  6
CONTINUOUS
 10
-769.4085369841
 20
31.71
 30
0.0
 11
5177.4812061315
 21
-496.1518584059
 31
0.0
 40
0.0093342442
 41
1.4232452588
 42
1.4232776436
  0
ELLIPSE
  5
470
100
AcDbEntity
  8
0
100
AcDbEllipse
 62
7
  6
CONTINUOUS
 10
-5.1865113808
 20
56.9771527286
 30
0.0
 11
1.5242182247
 21
0.0
 31
0.0
 40
0.9841110516
 41
0.0508612672
 42
1.423316005
  0
ELLIPSE
  5
471
100
AcDbEntity
  8
0
100
AcDbEllipse
 62
7
  6
CONTINUOUS
 10
-769.4085369841
 20
31.71
 30
0.0
 11
5177.4812061315
 21
496.1518584059
 31
0.0
 40
0.0093342442
 41
-1.4232776436
 42
-1.4232452588
  0
ELLIPSE
  5
472
100
AcDbEntity
  8
RACCORDO
100
AcDbEllipse
 62
7
  6
CONTINUOUS
 10
-165.485
 20
60.3116291542
 30
0.0
 11
0.5548207204
 21
0.0
 31
0.0
 40
0.0174550649
 41
0.0087266463
 42
3.1328660073
  0
ELLIPSE
  5
473
100
AcDbEntity
  8
RACCORDO
100
AcDbEllipse
 62
7
  6
CONTINUOUS
 10
-165.485
 20
3.1083708458
 30
0.0
 11
0.5548207204
 21
-0.0
 31
0.0
 40
0.0174550649
 41
-3.1328660073
 42
-0.0087266463
  0
ELLIPSE
  5
474
100
AcDbEntity
  8
RACCORDO
100
AcDbEllipse
 62
7
  6
CONTINUOUS
 10
-161.485
 20
60.3116291542
 30
0.0
 11
0.5548207204
 21
0.0
 31
0.0
 40
0.0174550649
 41
0.0087266463
 42
3.1328660073
  0
ELLIPSE
  5
475
100
AcDbEntity
  8
RACCORDO
100
AcDbEllipse
 62
7
  6
CONTINUOUS
 10
-161.485
 20
3.1083708458
 30
0.0
 11
0.5548207204
 21
-0.0
 31
0.0
 40
0.0174550649
 41
-3.1328660073
 42
-0.0087266463
  0
ELLIPSE
  5
476
100
AcDbEntity
  8
RACCORDO
100
AcDbEllipse
 62
7
  6
CONTINUOUS
 10
-157.485
 20
60.3116291542
 30
0.0
 11
0.5548207204
 21
0.0
 31
0.0
 40
0.0174550649
 41
0.0087266463
 42
3.1328660073
  0
ELLIPSE
  5
477
100
AcDbEntity
  8
RACCORDO
100
AcDbEllipse
 62
7
  6
CONTINUOUS
 10
-157.485
 20
3.1083708458
 30
0.0
 11
0.5548207204
 21
-0.0
 31
0.0
 40
0.0174550649
 41
-3.1328660073
 42
-0.0087266463
  0
ELLIPSE
  5
478
100
AcDbEntity
  8
RACCORDO
100
AcDbEllipse
 62
7
  6
CONTINUOUS
 10
-153.485
 20
60.3116291542
 30
0.0
 11
0.5548207204
 21
0.0
 31
0.0
 40
0.0174550649
 41
0.0087266463
 42
3.1328660073
  0
ELLIPSE
  5
479
100
AcDbEntity
  8
RACCORDO
100
AcDbEllipse
 62
7
  6
CONTINUOUS
 10
-153.485
 20
3.1083708458
 30
0.0
 11
0.5548207204
 21
-0.0
 31
0.0
 40
0.0174550649
 41
-3.1328660073
 42
-0.0087266463
  0
ELLIPSE
  5
47A
100
AcDbEntity
  8
RACCORDO
100
AcDbEllipse
 62
7
  6
CONTINUOUS
 10
-149.485
 20
60.3116291542
 30
0.0
 11
0.5548207204
 21
-0.0
 31
0.0
 40
0.0174550649
 41
0.0087266463
 42
3.1328660073
  0
ELLIPSE
  5
47B
100
AcDbEntity
  8
RACCORDO
100
AcDbEllipse
 62
7
  6
CONTINUOUS
 10
-149.485
 20
3.1083708458
 30
0.0
 11
0.5548207204
 21
-0.0
 31
0.0
 40
0.0174550649
 41
-3.1328660073
 42
-0.0087266463
  0
ELLIPSE
  5
47C
100
AcDbEntity
  8
RACCORDO
100
AcDbEllipse
 62
7
  6
CONTINUOUS
 10
-145.485
 20
60.3116291542
 30
0.0
 11
0.5548207204
 21
0.0
 31
0.0
 40
0.0174550649
 41
0.0087266463
 42
3.1328660073
  0
ELLIPSE
  5
47D
100
AcDbEntity
  8
RACCORDO
100
AcDbEllipse
 62
7
  6
CONTINUOUS
 10
-145.485
 20
3.1083708458
 30
0.0
 11
0.5548207204
 21
0.0
 31
0.0
 40
0.0174550649
 41
-3.1328660073
 42
-0.0087266463
  0
ELLIPSE
  5
47E
100
AcDbEntity
  8
RACCORDO
100
AcDbEllipse
 62
7
  6
CONTINUOUS
 10
-141.485
 20
60.3116291542
 30
0.0
 11
0.5548207204
 21
0.0
 31
0.0
 40
0.0174550649
 41
0.0087266463
 42
3.1328660073
  0
ELLIPSE
  5
47F
100
AcDbEntity
  8
RACCORDO
100
AcDbEllipse
 62
7
  6
CONTINUOUS
 10
-141.485
 20
3.1083708458
 30
0.0
 11
0.5548207204
 21
-0.0
 31
0.0
 40
0.0174550649
 41
-3.1328660073
 42
-0.0087266463
  0
ELLIPSE
  5
480
100
AcDbEntity
  8
RACCORDO
100
AcDbEllipse
 62
7
  6
CONTINUOUS
 10
-137.485
 20
60.3116291542
 30
0.0
 11
0.5548207204
 21
0.0
 31
0.0
 40
0.0174550649
 41
0.0087266463
 42
3.1328660073
  0
ELLIPSE
  5
481
100
AcDbEntity
  8
RACCORDO
100
AcDbEllipse
 62
7
  6
CONTINUOUS
 10
-137.485
 20
3.1083708458
 30
0.0
 11
0.5548207204
 21
-0.0
 31
0.0
 40
0.0174550649
 41
-3.1328660073
 42
-0.0087266463
  0
ELLIPSE
  5
482
100
AcDbEntity
  8
RACCORDO
100
AcDbEllipse
 62
7
  6
CONTINUOUS
 10
-133.485
 20
60.3116291542
 30
0.0
 11
0.5548207204
 21
0.0
 31
0.0
 40
0.0174550649
 41
0.0087266463
 42
3.1328660073
  0
ELLIPSE
  5
483
100
AcDbEntity
  8
RACCORDO
100
AcDbEllipse
 62
7
  6
CONTINUOUS
 10
-133.485
 20
3.1083708458
 30
0.0
 11
0.5548207204
 21
-0.0
 31
0.0
 40
0.0174550649
 41
-3.1328660073
 42
-0.0087266463
  0
ELLIPSE
  5
484
100
AcDbEntity
  8
RACCORDO
100
AcDbEllipse
 62
7
  6
CONTINUOUS
 10
-129.485
 20
60.3116291542
 30
0.0
 11
0.5548207204
 21
0.0
 31
0.0
 40
0.0174550649
 41
0.0087266463
 42
3.1328660073
  0
ELLIPSE
  5
485
100
AcDbEntity
  8
RACCORDO
100
AcDbEllipse
 62
7
  6
CONTINUOUS
 10
-129.485
 20
3.1083708458
 30
0.0
 11
0.5548207204
 21
-0.0
 31
0.0
 40
0.0174550649
 41
-3.1328660073
 42
-0.0087266463
  0
ELLIPSE
  5
486
100
AcDbEntity
  8
RACCORDO
100
AcDbEllipse
 62
7
  6
CONTINUOUS
 10
-125.485
 20
60.3116291542
 30
0.0
 11
0.5548207204
 21
0.0
 31
0.0
 40
0.0174550649
 41
0.0087266463
 42
3.1328660073
  0
ELLIPSE
  5
487
100
AcDbEntity
  8
RACCORDO
100
AcDbEllipse
 62
7
  6
CONTINUOUS
 10
-125.485
 20
3.1083708458
 30
0.0
 11
0.5548207204
 21
-0.0
 31
0.0
 40
0.0174550649
 41
-3.1328660073
 42
-0.0087266463
  0
ELLIPSE
  5
488
100
AcDbEntity
  8
0
100
AcDbEllipse
 62
7
  6
CONTINUOUS
 10
-509.5577415558
 20
31.71
 30
0.0
 11
506.5485233311
 21
-0.0
 31
0.0
 40
0.9841110516
 41
6.2323240399
 42
6.2335159401
  0
ELLIPSE
  5
489
100
AcDbEntity
  8
0
100
AcDbEllipse
 62
7
  6
CONTINUOUS
 10
-509.5577415558
 20
31.71
 30
0.0
 11
506.5485233311
 21
-0.0
 31
0.0
 40
0.9841110516
 41
6.3328546743
 42
6.3340465744
  0
ELLIPSE
  5
48A
100
AcDbEntity
  8
0
100
AcDbEllipse
 62
7
  6
CONTINUOUS
 10
288.5877415558
 20
31.71
 30
0.0
 11
506.5485233311
 21
-0.0
 31
0.0
 40
0.9841110516
 41
3.0907313864
 42
3.0919232865
  0
ELLIPSE
  5
48B
100
AcDbEntity
  8
0
100
AcDbEllipse
 62
7
  6
CONTINUOUS
 10
288.5877415558
 20
31.71
 30
0.0
 11
506.5485233311
 21
-0.0
 31
0.0
 40
0.9841110516
 41
-3.0919232865
 42
-3.0907313864
  0
ELLIPSE
  5
48C
100
AcDbEntity
  8
RACCORDO
100
AcDbEllipse
 62
7
  6
CONTINUOUS
 10
-215.7834886192
 20
6.4428472714
 30
0.0
 11
-1.5242182247
 21
0.0
 31
0.0
 40
0.9841110516
 41
6.3340465744
 42
7.7065013122
  0
ELLIPSE
  5
48D
100
AcDbEntity
  8
RACCORDO
100
AcDbEllipse
 62
7
  6
CONTINUOUS
 10
-215.7834886192
 20
56.9771527286
 30
0.0
 11
-1.5242182247
 21
0.0
 31
0.0
 40
0.9841110516
 41
4.8598693022
 42
6.2323240399
  0
ELLIPSE
  5
48E
100
AcDbEntity
  8
RACCORDO
100
AcDbEllipse
 62
7
  6
CONTINUOUS
 10
-5.1865113808
 20
56.9771527286
 30
0.0
 11
-1.5242182247
 21
-0.0
 31
0.0
 40
0.9841110516
 41
3.1924539208
 42
4.5649086586
  0
ELLIPSE
  5
48F
100
AcDbEntity
  8
RACCORDO
100
AcDbEllipse
 62
7
  6
CONTINUOUS
 10
-5.1865113808
 20
6.4428472714
 30
0.0
 11
-1.5242182247
 21
0.0
 31
0.0
 40
0.9841110516
 41
8.0014619558
 42
9.3739166935
  0
ELLIPSE
  5
490
100
AcDbEntity
  8
RACCORDO
100
AcDbEllipse
 62
7
  6
CONTINUOUS
 10
-18.3300899031
 20
4.802669835
 30
0.0
 11
0.2218689114
 21
-3.0033378985
 31
0.0
 40
0.9961740501
 41
-0.0734590505
 42
0.0734590505
  0
ELLIPSE
  5
491
100
AcDbEntity
  8
RACCORDO
100
AcDbEllipse
 62
7
  6
CONTINUOUS
 10
-202.6399100969
 20
4.802669835
 30
0.0
 11
0.2218689114
 21
3.0033378985
 31
0.0
 40
0.9961740501
 41
3.0681336031
 42
3.2150517041
  0
ELLIPSE
  5
492
100
AcDbEntity
  8
RACCORDO
100
AcDbEllipse
 62
7
  6
CONTINUOUS
 10
-202.6399100969
 20
58.617330165
 30
0.0
 11
-0.2218689114
 21
3.0033378985
 31
0.0
 40
0.9961740501
 41
-0.0734590505
 42
0.0734590505
  0
ELLIPSE
  5
493
100
AcDbEntity
  8
RACCORDO
100
AcDbEllipse
 62
7
  6
CONTINUOUS
 10
-18.3300899031
 20
58.617330165
 30
0.0
 11
-0.2218689114
 21
-3.0033378985
 31
0.0
 40
0.9961740501
 41
3.0681336031
 42
3.2150517041
  0
ELLIPSE
  5
494
100
AcDbEntity
  8
ASSI
100
AcDbEllipse
 62
7
  6
CONTINUOUS
 10
-509.5577415558
 20
31.71
 30
0.0
 11
506.5485233311
 21
-0.0
 31
0.0
 40
0.9841110516
 41
6.2323240399
 42
6.2335159401
  0
ELLIPSE
  5
495
100
AcDbEntity
  8
ASSI
100
AcDbEllipse
 62
7
  6
CONTINUOUS
 10
-509.5577415558
 20
31.71
 30
0.0
 11
506.5485233311
 21
-0.0
 31
0.0
 40
0.9841110516
 41
6.3328546743
 42
6.3340465744
  0
ELLIPSE
  5
496
100
AcDbEntity
  8
ASSI
100
AcDbEllipse
 62
7
  6
CONTINUOUS
 10
288.5877415558
 20
31.71
 30
0.0
 11
506.5485233311
 21
-0.0
 31
0.0
 40
0.9841110516
 41
3.0907313864
 42
3.0919232865
  0
ELLIPSE
  5
497
100
AcDbEntity
  8
ASSI
100
AcDbEllipse
 62
7
  6
CONTINUOUS
 10
288.5877415558
 20
31.71
 30
0.0
 11
506.5485233311
 21
-0.0
 31
0.0
 40
0.9841110516
 41
-3.0919232865
 42
-3.0907313864
  0
ELLIPSE
  5
498
100
AcDbEntity
  8
ASSI
100
AcDbEllipse
 62
7
  6
CONTINUOUS
 10
-5.1865113808
 20
6.4428472714
 30
0.0
 11
-1.5242182247
 21
0.0
 31
0.0
 40
0.9841110516
 41
8.0014619558
 42
9.3739166935
  0
ELLIPSE
  5
499
100
AcDbEntity
  8
ASSI
100
AcDbEllipse
 62
7
  6
CONTINUOUS
 10
-5.1865113808
 20
56.9771527286
 30
0.0
 11
-1.5242182247
 21
-0.0
 31
0.0
 40
0.9841110516
 41
3.1924539208
 42
4.5649086586
  0
ELLIPSE
  5
49A
100
AcDbEntity
  8
ASSI
100
AcDbEllipse
 62
7
  6
CONTINUOUS
 10
-215.7834886192
 20
56.9771527286
 30
0.0
 11
-1.5242182247
 21
0.0
 31
0.0
 40
0.9841110516
 41
4.8598693022
 42
6.2323240399
  0
ELLIPSE
  5
49B
100
AcDbEntity
  8
ASSI
100
AcDbEllipse
 62
7
  6
CONTINUOUS
 10
-215.7834886192
 20
6.4428472714
 30
0.0
 11
-1.5242182247
 21
0.0
 31
0.0
 40
0.9841110516
 41
6.3340465744
 42
7.7065013122
  0
ELLIPSE
  5
49C
100
AcDbEntity
  8
ASSI
100
AcDbEllipse
 62
7
  6
CONTINUOUS
 10
-125.485
 20
3.1083708458
 30
0.0
 11
0.5548207204
 21
-0.0
 31
0.0
 40
0.0174550649
 41
-3.1328660073
 42
-0.0087266463
  0
ELLIPSE
  5
49D
100
AcDbEntity
  8
ASSI
100
AcDbEllipse
 62
7
  6
CONTINUOUS
 10
-125.485
 20
60.3116291542
 30
0.0
 11
0.5548207204
 21
0.0
 31
0.0
 40
0.0174550649
 41
0.0087266463
 42
3.1328660073
  0
ELLIPSE
  5
49E
100
AcDbEntity
  8
ASSI
100
AcDbEllipse
 62
7
  6
CONTINUOUS
 10
-129.485
 20
3.1083708458
 30
0.0
 11
0.5548207204
 21
-0.0
 31
0.0
 40
0.0174550649
 41
-3.1328660073
 42
-0.0087266463
  0
ELLIPSE
  5
49F
100
AcDbEntity
  8
ASSI
100
AcDbEllipse
 62
7
  6
CONTINUOUS
 10
-129.485
 20
60.3116291542
 30
0.0
 11
0.5548207204
 21
0.0
 31
0.0
 40
0.0174550649
 41
0.0087266463
 42
3.1328660073
  0
ELLIPSE
  5
4A0
100
AcDbEntity
  8
ASSI
100
AcDbEllipse
 62
7
  6
CONTINUOUS
 10
-133.485
 20
3.1083708458
 30
0.0
 11
0.5548207204
 21
-0.0
 31
0.0
 40
0.0174550649
 41
-3.1328660073
 42
-0.0087266463
  0
ELLIPSE
  5
4A1
100
AcDbEntity
  8
ASSI
100
AcDbEllipse
 62
7
  6
CONTINUOUS
 10
-133.485
 20
60.3116291542
 30
0.0
 11
0.5548207204
 21
0.0
 31
0.0
 40
0.0174550649
 41
0.0087266463
 42
3.1328660073
  0
ELLIPSE
  5
4A2
100
AcDbEntity
  8
ASSI
100
AcDbEllipse
 62
7
  6
CONTINUOUS
 10
-137.485
 20
3.1083708458
 30
0.0
 11
0.5548207204
 21
-0.0
 31
0.0
 40
0.0174550649
 41
-3.1328660073
 42
-0.0087266463
  0
ELLIPSE
  5
4A3
100
AcDbEntity
  8
ASSI
100
AcDbEllipse
 62
7
  6
CONTINUOUS
 10
-137.485
 20
60.3116291542
 30
0.0
 11
0.5548207204
 21
0.0
 31
0.0
 40
0.0174550649
 41
0.0087266463
 42
3.1328660073
  0
ELLIPSE
  5
4A4
100
AcDbEntity
  8
ASSI
100
AcDbEllipse
 62
7
  6
CONTINUOUS
 10
-141.485
 20
3.1083708458
 30
0.0
 11
0.5548207204
 21
-0.0
 31
0.0
 40
0.0174550649
 41
-3.1328660073
 42
-0.0087266463
  0
ELLIPSE
  5
4A5
100
AcDbEntity
  8
ASSI
100
AcDbEllipse
 62
7
  6
CONTINUOUS
 10
-141.485
 20
60.3116291542
 30
0.0
 11
0.5548207204
 21
0.0
 31
0.0
 40
0.0174550649
 41
0.0087266463
 42
3.1328660073
  0
ELLIPSE
  5
4A6
100
AcDbEntity
  8
ASSI
100
AcDbEllipse
 62
7
  6
CONTINUOUS
 10
-145.485
 20
3.1083708458
 30
0.0
 11
0.5548207204
 21
0.0
 31
0.0
 40
0.0174550649
 41
-3.1328660073
 42
-0.0087266463
  0
ELLIPSE
  5
4A7
100
AcDbEntity
  8
ASSI
100
AcDbEllipse
 62
7
  6
CONTINUOUS
 10
-145.485
 20
60.3116291542
 30
0.0
 11
0.5548207204
 21
0.0
 31
0.0
 40
0.0174550649
 41
0.0087266463
 42
3.1328660073
  0
ELLIPSE
  5
4A8
100
AcDbEntity
  8
ASSI
100
AcDbEllipse
 62
7
  6
CONTINUOUS
 10
-149.485
 20
3.1083708458
 30
0.0
 11
0.5548207204
 21
-0.0
 31
0.0
 40
0.0174550649
 41
-3.1328660073
 42
-0.0087266463
  0
ELLIPSE
  5
4A9
100
AcDbEntity
  8
ASSI
100
AcDbEllipse
 62
7
  6
CONTINUOUS
 10
-149.485
 20
60.3116291542
 30
0.0
 11
0.5548207204
 21
-0.0
 31
0.0
 40
0.0174550649
 41
0.0087266463
 42
3.1328660073
  0
ELLIPSE
  5
4AA
100
AcDbEntity
  8
ASSI
100
AcDbEllipse
 62
7
  6
CONTINUOUS
 10
-153.485
 20
3.1083708458
 30
0.0
 11
0.5548207204
 21
-0.0
 31
0.0
 40
0.0174550649
 41
-3.1328660073
 42
-0.0087266463
  0
ELLIPSE
  5
4AB
100
AcDbEntity
  8
ASSI
100
AcDbEllipse
 62
7
  6
CONTINUOUS
 10
-153.485
 20
60.3116291542
 30
0.0
 11
0.5548207204
 21
0.0
 31
0.0
 40
0.0174550649
 41
0.0087266463
 42
3.1328660073
  0
ELLIPSE
  5
4AC
100
AcDbEntity
  8
ASSI
100
AcDbEllipse
 62
7
  6
CONTINUOUS
 10
-157.485
 20
3.1083708458
 30
0.0
 11
0.5548207204
 21
-0.0
 31
0.0
 40
0.0174550649
 41
-3.1328660073
 42
-0.0087266463
  0
ELLIPSE
  5
4AD
100
AcDbEntity
  8
ASSI
100
AcDbEllipse
 62
7
  6
CONTINUOUS
 10
-157.485
 20
60.3116291542
 30
0.0
 11
0.5548207204
 21
0.0
 31
0.0
 40
0.0174550649
 41
0.0087266463
 42
3.1328660073
  0
ELLIPSE
  5
4AE
100
AcDbEntity
  8
ASSI
100
AcDbEllipse
 62
7
  6
CONTINUOUS
 10
-161.485
 20
3.1083708458
 30
0.0
 11
0.5548207204
 21
-0.0
 31
0.0
 40
0.0174550649
 41
-3.1328660073
 42
-0.0087266463
  0
ELLIPSE
  5
4AF
100
AcDbEntity
  8
ASSI
100
AcDbEllipse
 62
7
  6
CONTINUOUS
 10
-161.485
 20
60.3116291542
 30
0.0
 11
0.5548207204
 21
0.0
 31
0.0
 40
0.0174550649
 41
0.0087266463
 42
3.1328660073
  0
ELLIPSE
  5
4B0
100
AcDbEntity
  8
ASSI
100
AcDbEllipse
 62
7
  6
CONTINUOUS
 10
-165.485
 20
3.1083708458
 30
0.0
 11
0.5548207204
 21
-0.0
 31
0.0
 40
0.0174550649
 41
-3.1328660073
 42
-0.0087266463
  0
ELLIPSE
  5
4B1
100
AcDbEntity
  8
ASSI
100
AcDbEllipse
 62
7
  6
CONTINUOUS
 10
-165.485
 20
60.3116291542
 30
0.0
 11
0.5548207204
 21
0.0
 31
0.0
 40
0.0174550649
 41
0.0087266463
 42
3.1328660073
  0
ELLIPSE
  5
4B2
100
AcDbEntity
  8
ASSI
100
AcDbEllipse
 62
7
  6
CONTINUOUS
 10
-18.3300899031
 20
4.802669835
 30
0.0
 11
0.2218689114
 21
-3.0033378985
 31
0.0
 40
0.9961740501
 41
-0.0734590505
 42
0.0734590505
  0
ELLIPSE
  5
4B3
100
AcDbEntity
  8
ASSI
100
AcDbEllipse
 62
7
  6
CONTINUOUS
 10
-202.6399100969
 20
4.802669835
 30
0.0
 11
0.2218689114
 21
3.0033378985
 31
0.0
 40
0.9961740501
 41
3.0681336031
 42
3.2150517041
  0
ELLIPSE
  5
4B4
100
AcDbEntity
  8
ASSI
100
AcDbEllipse
 62
7
  6
CONTINUOUS
 10
-202.6399100969
 20
58.617330165
 30
0.0
 11
-0.2218689114
 21
3.0033378985
 31
0.0
 40
0.9961740501
 41
-0.0734590505
 42
0.0734590505
  0
ELLIPSE
  5
4B5
100
AcDbEntity
  8
ASSI
100
AcDbEllipse
 62
7
  6
CONTINUOUS
 10
-18.3300899031
 20
58.617330165
 30
0.0
 11
-0.2218689114
 21
-3.0033378985
 31
0.0
 40
0.9961740501
 41
3.0681336031
 42
3.2150517041
  0
ENDSEC
  0
SECTION
  2
OBJECTS
  0
DICTIONARY
  5
C
100
AcDbDictionary
280
0
281
1
  3
ACAD_GROUP
350
D
  3
ACAD_MLINESTYLE
350
17
  3
ACAD_LAYOUT
350
1A
  3
ACAD_PLOTSETTINGS
350
19
  3
ACAD_PLOTSTYLENAME
350
E
  0
DICTIONARY
  5
D
102
{ACAD_REACTORS
330
C
102
}
100
AcDbDictionary
280
0
281
1
  0
ACDBDICTIONARYWDFLT
  5
E
102
{ACAD_REACTORS
330
C
102
}
100
AcDbDictionary
281
1
  3
Normal
350
F
100
AcDbDictionaryWithDefault
340
F
  0
DICTIONARY
  5
17
102
{ACAD_REACTORS
330
C
102
}
100
AcDbDictionary
280
0
281
1
  3
Standard
350
18
  0
DICTIONARY
  5
19
102
{ACAD_REACTORS
330
C
102
}
100
AcDbDictionary
281
1
  0
DICTIONARY
  5
1A
102
{ACAD_REACTORS
330
C
102
}
100
AcDbDictionary
281
1
  3
Model
350
4B6
  3
Layout1
350
4B7
  0
ACDBPLACEHOLDER
  5
F
102
{ACAD_REACTORS
330
E
102
}
  0
MLINESTYLE
  5
18
102
{ACAD_REACTORS
330
17
102
}
100
AcDbMlineStyle
  2
STANDARD
 70
0
  3

 62
256
 51
90.0
 52
90.0
 71
2
 49
0.5
 62
256
  6
BYLAYER
 49
-0.5
 62
256
  6
BYLAYER
  0
LAYOUT
  5
4B6
102
{ACAD_REACTORS
330
1A
102
}
100
AcDbPlotSettings
  1

  2
none_device
  4
ISO_A4_(297.00_x_210.00_MM)
  6

 40
0.0
 41
0.0
 42
0.0
 43
0.0
 44
297.0
 45
210.0
 46
0.0
 47
0.0
 48
0.0
 49
0.0
140
0.0
141
0.0
142
1.0
143
1.0
 70
1024
 72
1
 73
0
 74
0
  7

 75
0
147
1.0
148
0.0
149
0.0
100
AcDbLayout
  1
Model
 70
0
 71
0
 10
0.0
 20
0.0
 11
297.0
 21
210.0
 12
0.0
 22
0.0
 32
0.0
 14
0.0
 24
0.0
 34
0.0
 15
0.0
 25
0.0
 35
0.0
146
0.0
 13
0.0
 23
0.0
 33
0.0
 16
1.0
 26
0.0
 36
0.0
 17
0.0
 27
1.0
 37
0.0
 76
0
330
21B
345
0
346
0
  0
LAYOUT
  5
4B7
102
{ACAD_REACTORS
330
1A
102
}
100
AcDbPlotSettings
  1

  2
none_device
  4
ISO_A4_(297.00_x_210.00_MM)
  6

 40
0.0
 41
0.0
 42
0.0
 43
0.0
 44
297.0
 45
210.0
 46
0.0
 47
0.0
 48
0.0
 49
0.0
140
0.0
141
0.0
142
1.0
143
1.0
 70
0
 72
1
 73
0
 74
0
  7

 75
0
147
1.0
148
0.0
149
0.0
100
AcDbLayout
  1
Layout1
 70
0
 71
1
 10
0.0
 20
0.0
 11
297.0
 21
210.0
 12
0.0
 22
0.0
 32
0.0
 14
0.0
 24
0.0
 34
0.0
 15
0.0
 25
0.0
 35
0.0
146
0.0
 13
0.0
 23
0.0
 33
0.0
 16
1.0
 26
0.0
 36
0.0
 17
0.0
 27
1.0
 37
0.0
 76
0
330
21C
345
0
346
0
  0
ENDSEC
  0
EOF
