  0
SECTION
  2
HEADER
  9
$ACADVER
  1
AC1015
  9
$DWGCODEPAGE
  3
ANSI_1252
  9
$EXTMAX
 10
297.0
 20
210.0
 30
0.0
  9
$EXTMIN
 10
0.0
 20
0.0
 30
0.0
  9
$LIMMIN
 10
0.0
 20
0.0
  9
$LIMMAX
 10
297.0
 20
210.0
  9
$VIEWCTR
 10
148.5
 20
105.0
  9
$VIEWSIZE
 40
210.0
  9
$CLAYER
  8
0
  9
$LTSCALE
 40
16.335
  9
$CELTYPE
  6
BYLAYER
  9
$DIMSCALE
 40
1.0
  9
$DIMASZ
 40
3.0
  9
$DIMEXO
 40
0.5
  9
$DIMDLI
 40
11.286
  9
$DIMEXE
 40
1.5
  9
$DIMCEN
 40
2.673
  9
$DIMLFAC
 40
1.0
  9
$DIMBLK
  1
_FILLED
  9
$DIMTXT
 40
3.0
  9
$DIMTOL
 70
1
  9
$DIMLIM
 70
0
  9
$DIMTFAC
 40
1.0
  9
$DIMTP
 40
0.01
  9
$DIMTM
 40
0.01
  9
$DIMGAP
 40
0.625
  9
$DIMDSEP
 70
44
  9
$PDMODE
 70
3
  9
$PDSIZE
 40
3.0
  9
$HANDSEED
  5
4B9
  9
$TILEMODE
 70
1
  9
$MEASUREMENT
 70
1
  9
$INSUNITS
 70
4
  0
ENDSEC
  0
SECTION
  2
CLASSES
  0
CLASS
  1
ACDBDICTIONARYWDFLT
  2
AcDbDictionaryWithDefault
  3
AutoCAD 2000
 90
0
280
0
281
0
  0
CLASS
  1
ACDBPLACEHOLDER
  2
AcDbPlaceHolder
  3
AutoCAD 2000
 90
0
280
0
281
0
  0
CLASS
  1
LAYOUT
  2
AcDbLayout
  3
AutoCAD 2000
 90
0
280
0
281
0
  0
ENDSEC
  0
SECTION
  2
TABLES
  0
TABLE
  2
VPORT
  5
8
100
AcDbSymbolTable
 70
2
  0
VPORT
  5
1F4
100
AcDbSymbolTableRecord
100
AcDbViewportTableRecord
  2
*ACTIVE
 70
0
 10
0.0
 20
0.0
 11
1.0
 21
1.0
 12
148.5
 22
105.0
 13
0.0
 23
0.0
 14
1.0
 24
1.0
 15
0.0
 25
0.0
 16
0.0
 26
0.0
 36
1.0
 17
0.0
 27
0.0
 37
0.0
 40
210.0
 41
1.4142857143
 42
50.0
 43
0.0
 44
0.0
 50
0.0
 51
0.0
 71
0
 72
100
 73
1
 74
1
 75
0
 76
0
 77
0
 78
0
  0
ENDTAB
  0
TABLE
  2
LTYPE
  5
5
100
AcDbSymbolTable
 70
6
  0
LTYPE
  5
14
100
AcDbSymbolTableRecord
100
AcDbLinetypeTableRecord
  2
BYBLOCK
 70
0
  3

 72
65
 73
0
 40
0.0
  0
LTYPE
  5
15
100
AcDbSymbolTableRecord
100
AcDbLinetypeTableRecord
  2
BYLAYER
 70
0
  3

 72
65
 73
0
 40
0.0
  0
LTYPE
  5
16
100
AcDbSymbolTableRecord
100
AcDbLinetypeTableRecord
  2
CONTINUOUS
 70
64
  3
Solid line
 72
65
 73
0
 40
0.0
  0
LTYPE
  5
1F5
100
AcDbSymbolTableRecord
100
AcDbLinetypeTableRecord
  2
CENTER
 70
64
  3
____ _ ____ _ ____ _ ____ _ ____ _ ____ _ ____
 72
65
 73
4
 40
0.6
 49
0.375
 74
0
 49
-0.075
 74
0
 49
0.075
 74
0
 49
-0.075
 74
0
  0
LTYPE
  5
1F6
100
AcDbSymbolTableRecord
100
AcDbLinetypeTableRecord
  2
HIDDEN
 70
64
  3
- - - - - - - - - - - - - - - - - - - -
 72
65
 73
2
 40
0.2
 49
0.1
 74
0
 49
-0.1
 74
0
  0
LTYPE
  5
1F7
100
AcDbSymbolTableRecord
100
AcDbLinetypeTableRecord
  2
PHANTOM
 70
64
  3
_____ _ _ _____ _ _ _____ _ _ _____
 72
65
 73
6
 40
0.8
 49
0.45
 74
0
 49
-0.05
 74
0
 49
0.1
 74
0
 49
-0.05
 74
0
 49
0.1
 74
0
 49
-0.05
 74
0
  0
LTYPE
  5
1F8
100
AcDbSymbolTableRecord
100
AcDbLinetypeTableRecord
  2
DOT
 70
64
  3
. . . . . . . . . . . . . . . . . . . .
 72
65
 73
2
 40
0.2
 49
0.1
 74
0
 49
-0.1
 74
0
  0
LTYPE
  5
1F9
100
AcDbSymbolTableRecord
100
AcDbLinetypeTableRecord
  2
DASHED
 70
64
  3
- - - - - - - - - - - - - - - - - - - -
 72
65
 73
2
 40
0.2
 49
0.1
 74
0
 49
-0.1
 74
0
  0
ENDTAB
  0
TABLE
  2
LAYER
  5
2
100
AcDbSymbolTable
 70
36
  0
LAYER
  5
10
100
AcDbSymbolTableRecord
100
AcDbLayerTableRecord
  2
0
 70
0
 62
7
  6
CONTINUOUS
370
-3
390
F
  0
LAYER
  5
1FA
100
AcDbSymbolTableRecord
100
AcDbLayerTableRecord
  2
DEFAULT_1
 70
0
 62
7
  6
CENTER
370
-3
390
F
  0
LAYER
  5
1FB
100
AcDbSymbolTableRecord
100
AcDbLayerTableRecord
  2
DEFAULT_2
 70
0
 62
7
  6
HIDDEN
370
-3
390
F
  0
LAYER
  5
1FC
100
AcDbSymbolTableRecord
100
AcDbLayerTableRecord
  2
DEFAULT_3
 70
0
 62
7
  6
PHANTOM
370
-3
390
F
  0
LAYER
  5
1FD
100
AcDbSymbolTableRecord
100
AcDbLayerTableRecord
  2
ASSI
 70
0
 62
7
  6
CONTINUOUS
370
-3
390
F
  0
LAYER
  5
1FE
100
AcDbSymbolTableRecord
100
AcDbLayerTableRecord
  2
COLOR1
 70
0
 62
7
  6
CONTINUOUS
370
-3
390
F
  0
LAYER
  5
1FF
100
AcDbSymbolTableRecord
100
AcDbLayerTableRecord
  2
COLOR14
 70
0
 62
7
  6
CONTINUOUS
370
-3
390
F
  0
LAYER
  5
200
100
AcDbSymbolTableRecord
100
AcDbLayerTableRecord
  2
COLOR5
 70
0
 62
7
  6
CONTINUOUS
370
-3
390
F
  0
LAYER
  5
201
100
AcDbSymbolTableRecord
100
AcDbLayerTableRecord
  2
COORDINATE
 70
0
 62
7
  6
CONTINUOUS
370
-3
390
F
  0
LAYER
  5
202
100
AcDbSymbolTableRecord
100
AcDbLayerTableRecord
  2
COORD_ORIGINE
 70
0
 62
7
  6
CONTINUOUS
370
-3
390
F
  0
LAYER
  5
203
100
AcDbSymbolTableRecord
100
AcDbLayerTableRecord
  2
COPY_PUBLISH
 70
0
 62
7
  6
CONTINUOUS
370
-3
390
F
  0
LAYER
  5
204
100
AcDbSymbolTableRecord
100
AcDbLayerTableRecord
  2
COSMETIC
 70
0
 62
7
  6
CONTINUOUS
370
-3
390
F
  0
LAYER
  5
205
100
AcDbSymbolTableRecord
100
AcDbLayerTableRecord
  2
COSMETICI
 70
0
 62
7
  6
CONTINUOUS
370
-3
390
F
  0
LAYER
  5
206
100
AcDbSymbolTableRecord
100
AcDbLayerTableRecord
  2
CURVE
 70
0
 62
7
  6
CONTINUOUS
370
-3
390
F
  0
LAYER
  5
207
100
AcDbSymbolTableRecord
100
AcDbLayerTableRecord
  2
DRAFT
 70
0
 62
7
  6
CONTINUOUS
370
-3
390
F
  0
LAYER
  5
208
100
AcDbSymbolTableRecord
100
AcDbLayerTableRecord
  2
IMPORT_IGES
 70
0
 62
7
  6
CONTINUOUS
370
-3
390
F
  0
LAYER
  5
209
100
AcDbSymbolTableRecord
100
AcDbLayerTableRecord
  2
INTFCLR_1
 70
0
 62
7
  6
CONTINUOUS
370
-3
390
F
  0
LAYER
  5
20A
100
AcDbSymbolTableRecord
100
AcDbLayerTableRecord
  2
INTFCLR_229
 70
0
 62
7
  6
CONTINUOUS
370
-3
390
F
  0
LAYER
  5
20B
100
AcDbSymbolTableRecord
100
AcDbLayerTableRecord
  2
INTF_1
 70
0
 62
7
  6
CONTINUOUS
370
-3
390
F
  0
LAYER
  5
20C
100
AcDbSymbolTableRecord
100
AcDbLayerTableRecord
  2
INTF_2
 70
0
 62
7
  6
CONTINUOUS
370
-3
390
F
  0
LAYER
  5
20D
100
AcDbSymbolTableRecord
100
AcDbLayerTableRecord
  2
INTF_8
 70
0
 62
7
  6
CONTINUOUS
370
-3
390
F
  0
LAYER
  5
20E
100
AcDbSymbolTableRecord
100
AcDbLayerTableRecord
  2
INTF_YELLOW
 70
0
 62
7
  6
CONTINUOUS
370
-3
390
F
  0
LAYER
  5
20F
100
AcDbSymbolTableRecord
100
AcDbLayerTableRecord
  2
NOTE
 70
0
 62
7
  6
CONTINUOUS
370
-3
390
F
  0
LAYER
  5
210
100
AcDbSymbolTableRecord
100
AcDbLayerTableRecord
  2
PIANI
 70
0
 62
7
  6
CONTINUOUS
370
-3
390
F
  0
LAYER
  5
211
100
AcDbSymbolTableRecord
100
AcDbLayerTableRecord
  2
PIANI_ORIGINE
 70
0
 62
7
  6
CONTINUOUS
370
-3
390
F
  0
LAYER
  5
212
100
AcDbSymbolTableRecord
100
AcDbLayerTableRecord
  2
PUNTI
 70
0
 62
7
  6
CONTINUOUS
370
-3
390
F
  0
LAYER
  5
213
100
AcDbSymbolTableRecord
100
AcDbLayerTableRecord
  2
RACCORDO
 70
0
 62
7
  6
CONTINUOUS
370
-3
390
F
  0
LAYER
  5
214
100
AcDbSymbolTableRecord
100
AcDbLayerTableRecord
  2
SIMBOLI
 70
0
 62
7
  6
CONTINUOUS
370
-3
390
F
  0
LAYER
  5
215
100
AcDbSymbolTableRecord
100
AcDbLayerTableRecord
  2
SMUSSO
 70
0
 62
7
  6
CONTINUOUS
370
-3
390
F
  0
LAYER
  5
216
100
AcDbSymbolTableRecord
100
AcDbLayerTableRecord
  2
SNAPLINE
 70
0
 62
7
  6
CONTINUOUS
370
-3
390
F
  0
LAYER
  5
217
100
AcDbSymbolTableRecord
100
AcDbLayerTableRecord
  2
SUPERFICI
 70
0
 62
7
  6
CONTINUOUS
370
-3
390
F
  0
LAYER
  5
218
100
AcDbSymbolTableRecord
100
AcDbLayerTableRecord
  2
TRASH
 70
0
 62
7
  6
CONTINUOUS
370
-3
390
F
  0
LAYER
  5
219
100
AcDbSymbolTableRecord
100
AcDbLayerTableRecord
  2
WHITE
 70
0
 62
7
  6
CONTINUOUS
370
-3
390
F
  0
ENDTAB
  0
TABLE
  2
STYLE
  5
3
100
AcDbSymbolTable
 70
1
  0
STYLE
  5
11
100
AcDbSymbolTableRecord
100
AcDbTextStyleTableRecord
  2
STANDARD
 70
0
 40
0.0
 41
0.8
 50
0.0
 71
0
 42
0.2
  3
txt
  4

  0
STYLE
  5
21A
100
AcDbSymbolTableRecord
100
AcDbTextStyleTableRecord
  2
TEXTSTYLE_1
 70
0
 40
0.0
 41
0.8
 50
0.0
 71
0
 42
0.2
  3
gdt
  4

  0
ENDTAB
  0
TABLE
  2
VIEW
  5
6
100
AcDbSymbolTable
 70
0
  0
ENDTAB
  0
TABLE
  2
UCS
  5
7
100
AcDbSymbolTable
 70
0
  0
ENDTAB
  0
TABLE
  2
APPID
  5
9
100
AcDbSymbolTable
 70
1
  0
APPID
  5
21B
100
AcDbSymbolTableRecord
100
AcDbRegAppTableRecord
  2
ACAD
 70
0
  0
ENDTAB
  0
TABLE
  2
BLOCK_RECORD
  5
1
100
AcDbSymbolTable
 70
0
  0
BLOCK_RECORD
  5
21C
100
AcDbSymbolTableRecord
100
AcDbBlockTableRecord
  2
*Model_Space
  0
BLOCK_RECORD
  5
21D
100
AcDbSymbolTableRecord
100
AcDbBlockTableRecord
  2
*Paper_Space
  0
ENDTAB
  0
TABLE
  2
DIMSTYLE
  5
A
100
AcDbSymbolTable
 70
1
100
AcDbDimStyleTable
 71
0
  0
DIMSTYLE
105
21E
100
AcDbSymbolTableRecord
100
AcDbDimStyleTableRecord
  2
STANDARD
 70
0
  3

  4

 40
1.0
 41
3.0
 42
0.5
 43
0.38
 44
1.5
 45
0.0
 46
0.0
 47
0.01
 48
0.01
140
3.0
141
0.09
142
0.0
143
25.4
144
1.0
145
0.0
146
1.0
147
0.625
 71
1.0
 72
0.0
 73
0
 74
0
 75
0
 76
0
 77
1
 78
8
170
0
171
2
172
0
173
0
174
0
175
0
176
0
177
0
178
0
270
2
271
2
272
2
273
2
274
2
275
0
280
0
281
0
282
0
283
1
284
8
285
0
286
0
287
3
288
0
340
11
278
44
  0
ENDTAB
  0
ENDSEC
  0
SECTION
  2
BLOCKS
  0
BLOCK
  5
20
100
AcDbEntity
  8
0
100
AcDbBlockBegin
  2
*Model_Space
 70
0
 10
0.0
 20
0.0
 30
0.0
  3
*Model_Space
  1

  0
ENDBLK
  5
21
100
AcDbEntity
  8
0
100
AcDbBlockEnd
  0
BLOCK
  5
1C
100
AcDbEntity
  8
0
100
AcDbBlockBegin
  2
*Paper_Space
 70
0
 10
0.0
 20
0.0
 30
0.0
  3
*Paper_Space
  1

  0
ENDBLK
  5
1D
100
AcDbEntity
  8
0
100
AcDbBlockEnd
  0
ENDSEC
  0
SECTION
  2
ENTITIES
  0
LWPOLYLINE
  5
21F
100
AcDbEntity
  8
RACCORDO
100
AcDbPolyline
 62
7
  6
CONTINUOUS
 90
31
 70
0
 10
-211.6930328524
 20
5.5929374503
 10
-211.6826452025
 20
5.4567524182
 10
-211.6660583225
 20
5.3211013096
 10
-211.6432947764
 20
5.18626669
 10
-211.6143678905
 20
5.0524373572
 10
-211.5793398114
 20
4.9199889661
 10
-211.5383635797
 20
4.7894722793
 10
-211.491630753
 20
4.6613564015
 10
-211.4392018735
 20
4.5356840847
 10
-211.3810410159
 20
4.4123666419
 10
-211.3171379462
 20
4.2914749917
 10
-211.2476941062
 20
4.1734747657
 10
-211.1729965569
 20
4.0588633909
 10
-211.0932935696
 20
3.9479774814
 10
-211.0086923348
 20
3.8409245043
 10
-210.9193054118
 20
3.737834782
 10
-210.8253176936
 20
3.6389215796
 10
-210.7269236178
 20
3.5443894974
 10
-210.6242420429
 20
3.4543631391
 10
-210.5173695963
 20
3.368959561
 10
-210.4066173772
 20
3.2884583432
 10
-210.2924528061
 20
3.2131931853
 10
-210.1753199147
 20
3.1434095
 10
-210.055290278
 20
3.0791039412
 10
-209.9322790875
 20
3.0202321971
 10
-209.8063230564
 20
2.9668586513
 10
-209.6778706266
 20
2.9192192132
 10
-209.5474552319
 20
2.8775193313
 10
-209.4154447819
 20
2.8418570943
 10
-209.2820259089
 20
2.8122639759
 10
-209.1474776846
 20
2.7887896885
  0
LWPOLYLINE
  5
220
100
AcDbEntity
  8
ASSI
100
AcDbPolyline
 62
7
  6
CONTINUOUS
 90
31
 70
0
 10
-211.6930328524
 20
5.5929374503
 10
-211.6826452025
 20
5.4567524182
 10
-211.6660583225
 20
5.3211013096
 10
-211.6432947764
 20
5.18626669
 10
-211.6143678905
 20
5.0524373572
 10
-211.5793398114
 20
4.9199889661
 10
-211.5383635797
 20
4.7894722793
 10
-211.491630753
 20
4.6613564015
 10
-211.4392018735
 20
4.5356840847
 10
-211.3810410159
 20
4.4123666419
 10
-211.3171379462
 20
4.2914749917
 10
-211.2476941062
 20
4.1734747657
 10
-211.1729965569
 20
4.0588633909
 10
-211.0932935696
 20
3.9479774814
 10
-211.0086923348
 20
3.8409245043
 10
-210.9193054118
 20
3.737834782
 10
-210.8253176936
 20
3.6389215796
 10
-210.7269236178
 20
3.5443894974
 10
-210.6242420429
 20
3.4543631391
 10
-210.5173695963
 20
3.368959561
 10
-210.4066173772
 20
3.2884583432
 10
-210.2924528061
 20
3.2131931853
 10
-210.1753199147
 20
3.1434095
 10
-210.055290278
 20
3.0791039412
 10
-209.9322790875
 20
3.0202321971
 10
-209.8063230564
 20
2.9668586513
 10
-209.6778706266
 20
2.9192192132
 10
-209.5474552319
 20
2.8775193313
 10
-209.4154447819
 20
2.8418570943
 10
-209.2820259089
 20
2.8122639759
 10
-209.1474776846
 20
2.7887896885
  0
LWPOLYLINE
  5
221
100
AcDbEntity
  8
RACCORDO
100
AcDbPolyline
 62
7
  6
CONTINUOUS
 90
31
 70
0
 10
-211.3999965174
 20
5.8604593201
 10
-211.3900407341
 20
5.7240612545
 10
-211.3738894208
 20
5.5885536903
 10
-211.3515425773
 20
5.4539366276
 10
-211.3228968082
 20
5.3197763471
 10
-211.288055509
 20
5.186506568
 10
-211.2473288664
 20
5.0554284482
 10
-211.2006772723
 20
4.9267043819
 10
-211.1481403348
 20
4.8001719749
 10
-211.0901470648
 20
4.6766452029
 10
-211.0268098744
 20
4.5563243712
 10
-210.9580163515
 20
4.4390091745
 10
-210.8838582705
 20
4.3249126728
 10
-210.8041323167
 20
4.2137676813
 10
-210.7190418048
 20
4.1058413848
 10
-210.629288453
 20
4.0021483976
 10
-210.534793157
 20
3.9027625538
 10
-210.435635021
 20
3.8076100193
 10
-210.3327530769
 20
3.7174839063
 10
-210.2263952329
 20
3.6326123806
 10
-210.1163135806
 20
3.5527672763
 10
-210.0027034266
 20
3.4780572087
 10
-209.8853712856
 20
3.4083477822
 10
-209.7645106428
 20
3.3437733923
 10
-209.6408972606
 20
3.2848458404
 10
-209.514367357
 20
3.2315906518
 10
-209.385084714
 20
3.1839823012
 10
-209.2543164391
 20
3.1424560133
 10
-209.1224849016
 20
3.1071568632
 10
-208.9891677323
 20
3.0779397758
 10
-208.8543649312
 20
3.0548047512
  0
LWPOLYLINE
  5
222
100
AcDbEntity
  8
ASSI
100
AcDbPolyline
 62
7
  6
CONTINUOUS
 90
31
 70
0
 10
-211.3999965174
 20
5.8604593201
 10
-211.3900407341
 20
5.7240612545
 10
-211.3738894208
 20
5.5885536903
 10
-211.3515425773
 20
5.4539366276
 10
-211.3228968082
 20
5.3197763471
 10
-211.288055509
 20
5.186506568
 10
-211.2473288664
 20
5.0554284482
 10
-211.2006772723
 20
4.9267043819
 10
-211.1481403348
 20
4.8001719749
 10
-211.0901470648
 20
4.6766452029
 10
-211.0268098744
 20
4.5563243712
 10
-210.9580163515
 20
4.4390091745
 10
-210.8838582705
 20
4.3249126728
 10
-210.8041323167
 20
4.2137676813
 10
-210.7190418048
 20
4.1058413848
 10
-210.629288453
 20
4.0021483976
 10
-210.534793157
 20
3.9027625538
 10
-210.435635021
 20
3.8076100193
 10
-210.3327530769
 20
3.7174839063
 10
-210.2263952329
 20
3.6326123806
 10
-210.1163135806
 20
3.5527672763
 10
-210.0027034266
 20
3.4780572087
 10
-209.8853712856
 20
3.4083477822
 10
-209.7645106428
 20
3.3437733923
 10
-209.6408972606
 20
3.2848458404
 10
-209.514367357
 20
3.2315906518
 10
-209.385084714
 20
3.1839823012
 10
-209.2543164391
 20
3.1424560133
 10
-209.1224849016
 20
3.1071568632
 10
-208.9891677323
 20
3.0779397758
 10
-208.8543649312
 20
3.0548047512
  0
LINE
  5
223
100
AcDbEntity
  8
RACCORDO
100
AcDbLine
 62
7
  6
CONTINUOUS
 10
-211.6935027437
 20
5.6019454954
 11
-211.6930328524
 21
5.5929374503
  0
LINE
  5
224
100
AcDbEntity
  8
ASSI
100
AcDbLine
 62
7
  6
CONTINUOUS
 10
-211.6935027437
 20
5.6019454954
 11
-211.6930328524
 21
5.5929374503
  0
LINE
  5
225
100
AcDbEntity
  8
0
100
AcDbLine
 62
7
  6
CONTINUOUS
 10
-210.1713334025
 20
5.8823517197
 11
-210.1709157757
 21
5.8742137681
  0
LINE
  5
226
100
AcDbEntity
  8
0
100
AcDbLine
 62
7
  6
CONTINUOUS
 10
-210.1709157758
 20
56.169770709
 11
-210.1713334025
 21
56.1616327585
  0
LINE
  5
227
100
AcDbEntity
  8
RACCORDO
100
AcDbLine
 62
7
  6
CONTINUOUS
 10
-211.6930328524
 20
56.4510470279
 11
-211.6935027437
 21
56.4420389827
  0
LINE
  5
228
100
AcDbEntity
  8
ASSI
100
AcDbLine
 62
7
  6
CONTINUOUS
 10
-211.6930328524
 20
56.4510470279
 11
-211.6935027437
 21
56.4420389827
  0
LINE
  5
229
100
AcDbEntity
  8
0
100
AcDbLine
 62
7
  6
CONTINUOUS
 10
-198.8833961597
 20
2.9826140336
 11
-198.8514445358
 21
2.8813679224
  0
LINE
  5
22A
100
AcDbEntity
  8
RACCORDO
100
AcDbLine
 62
253
  6
CONTINUOUS
 10
-195.958481923
 20
61.2145495891
 11
-195.9358609083
 21
60.9083392668
  0
LINE
  5
22B
100
AcDbEntity
  8
ASSI
100
AcDbLine
 62
253
  6
CONTINUOUS
 10
-195.958481923
 20
61.2145495891
 11
-195.9358609083
 21
60.9083392668
  0
LINE
  5
22C
100
AcDbEntity
  8
RACCORDO
100
AcDbLine
 62
253
  6
CONTINUOUS
 10
-195.5193206204
 20
61.2469922391
 11
-195.4966996057
 21
60.9407819167
  0
LINE
  5
22D
100
AcDbEntity
  8
ASSI
100
AcDbLine
 62
253
  6
CONTINUOUS
 10
-195.5193206204
 20
61.2469922391
 11
-195.4966996057
 21
60.9407819167
  0
LINE
  5
22E
100
AcDbEntity
  8
0
100
AcDbLine
 62
7
  6
CONTINUOUS
 10
-198.8514445358
 20
2.9778673335
 11
-198.8514445358
 21
2.8813679224
  0
LINE
  5
22F
100
AcDbEntity
  8
0
100
AcDbLine
 62
7
  6
CONTINUOUS
 10
-197.8287546795
 20
2.7318521834
 11
-197.8287546795
 21
2.8259375907
  0
LINE
  5
230
100
AcDbEntity
  8
RACCORDO
100
AcDbLine
 62
253
  6
CONTINUOUS
 10
-195.9358609083
 20
1.1356452114
 11
-195.958481923
 21
0.829434889
  0
LINE
  5
231
100
AcDbEntity
  8
ASSI
100
AcDbLine
 62
253
  6
CONTINUOUS
 10
-195.9358609083
 20
1.1356452114
 11
-195.958481923
 21
0.829434889
  0
LINE
  5
232
100
AcDbEntity
  8
RACCORDO
100
AcDbLine
 62
253
  6
CONTINUOUS
 10
-195.4966996057
 20
1.1032025614
 11
-195.5193206204
 21
0.7969922391
  0
LINE
  5
233
100
AcDbEntity
  8
ASSI
100
AcDbLine
 62
253
  6
CONTINUOUS
 10
-195.4966996057
 20
1.1032025614
 11
-195.5193206204
 21
0.7969922391
  0
LINE
  5
234
100
AcDbEntity
  8
0
100
AcDbLine
 62
7
  6
CONTINUOUS
 10
-190.8400996077
 20
2.4361280039
 11
-190.8400996077
 21
2.340861052
  0
LINE
  5
235
100
AcDbEntity
  8
ASSI
100
AcDbLine
 62
7
  6
CONTINUOUS
 10
-190.8400996077
 20
2.4361280039
 11
-190.8400996077
 21
2.340861052
  0
LINE
  5
236
100
AcDbEntity
  8
0
100
AcDbLine
 62
7
  6
CONTINUOUS
 10
-190.8400996077
 20
59.6078564743
 11
-190.8400996077
 21
59.7031234262
  0
LINE
  5
237
100
AcDbEntity
  8
ASSI
100
AcDbLine
 62
7
  6
CONTINUOUS
 10
-190.8400996077
 20
59.6078564743
 11
-190.8400996077
 21
59.7031234262
  0
LINE
  5
238
100
AcDbEntity
  8
0
100
AcDbLine
 62
253
  6
CONTINUOUS
 10
-183.3400996077
 20
2.4361280039
 11
-183.3400996077
 21
2.340861052
  0
LINE
  5
239
100
AcDbEntity
  8
ASSI
100
AcDbLine
 62
253
  6
CONTINUOUS
 10
-183.3400996077
 20
2.4361280039
 11
-183.3400996077
 21
2.340861052
  0
LINE
  5
23A
100
AcDbEntity
  8
0
100
AcDbLine
 62
253
  6
CONTINUOUS
 10
-183.3400996077
 20
59.6078564743
 11
-183.3400996077
 21
59.7031234262
  0
LINE
  5
23B
100
AcDbEntity
  8
ASSI
100
AcDbLine
 62
253
  6
CONTINUOUS
 10
-183.3400996077
 20
59.6078564743
 11
-183.3400996077
 21
59.7031234262
  0
LINE
  5
23C
100
AcDbEntity
  8
0
100
AcDbLine
 62
7
  6
CONTINUOUS
 10
-197.7976509679
 20
2.8213168556
 11
-197.8287546795
 21
2.7318521834
  0
LINE
  5
23D
100
AcDbEntity
  8
DRAFT
100
AcDbLine
 62
7
  6
CONTINUOUS
 10
-166.9099198674
 20
59.6078564743
 11
-166.9099198674
 21
57.4521719794
  0
LINE
  5
23E
100
AcDbEntity
  8
DRAFT
100
AcDbLine
 62
7
  6
CONTINUOUS
 10
-166.9099198674
 20
2.4361280039
 11
-166.9099198674
 21
4.5918124988
  0
LINE
  5
23F
100
AcDbEntity
  8
DRAFT
100
AcDbLine
 62
7
  6
CONTINUOUS
 10
-166.8400996077
 20
59.5380362145
 11
-166.8400996077
 21
57.5219922391
  0
LINE
  5
240
100
AcDbEntity
  8
DRAFT
100
AcDbLine
 62
7
  6
CONTINUOUS
 10
-166.8400996077
 20
2.5059482636
 11
-166.8400996077
 21
4.5219922391
  0
LINE
  5
241
100
AcDbEntity
  8
0
100
AcDbLine
 62
7
  6
CONTINUOUS
 10
-166.5900996077
 20
2.2361280039
 11
-166.5900996077
 21
4.0219922391
  0
LINE
  5
242
100
AcDbEntity
  8
ASSI
100
AcDbLine
 62
7
  6
CONTINUOUS
 10
-166.5900996077
 20
2.2361280039
 11
-166.5900996077
 21
4.0219922391
  0
LINE
  5
243
100
AcDbEntity
  8
0
100
AcDbLine
 62
7
  6
CONTINUOUS
 10
-166.5900996077
 20
58.0219922391
 11
-166.5900996077
 21
59.8078564743
  0
LINE
  5
244
100
AcDbEntity
  8
ASSI
100
AcDbLine
 62
7
  6
CONTINUOUS
 10
-166.5900996077
 20
58.0219922391
 11
-166.5900996077
 21
59.8078564743
  0
LINE
  5
245
100
AcDbEntity
  8
RACCORDO
100
AcDbLine
 62
7
  6
CONTINUOUS
 10
-158.9028233139
 20
59.6078564743
 11
-158.8948992022
 21
59.6237059048
  0
LINE
  5
246
100
AcDbEntity
  8
ASSI
100
AcDbLine
 62
7
  6
CONTINUOUS
 10
-158.9028233139
 20
59.6078564743
 11
-158.8948992022
 21
59.6237059048
  0
LINE
  5
247
100
AcDbEntity
  8
DRAFT
100
AcDbLine
 62
7
  6
CONTINUOUS
 10
-166.8400996077
 20
57.5219922391
 11
-166.9099198674
 21
57.4521719794
  0
LINE
  5
248
100
AcDbEntity
  8
DRAFT
100
AcDbLine
 62
7
  6
CONTINUOUS
 10
-159.7702793479
 20
59.6078564743
 11
-159.8400996077
 21
59.5380362145
  0
LINE
  5
249
100
AcDbEntity
  8
DRAFT
100
AcDbLine
 62
7
  6
CONTINUOUS
 10
-166.8400996077
 20
4.5219922391
 11
-166.9099198674
 21
4.5918124988
  0
LINE
  5
24A
100
AcDbEntity
  8
DRAFT
100
AcDbLine
 62
7
  6
CONTINUOUS
 10
-159.7702793479
 20
2.4361280039
 11
-159.8400996077
 21
2.5059482636
  0
LINE
  5
24B
100
AcDbEntity
  8
RACCORDO
100
AcDbLine
 62
7
  6
CONTINUOUS
 10
-158.9028233139
 20
2.4361280039
 11
-158.8948992022
 21
2.4202785733
  0
LINE
  5
24C
100
AcDbEntity
  8
ASSI
100
AcDbLine
 62
7
  6
CONTINUOUS
 10
-158.9028233139
 20
2.4361280039
 11
-158.8948992022
 21
2.4202785733
  0
LINE
  5
24D
100
AcDbEntity
  8
0
100
AcDbLine
 62
7
  6
CONTINUOUS
 10
-160.0900996077
 20
2.2361280039
 11
-160.0900996077
 21
4.0219922391
  0
LINE
  5
24E
100
AcDbEntity
  8
ASSI
100
AcDbLine
 62
7
  6
CONTINUOUS
 10
-160.0900996077
 20
2.2361280039
 11
-160.0900996077
 21
4.0219922391
  0
LINE
  5
24F
100
AcDbEntity
  8
0
100
AcDbLine
 62
7
  6
CONTINUOUS
 10
-160.0900996077
 20
58.0219922391
 11
-160.0900996077
 21
59.8078564743
  0
LINE
  5
250
100
AcDbEntity
  8
ASSI
100
AcDbLine
 62
7
  6
CONTINUOUS
 10
-160.0900996077
 20
58.0219922391
 11
-160.0900996077
 21
59.8078564743
  0
LINE
  5
251
100
AcDbEntity
  8
DRAFT
100
AcDbLine
 62
7
  6
CONTINUOUS
 10
-159.8400996077
 20
59.5380362145
 11
-159.8400996077
 21
57.5219922391
  0
LINE
  5
252
100
AcDbEntity
  8
DRAFT
100
AcDbLine
 62
7
  6
CONTINUOUS
 10
-159.8400996077
 20
2.5059482636
 11
-159.8400996077
 21
4.5219922391
  0
LINE
  5
253
100
AcDbEntity
  8
DRAFT
100
AcDbLine
 62
7
  6
CONTINUOUS
 10
-159.7702793479
 20
59.6078564743
 11
-159.7702793479
 21
57.4521719794
  0
LINE
  5
254
100
AcDbEntity
  8
DRAFT
100
AcDbLine
 62
7
  6
CONTINUOUS
 10
-159.7702793479
 20
2.4361280039
 11
-159.7702793479
 21
4.5918124988
  0
LINE
  5
255
100
AcDbEntity
  8
RACCORDO
100
AcDbLine
 62
7
  6
CONTINUOUS
 10
-154.9028233139
 20
59.6078564743
 11
-154.8948992022
 21
59.6237059048
  0
LINE
  5
256
100
AcDbEntity
  8
ASSI
100
AcDbLine
 62
7
  6
CONTINUOUS
 10
-154.9028233139
 20
59.6078564743
 11
-154.8948992022
 21
59.6237059048
  0
LINE
  5
257
100
AcDbEntity
  8
RACCORDO
100
AcDbLine
 62
7
  6
CONTINUOUS
 10
-150.9028233139
 20
59.6078564743
 11
-150.8948992022
 21
59.6237059048
  0
LINE
  5
258
100
AcDbEntity
  8
ASSI
100
AcDbLine
 62
7
  6
CONTINUOUS
 10
-150.9028233139
 20
59.6078564743
 11
-150.8948992022
 21
59.6237059048
  0
LINE
  5
259
100
AcDbEntity
  8
RACCORDO
100
AcDbLine
 62
253
  6
CONTINUOUS
 10
-211.6930328524
 20
5.5929374503
 11
-211.3999965174
 21
5.8604593201
  0
LINE
  5
25A
100
AcDbEntity
  8
ASSI
100
AcDbLine
 62
253
  6
CONTINUOUS
 10
-211.6930328524
 20
5.5929374503
 11
-211.3999965174
 21
5.8604593201
  0
LINE
  5
25B
100
AcDbEntity
  8
RACCORDO
100
AcDbLine
 62
253
  6
CONTINUOUS
 10
-211.6930328524
 20
56.4510470279
 11
-211.6628744682
 21
56.4235086047
  0
LINE
  5
25C
100
AcDbEntity
  8
ASSI
100
AcDbLine
 62
253
  6
CONTINUOUS
 10
-211.6930328524
 20
56.4510470279
 11
-211.6628744682
 21
56.4235086047
  0
LINE
  5
25D
100
AcDbEntity
  8
RACCORDO
100
AcDbLine
 62
253
  6
CONTINUOUS
 10
-211.6628744682
 20
56.4235086047
 11
-211.3999965174
 21
56.1835251581
  0
LINE
  5
25E
100
AcDbEntity
  8
ASSI
100
AcDbLine
 62
253
  6
CONTINUOUS
 10
-211.6628744682
 20
56.4235086047
 11
-211.3999965174
 21
56.1835251581
  0
LINE
  5
25F
100
AcDbEntity
  8
RACCORDO
100
AcDbLine
 62
7
  6
CONTINUOUS
 10
-154.9028233139
 20
2.4361280039
 11
-154.8948992022
 21
2.4202785733
  0
LINE
  5
260
100
AcDbEntity
  8
ASSI
100
AcDbLine
 62
7
  6
CONTINUOUS
 10
-154.9028233139
 20
2.4361280039
 11
-154.8948992022
 21
2.4202785733
  0
LINE
  5
261
100
AcDbEntity
  8
RACCORDO
100
AcDbLine
 62
7
  6
CONTINUOUS
 10
-150.9028233139
 20
2.4361280039
 11
-150.8948992022
 21
2.4202785733
  0
LINE
  5
262
100
AcDbEntity
  8
ASSI
100
AcDbLine
 62
7
  6
CONTINUOUS
 10
-150.9028233139
 20
2.4361280039
 11
-150.8948992022
 21
2.4202785733
  0
LINE
  5
263
100
AcDbEntity
  8
0
100
AcDbLine
 62
7
  6
CONTINUOUS
 10
-153.0900996077
 20
59.6856710198
 11
-153.0900996077
 21
59.6078564743
  0
LINE
  5
264
100
AcDbEntity
  8
ASSI
100
AcDbLine
 62
7
  6
CONTINUOUS
 10
-153.0900996077
 20
59.6856710198
 11
-153.0900996077
 21
59.6078564743
  0
LINE
  5
265
100
AcDbEntity
  8
0
100
AcDbLine
 62
7
  6
CONTINUOUS
 10
-153.0900996077
 20
2.4361280039
 11
-153.0900996077
 21
2.3583134584
  0
LINE
  5
266
100
AcDbEntity
  8
ASSI
100
AcDbLine
 62
7
  6
CONTINUOUS
 10
-153.0900996077
 20
2.4361280039
 11
-153.0900996077
 21
2.3583134584
  0
LINE
  5
267
100
AcDbEntity
  8
0
100
AcDbLine
 62
7
  6
CONTINUOUS
 10
-151.5900996077
 20
2.3583134584
 11
-151.5900996077
 21
2.4361280039
  0
LINE
  5
268
100
AcDbEntity
  8
ASSI
100
AcDbLine
 62
7
  6
CONTINUOUS
 10
-151.5900996077
 20
2.3583134584
 11
-151.5900996077
 21
2.4361280039
  0
LINE
  5
269
100
AcDbEntity
  8
0
100
AcDbLine
 62
7
  6
CONTINUOUS
 10
-151.5900996077
 20
59.6078564743
 11
-151.5900996077
 21
59.6856710198
  0
LINE
  5
26A
100
AcDbEntity
  8
ASSI
100
AcDbLine
 62
7
  6
CONTINUOUS
 10
-151.5900996077
 20
59.6078564743
 11
-151.5900996077
 21
59.6856710198
  0
LINE
  5
26B
100
AcDbEntity
  8
RACCORDO
100
AcDbLine
 62
7
  6
CONTINUOUS
 10
-146.9028233139
 20
59.6078564743
 11
-146.8948992022
 21
59.6237059048
  0
LINE
  5
26C
100
AcDbEntity
  8
ASSI
100
AcDbLine
 62
7
  6
CONTINUOUS
 10
-146.9028233139
 20
59.6078564743
 11
-146.8948992022
 21
59.6237059048
  0
LINE
  5
26D
100
AcDbEntity
  8
RACCORDO
100
AcDbLine
 62
7
  6
CONTINUOUS
 10
-142.9028233139
 20
59.6078564743
 11
-142.8948992022
 21
59.6237059048
  0
LINE
  5
26E
100
AcDbEntity
  8
ASSI
100
AcDbLine
 62
7
  6
CONTINUOUS
 10
-142.9028233139
 20
59.6078564743
 11
-142.8948992022
 21
59.6237059048
  0
LINE
  5
26F
100
AcDbEntity
  8
RACCORDO
100
AcDbLine
 62
7
  6
CONTINUOUS
 10
-138.9028233139
 20
59.6078564743
 11
-138.8948992022
 21
59.6237059048
  0
LINE
  5
270
100
AcDbEntity
  8
ASSI
100
AcDbLine
 62
7
  6
CONTINUOUS
 10
-138.9028233139
 20
59.6078564743
 11
-138.8948992022
 21
59.6237059048
  0
LINE
  5
271
100
AcDbEntity
  8
RACCORDO
100
AcDbLine
 62
253
  6
CONTINUOUS
 10
-209.1474776846
 20
2.7887896885
 11
-208.8543649312
 21
3.0548047512
  0
LINE
  5
272
100
AcDbEntity
  8
ASSI
100
AcDbLine
 62
253
  6
CONTINUOUS
 10
-209.1474776846
 20
2.7887896885
 11
-208.8543649312
 21
3.0548047512
  0
LWPOLYLINE
  5
273
100
AcDbEntity
  8
RACCORDO
100
AcDbPolyline
 62
7
  6
CONTINUOUS
 90
31
 70
0
 10
2.1741657159
 20
3.0548047512
 10
2.308968517
 20
3.0779397758
 10
2.4422856863
 20
3.1071568632
 10
2.5741172238
 20
3.1424560133
 10
2.7048854987
 20
3.1839823012
 10
2.8341681417
 20
3.2315906518
 10
2.9606980453
 20
3.2848458404
 10
3.0843114275
 20
3.3437733923
 10
3.2051720703
 20
3.4083477822
 10
3.3225042113
 20
3.4780572087
 10
3.4361143653
 20
3.5527672763
 10
3.5461960175
 20
3.6326123806
 10
3.6525538616
 20
3.7174839063
 10
3.7554358057
 20
3.8076100193
 10
3.8545939417
 20
3.9027625538
 10
3.9490892377
 20
4.0021483976
 10
4.0388425895
 20
4.1058413848
 10
4.1239331014
 20
4.2137676813
 10
4.2036590552
 20
4.3249126728
 10
4.2778171362
 20
4.4390091745
 10
4.3466106591
 20
4.5563243712
 10
4.4099478495
 20
4.6766452029
 10
4.4679411195
 20
4.8001719749
 10
4.520478057
 20
4.9267043819
 10
4.5671296511
 20
5.0554284482
 10
4.6078562937
 20
5.186506568
 10
4.6426975929
 20
5.3197763471
 10
4.671343362
 20
5.4539366276
 10
4.6936902054
 20
5.5885536903
 10
4.7098415188
 20
5.7240612545
 10
4.7197973021
 20
5.8604593201
  0
LWPOLYLINE
  5
274
100
AcDbEntity
  8
ASSI
100
AcDbPolyline
 62
7
  6
CONTINUOUS
 90
31
 70
0
 10
2.1741657159
 20
3.0548047512
 10
2.308968517
 20
3.0779397758
 10
2.4422856863
 20
3.1071568632
 10
2.5741172238
 20
3.1424560133
 10
2.7048854987
 20
3.1839823012
 10
2.8341681417
 20
3.2315906518
 10
2.9606980453
 20
3.2848458404
 10
3.0843114275
 20
3.3437733923
 10
3.2051720703
 20
3.4083477822
 10
3.3225042113
 20
3.4780572087
 10
3.4361143653
 20
3.5527672763
 10
3.5461960175
 20
3.6326123806
 10
3.6525538616
 20
3.7174839063
 10
3.7554358057
 20
3.8076100193
 10
3.8545939417
 20
3.9027625538
 10
3.9490892377
 20
4.0021483976
 10
4.0388425895
 20
4.1058413848
 10
4.1239331014
 20
4.2137676813
 10
4.2036590552
 20
4.3249126728
 10
4.2778171362
 20
4.4390091745
 10
4.3466106591
 20
4.5563243712
 10
4.4099478495
 20
4.6766452029
 10
4.4679411195
 20
4.8001719749
 10
4.520478057
 20
4.9267043819
 10
4.5671296511
 20
5.0554284482
 10
4.6078562937
 20
5.186506568
 10
4.6426975929
 20
5.3197763471
 10
4.671343362
 20
5.4539366276
 10
4.6936902054
 20
5.5885536903
 10
4.7098415188
 20
5.7240612545
 10
4.7197973021
 20
5.8604593201
  0
LINE
  5
275
100
AcDbEntity
  8
RACCORDO
100
AcDbLine
 62
253
  6
CONTINUOUS
 10
-209.1474776846
 20
59.2551947896
 11
-209.1173115456
 21
59.2278110859
  0
LINE
  5
276
100
AcDbEntity
  8
ASSI
100
AcDbLine
 62
253
  6
CONTINUOUS
 10
-209.1474776846
 20
59.2551947896
 11
-209.1173115456
 21
59.2278110859
  0
LINE
  5
277
100
AcDbEntity
  8
RACCORDO
100
AcDbLine
 62
253
  6
CONTINUOUS
 10
-209.1173115456
 20
59.2278110859
 11
-208.8543649312
 21
58.989179727
  0
LINE
  5
278
100
AcDbEntity
  8
ASSI
100
AcDbLine
 62
253
  6
CONTINUOUS
 10
-209.1173115456
 20
59.2278110859
 11
-208.8543649312
 21
58.989179727
  0
LINE
  5
279
100
AcDbEntity
  8
RACCORDO
100
AcDbLine
 62
7
  6
CONTINUOUS
 10
-146.9028233139
 20
2.4361280039
 11
-146.8948992022
 21
2.4202785733
  0
LINE
  5
27A
100
AcDbEntity
  8
ASSI
100
AcDbLine
 62
7
  6
CONTINUOUS
 10
-146.9028233139
 20
2.4361280039
 11
-146.8948992022
 21
2.4202785733
  0
LINE
  5
27B
100
AcDbEntity
  8
RACCORDO
100
AcDbLine
 62
7
  6
CONTINUOUS
 10
-142.9028233139
 20
2.4361280039
 11
-142.8948992022
 21
2.4202785733
  0
LINE
  5
27C
100
AcDbEntity
  8
ASSI
100
AcDbLine
 62
7
  6
CONTINUOUS
 10
-142.9028233139
 20
2.4361280039
 11
-142.8948992022
 21
2.4202785733
  0
LINE
  5
27D
100
AcDbEntity
  8
RACCORDO
100
AcDbLine
 62
7
  6
CONTINUOUS
 10
-138.9028233139
 20
2.4361280039
 11
-138.8948992022
 21
2.4202785733
  0
LINE
  5
27E
100
AcDbEntity
  8
ASSI
100
AcDbLine
 62
7
  6
CONTINUOUS
 10
-138.9028233139
 20
2.4361280039
 11
-138.8948992022
 21
2.4202785733
  0
LINE
  5
27F
100
AcDbEntity
  8
RACCORDO
100
AcDbLine
 62
7
  6
CONTINUOUS
 10
-134.9028233139
 20
59.6078564743
 11
-134.8948992022
 21
59.6237059048
  0
LINE
  5
280
100
AcDbEntity
  8
ASSI
100
AcDbLine
 62
7
  6
CONTINUOUS
 10
-134.9028233139
 20
59.6078564743
 11
-134.8948992022
 21
59.6237059048
  0
LINE
  5
281
100
AcDbEntity
  8
RACCORDO
100
AcDbLine
 62
7
  6
CONTINUOUS
 10
-130.9028233139
 20
59.6078564743
 11
-130.8948992022
 21
59.6237059048
  0
LINE
  5
282
100
AcDbEntity
  8
ASSI
100
AcDbLine
 62
7
  6
CONTINUOUS
 10
-130.9028233139
 20
59.6078564743
 11
-130.8948992022
 21
59.6237059048
  0
LINE
  5
283
100
AcDbEntity
  8
RACCORDO
100
AcDbLine
 62
7
  6
CONTINUOUS
 10
-10.7217172923
 20
0.829434889
 11
2.4672784693
 21
2.7887896885
  0
LINE
  5
284
100
AcDbEntity
  8
ASSI
100
AcDbLine
 62
7
  6
CONTINUOUS
 10
-10.7217172923
 20
0.829434889
 11
2.4672784693
 21
2.7887896885
  0
LINE
  5
285
100
AcDbEntity
  8
RACCORDO
100
AcDbLine
 62
7
  6
CONTINUOUS
 10
-10.744338307
 20
1.1356452114
 11
2.1741657159
 21
3.0548047512
  0
LINE
  5
286
100
AcDbEntity
  8
ASSI
100
AcDbLine
 62
7
  6
CONTINUOUS
 10
-10.744338307
 20
1.1356452114
 11
2.1741657159
 21
3.0548047512
  0
LINE
  5
287
100
AcDbEntity
  8
RACCORDO
100
AcDbLine
 62
7
  6
CONTINUOUS
 10
-11.460608272
 20
2.2361280039
 11
2.2376215484
 21
4.2711227983
  0
LINE
  5
288
100
AcDbEntity
  8
ASSI
100
AcDbLine
 62
7
  6
CONTINUOUS
 10
-11.460608272
 20
2.2361280039
 11
2.2376215484
 21
4.2711227983
  0
LINE
  5
289
100
AcDbEntity
  8
DRAFT
100
AcDbLine
 62
7
  6
CONTINUOUS
 10
-11.4753830938
 20
2.4361280039
 11
2.2082322933
 21
4.4689516933
  0
LINE
  5
28A
100
AcDbEntity
  8
0
100
AcDbLine
 62
7
  6
CONTINUOUS
 10
-10.9012768476
 20
2.3583134584
 11
2.1823672032
 21
4.2711227983
  0
LINE
  5
28B
100
AcDbEntity
  8
RACCORDO
100
AcDbLine
 62
7
  6
CONTINUOUS
 10
-10.9012768476
 20
2.3583134584
 11
2.1823672032
 21
4.2711227983
  0
LINE
  5
28C
100
AcDbEntity
  8
ASSI
100
AcDbLine
 62
7
  6
CONTINUOUS
 10
-10.9012768476
 20
2.3583134584
 11
2.1823672032
 21
4.2711227983
  0
LINE
  5
28D
100
AcDbEntity
  8
0
100
AcDbLine
 62
7
  6
CONTINUOUS
 10
-208.8625664185
 20
4.2711227983
 11
-195.7789223677
 21
2.3583134584
  0
LINE
  5
28E
100
AcDbEntity
  8
RACCORDO
100
AcDbLine
 62
7
  6
CONTINUOUS
 10
-195.7789223677
 20
2.3583134584
 11
-208.8625664185
 21
4.2711227983
  0
LINE
  5
28F
100
AcDbEntity
  8
ASSI
100
AcDbLine
 62
7
  6
CONTINUOUS
 10
-195.7789223677
 20
2.3583134584
 11
-208.8625664185
 21
4.2711227983
  0
LINE
  5
290
100
AcDbEntity
  8
0
100
AcDbLine
 62
7
  6
CONTINUOUS
 10
-197.8287546795
 20
2.7318521834
 11
-198.8514445358
 21
2.8813679224
  0
LINE
  5
291
100
AcDbEntity
  8
RACCORDO
100
AcDbLine
 62
7
  6
CONTINUOUS
 10
-208.8543649312
 20
3.0548047512
 11
-195.9358609083
 21
1.1356452114
  0
LINE
  5
292
100
AcDbEntity
  8
ASSI
100
AcDbLine
 62
7
  6
CONTINUOUS
 10
-208.8543649312
 20
3.0548047512
 11
-195.9358609083
 21
1.1356452114
  0
LINE
  5
293
100
AcDbEntity
  8
RACCORDO
100
AcDbLine
 62
7
  6
CONTINUOUS
 10
-195.2195909433
 20
2.2361280039
 11
-208.9178207637
 21
4.2711227983
  0
LINE
  5
294
100
AcDbEntity
  8
ASSI
100
AcDbLine
 62
7
  6
CONTINUOUS
 10
-195.2195909433
 20
2.2361280039
 11
-208.9178207637
 21
4.2711227983
  0
LINE
  5
295
100
AcDbEntity
  8
DRAFT
100
AcDbLine
 62
7
  6
CONTINUOUS
 10
-208.8884315086
 20
4.4689516933
 11
-195.2048161215
 21
2.4361280039
  0
LINE
  5
296
100
AcDbEntity
  8
RACCORDO
100
AcDbLine
 62
7
  6
CONTINUOUS
 10
-209.1474776846
 20
2.7887896885
 11
-195.9592827202
 21
0.8295538546
  0
LINE
  5
297
100
AcDbEntity
  8
ASSI
100
AcDbLine
 62
7
  6
CONTINUOUS
 10
-209.1474776846
 20
2.7887896885
 11
-195.9592827202
 21
0.8295538546
  0
LINE
  5
298
100
AcDbEntity
  8
RACCORDO
100
AcDbLine
 62
7
  6
CONTINUOUS
 10
-134.9028233139
 20
2.4361280039
 11
-134.8948992022
 21
2.4202785733
  0
LINE
  5
299
100
AcDbEntity
  8
ASSI
100
AcDbLine
 62
7
  6
CONTINUOUS
 10
-134.9028233139
 20
2.4361280039
 11
-134.8948992022
 21
2.4202785733
  0
LINE
  5
29A
100
AcDbEntity
  8
RACCORDO
100
AcDbLine
 62
7
  6
CONTINUOUS
 10
-130.9028233139
 20
2.4361280039
 11
-130.8948992022
 21
2.4202785733
  0
LINE
  5
29B
100
AcDbEntity
  8
ASSI
100
AcDbLine
 62
7
  6
CONTINUOUS
 10
-130.9028233139
 20
2.4361280039
 11
-130.8948992022
 21
2.4202785733
  0
LINE
  5
29C
100
AcDbEntity
  8
RACCORDO
100
AcDbLine
 62
7
  6
CONTINUOUS
 10
-157.7773759014
 20
2.4361280039
 11
-157.7853000131
 21
2.4202785733
  0
LINE
  5
29D
100
AcDbEntity
  8
ASSI
100
AcDbLine
 62
7
  6
CONTINUOUS
 10
-157.7773759014
 20
2.4361280039
 11
-157.7853000131
 21
2.4202785733
  0
LINE
  5
29E
100
AcDbEntity
  8
RACCORDO
100
AcDbLine
 62
7
  6
CONTINUOUS
 10
-126.9028233139
 20
59.6078564743
 11
-126.8948992022
 21
59.6237059048
  0
LINE
  5
29F
100
AcDbEntity
  8
ASSI
100
AcDbLine
 62
7
  6
CONTINUOUS
 10
-126.9028233139
 20
59.6078564743
 11
-126.8948992022
 21
59.6237059048
  0
LINE
  5
2A0
100
AcDbEntity
  8
RACCORDO
100
AcDbLine
 62
7
  6
CONTINUOUS
 10
-153.7773759014
 20
2.4361280039
 11
-153.7853000131
 21
2.4202785733
  0
LINE
  5
2A1
100
AcDbEntity
  8
ASSI
100
AcDbLine
 62
7
  6
CONTINUOUS
 10
-153.7773759014
 20
2.4361280039
 11
-153.7853000131
 21
2.4202785733
  0
LINE
  5
2A2
100
AcDbEntity
  8
RACCORDO
100
AcDbLine
 62
7
  6
CONTINUOUS
 10
-122.9028233139
 20
59.6078564743
 11
-122.8948992022
 21
59.6237059048
  0
LINE
  5
2A3
100
AcDbEntity
  8
ASSI
100
AcDbLine
 62
7
  6
CONTINUOUS
 10
-122.9028233139
 20
59.6078564743
 11
-122.8948992022
 21
59.6237059048
  0
LWPOLYLINE
  5
2A4
100
AcDbEntity
  8
RACCORDO
100
AcDbPolyline
 62
7
  6
CONTINUOUS
 90
10
 70
0
 10
-11.1608785949
 20
0.7969922391
 10
-11.1121028533
 20
0.7974000544
 10
-11.0632428907
 20
0.7986046727
 10
-11.0143117912
 20
0.8006105136
 10
-10.9652579687
 20
0.8034260452
 10
-10.9161597777
 20
0.8070531303
 10
-10.8672247283
 20
0.8114764394
 10
-10.8185300508
 20
0.8166826157
 10
-10.7700234745
 20
0.8226708637
 10
-10.7217172923
 20
0.829434889
  0
LWPOLYLINE
  5
2A5
100
AcDbEntity
  8
ASSI
100
AcDbPolyline
 62
7
  6
CONTINUOUS
 90
10
 70
0
 10
-11.1608785949
 20
0.7969922391
 10
-11.1121028533
 20
0.7974000544
 10
-11.0632428907
 20
0.7986046727
 10
-11.0143117912
 20
0.8006105136
 10
-10.9652579687
 20
0.8034260452
 10
-10.9161597777
 20
0.8070531303
 10
-10.8672247283
 20
0.8114764394
 10
-10.8185300508
 20
0.8166826157
 10
-10.7700234745
 20
0.8226708637
 10
-10.7217172923
 20
0.829434889
  0
LINE
  5
2A6
100
AcDbEntity
  8
RACCORDO
100
AcDbLine
 62
7
  6
CONTINUOUS
 10
-11.1616881806
 20
0.7969922391
 11
-195.5185110347
 21
0.7969922391
  0
LINE
  5
2A7
100
AcDbEntity
  8
ASSI
100
AcDbLine
 62
7
  6
CONTINUOUS
 10
-11.1616881806
 20
0.7969922391
 11
-195.5185110347
 21
0.7969922391
  0
LINE
  5
2A8
100
AcDbEntity
  8
RACCORDO
100
AcDbLine
 62
7
  6
CONTINUOUS
 10
-11.1834996096
 20
1.1032025614
 11
-195.4966996057
 21
1.1032025614
  0
LINE
  5
2A9
100
AcDbEntity
  8
ASSI
100
AcDbLine
 62
7
  6
CONTINUOUS
 10
-11.1834996096
 20
1.1032025614
 11
-195.4966996057
 21
1.1032025614
  0
LWPOLYLINE
  5
2AA
100
AcDbEntity
  8
RACCORDO
100
AcDbPolyline
 62
7
  6
CONTINUOUS
 90
10
 70
0
 10
-195.5185110347
 20
0.7969922391
 10
-195.5676601182
 20
0.7973929685
 10
-195.6167967047
 20
0.7985994867
 10
-195.6659076038
 20
0.8006115061
 10
-195.7149801299
 20
0.8034285559
 10
-195.7640006075
 20
0.8070499
 10
-195.8129543806
 20
0.8114744557
 10
-195.8618278138
 20
0.8167009415
 10
-195.9106082902
 20
0.8227279591
 10
-195.9592827202
 20
0.8295538546
  0
LWPOLYLINE
  5
2AB
100
AcDbEntity
  8
ASSI
100
AcDbPolyline
 62
7
  6
CONTINUOUS
 90
10
 70
0
 10
-195.5185110347
 20
0.7969922391
 10
-195.5676601182
 20
0.7973929685
 10
-195.6167967047
 20
0.7985994867
 10
-195.6659076038
 20
0.8006115061
 10
-195.7149801299
 20
0.8034285559
 10
-195.7640006075
 20
0.8070499
 10
-195.8129543806
 20
0.8114744557
 10
-195.8618278138
 20
0.8167009415
 10
-195.9106082902
 20
0.8227279591
 10
-195.9592827202
 20
0.8295538546
  0
LINE
  5
2AC
100
AcDbEntity
  8
RACCORDO
100
AcDbLine
 62
7
  6
CONTINUOUS
 10
-157.7773759014
 20
59.6078564743
 11
-157.7853000131
 21
59.6237059048
  0
LINE
  5
2AD
100
AcDbEntity
  8
ASSI
100
AcDbLine
 62
7
  6
CONTINUOUS
 10
-157.7773759014
 20
59.6078564743
 11
-157.7853000131
 21
59.6237059048
  0
LINE
  5
2AE
100
AcDbEntity
  8
RACCORDO
100
AcDbLine
 62
7
  6
CONTINUOUS
 10
-126.9028233139
 20
2.4361280039
 11
-126.8948992022
 21
2.4202785733
  0
LINE
  5
2AF
100
AcDbEntity
  8
ASSI
100
AcDbLine
 62
7
  6
CONTINUOUS
 10
-126.9028233139
 20
2.4361280039
 11
-126.8948992022
 21
2.4202785733
  0
LINE
  5
2B0
100
AcDbEntity
  8
RACCORDO
100
AcDbLine
 62
7
  6
CONTINUOUS
 10
-153.7773759014
 20
59.6078564743
 11
-153.7853000131
 21
59.6237059048
  0
LINE
  5
2B1
100
AcDbEntity
  8
ASSI
100
AcDbLine
 62
7
  6
CONTINUOUS
 10
-153.7773759014
 20
59.6078564743
 11
-153.7853000131
 21
59.6237059048
  0
LINE
  5
2B2
100
AcDbEntity
  8
RACCORDO
100
AcDbLine
 62
7
  6
CONTINUOUS
 10
-122.9028233139
 20
2.4361280039
 11
-122.8948992022
 21
2.4202785733
  0
LINE
  5
2B3
100
AcDbEntity
  8
ASSI
100
AcDbLine
 62
7
  6
CONTINUOUS
 10
-122.9028233139
 20
2.4361280039
 11
-122.8948992022
 21
2.4202785733
  0
LINE
  5
2B4
100
AcDbEntity
  8
0
100
AcDbLine
 62
7
  6
CONTINUOUS
 10
-125.0900996077
 20
59.6856710198
 11
-125.0900996077
 21
59.6078564743
  0
LINE
  5
2B5
100
AcDbEntity
  8
ASSI
100
AcDbLine
 62
7
  6
CONTINUOUS
 10
-125.0900996077
 20
59.6856710198
 11
-125.0900996077
 21
59.6078564743
  0
LINE
  5
2B6
100
AcDbEntity
  8
0
100
AcDbLine
 62
7
  6
CONTINUOUS
 10
-125.0900996077
 20
2.4361280039
 11
-125.0900996077
 21
2.3583134584
  0
LINE
  5
2B7
100
AcDbEntity
  8
ASSI
100
AcDbLine
 62
7
  6
CONTINUOUS
 10
-125.0900996077
 20
2.4361280039
 11
-125.0900996077
 21
2.3583134584
  0
LINE
  5
2B8
100
AcDbEntity
  8
RACCORDO
100
AcDbLine
 62
7
  6
CONTINUOUS
 10
-149.7773759014
 20
2.4361280039
 11
-149.7853000131
 21
2.4202785733
  0
LINE
  5
2B9
100
AcDbEntity
  8
ASSI
100
AcDbLine
 62
7
  6
CONTINUOUS
 10
-149.7773759014
 20
2.4361280039
 11
-149.7853000131
 21
2.4202785733
  0
LINE
  5
2BA
100
AcDbEntity
  8
RACCORDO
100
AcDbLine
 62
7
  6
CONTINUOUS
 10
-118.9028233139
 20
59.6078564743
 11
-118.8948992022
 21
59.6237059048
  0
LINE
  5
2BB
100
AcDbEntity
  8
ASSI
100
AcDbLine
 62
7
  6
CONTINUOUS
 10
-118.9028233139
 20
59.6078564743
 11
-118.8948992022
 21
59.6237059048
  0
LINE
  5
2BC
100
AcDbEntity
  8
RACCORDO
100
AcDbLine
 62
7
  6
CONTINUOUS
 10
-145.7773759014
 20
2.4361280039
 11
-145.7853000131
 21
2.4202785733
  0
LINE
  5
2BD
100
AcDbEntity
  8
ASSI
100
AcDbLine
 62
7
  6
CONTINUOUS
 10
-145.7773759014
 20
2.4361280039
 11
-145.7853000131
 21
2.4202785733
  0
LINE
  5
2BE
100
AcDbEntity
  8
DRAFT
100
AcDbLine
 62
7
  6
CONTINUOUS
 10
-166.9099198674
 20
2.4361280039
 11
-166.8400996077
 21
2.5059482636
  0
LINE
  5
2BF
100
AcDbEntity
  8
0
100
AcDbLine
 62
7
  6
CONTINUOUS
 10
-174.0548464661
 20
2.4270378726
 11
-173.7260035433
 21
2.4361280039
  0
LINE
  5
2C0
100
AcDbEntity
  8
ASSI
100
AcDbLine
 62
7
  6
CONTINUOUS
 10
-174.0548464661
 20
2.4270378726
 11
-173.7260035433
 21
2.4361280039
  0
LINE
  5
2C1
100
AcDbEntity
  8
0
100
AcDbLine
 62
7
  6
CONTINUOUS
 10
-174.5142991158
 20
2.4159994865
 11
-174.0548464661
 21
2.4270378726
  0
LINE
  5
2C2
100
AcDbEntity
  8
ASSI
100
AcDbLine
 62
7
  6
CONTINUOUS
 10
-174.5142991158
 20
2.4159994865
 11
-174.0548464661
 21
2.4270378726
  0
LINE
  5
2C3
100
AcDbEntity
  8
0
100
AcDbLine
 62
7
  6
CONTINUOUS
 10
-175.017054615
 20
2.4055406297
 11
-174.5142991158
 21
2.4159994865
  0
LINE
  5
2C4
100
AcDbEntity
  8
ASSI
100
AcDbLine
 62
7
  6
CONTINUOUS
 10
-175.017054615
 20
2.4055406297
 11
-174.5142991158
 21
2.4159994865
  0
LINE
  5
2C5
100
AcDbEntity
  8
0
100
AcDbLine
 62
7
  6
CONTINUOUS
 10
-175.5604424098
 20
2.3957203706
 11
-175.017054615
 21
2.4055406297
  0
LINE
  5
2C6
100
AcDbEntity
  8
ASSI
100
AcDbLine
 62
7
  6
CONTINUOUS
 10
-175.5604424098
 20
2.3957203706
 11
-175.017054615
 21
2.4055406297
  0
LINE
  5
2C7
100
AcDbEntity
  8
0
100
AcDbLine
 62
7
  6
CONTINUOUS
 10
-176.1413772491
 20
2.38659125
 11
-175.5604424098
 21
2.3957203706
  0
LINE
  5
2C8
100
AcDbEntity
  8
ASSI
100
AcDbLine
 62
7
  6
CONTINUOUS
 10
-176.1413772491
 20
2.38659125
 11
-175.5604424098
 21
2.3957203706
  0
LINE
  5
2C9
100
AcDbEntity
  8
0
100
AcDbLine
 62
7
  6
CONTINUOUS
 10
-176.7577297248
 20
2.3781866577
 11
-176.1413772491
 21
2.38659125
  0
LINE
  5
2CA
100
AcDbEntity
  8
ASSI
100
AcDbLine
 62
7
  6
CONTINUOUS
 10
-176.7577297248
 20
2.3781866577
 11
-176.1413772491
 21
2.38659125
  0
LINE
  5
2CB
100
AcDbEntity
  8
0
100
AcDbLine
 62
7
  6
CONTINUOUS
 10
-177.4061808579
 20
2.3705544617
 11
-176.7577297248
 21
2.3781866577
  0
LINE
  5
2CC
100
AcDbEntity
  8
ASSI
100
AcDbLine
 62
7
  6
CONTINUOUS
 10
-177.4061808579
 20
2.3705544617
 11
-176.7577297248
 21
2.3781866577
  0
LINE
  5
2CD
100
AcDbEntity
  8
0
100
AcDbLine
 62
7
  6
CONTINUOUS
 10
-178.431756899
 20
2.3606346831
 11
-177.4061808579
 21
2.3705544617
  0
LINE
  5
2CE
100
AcDbEntity
  8
ASSI
100
AcDbLine
 62
7
  6
CONTINUOUS
 10
-178.431756899
 20
2.3606346831
 11
-177.4061808579
 21
2.3705544617
  0
LINE
  5
2CF
100
AcDbEntity
  8
0
100
AcDbLine
 62
7
  6
CONTINUOUS
 10
-179.5109921221
 20
2.3526416333
 11
-178.431756899
 21
2.3606346831
  0
LINE
  5
2D0
100
AcDbEntity
  8
ASSI
100
AcDbLine
 62
7
  6
CONTINUOUS
 10
-179.5109921221
 20
2.3526416333
 11
-178.431756899
 21
2.3606346831
  0
LINE
  5
2D1
100
AcDbEntity
  8
0
100
AcDbLine
 62
7
  6
CONTINUOUS
 10
-180.6319979317
 20
2.3466623527
 11
-179.5109921221
 21
2.3526416333
  0
LINE
  5
2D2
100
AcDbEntity
  8
ASSI
100
AcDbLine
 62
7
  6
CONTINUOUS
 10
-180.6319979317
 20
2.3466623527
 11
-179.5109921221
 21
2.3526416333
  0
LINE
  5
2D3
100
AcDbEntity
  8
0
100
AcDbLine
 62
7
  6
CONTINUOUS
 10
-181.7824412263
 20
2.3427614166
 11
-180.6319979317
 21
2.3466623527
  0
LINE
  5
2D4
100
AcDbEntity
  8
ASSI
100
AcDbLine
 62
7
  6
CONTINUOUS
 10
-181.7824412263
 20
2.3427614166
 11
-180.6319979317
 21
2.3466623527
  0
LINE
  5
2D5
100
AcDbEntity
  8
0
100
AcDbLine
 62
7
  6
CONTINUOUS
 10
-182.9487162379
 20
2.3409810822
 11
-181.7824412263
 21
2.3427614166
  0
LINE
  5
2D6
100
AcDbEntity
  8
ASSI
100
AcDbLine
 62
7
  6
CONTINUOUS
 10
-182.9487162379
 20
2.3409810822
 11
-181.7824412263
 21
2.3427614166
  0
LINE
  5
2D7
100
AcDbEntity
  8
0
100
AcDbLine
 62
7
  6
CONTINUOUS
 10
-11.460608272
 20
2.2361280039
 11
-195.2195909433
 21
2.2361280039
  0
LINE
  5
2D8
100
AcDbEntity
  8
ASSI
100
AcDbLine
 62
7
  6
CONTINUOUS
 10
-11.460608272
 20
2.2361280039
 11
-195.2195909433
 21
2.2361280039
  0
LINE
  5
2D9
100
AcDbEntity
  8
0
100
AcDbLine
 62
7
  6
CONTINUOUS
 10
-190.8400996077
 20
2.340861052
 11
-182.9487162379
 21
2.3409810822
  0
LINE
  5
2DA
100
AcDbEntity
  8
ASSI
100
AcDbLine
 62
7
  6
CONTINUOUS
 10
-190.8400996077
 20
2.340861052
 11
-182.9487162379
 21
2.3409810822
  0
LINE
  5
2DB
100
AcDbEntity
  8
RACCORDO
100
AcDbLine
 62
7
  6
CONTINUOUS
 10
-195.7789223677
 20
2.3583134584
 11
-190.8400996077
 21
2.3583134584
  0
LINE
  5
2DC
100
AcDbEntity
  8
ASSI
100
AcDbLine
 62
7
  6
CONTINUOUS
 10
-195.7789223677
 20
2.3583134584
 11
-190.8400996077
 21
2.3583134584
  0
LINE
  5
2DD
100
AcDbEntity
  8
0
100
AcDbLine
 62
7
  6
CONTINUOUS
 10
-153.0900996077
 20
2.3583134584
 11
-151.5900996077
 21
2.3583134584
  0
LINE
  5
2DE
100
AcDbEntity
  8
ASSI
100
AcDbLine
 62
7
  6
CONTINUOUS
 10
-153.0900996077
 20
2.3583134584
 11
-151.5900996077
 21
2.3583134584
  0
LINE
  5
2DF
100
AcDbEntity
  8
0
100
AcDbLine
 62
7
  6
CONTINUOUS
 10
-125.0900996077
 20
2.3583134584
 11
-123.5900996077
 21
2.3583134584
  0
LINE
  5
2E0
100
AcDbEntity
  8
ASSI
100
AcDbLine
 62
7
  6
CONTINUOUS
 10
-125.0900996077
 20
2.3583134584
 11
-123.5900996077
 21
2.3583134584
  0
LINE
  5
2E1
100
AcDbEntity
  8
DRAFT
100
AcDbLine
 62
7
  6
CONTINUOUS
 10
-83.0900996077
 20
2.3583134584
 11
-81.5900996077
 21
2.3583134584
  0
LINE
  5
2E2
100
AcDbEntity
  8
ASSI
100
AcDbLine
 62
7
  6
CONTINUOUS
 10
-83.0900996077
 20
2.3583134584
 11
-81.5900996077
 21
2.3583134584
  0
LINE
  5
2E3
100
AcDbEntity
  8
DRAFT
100
AcDbLine
 62
7
  6
CONTINUOUS
 10
-55.0900996077
 20
2.3583134584
 11
-53.5900996077
 21
2.3583134584
  0
LINE
  5
2E4
100
AcDbEntity
  8
ASSI
100
AcDbLine
 62
7
  6
CONTINUOUS
 10
-55.0900996077
 20
2.3583134584
 11
-53.5900996077
 21
2.3583134584
  0
LINE
  5
2E5
100
AcDbEntity
  8
0
100
AcDbLine
 62
7
  6
CONTINUOUS
 10
-22.8400996077
 20
2.3583134584
 11
-10.9012768476
 21
2.3583134584
  0
LINE
  5
2E6
100
AcDbEntity
  8
RACCORDO
100
AcDbLine
 62
7
  6
CONTINUOUS
 10
-10.9012768476
 20
2.3583134584
 11
-22.8400996077
 21
2.3583134584
  0
LINE
  5
2E7
100
AcDbEntity
  8
ASSI
100
AcDbLine
 62
7
  6
CONTINUOUS
 10
-10.9012768476
 20
2.3583134584
 11
-22.8400996077
 21
2.3583134584
  0
LINE
  5
2E8
100
AcDbEntity
  8
0
100
AcDbLine
 62
7
  6
CONTINUOUS
 10
-190.8400996077
 20
2.3583134584
 11
-195.7789223677
 21
2.3583134584
  0
LINE
  5
2E9
100
AcDbEntity
  8
DRAFT
100
AcDbLine
 62
7
  6
CONTINUOUS
 10
-195.2048161215
 20
2.4361280039
 11
-166.9099198674
 21
2.4361280039
  0
LINE
  5
2EA
100
AcDbEntity
  8
DRAFT
100
AcDbLine
 62
7
  6
CONTINUOUS
 10
-159.7702793479
 20
2.4361280039
 11
-46.9099198674
 21
2.4361280039
  0
LINE
  5
2EB
100
AcDbEntity
  8
DRAFT
100
AcDbLine
 62
7
  6
CONTINUOUS
 10
-39.7702793479
 20
2.4361280039
 11
-11.4753830938
 21
2.4361280039
  0
LINE
  5
2EC
100
AcDbEntity
  8
DRAFT
100
AcDbLine
 62
7
  6
CONTINUOUS
 10
-166.8400996077
 20
2.5059482636
 11
-166.5900996077
 21
2.5059482636
  0
LINE
  5
2ED
100
AcDbEntity
  8
DRAFT
100
AcDbLine
 62
7
  6
CONTINUOUS
 10
-160.0900996077
 20
2.5059482636
 11
-159.8400996077
 21
2.5059482636
  0
LINE
  5
2EE
100
AcDbEntity
  8
DRAFT
100
AcDbLine
 62
7
  6
CONTINUOUS
 10
-46.8400996077
 20
2.5059482636
 11
-46.5900996077
 21
2.5059482636
  0
LINE
  5
2EF
100
AcDbEntity
  8
DRAFT
100
AcDbLine
 62
7
  6
CONTINUOUS
 10
-40.0900996077
 20
2.5059482636
 11
-39.8400996077
 21
2.5059482636
  0
LINE
  5
2F0
100
AcDbEntity
  8
0
100
AcDbLine
 62
7
  6
CONTINUOUS
 10
-46.5900996077
 20
4.0219922391
 11
-40.0900996077
 21
4.0219922391
  0
LINE
  5
2F1
100
AcDbEntity
  8
ASSI
100
AcDbLine
 62
7
  6
CONTINUOUS
 10
-46.5900996077
 20
4.0219922391
 11
-40.0900996077
 21
4.0219922391
  0
LINE
  5
2F2
100
AcDbEntity
  8
0
100
AcDbLine
 62
7
  6
CONTINUOUS
 10
-160.0900996077
 20
4.0219922391
 11
-166.5900996077
 21
4.0219922391
  0
LINE
  5
2F3
100
AcDbEntity
  8
ASSI
100
AcDbLine
 62
7
  6
CONTINUOUS
 10
-160.0900996077
 20
4.0219922391
 11
-166.5900996077
 21
4.0219922391
  0
LINE
  5
2F4
100
AcDbEntity
  8
0
100
AcDbLine
 62
253
  6
CONTINUOUS
 10
-208.8625664185
 20
4.2711227983
 11
-207.5567791251
 21
4.2711227983
  0
LINE
  5
2F5
100
AcDbEntity
  8
RACCORDO
100
AcDbLine
 62
253
  6
CONTINUOUS
 10
2.2376215484
 20
4.2711227983
 11
2.1823672032
 21
4.2711227983
  0
LINE
  5
2F6
100
AcDbEntity
  8
ASSI
100
AcDbLine
 62
253
  6
CONTINUOUS
 10
2.2376215484
 20
4.2711227983
 11
2.1823672032
 21
4.2711227983
  0
LINE
  5
2F7
100
AcDbEntity
  8
0
100
AcDbLine
 62
253
  6
CONTINUOUS
 10
2.1823672032
 20
4.2711227983
 11
0.8765799098
 21
4.2711227983
  0
LINE
  5
2F8
100
AcDbEntity
  8
RACCORDO
100
AcDbLine
 62
253
  6
CONTINUOUS
 10
-208.8625664185
 20
4.2711227983
 11
-208.9178207637
 21
4.2711227983
  0
LINE
  5
2F9
100
AcDbEntity
  8
ASSI
100
AcDbLine
 62
253
  6
CONTINUOUS
 10
-208.8625664185
 20
4.2711227983
 11
-208.9178207637
 21
4.2711227983
  0
LINE
  5
2FA
100
AcDbEntity
  8
DRAFT
100
AcDbLine
 62
7
  6
CONTINUOUS
 10
-166.8400996077
 20
4.5219922391
 11
-159.8400996077
 21
4.5219922391
  0
LINE
  5
2FB
100
AcDbEntity
  8
DRAFT
100
AcDbLine
 62
7
  6
CONTINUOUS
 10
-39.8400996077
 20
4.5219922391
 11
-46.8400996077
 21
4.5219922391
  0
LINE
  5
2FC
100
AcDbEntity
  8
DRAFT
100
AcDbLine
 62
7
  6
CONTINUOUS
 10
-39.7702793479
 20
4.5918124988
 11
-46.9099198674
 21
4.5918124988
  0
LINE
  5
2FD
100
AcDbEntity
  8
DRAFT
100
AcDbLine
 62
7
  6
CONTINUOUS
 10
-159.7702793479
 20
4.5918124988
 11
-166.9099198674
 21
4.5918124988
  0
LINE
  5
2FE
100
AcDbEntity
  8
0
100
AcDbLine
 62
253
  6
CONTINUOUS
 10
-210.1608354004
 20
5.6785804983
 11
-209.995720248
 21
5.6785804983
  0
LINE
  5
2FF
100
AcDbEntity
  8
0
100
AcDbLine
 62
253
  6
CONTINUOUS
 10
3.4806361851
 20
5.6785804983
 11
3.3155210327
 21
5.6785804983
  0
LINE
  5
300
100
AcDbEntity
  8
RACCORDO
100
AcDbLine
 62
253
  6
CONTINUOUS
 10
3.5152624016
 20
5.6785804983
 11
3.4806361851
 21
5.6785804983
  0
LINE
  5
301
100
AcDbEntity
  8
ASSI
100
AcDbLine
 62
253
  6
CONTINUOUS
 10
3.5152624016
 20
5.6785804983
 11
3.4806361851
 21
5.6785804983
  0
LINE
  5
302
100
AcDbEntity
  8
RACCORDO
100
AcDbLine
 62
253
  6
CONTINUOUS
 10
-210.1608354004
 20
5.6785804983
 11
-210.1954616169
 21
5.6785804983
  0
LINE
  5
303
100
AcDbEntity
  8
ASSI
100
AcDbLine
 62
253
  6
CONTINUOUS
 10
-210.1608354004
 20
5.6785804983
 11
-210.1954616169
 21
5.6785804983
  0
LINE
  5
304
100
AcDbEntity
  8
0
100
AcDbLine
 62
253
  6
CONTINUOUS
 10
3.497839214
 20
6.0134170231
 11
3.3306683204
 21
6.0134170231
  0
LINE
  5
305
100
AcDbEntity
  8
0
100
AcDbLine
 62
253
  6
CONTINUOUS
 10
-210.0108675357
 20
6.0134170231
 11
-210.1780384293
 21
6.0134170231
  0
LINE
  5
306
100
AcDbEntity
  8
RACCORDO
100
AcDbLine
 62
7
  6
CONTINUOUS
 10
3.5451155775
 20
6.2719922391
 11
3.3427320448
 21
6.2719922391
  0
LINE
  5
307
100
AcDbEntity
  8
ASSI
100
AcDbLine
 62
7
  6
CONTINUOUS
 10
3.5451155775
 20
6.2719922391
 11
3.3427320448
 21
6.2719922391
  0
LINE
  5
308
100
AcDbEntity
  8
RACCORDO
100
AcDbLine
 62
7
  6
CONTINUOUS
 10
-210.0229312601
 20
6.2719922391
 11
-210.2253147928
 21
6.2719922391
  0
LINE
  5
309
100
AcDbEntity
  8
ASSI
100
AcDbLine
 62
7
  6
CONTINUOUS
 10
-210.0229312601
 20
6.2719922391
 11
-210.2253147928
 21
6.2719922391
  0
LINE
  5
30A
100
AcDbEntity
  8
0
100
AcDbLine
 62
7
  6
CONTINUOUS
 10
-22.8400996077
 20
2.340861052
 11
-24.1214752328
 21
2.3413376115
  0
LINE
  5
30B
100
AcDbEntity
  8
ASSI
100
AcDbLine
 62
7
  6
CONTINUOUS
 10
-22.8400996077
 20
2.340861052
 11
-24.1214752328
 21
2.3413376115
  0
LINE
  5
30C
100
AcDbEntity
  8
0
100
AcDbLine
 62
7
  6
CONTINUOUS
 10
-24.1214752328
 20
2.3413376115
 11
-24.897757989
 21
2.3427614166
  0
LINE
  5
30D
100
AcDbEntity
  8
ASSI
100
AcDbLine
 62
7
  6
CONTINUOUS
 10
-24.1214752328
 20
2.3413376115
 11
-24.897757989
 21
2.3427614166
  0
LINE
  5
30E
100
AcDbEntity
  8
0
100
AcDbLine
 62
7
  6
CONTINUOUS
 10
-24.897757989
 20
2.3427614166
 11
-25.6675331119
 21
2.3451287185
  0
LINE
  5
30F
100
AcDbEntity
  8
ASSI
100
AcDbLine
 62
7
  6
CONTINUOUS
 10
-24.897757989
 20
2.3427614166
 11
-25.6675331119
 21
2.3451287185
  0
LINE
  5
310
100
AcDbEntity
  8
0
100
AcDbLine
 62
7
  6
CONTINUOUS
 10
-25.6675331119
 20
2.3451287185
 11
-26.4260635768
 21
2.3484287371
  0
LINE
  5
311
100
AcDbEntity
  8
ASSI
100
AcDbLine
 62
7
  6
CONTINUOUS
 10
-25.6675331119
 20
2.3451287185
 11
-26.4260635768
 21
2.3484287371
  0
LINE
  5
312
100
AcDbEntity
  8
0
100
AcDbLine
 62
7
  6
CONTINUOUS
 10
-26.4260635768
 20
2.3484287371
 11
-27.1692070932
 21
2.3526416333
  0
LINE
  5
313
100
AcDbEntity
  8
ASSI
100
AcDbLine
 62
7
  6
CONTINUOUS
 10
-26.4260635768
 20
2.3484287371
 11
-27.1692070932
 21
2.3526416333
  0
LINE
  5
314
100
AcDbEntity
  8
0
100
AcDbLine
 62
7
  6
CONTINUOUS
 10
-27.1692070932
 20
2.3526416333
 11
-27.8942404259
 21
2.3577522279
  0
LINE
  5
315
100
AcDbEntity
  8
ASSI
100
AcDbLine
 62
7
  6
CONTINUOUS
 10
-27.1692070932
 20
2.3526416333
 11
-27.8942404259
 21
2.3577522279
  0
LINE
  5
316
100
AcDbEntity
  8
0
100
AcDbLine
 62
7
  6
CONTINUOUS
 10
-27.8942404259
 20
2.3577522279
 11
-28.597115093
 21
2.3637347092
  0
LINE
  5
317
100
AcDbEntity
  8
ASSI
100
AcDbLine
 62
7
  6
CONTINUOUS
 10
-27.8942404259
 20
2.3577522279
 11
-28.597115093
 21
2.3637347092
  0
LINE
  5
318
100
AcDbEntity
  8
0
100
AcDbLine
 62
7
  6
CONTINUOUS
 10
-28.597115093
 20
2.3637347092
 11
-29.2740183574
 21
2.3705544617
  0
LINE
  5
319
100
AcDbEntity
  8
ASSI
100
AcDbLine
 62
7
  6
CONTINUOUS
 10
-28.597115093
 20
2.3637347092
 11
-29.2740183574
 21
2.3705544617
  0
LINE
  5
31A
100
AcDbEntity
  8
0
100
AcDbLine
 62
7
  6
CONTINUOUS
 10
-29.2740183574
 20
2.3705544617
 11
-29.9224694905
 21
2.3781866577
  0
LINE
  5
31B
100
AcDbEntity
  8
ASSI
100
AcDbLine
 62
7
  6
CONTINUOUS
 10
-29.2740183574
 20
2.3705544617
 11
-29.9224694905
 21
2.3781866577
  0
LINE
  5
31C
100
AcDbEntity
  8
0
100
AcDbLine
 62
7
  6
CONTINUOUS
 10
-29.9224694905
 20
2.3781866577
 11
-30.5388219662
 21
2.38659125
  0
LINE
  5
31D
100
AcDbEntity
  8
ASSI
100
AcDbLine
 62
7
  6
CONTINUOUS
 10
-29.9224694905
 20
2.3781866577
 11
-30.5388219662
 21
2.38659125
  0
LINE
  5
31E
100
AcDbEntity
  8
0
100
AcDbLine
 62
7
  6
CONTINUOUS
 10
-30.5388219662
 20
2.38659125
 11
-31.1197568055
 21
2.3957203706
  0
LINE
  5
31F
100
AcDbEntity
  8
ASSI
100
AcDbLine
 62
7
  6
CONTINUOUS
 10
-30.5388219662
 20
2.38659125
 11
-31.1197568055
 21
2.3957203706
  0
LINE
  5
320
100
AcDbEntity
  8
0
100
AcDbLine
 62
7
  6
CONTINUOUS
 10
-31.1197568055
 20
2.3957203706
 11
-31.6631446003
 21
2.4055406297
  0
LINE
  5
321
100
AcDbEntity
  8
ASSI
100
AcDbLine
 62
7
  6
CONTINUOUS
 10
-31.1197568055
 20
2.3957203706
 11
-31.6631446003
 21
2.4055406297
  0
LINE
  5
322
100
AcDbEntity
  8
0
100
AcDbLine
 62
7
  6
CONTINUOUS
 10
-31.6631446003
 20
2.4055406297
 11
-32.1659000996
 21
2.4159994865
  0
LINE
  5
323
100
AcDbEntity
  8
ASSI
100
AcDbLine
 62
7
  6
CONTINUOUS
 10
-31.6631446003
 20
2.4055406297
 11
-32.1659000996
 21
2.4159994865
  0
LINE
  5
324
100
AcDbEntity
  8
0
100
AcDbLine
 62
7
  6
CONTINUOUS
 10
-32.1659000996
 20
2.4159994865
 11
-32.6253527492
 21
2.4270378726
  0
LINE
  5
325
100
AcDbEntity
  8
ASSI
100
AcDbLine
 62
7
  6
CONTINUOUS
 10
-32.1659000996
 20
2.4159994865
 11
-32.6253527492
 21
2.4270378726
  0
LINE
  5
326
100
AcDbEntity
  8
0
100
AcDbLine
 62
7
  6
CONTINUOUS
 10
-32.6253527492
 20
2.4270378726
 11
-32.954195672
 21
2.4361280039
  0
LINE
  5
327
100
AcDbEntity
  8
ASSI
100
AcDbLine
 62
7
  6
CONTINUOUS
 10
-32.6253527492
 20
2.4270378726
 11
-32.954195672
 21
2.4361280039
  0
LINE
  5
328
100
AcDbEntity
  8
DRAFT
100
AcDbLine
 62
7
  6
CONTINUOUS
 10
-166.9099198674
 20
59.6078564743
 11
-166.8400996077
 21
59.5380362145
  0
LINE
  5
329
100
AcDbEntity
  8
RACCORDO
100
AcDbLine
 62
7
  6
CONTINUOUS
 10
-149.7773759014
 20
59.6078564743
 11
-149.7853000131
 21
59.6237059048
  0
LINE
  5
32A
100
AcDbEntity
  8
ASSI
100
AcDbLine
 62
7
  6
CONTINUOUS
 10
-149.7773759014
 20
59.6078564743
 11
-149.7853000131
 21
59.6237059048
  0
LINE
  5
32B
100
AcDbEntity
  8
RACCORDO
100
AcDbLine
 62
7
  6
CONTINUOUS
 10
-118.9028233139
 20
2.4361280039
 11
-118.8948992022
 21
2.4202785733
  0
LINE
  5
32C
100
AcDbEntity
  8
ASSI
100
AcDbLine
 62
7
  6
CONTINUOUS
 10
-118.9028233139
 20
2.4361280039
 11
-118.8948992022
 21
2.4202785733
  0
LINE
  5
32D
100
AcDbEntity
  8
RACCORDO
100
AcDbLine
 62
7
  6
CONTINUOUS
 10
-145.7773759014
 20
59.6078564743
 11
-145.7853000131
 21
59.6237059048
  0
LINE
  5
32E
100
AcDbEntity
  8
ASSI
100
AcDbLine
 62
7
  6
CONTINUOUS
 10
-145.7773759014
 20
59.6078564743
 11
-145.7853000131
 21
59.6237059048
  0
LINE
  5
32F
100
AcDbEntity
  8
0
100
AcDbLine
 62
7
  6
CONTINUOUS
 10
-123.5900996077
 20
2.3583134584
 11
-123.5900996077
 21
2.4361280039
  0
LINE
  5
330
100
AcDbEntity
  8
ASSI
100
AcDbLine
 62
7
  6
CONTINUOUS
 10
-123.5900996077
 20
2.3583134584
 11
-123.5900996077
 21
2.4361280039
  0
LINE
  5
331
100
AcDbEntity
  8
0
100
AcDbLine
 62
7
  6
CONTINUOUS
 10
-123.5900996077
 20
59.6078564743
 11
-123.5900996077
 21
59.6856710198
  0
LINE
  5
332
100
AcDbEntity
  8
ASSI
100
AcDbLine
 62
7
  6
CONTINUOUS
 10
-123.5900996077
 20
59.6078564743
 11
-123.5900996077
 21
59.6856710198
  0
LINE
  5
333
100
AcDbEntity
  8
RACCORDO
100
AcDbLine
 62
7
  6
CONTINUOUS
 10
-141.7773759014
 20
2.4361280039
 11
-141.7853000131
 21
2.4202785733
  0
LINE
  5
334
100
AcDbEntity
  8
ASSI
100
AcDbLine
 62
7
  6
CONTINUOUS
 10
-141.7773759014
 20
2.4361280039
 11
-141.7853000131
 21
2.4202785733
  0
LINE
  5
335
100
AcDbEntity
  8
RACCORDO
100
AcDbLine
 62
7
  6
CONTINUOUS
 10
-137.7773759014
 20
2.4361280039
 11
-137.7853000131
 21
2.4202785733
  0
LINE
  5
336
100
AcDbEntity
  8
ASSI
100
AcDbLine
 62
7
  6
CONTINUOUS
 10
-137.7773759014
 20
2.4361280039
 11
-137.7853000131
 21
2.4202785733
  0
LINE
  5
337
100
AcDbEntity
  8
RACCORDO
100
AcDbLine
 62
7
  6
CONTINUOUS
 10
-133.7773759014
 20
2.4361280039
 11
-133.7853000131
 21
2.4202785733
  0
LINE
  5
338
100
AcDbEntity
  8
ASSI
100
AcDbLine
 62
7
  6
CONTINUOUS
 10
-133.7773759014
 20
2.4361280039
 11
-133.7853000131
 21
2.4202785733
  0
LINE
  5
339
100
AcDbEntity
  8
DRAFT
100
AcDbLine
 62
7
  6
CONTINUOUS
 10
-159.8400996077
 20
4.5219922391
 11
-159.7702793479
 21
4.5918124988
  0
LINE
  5
33A
100
AcDbEntity
  8
DRAFT
100
AcDbLine
 62
7
  6
CONTINUOUS
 10
-159.8400996077
 20
57.5219922391
 11
-159.7702793479
 21
57.4521719794
  0
LINE
  5
33B
100
AcDbEntity
  8
RACCORDO
100
AcDbLine
 62
7
  6
CONTINUOUS
 10
-141.7773759014
 20
59.6078564743
 11
-141.7853000131
 21
59.6237059048
  0
LINE
  5
33C
100
AcDbEntity
  8
ASSI
100
AcDbLine
 62
7
  6
CONTINUOUS
 10
-141.7773759014
 20
59.6078564743
 11
-141.7853000131
 21
59.6237059048
  0
LINE
  5
33D
100
AcDbEntity
  8
RACCORDO
100
AcDbLine
 62
7
  6
CONTINUOUS
 10
-137.7773759014
 20
59.6078564743
 11
-137.7853000131
 21
59.6237059048
  0
LINE
  5
33E
100
AcDbEntity
  8
ASSI
100
AcDbLine
 62
7
  6
CONTINUOUS
 10
-137.7773759014
 20
59.6078564743
 11
-137.7853000131
 21
59.6237059048
  0
LINE
  5
33F
100
AcDbEntity
  8
RACCORDO
100
AcDbLine
 62
7
  6
CONTINUOUS
 10
-133.7773759014
 20
59.6078564743
 11
-133.7853000131
 21
59.6237059048
  0
LINE
  5
340
100
AcDbEntity
  8
ASSI
100
AcDbLine
 62
7
  6
CONTINUOUS
 10
-133.7773759014
 20
59.6078564743
 11
-133.7853000131
 21
59.6237059048
  0
LINE
  5
341
100
AcDbEntity
  8
RACCORDO
100
AcDbLine
 62
7
  6
CONTINUOUS
 10
-129.7773759014
 20
2.4361280039
 11
-129.7853000131
 21
2.4202785733
  0
LINE
  5
342
100
AcDbEntity
  8
ASSI
100
AcDbLine
 62
7
  6
CONTINUOUS
 10
-129.7773759014
 20
2.4361280039
 11
-129.7853000131
 21
2.4202785733
  0
LINE
  5
343
100
AcDbEntity
  8
RACCORDO
100
AcDbLine
 62
7
  6
CONTINUOUS
 10
-125.7773759014
 20
2.4361280039
 11
-125.7853000131
 21
2.4202785733
  0
LINE
  5
344
100
AcDbEntity
  8
ASSI
100
AcDbLine
 62
7
  6
CONTINUOUS
 10
-125.7773759014
 20
2.4361280039
 11
-125.7853000131
 21
2.4202785733
  0
LINE
  5
345
100
AcDbEntity
  8
RACCORDO
100
AcDbLine
 62
7
  6
CONTINUOUS
 10
-129.7773759014
 20
59.6078564743
 11
-129.7853000131
 21
59.6237059048
  0
LINE
  5
346
100
AcDbEntity
  8
ASSI
100
AcDbLine
 62
7
  6
CONTINUOUS
 10
-129.7773759014
 20
59.6078564743
 11
-129.7853000131
 21
59.6237059048
  0
LINE
  5
347
100
AcDbEntity
  8
RACCORDO
100
AcDbLine
 62
7
  6
CONTINUOUS
 10
-125.7773759014
 20
59.6078564743
 11
-125.7853000131
 21
59.6237059048
  0
LINE
  5
348
100
AcDbEntity
  8
ASSI
100
AcDbLine
 62
7
  6
CONTINUOUS
 10
-125.7773759014
 20
59.6078564743
 11
-125.7853000131
 21
59.6237059048
  0
LINE
  5
349
100
AcDbEntity
  8
RACCORDO
100
AcDbLine
 62
7
  6
CONTINUOUS
 10
-121.7773759014
 20
2.4361280039
 11
-121.7853000131
 21
2.4202785733
  0
LINE
  5
34A
100
AcDbEntity
  8
ASSI
100
AcDbLine
 62
7
  6
CONTINUOUS
 10
-121.7773759014
 20
2.4361280039
 11
-121.7853000131
 21
2.4202785733
  0
LINE
  5
34B
100
AcDbEntity
  8
RACCORDO
100
AcDbLine
 62
7
  6
CONTINUOUS
 10
-117.7773759014
 20
2.4361280039
 11
-117.7853000131
 21
2.4202785733
  0
LINE
  5
34C
100
AcDbEntity
  8
ASSI
100
AcDbLine
 62
7
  6
CONTINUOUS
 10
-117.7773759014
 20
2.4361280039
 11
-117.7853000131
 21
2.4202785733
  0
LINE
  5
34D
100
AcDbEntity
  8
0
100
AcDbLine
 62
7
  6
CONTINUOUS
 10
-11.2765915953
 20
59.5783242157
 11
-10.9012768476
 21
59.6856710198
  0
LINE
  5
34E
100
AcDbEntity
  8
ASSI
100
AcDbLine
 62
7
  6
CONTINUOUS
 10
-10.9012768476
 20
59.6856710198
 11
-10.8113232716
 21
59.711399369
  0
LINE
  5
34F
100
AcDbEntity
  8
RACCORDO
100
AcDbLine
 62
7
  6
CONTINUOUS
 10
-210.6273817783
 20
28.0219922391
 11
-210.8310724447
 21
28.0219922391
  0
LINE
  5
350
100
AcDbEntity
  8
ASSI
100
AcDbLine
 62
7
  6
CONTINUOUS
 10
-210.6273817783
 20
28.0219922391
 11
-210.8310724447
 21
28.0219922391
  0
LINE
  5
351
100
AcDbEntity
  8
0
100
AcDbLine
 62
7
  6
CONTINUOUS
 10
-11.2765915953
 20
2.4656602624
 11
-10.9012768476
 21
2.3583134584
  0
LINE
  5
352
100
AcDbEntity
  8
ASSI
100
AcDbLine
 62
7
  6
CONTINUOUS
 10
-10.9012768476
 20
2.3583134584
 11
-10.8113232716
 21
2.3325851092
  0
LINE
  5
353
100
AcDbEntity
  8
RACCORDO
100
AcDbLine
 62
7
  6
CONTINUOUS
 10
-121.7773759014
 20
59.6078564743
 11
-121.7853000131
 21
59.6237059048
  0
LINE
  5
354
100
AcDbEntity
  8
ASSI
100
AcDbLine
 62
7
  6
CONTINUOUS
 10
-121.7773759014
 20
59.6078564743
 11
-121.7853000131
 21
59.6237059048
  0
LINE
  5
355
100
AcDbEntity
  8
RACCORDO
100
AcDbLine
 62
7
  6
CONTINUOUS
 10
-117.7773759014
 20
59.6078564743
 11
-117.7853000131
 21
59.6237059048
  0
LINE
  5
356
100
AcDbEntity
  8
ASSI
100
AcDbLine
 62
7
  6
CONTINUOUS
 10
-117.7773759014
 20
59.6078564743
 11
-117.7853000131
 21
59.6237059048
  0
LINE
  5
357
100
AcDbEntity
  8
DRAFT
100
AcDbLine
 62
7
  6
CONTINUOUS
 10
-83.1290039173
 20
59.6078564743
 11
-83.0900996077
 21
59.6856710198
  0
LINE
  5
358
100
AcDbEntity
  8
ASSI
100
AcDbLine
 62
7
  6
CONTINUOUS
 10
-83.1290039173
 20
59.6078564743
 11
-83.0900996077
 21
59.6856710198
  0
LINE
  5
359
100
AcDbEntity
  8
0
100
AcDbLine
 62
7
  6
CONTINUOUS
 10
-195.40360762
 20
2.4656602624
 11
-195.7789223677
 21
2.3583134584
  0
LINE
  5
35A
100
AcDbEntity
  8
ASSI
100
AcDbLine
 62
7
  6
CONTINUOUS
 10
-195.7789223677
 20
2.3583134584
 11
-195.8688759437
 21
2.3325851092
  0
LINE
  5
35B
100
AcDbEntity
  8
RACCORDO
100
AcDbLine
 62
7
  6
CONTINUOUS
 10
-210.8310724447
 20
34.0219922391
 11
-210.6273817783
 21
34.0219922391
  0
LINE
  5
35C
100
AcDbEntity
  8
ASSI
100
AcDbLine
 62
7
  6
CONTINUOUS
 10
-210.8310724447
 20
34.0219922391
 11
-210.6273817783
 21
34.0219922391
  0
LINE
  5
35D
100
AcDbEntity
  8
0
100
AcDbLine
 62
7
  6
CONTINUOUS
 10
-195.40360762
 20
59.5783242157
 11
-195.7789223677
 21
59.6856710198
  0
LINE
  5
35E
100
AcDbEntity
  8
ASSI
100
AcDbLine
 62
7
  6
CONTINUOUS
 10
-195.7789223677
 20
59.6856710198
 11
-195.8688759437
 21
59.711399369
  0
LINE
  5
35F
100
AcDbEntity
  8
DRAFT
100
AcDbLine
 62
7
  6
CONTINUOUS
 10
-83.1290039173
 20
2.4361280039
 11
-83.0900996077
 21
2.3583134584
  0
LINE
  5
360
100
AcDbEntity
  8
ASSI
100
AcDbLine
 62
7
  6
CONTINUOUS
 10
-83.1290039173
 20
2.4361280039
 11
-83.0900996077
 21
2.3583134584
  0
LINE
  5
361
100
AcDbEntity
  8
DRAFT
100
AcDbLine
 62
7
  6
CONTINUOUS
 10
-83.0900996077
 20
59.6856710198
 11
-83.0900996077
 21
59.6078564743
  0
LINE
  5
362
100
AcDbEntity
  8
ASSI
100
AcDbLine
 62
7
  6
CONTINUOUS
 10
-83.0900996077
 20
59.6856710198
 11
-83.0900996077
 21
59.6078564743
  0
LINE
  5
363
100
AcDbEntity
  8
DRAFT
100
AcDbLine
 62
7
  6
CONTINUOUS
 10
-83.0900996077
 20
2.3583134584
 11
-83.0900996077
 21
2.4361280039
  0
LINE
  5
364
100
AcDbEntity
  8
ASSI
100
AcDbLine
 62
7
  6
CONTINUOUS
 10
-83.0900996077
 20
2.3583134584
 11
-83.0900996077
 21
2.4361280039
  0
LINE
  5
365
100
AcDbEntity
  8
DRAFT
100
AcDbLine
 62
7
  6
CONTINUOUS
 10
-81.5900996077
 20
59.6856710198
 11
-81.5900996077
 21
59.6078564743
  0
LINE
  5
366
100
AcDbEntity
  8
ASSI
100
AcDbLine
 62
7
  6
CONTINUOUS
 10
-81.5900996077
 20
59.6856710198
 11
-81.5900996077
 21
59.6078564743
  0
LINE
  5
367
100
AcDbEntity
  8
DRAFT
100
AcDbLine
 62
7
  6
CONTINUOUS
 10
-81.5900996077
 20
2.3583134584
 11
-81.5900996077
 21
2.4361280039
  0
LINE
  5
368
100
AcDbEntity
  8
ASSI
100
AcDbLine
 62
7
  6
CONTINUOUS
 10
-81.5900996077
 20
2.3583134584
 11
-81.5900996077
 21
2.4361280039
  0
LINE
  5
369
100
AcDbEntity
  8
DRAFT
100
AcDbLine
 62
7
  6
CONTINUOUS
 10
-46.8400996077
 20
57.5219922391
 11
-46.9099198674
 21
57.4521719794
  0
LINE
  5
36A
100
AcDbEntity
  8
DRAFT
100
AcDbLine
 62
7
  6
CONTINUOUS
 10
-46.8400996077
 20
4.5219922391
 11
-46.9099198674
 21
4.5918124988
  0
LINE
  5
36B
100
AcDbEntity
  8
DRAFT
100
AcDbLine
 62
7
  6
CONTINUOUS
 10
-55.1290039173
 20
59.6078564743
 11
-55.0900996077
 21
59.6856710198
  0
LINE
  5
36C
100
AcDbEntity
  8
ASSI
100
AcDbLine
 62
7
  6
CONTINUOUS
 10
-55.1290039173
 20
59.6078564743
 11
-55.0900996077
 21
59.6856710198
  0
LINE
  5
36D
100
AcDbEntity
  8
DRAFT
100
AcDbLine
 62
7
  6
CONTINUOUS
 10
-39.7702793479
 20
59.6078564743
 11
-39.8400996077
 21
59.5380362145
  0
LINE
  5
36E
100
AcDbEntity
  8
0
100
AcDbLine
 62
7
  6
CONTINUOUS
 10
-32.9541955716
 20
59.6078564743
 11
-32.6253625067
 21
59.616946353
  0
LINE
  5
36F
100
AcDbEntity
  8
ASSI
100
AcDbLine
 62
7
  6
CONTINUOUS
 10
-32.9541955716
 20
59.6078564743
 11
-32.6253625067
 21
59.616946353
  0
LINE
  5
370
100
AcDbEntity
  8
0
100
AcDbLine
 62
7
  6
CONTINUOUS
 10
-32.6253625067
 20
59.616946353
 11
-32.1659071366
 21
59.627984834
  0
LINE
  5
371
100
AcDbEntity
  8
ASSI
100
AcDbLine
 62
7
  6
CONTINUOUS
 10
-32.6253625067
 20
59.616946353
 11
-32.1659071366
 21
59.627984834
  0
LINE
  5
372
100
AcDbEntity
  8
0
100
AcDbLine
 62
7
  6
CONTINUOUS
 10
-32.1659071366
 20
59.627984834
 11
-31.6631477888
 21
59.6384437866
  0
LINE
  5
373
100
AcDbEntity
  8
ASSI
100
AcDbLine
 62
7
  6
CONTINUOUS
 10
-32.1659071366
 20
59.627984834
 11
-31.6631477888
 21
59.6384437866
  0
LINE
  5
374
100
AcDbEntity
  8
0
100
AcDbLine
 62
7
  6
CONTINUOUS
 10
-31.6631477888
 20
59.6384437866
 11
-31.1197552225
 21
59.648264134
  0
LINE
  5
375
100
AcDbEntity
  8
ASSI
100
AcDbLine
 62
7
  6
CONTINUOUS
 10
-31.6631477888
 20
59.6384437866
 11
-31.1197552225
 21
59.648264134
  0
LINE
  5
376
100
AcDbEntity
  8
0
100
AcDbLine
 62
7
  6
CONTINUOUS
 10
-31.1197552225
 20
59.648264134
 11
-30.538815087
 21
59.6573933288
  0
LINE
  5
377
100
AcDbEntity
  8
ASSI
100
AcDbLine
 62
7
  6
CONTINUOUS
 10
-31.1197552225
 20
59.648264134
 11
-30.538815087
 21
59.6573933288
  0
LINE
  5
378
100
AcDbEntity
  8
0
100
AcDbLine
 62
7
  6
CONTINUOUS
 10
-30.538815087
 20
59.6573933288
 11
-29.9224570756
 21
59.6657979778
  0
LINE
  5
379
100
AcDbEntity
  8
ASSI
100
AcDbLine
 62
7
  6
CONTINUOUS
 10
-30.538815087
 20
59.6573933288
 11
-29.9224570756
 21
59.6657979778
  0
LINE
  5
37A
100
AcDbEntity
  8
0
100
AcDbLine
 62
7
  6
CONTINUOUS
 10
-29.9224570756
 20
59.6657979778
 11
-29.2740006467
 21
59.6734302091
  0
LINE
  5
37B
100
AcDbEntity
  8
ASSI
100
AcDbLine
 62
7
  6
CONTINUOUS
 10
-29.9224570756
 20
59.6657979778
 11
-29.2740006467
 21
59.6734302091
  0
LINE
  5
37C
100
AcDbEntity
  8
0
100
AcDbLine
 62
7
  6
CONTINUOUS
 10
-29.2740006467
 20
59.6734302091
 11
-28.5970928816
 21
59.6802499752
  0
LINE
  5
37D
100
AcDbEntity
  8
ASSI
100
AcDbLine
 62
7
  6
CONTINUOUS
 10
-29.2740006467
 20
59.6734302091
 11
-28.5970928816
 21
59.6802499752
  0
LWPOLYLINE
  5
37E
100
AcDbEntity
  8
RACCORDO
100
AcDbPolyline
 62
7
  6
CONTINUOUS
 90
10
 70
0
 10
-195.5193206204
 20
61.2469922391
 10
-195.568096362
 20
61.2465844238
 10
-195.6169563246
 20
61.2453798054
 10
-195.6658874241
 20
61.2433739645
 10
-195.7149412466
 20
61.240558433
 10
-195.7640394376
 20
61.2369313479
 10
-195.812974487
 20
61.2325080388
 10
-195.8616691645
 20
61.2273018624
 10
-195.9101757408
 20
61.2213136144
 10
-195.958481923
 20
61.2145495891
  0
LWPOLYLINE
  5
37F
100
AcDbEntity
  8
ASSI
100
AcDbPolyline
 62
7
  6
CONTINUOUS
 90
10
 70
0
 10
-195.5193206204
 20
61.2469922391
 10
-195.568096362
 20
61.2465844238
 10
-195.6169563246
 20
61.2453798054
 10
-195.6658874241
 20
61.2433739645
 10
-195.7149412466
 20
61.240558433
 10
-195.7640394376
 20
61.2369313479
 10
-195.812974487
 20
61.2325080388
 10
-195.8616691645
 20
61.2273018624
 10
-195.9101757408
 20
61.2213136144
 10
-195.958481923
 20
61.2145495891
  0
LINE
  5
380
100
AcDbEntity
  8
0
100
AcDbLine
 62
7
  6
CONTINUOUS
 10
-28.5970928816
 20
59.6802499752
 11
-27.894214859
 21
59.6862324489
  0
LINE
  5
381
100
AcDbEntity
  8
ASSI
100
AcDbLine
 62
7
  6
CONTINUOUS
 10
-28.5970928816
 20
59.6802499752
 11
-27.894214859
 21
59.6862324489
  0
LINE
  5
382
100
AcDbEntity
  8
0
100
AcDbLine
 62
7
  6
CONTINUOUS
 10
-27.894214859
 20
59.6862324489
 11
-27.1691798514
 21
59.6913430174
  0
LINE
  5
383
100
AcDbEntity
  8
ASSI
100
AcDbLine
 62
7
  6
CONTINUOUS
 10
-27.894214859
 20
59.6862324489
 11
-27.1691798514
 21
59.6913430174
  0
LINE
  5
384
100
AcDbEntity
  8
0
100
AcDbLine
 62
7
  6
CONTINUOUS
 10
-27.1691798514
 20
59.6913430174
 11
-26.4260367078
 21
59.6955558757
  0
LINE
  5
385
100
AcDbEntity
  8
ASSI
100
AcDbLine
 62
7
  6
CONTINUOUS
 10
-27.1691798514
 20
59.6913430174
 11
-26.4260367078
 21
59.6955558757
  0
LINE
  5
386
100
AcDbEntity
  8
0
100
AcDbLine
 62
7
  6
CONTINUOUS
 10
-26.4260367078
 20
59.6955558757
 11
-25.6675088936
 21
59.6988558495
  0
LINE
  5
387
100
AcDbEntity
  8
ASSI
100
AcDbLine
 62
7
  6
CONTINUOUS
 10
-26.4260367078
 20
59.6955558757
 11
-25.6675088936
 21
59.6988558495
  0
LINE
  5
388
100
AcDbEntity
  8
0
100
AcDbLine
 62
7
  6
CONTINUOUS
 10
-25.6675088936
 20
59.6988558495
 11
-24.8977390178
 21
59.7012231076
  0
LINE
  5
389
100
AcDbEntity
  8
ASSI
100
AcDbLine
 62
7
  6
CONTINUOUS
 10
-25.6675088936
 20
59.6988558495
 11
-24.8977390178
 21
59.7012231076
  0
LINE
  5
38A
100
AcDbEntity
  8
0
100
AcDbLine
 62
7
  6
CONTINUOUS
 10
-24.8977390178
 20
59.7012231076
 11
-24.1214643115
 21
59.7026468817
  0
LINE
  5
38B
100
AcDbEntity
  8
ASSI
100
AcDbLine
 62
7
  6
CONTINUOUS
 10
-24.8977390178
 20
59.7012231076
 11
-24.1214643115
 21
59.7026468817
  0
LINE
  5
38C
100
AcDbEntity
  8
RACCORDO
100
AcDbLine
 62
7
  6
CONTINUOUS
 10
-210.2253147928
 20
55.7719922391
 11
-210.0229312601
 21
55.7719922391
  0
LINE
  5
38D
100
AcDbEntity
  8
ASSI
100
AcDbLine
 62
7
  6
CONTINUOUS
 10
-210.2253147928
 20
55.7719922391
 11
-210.0229312601
 21
55.7719922391
  0
LINE
  5
38E
100
AcDbEntity
  8
RACCORDO
100
AcDbLine
 62
7
  6
CONTINUOUS
 10
3.3427320448
 20
55.7719922391
 11
3.5451155775
 21
55.7719922391
  0
LINE
  5
38F
100
AcDbEntity
  8
ASSI
100
AcDbLine
 62
7
  6
CONTINUOUS
 10
3.3427320448
 20
55.7719922391
 11
3.5451155775
 21
55.7719922391
  0
LINE
  5
390
100
AcDbEntity
  8
0
100
AcDbLine
 62
253
  6
CONTINUOUS
 10
-210.1780384293
 20
56.0305674551
 11
-210.0108675357
 21
56.0305674551
  0
LINE
  5
391
100
AcDbEntity
  8
0
100
AcDbLine
 62
253
  6
CONTINUOUS
 10
3.3306683204
 20
56.0305674551
 11
3.497839214
 21
56.0305674551
  0
LINE
  5
392
100
AcDbEntity
  8
0
100
AcDbLine
 62
253
  6
CONTINUOUS
 10
-210.1608354004
 20
56.3654039799
 11
-209.995720248
 21
56.3654039799
  0
LINE
  5
393
100
AcDbEntity
  8
0
100
AcDbLine
 62
253
  6
CONTINUOUS
 10
3.4806361851
 20
56.3654039799
 11
3.3155210327
 21
56.3654039799
  0
LINE
  5
394
100
AcDbEntity
  8
RACCORDO
100
AcDbLine
 62
253
  6
CONTINUOUS
 10
3.5152624016
 20
56.3654039799
 11
3.4806361851
 21
56.3654039799
  0
LINE
  5
395
100
AcDbEntity
  8
ASSI
100
AcDbLine
 62
253
  6
CONTINUOUS
 10
3.5152624016
 20
56.3654039799
 11
3.4806361851
 21
56.3654039799
  0
LINE
  5
396
100
AcDbEntity
  8
RACCORDO
100
AcDbLine
 62
253
  6
CONTINUOUS
 10
-210.1608354004
 20
56.3654039799
 11
-210.1954616169
 21
56.3654039799
  0
LINE
  5
397
100
AcDbEntity
  8
ASSI
100
AcDbLine
 62
253
  6
CONTINUOUS
 10
-210.1608354004
 20
56.3654039799
 11
-210.1954616169
 21
56.3654039799
  0
LINE
  5
398
100
AcDbEntity
  8
DRAFT
100
AcDbLine
 62
7
  6
CONTINUOUS
 10
-166.9099198674
 20
57.4521719794
 11
-159.7702793479
 21
57.4521719794
  0
LINE
  5
399
100
AcDbEntity
  8
DRAFT
100
AcDbLine
 62
7
  6
CONTINUOUS
 10
-46.9099198674
 20
57.4521719794
 11
-39.7702793479
 21
57.4521719794
  0
LINE
  5
39A
100
AcDbEntity
  8
DRAFT
100
AcDbLine
 62
7
  6
CONTINUOUS
 10
-166.8400996077
 20
57.5219922391
 11
-159.8400996077
 21
57.5219922391
  0
LINE
  5
39B
100
AcDbEntity
  8
DRAFT
100
AcDbLine
 62
7
  6
CONTINUOUS
 10
-39.8400996077
 20
57.5219922391
 11
-46.8400996077
 21
57.5219922391
  0
LINE
  5
39C
100
AcDbEntity
  8
0
100
AcDbLine
 62
253
  6
CONTINUOUS
 10
-208.8625664185
 20
57.7728616798
 11
-207.5567791251
 21
57.7728616798
  0
LINE
  5
39D
100
AcDbEntity
  8
RACCORDO
100
AcDbLine
 62
253
  6
CONTINUOUS
 10
2.2376215484
 20
57.7728616798
 11
2.1823672032
 21
57.7728616798
  0
LINE
  5
39E
100
AcDbEntity
  8
ASSI
100
AcDbLine
 62
253
  6
CONTINUOUS
 10
2.2376215484
 20
57.7728616798
 11
2.1823672032
 21
57.7728616798
  0
LINE
  5
39F
100
AcDbEntity
  8
0
100
AcDbLine
 62
253
  6
CONTINUOUS
 10
2.1823672032
 20
57.7728616798
 11
0.8765799098
 21
57.7728616798
  0
LINE
  5
3A0
100
AcDbEntity
  8
RACCORDO
100
AcDbLine
 62
253
  6
CONTINUOUS
 10
-208.8625664185
 20
57.7728616798
 11
-208.9178207637
 21
57.7728616798
  0
LINE
  5
3A1
100
AcDbEntity
  8
ASSI
100
AcDbLine
 62
253
  6
CONTINUOUS
 10
-208.8625664185
 20
57.7728616798
 11
-208.9178207637
 21
57.7728616798
  0
LINE
  5
3A2
100
AcDbEntity
  8
0
100
AcDbLine
 62
7
  6
CONTINUOUS
 10
-46.5900996077
 20
58.0219922391
 11
-40.0900996077
 21
58.0219922391
  0
LINE
  5
3A3
100
AcDbEntity
  8
ASSI
100
AcDbLine
 62
7
  6
CONTINUOUS
 10
-46.5900996077
 20
58.0219922391
 11
-40.0900996077
 21
58.0219922391
  0
LINE
  5
3A4
100
AcDbEntity
  8
0
100
AcDbLine
 62
7
  6
CONTINUOUS
 10
-160.0900996077
 20
58.0219922391
 11
-166.5900996077
 21
58.0219922391
  0
LINE
  5
3A5
100
AcDbEntity
  8
ASSI
100
AcDbLine
 62
7
  6
CONTINUOUS
 10
-160.0900996077
 20
58.0219922391
 11
-166.5900996077
 21
58.0219922391
  0
LINE
  5
3A6
100
AcDbEntity
  8
DRAFT
100
AcDbLine
 62
7
  6
CONTINUOUS
 10
-166.8400996077
 20
59.5380362145
 11
-166.5900996077
 21
59.5380362145
  0
LINE
  5
3A7
100
AcDbEntity
  8
DRAFT
100
AcDbLine
 62
7
  6
CONTINUOUS
 10
-160.0900996077
 20
59.5380362145
 11
-159.8400996077
 21
59.5380362145
  0
LINE
  5
3A8
100
AcDbEntity
  8
DRAFT
100
AcDbLine
 62
7
  6
CONTINUOUS
 10
-46.8400996077
 20
59.5380362145
 11
-46.5900996077
 21
59.5380362145
  0
LINE
  5
3A9
100
AcDbEntity
  8
DRAFT
100
AcDbLine
 62
7
  6
CONTINUOUS
 10
-40.0900996077
 20
59.5380362145
 11
-39.8400996077
 21
59.5380362145
  0
LINE
  5
3AA
100
AcDbEntity
  8
DRAFT
100
AcDbLine
 62
7
  6
CONTINUOUS
 10
-11.4753830938
 20
59.6078564743
 11
-39.7702793479
 21
59.6078564743
  0
LINE
  5
3AB
100
AcDbEntity
  8
DRAFT
100
AcDbLine
 62
7
  6
CONTINUOUS
 10
-46.9099198674
 20
59.6078564743
 11
-159.7702793479
 21
59.6078564743
  0
LINE
  5
3AC
100
AcDbEntity
  8
DRAFT
100
AcDbLine
 62
7
  6
CONTINUOUS
 10
-166.9099198674
 20
59.6078564743
 11
-195.2048161215
 21
59.6078564743
  0
LINE
  5
3AD
100
AcDbEntity
  8
RACCORDO
100
AcDbLine
 62
7
  6
CONTINUOUS
 10
-195.7789223677
 20
59.6856710198
 11
-190.8400996077
 21
59.6856710198
  0
LINE
  5
3AE
100
AcDbEntity
  8
ASSI
100
AcDbLine
 62
7
  6
CONTINUOUS
 10
-195.7789223677
 20
59.6856710198
 11
-190.8400996077
 21
59.6856710198
  0
LINE
  5
3AF
100
AcDbEntity
  8
0
100
AcDbLine
 62
7
  6
CONTINUOUS
 10
-153.0900996077
 20
59.6856710198
 11
-151.5900996077
 21
59.6856710198
  0
LINE
  5
3B0
100
AcDbEntity
  8
ASSI
100
AcDbLine
 62
7
  6
CONTINUOUS
 10
-153.0900996077
 20
59.6856710198
 11
-151.5900996077
 21
59.6856710198
  0
LINE
  5
3B1
100
AcDbEntity
  8
0
100
AcDbLine
 62
7
  6
CONTINUOUS
 10
-125.0900996077
 20
59.6856710198
 11
-123.5900996077
 21
59.6856710198
  0
LINE
  5
3B2
100
AcDbEntity
  8
ASSI
100
AcDbLine
 62
7
  6
CONTINUOUS
 10
-125.0900996077
 20
59.6856710198
 11
-123.5900996077
 21
59.6856710198
  0
LINE
  5
3B3
100
AcDbEntity
  8
DRAFT
100
AcDbLine
 62
7
  6
CONTINUOUS
 10
-83.0900996077
 20
59.6856710198
 11
-81.5900996077
 21
59.6856710198
  0
LINE
  5
3B4
100
AcDbEntity
  8
ASSI
100
AcDbLine
 62
7
  6
CONTINUOUS
 10
-83.0900996077
 20
59.6856710198
 11
-81.5900996077
 21
59.6856710198
  0
LINE
  5
3B5
100
AcDbEntity
  8
DRAFT
100
AcDbLine
 62
7
  6
CONTINUOUS
 10
-55.0900996077
 20
59.6856710198
 11
-53.5900996077
 21
59.6856710198
  0
LINE
  5
3B6
100
AcDbEntity
  8
ASSI
100
AcDbLine
 62
7
  6
CONTINUOUS
 10
-55.0900996077
 20
59.6856710198
 11
-53.5900996077
 21
59.6856710198
  0
LINE
  5
3B7
100
AcDbEntity
  8
0
100
AcDbLine
 62
7
  6
CONTINUOUS
 10
-22.8400996077
 20
59.6856710198
 11
-10.9012768476
 21
59.6856710198
  0
LINE
  5
3B8
100
AcDbEntity
  8
RACCORDO
100
AcDbLine
 62
7
  6
CONTINUOUS
 10
-10.9012768476
 20
59.6856710198
 11
-22.8400996077
 21
59.6856710198
  0
LINE
  5
3B9
100
AcDbEntity
  8
ASSI
100
AcDbLine
 62
7
  6
CONTINUOUS
 10
-10.9012768476
 20
59.6856710198
 11
-22.8400996077
 21
59.6856710198
  0
LINE
  5
3BA
100
AcDbEntity
  8
0
100
AcDbLine
 62
7
  6
CONTINUOUS
 10
-190.8400996077
 20
59.6856710198
 11
-195.7789223677
 21
59.6856710198
  0
LINE
  5
3BB
100
AcDbEntity
  8
0
100
AcDbLine
 62
7
  6
CONTINUOUS
 10
-24.1214643115
 20
59.7026468817
 11
-22.8400996077
 21
59.7031234262
  0
LINE
  5
3BC
100
AcDbEntity
  8
ASSI
100
AcDbLine
 62
7
  6
CONTINUOUS
 10
-24.1214643115
 20
59.7026468817
 11
-22.8400996077
 21
59.7031234262
  0
LINE
  5
3BD
100
AcDbEntity
  8
0
100
AcDbLine
 62
7
  6
CONTINUOUS
 10
-11.460608272
 20
59.8078564743
 11
-195.2195909433
 21
59.8078564743
  0
LINE
  5
3BE
100
AcDbEntity
  8
ASSI
100
AcDbLine
 62
7
  6
CONTINUOUS
 10
-11.460608272
 20
59.8078564743
 11
-195.2195909433
 21
59.8078564743
  0
LINE
  5
3BF
100
AcDbEntity
  8
RACCORDO
100
AcDbLine
 62
7
  6
CONTINUOUS
 10
-11.1834996096
 20
60.9407819167
 11
-195.4966996057
 21
60.9407819167
  0
LINE
  5
3C0
100
AcDbEntity
  8
ASSI
100
AcDbLine
 62
7
  6
CONTINUOUS
 10
-11.1834996096
 20
60.9407819167
 11
-195.4966996057
 21
60.9407819167
  0
LINE
  5
3C1
100
AcDbEntity
  8
RACCORDO
100
AcDbLine
 62
7
  6
CONTINUOUS
 10
-11.1608785949
 20
61.2469922391
 11
-195.5193206204
 21
61.2469922391
  0
LINE
  5
3C2
100
AcDbEntity
  8
ASSI
100
AcDbLine
 62
7
  6
CONTINUOUS
 10
-11.1608785949
 20
61.2469922391
 11
-195.5193206204
 21
61.2469922391
  0
LINE
  5
3C3
100
AcDbEntity
  8
0
100
AcDbLine
 62
7
  6
CONTINUOUS
 10
-182.5587349038
 20
59.7026468817
 11
-190.8400996077
 21
59.7031234262
  0
LINE
  5
3C4
100
AcDbEntity
  8
ASSI
100
AcDbLine
 62
7
  6
CONTINUOUS
 10
-182.5587349038
 20
59.7026468817
 11
-190.8400996077
 21
59.7031234262
  0
LINE
  5
3C5
100
AcDbEntity
  8
0
100
AcDbLine
 62
7
  6
CONTINUOUS
 10
-181.3961726421
 20
59.7001558535
 11
-182.5587349038
 21
59.7026468817
  0
LINE
  5
3C6
100
AcDbEntity
  8
ASSI
100
AcDbLine
 62
7
  6
CONTINUOUS
 10
-181.3961726421
 20
59.7001558535
 11
-182.5587349038
 21
59.7026468817
  0
LINE
  5
3C7
100
AcDbEntity
  8
0
100
AcDbLine
 62
7
  6
CONTINUOUS
 10
-180.2541625075
 20
59.6955558757
 11
-181.3961726421
 21
59.7001558535
  0
LINE
  5
3C8
100
AcDbEntity
  8
ASSI
100
AcDbLine
 62
7
  6
CONTINUOUS
 10
-180.2541625075
 20
59.6955558757
 11
-181.3961726421
 21
59.7001558535
  0
LINE
  5
3C9
100
AcDbEntity
  8
0
100
AcDbLine
 62
7
  6
CONTINUOUS
 10
-179.1457375098
 20
59.6888965209
 11
-180.2541625075
 21
59.6955558757
  0
LINE
  5
3CA
100
AcDbEntity
  8
ASSI
100
AcDbLine
 62
7
  6
CONTINUOUS
 10
-179.1457375098
 20
59.6888965209
 11
-180.2541625075
 21
59.6955558757
  0
LWPOLYLINE
  5
3CB
100
AcDbEntity
  8
RACCORDO
100
AcDbPolyline
 62
7
  6
CONTINUOUS
 90
10
 70
0
 10
-11.1616881806
 20
61.2469922391
 10
-11.1125390971
 20
61.2465915097
 10
-11.0634025106
 20
61.2453849915
 10
-11.0142916116
 20
61.2433729721
 10
-10.9652190854
 20
61.2405559223
 10
-10.9161986078
 20
61.2369345782
 10
-10.8672448347
 20
61.2325100224
 10
-10.8183714015
 20
61.2272835366
 10
-10.7695909251
 20
61.2212565191
 10
-10.7209164951
 20
61.2144306235
  0
LWPOLYLINE
  5
3CC
100
AcDbEntity
  8
ASSI
100
AcDbPolyline
 62
7
  6
CONTINUOUS
 90
10
 70
0
 10
-11.1616881806
 20
61.2469922391
 10
-11.1125390971
 20
61.2465915097
 10
-11.0634025106
 20
61.2453849915
 10
-11.0142916116
 20
61.2433729721
 10
-10.9652190854
 20
61.2405559223
 10
-10.9161986078
 20
61.2369345782
 10
-10.8672448347
 20
61.2325100224
 10
-10.8183714015
 20
61.2272835366
 10
-10.7695909251
 20
61.2212565191
 10
-10.7209164951
 20
61.2144306235
  0
LINE
  5
3CD
100
AcDbEntity
  8
0
100
AcDbLine
 62
7
  6
CONTINUOUS
 10
-178.0831063338
 20
59.6802499752
 11
-179.1457375098
 21
59.6888965209
  0
LINE
  5
3CE
100
AcDbEntity
  8
ASSI
100
AcDbLine
 62
7
  6
CONTINUOUS
 10
-178.0831063338
 20
59.6802499752
 11
-179.1457375098
 21
59.6888965209
  0
LINE
  5
3CF
100
AcDbEntity
  8
0
100
AcDbLine
 62
7
  6
CONTINUOUS
 10
-177.0779654645
 20
59.6697104677
 11
-178.0831063338
 21
59.6802499752
  0
LINE
  5
3D0
100
AcDbEntity
  8
ASSI
100
AcDbLine
 62
7
  6
CONTINUOUS
 10
-177.0779654645
 20
59.6697104677
 11
-178.0831063338
 21
59.6802499752
  0
LINE
  5
3D1
100
AcDbEntity
  8
0
100
AcDbLine
 62
7
  6
CONTINUOUS
 10
-176.4455582443
 20
59.6616920275
 11
-177.0779654645
 21
59.6697104677
  0
LINE
  5
3D2
100
AcDbEntity
  8
ASSI
100
AcDbLine
 62
7
  6
CONTINUOUS
 10
-176.4455582443
 20
59.6616920275
 11
-177.0779654645
 21
59.6697104677
  0
LINE
  5
3D3
100
AcDbEntity
  8
0
100
AcDbLine
 62
7
  6
CONTINUOUS
 10
-175.8463348797
 20
59.652917585
 11
-176.4455582443
 21
59.6616920275
  0
LINE
  5
3D4
100
AcDbEntity
  8
ASSI
100
AcDbLine
 62
7
  6
CONTINUOUS
 10
-175.8463348797
 20
59.652917585
 11
-176.4455582443
 21
59.6616920275
  0
LINE
  5
3D5
100
AcDbEntity
  8
0
100
AcDbLine
 62
7
  6
CONTINUOUS
 10
-175.2836779734
 20
59.6434336379
 11
-175.8463348797
 21
59.652917585
  0
LINE
  5
3D6
100
AcDbEntity
  8
ASSI
100
AcDbLine
 62
7
  6
CONTINUOUS
 10
-175.2836779734
 20
59.6434336379
 11
-175.8463348797
 21
59.652917585
  0
LINE
  5
3D7
100
AcDbEntity
  8
0
100
AcDbLine
 62
7
  6
CONTINUOUS
 10
-174.7606020164
 20
59.6332939879
 11
-175.2836779734
 21
59.6434336379
  0
LINE
  5
3D8
100
AcDbEntity
  8
ASSI
100
AcDbLine
 62
7
  6
CONTINUOUS
 10
-174.7606020164
 20
59.6332939879
 11
-175.2836779734
 21
59.6434336379
  0
LINE
  5
3D9
100
AcDbEntity
  8
0
100
AcDbLine
 62
7
  6
CONTINUOUS
 10
-174.279023226
 20
59.6225357911
 11
-174.7606020164
 21
59.6332939879
  0
LINE
  5
3DA
100
AcDbEntity
  8
ASSI
100
AcDbLine
 62
7
  6
CONTINUOUS
 10
-174.279023226
 20
59.6225357911
 11
-174.7606020164
 21
59.6332939879
  0
LINE
  5
3DB
100
AcDbEntity
  8
0
100
AcDbLine
 62
7
  6
CONTINUOUS
 10
-173.7260036438
 20
59.6078564743
 11
-174.279023226
 21
59.6225357911
  0
LINE
  5
3DC
100
AcDbEntity
  8
ASSI
100
AcDbLine
 62
7
  6
CONTINUOUS
 10
-173.7260036438
 20
59.6078564743
 11
-174.279023226
 21
59.6225357911
  0
LINE
  5
3DD
100
AcDbEntity
  8
DRAFT
100
AcDbLine
 62
7
  6
CONTINUOUS
 10
-39.7702793479
 20
2.4361280039
 11
-39.8400996077
 21
2.5059482636
  0
LINE
  5
3DE
100
AcDbEntity
  8
DRAFT
100
AcDbLine
 62
7
  6
CONTINUOUS
 10
-55.1290039173
 20
2.4361280039
 11
-55.0900996077
 21
2.3583134584
  0
LINE
  5
3DF
100
AcDbEntity
  8
ASSI
100
AcDbLine
 62
7
  6
CONTINUOUS
 10
-55.1290039173
 20
2.4361280039
 11
-55.0900996077
 21
2.3583134584
  0
LINE
  5
3E0
100
AcDbEntity
  8
DRAFT
100
AcDbLine
 62
7
  6
CONTINUOUS
 10
-81.551195298
 20
2.4361280039
 11
-81.5900996077
 21
2.3583134584
  0
LINE
  5
3E1
100
AcDbEntity
  8
ASSI
100
AcDbLine
 62
7
  6
CONTINUOUS
 10
-81.551195298
 20
2.4361280039
 11
-81.5900996077
 21
2.3583134584
  0
LINE
  5
3E2
100
AcDbEntity
  8
DRAFT
100
AcDbLine
 62
7
  6
CONTINUOUS
 10
-81.551195298
 20
59.6078564743
 11
-81.5900996077
 21
59.6856710198
  0
LINE
  5
3E3
100
AcDbEntity
  8
ASSI
100
AcDbLine
 62
7
  6
CONTINUOUS
 10
-81.551195298
 20
59.6078564743
 11
-81.5900996077
 21
59.6856710198
  0
LWPOLYLINE
  5
3E4
100
AcDbEntity
  8
RACCORDO
100
AcDbPolyline
 62
7
  6
CONTINUOUS
 90
31
 70
0
 10
-209.1474776846
 20
59.2551947896
 10
-209.2820259089
 20
59.2317205022
 10
-209.4154447819
 20
59.2021273838
 10
-209.5474552319
 20
59.1664651469
 10
-209.6778706266
 20
59.1247652649
 10
-209.8063230564
 20
59.0771258269
 10
-209.9322790875
 20
59.023752281
 10
-210.055290278
 20
58.9648805369
 10
-210.1753199147
 20
58.9005749781
 10
-210.2924528061
 20
58.8307912929
 10
-210.4066173772
 20
58.7555261349
 10
-210.5173695963
 20
58.6750249171
 10
-210.6242420429
 20
58.589621339
 10
-210.7269236178
 20
58.4995949808
 10
-210.8253176936
 20
58.4050628985
 10
-210.9193054118
 20
58.3061496961
 10
-211.0086923348
 20
58.2030599739
 10
-211.0932935696
 20
58.0960069967
 10
-211.1729965569
 20
57.9851210873
 10
-211.2476941062
 20
57.8705097125
 10
-211.3171379462
 20
57.7525094865
 10
-211.3810410159
 20
57.6316178363
 10
-211.4392018735
 20
57.5083003935
 10
-211.491630753
 20
57.3826280766
 10
-211.5383635797
 20
57.2545121989
 10
-211.5793398114
 20
57.1239955121
 10
-211.6143678905
 20
56.991547121
 10
-211.6432947764
 20
56.8577177881
 10
-211.6660583225
 20
56.7228831685
 10
-211.6826452025
 20
56.5872320599
 10
-211.6930328524
 20
56.4510470279
  0
LWPOLYLINE
  5
3E5
100
AcDbEntity
  8
ASSI
100
AcDbPolyline
 62
7
  6
CONTINUOUS
 90
31
 70
0
 10
-209.1474776846
 20
59.2551947896
 10
-209.2820259089
 20
59.2317205022
 10
-209.4154447819
 20
59.2021273838
 10
-209.5474552319
 20
59.1664651469
 10
-209.6778706266
 20
59.1247652649
 10
-209.8063230564
 20
59.0771258269
 10
-209.9322790875
 20
59.023752281
 10
-210.055290278
 20
58.9648805369
 10
-210.1753199147
 20
58.9005749781
 10
-210.2924528061
 20
58.8307912929
 10
-210.4066173772
 20
58.7555261349
 10
-210.5173695963
 20
58.6750249171
 10
-210.6242420429
 20
58.589621339
 10
-210.7269236178
 20
58.4995949808
 10
-210.8253176936
 20
58.4050628985
 10
-210.9193054118
 20
58.3061496961
 10
-211.0086923348
 20
58.2030599739
 10
-211.0932935696
 20
58.0960069967
 10
-211.1729965569
 20
57.9851210873
 10
-211.2476941062
 20
57.8705097125
 10
-211.3171379462
 20
57.7525094865
 10
-211.3810410159
 20
57.6316178363
 10
-211.4392018735
 20
57.5083003935
 10
-211.491630753
 20
57.3826280766
 10
-211.5383635797
 20
57.2545121989
 10
-211.5793398114
 20
57.1239955121
 10
-211.6143678905
 20
56.991547121
 10
-211.6432947764
 20
56.8577177881
 10
-211.6660583225
 20
56.7228831685
 10
-211.6826452025
 20
56.5872320599
 10
-211.6930328524
 20
56.4510470279
  0
LWPOLYLINE
  5
3E6
100
AcDbEntity
  8
RACCORDO
100
AcDbPolyline
 62
7
  6
CONTINUOUS
 90
31
 70
0
 10
-208.8543649312
 20
58.989179727
 10
-208.9891552009
 20
58.9660466985
 10
-209.122458489
 20
58.9368336638
 10
-209.2542747954
 20
58.9015406228
 10
-209.3850257712
 20
58.8600226168
 10
-209.5142897654
 20
58.8124246047
 10
-209.6408018244
 20
58.7591814621
 10
-209.7643964791
 20
58.7002695124
 10
-209.8852391986
 20
58.6357124324
 10
-210.0025614368
 20
58.5660161284
 10
-210.116174731
 20
58.4913119032
 10
-210.2262675439
 20
58.4114684541
 10
-210.3326367172
 20
58.3265977798
 10
-210.4355284652
 20
58.2364716191
 10
-210.5346965737
 20
58.1413182333
 10
-210.6291992417
 20
58.0419344043
 10
-210.7189553136
 20
57.938248559
 10
-210.8040459451
 20
57.8303322706
 10
-210.8837728019
 20
57.7191970414
 10
-210.9579328288
 20
57.6051117331
 10
-211.026729081
 20
57.4878074839
 10
-211.0900723908
 20
57.3674892112
 10
-211.1480777614
 20
57.2439513108
 10
-211.2006301894
 20
57.1173993868
 10
-211.2472954966
 20
56.9886551684
 10
-211.2880323984
 20
56.8575581203
 10
-211.3228821792
 20
56.7242687779
 10
-211.3515345141
 20
56.5900904769
 10
-211.3738859612
 20
56.4554576626
 10
-211.3900399623
 20
56.3199358896
 10
-211.3999965174
 20
56.1835251581
  0
LWPOLYLINE
  5
3E7
100
AcDbEntity
  8
ASSI
100
AcDbPolyline
 62
7
  6
CONTINUOUS
 90
31
 70
0
 10
-208.8543649312
 20
58.989179727
 10
-208.9891552009
 20
58.9660466985
 10
-209.122458489
 20
58.9368336638
 10
-209.2542747954
 20
58.9015406228
 10
-209.3850257712
 20
58.8600226168
 10
-209.5142897654
 20
58.8124246047
 10
-209.6408018244
 20
58.7591814621
 10
-209.7643964791
 20
58.7002695124
 10
-209.8852391986
 20
58.6357124324
 10
-210.0025614368
 20
58.5660161284
 10
-210.116174731
 20
58.4913119032
 10
-210.2262675439
 20
58.4114684541
 10
-210.3326367172
 20
58.3265977798
 10
-210.4355284652
 20
58.2364716191
 10
-210.5346965737
 20
58.1413182333
 10
-210.6291992417
 20
58.0419344043
 10
-210.7189553136
 20
57.938248559
 10
-210.8040459451
 20
57.8303322706
 10
-210.8837728019
 20
57.7191970414
 10
-210.9579328288
 20
57.6051117331
 10
-211.026729081
 20
57.4878074839
 10
-211.0900723908
 20
57.3674892112
 10
-211.1480777614
 20
57.2439513108
 10
-211.2006301894
 20
57.1173993868
 10
-211.2472954966
 20
56.9886551684
 10
-211.2880323984
 20
56.8575581203
 10
-211.3228821792
 20
56.7242687779
 10
-211.3515345141
 20
56.5900904769
 10
-211.3738859612
 20
56.4554576626
 10
-211.3900399623
 20
56.3199358896
 10
-211.3999965174
 20
56.1835251581
  0
LINE
  5
3E8
100
AcDbEntity
  8
DRAFT
100
AcDbLine
 62
7
  6
CONTINUOUS
 10
-195.2048161215
 20
59.6078564743
 11
-208.8884315086
 21
57.5750327849
  0
LINE
  5
3E9
100
AcDbEntity
  8
RACCORDO
100
AcDbLine
 62
7
  6
CONTINUOUS
 10
-208.9178207637
 20
57.7728616798
 11
-195.2195909433
 21
59.8078564743
  0
LINE
  5
3EA
100
AcDbEntity
  8
ASSI
100
AcDbLine
 62
7
  6
CONTINUOUS
 10
-208.9178207637
 20
57.7728616798
 11
-195.2195909433
 21
59.8078564743
  0
LINE
  5
3EB
100
AcDbEntity
  8
RACCORDO
100
AcDbLine
 62
7
  6
CONTINUOUS
 10
-195.9358609083
 20
60.9083392668
 11
-208.8543649312
 21
58.989179727
  0
LINE
  5
3EC
100
AcDbEntity
  8
ASSI
100
AcDbLine
 62
7
  6
CONTINUOUS
 10
-195.9358609083
 20
60.9083392668
 11
-208.8543649312
 21
58.989179727
  0
LINE
  5
3ED
100
AcDbEntity
  8
RACCORDO
100
AcDbLine
 62
7
  6
CONTINUOUS
 10
-209.1474776846
 20
59.2551947896
 11
-195.9592827202
 21
61.2144306235
  0
LINE
  5
3EE
100
AcDbEntity
  8
ASSI
100
AcDbLine
 62
7
  6
CONTINUOUS
 10
-209.1474776846
 20
59.2551947896
 11
-195.9592827202
 21
61.2144306235
  0
LINE
  5
3EF
100
AcDbEntity
  8
RACCORDO
100
AcDbLine
 62
7
  6
CONTINUOUS
 10
-208.8625664185
 20
57.7728616798
 11
-195.7789223677
 21
59.6856710198
  0
LINE
  5
3F0
100
AcDbEntity
  8
ASSI
100
AcDbLine
 62
7
  6
CONTINUOUS
 10
-208.8625664185
 20
57.7728616798
 11
-195.7789223677
 21
59.6856710198
  0
LINE
  5
3F1
100
AcDbEntity
  8
0
100
AcDbLine
 62
7
  6
CONTINUOUS
 10
-195.7789223677
 20
59.6856710198
 11
-208.8625664185
 21
57.7728616798
  0
LINE
  5
3F2
100
AcDbEntity
  8
0
100
AcDbLine
 62
7
  6
CONTINUOUS
 10
-8.8514445358
 20
59.3121322948
 11
-7.8287546795
 21
59.1626165558
  0
LINE
  5
3F3
100
AcDbEntity
  8
0
100
AcDbLine
 62
7
  6
CONTINUOUS
 10
2.1823672032
 20
57.7728616798
 11
-10.9012768476
 21
59.6856710198
  0
LINE
  5
3F4
100
AcDbEntity
  8
RACCORDO
100
AcDbLine
 62
7
  6
CONTINUOUS
 10
2.1823672032
 20
57.7728616798
 11
-10.9012768476
 21
59.6856710198
  0
LINE
  5
3F5
100
AcDbEntity
  8
ASSI
100
AcDbLine
 62
7
  6
CONTINUOUS
 10
2.1823672032
 20
57.7728616798
 11
-10.9012768476
 21
59.6856710198
  0
LINE
  5
3F6
100
AcDbEntity
  8
DRAFT
100
AcDbLine
 62
7
  6
CONTINUOUS
 10
2.2082322933
 20
57.5750327849
 11
-11.4753830938
 21
59.6078564743
  0
LINE
  5
3F7
100
AcDbEntity
  8
RACCORDO
100
AcDbLine
 62
7
  6
CONTINUOUS
 10
2.2376215484
 20
57.7728616798
 11
-11.460608272
 21
59.8078564743
  0
LINE
  5
3F8
100
AcDbEntity
  8
ASSI
100
AcDbLine
 62
7
  6
CONTINUOUS
 10
2.2376215484
 20
57.7728616798
 11
-11.460608272
 21
59.8078564743
  0
LINE
  5
3F9
100
AcDbEntity
  8
RACCORDO
100
AcDbLine
 62
7
  6
CONTINUOUS
 10
2.1741657159
 20
58.989179727
 11
-10.744338307
 21
60.9083392668
  0
LINE
  5
3FA
100
AcDbEntity
  8
ASSI
100
AcDbLine
 62
7
  6
CONTINUOUS
 10
2.1741657159
 20
58.989179727
 11
-10.744338307
 21
60.9083392668
  0
LINE
  5
3FB
100
AcDbEntity
  8
RACCORDO
100
AcDbLine
 62
7
  6
CONTINUOUS
 10
2.4672784693
 20
59.2551947896
 11
-10.7217172923
 21
61.2145495891
  0
LINE
  5
3FC
100
AcDbEntity
  8
ASSI
100
AcDbLine
 62
7
  6
CONTINUOUS
 10
2.4672784693
 20
59.2551947896
 11
-10.7217172923
 21
61.2145495891
  0
LWPOLYLINE
  5
3FD
100
AcDbEntity
  8
RACCORDO
100
AcDbPolyline
 62
7
  6
CONTINUOUS
 90
31
 70
0
 10
2.4672784693
 20
59.2551947896
 10
2.6018279163
 20
59.2317216122
 10
2.7352465294
 20
59.2021282579
 10
2.8672560166
 20
59.1664651469
 10
2.9976710261
 20
59.1247649153
 10
3.1261238242
 20
59.0771258116
 10
3.2520798722
 20
59.023752281
 10
3.3750909877
 20
58.9648804689
 10
3.4951209064
 20
58.9005751661
 10
3.6122535907
 20
58.8307912929
 10
3.7264178498
 20
58.7555258516
 10
3.8371702538
 20
58.6750248017
 10
3.9440428275
 20
58.589621339
 10
4.0467243369
 20
58.4995949213
 10
4.1451184482
 20
58.4050628712
 10
4.2391061965
 20
58.3061496961
 10
4.3284930895
 20
58.2030599466
 10
4.4130942887
 20
58.0960069372
 10
4.4927973416
 20
57.9851210873
 10
4.5674947638
 20
57.8705095971
 10
4.6369384187
 20
57.7525092031
 10
4.7008418006
 20
57.6316178363
 10
4.7590028652
 20
57.5083005814
 10
4.8114314627
 20
57.3826280085
 10
4.8581643644
 20
57.2545121989
 10
4.8991405793
 20
57.1239954968
 10
4.9341682901
 20
56.9915467713
 10
4.9630955611
 20
56.8577177881
 10
4.9858600701
 20
56.7228840426
 10
5.0024472101
 20
56.58723317
 10
5.0128336371
 20
56.4510470279
  0
LWPOLYLINE
  5
3FE
100
AcDbEntity
  8
ASSI
100
AcDbPolyline
 62
7
  6
CONTINUOUS
 90
31
 70
0
 10
2.4672784693
 20
59.2551947896
 10
2.6018279163
 20
59.2317216122
 10
2.7352465294
 20
59.2021282579
 10
2.8672560166
 20
59.1664651469
 10
2.9976710261
 20
59.1247649153
 10
3.1261238242
 20
59.0771258116
 10
3.2520798722
 20
59.023752281
 10
3.3750909877
 20
58.9648804689
 10
3.4951209064
 20
58.9005751661
 10
3.6122535907
 20
58.8307912929
 10
3.7264178498
 20
58.7555258516
 10
3.8371702538
 20
58.6750248017
 10
3.9440428275
 20
58.589621339
 10
4.0467243369
 20
58.4995949213
 10
4.1451184482
 20
58.4050628712
 10
4.2391061965
 20
58.3061496961
 10
4.3284930895
 20
58.2030599466
 10
4.4130942887
 20
58.0960069372
 10
4.4927973416
 20
57.9851210873
 10
4.5674947638
 20
57.8705095971
 10
4.6369384187
 20
57.7525092031
 10
4.7008418006
 20
57.6316178363
 10
4.7590028652
 20
57.5083005814
 10
4.8114314627
 20
57.3826280085
 10
4.8581643644
 20
57.2545121989
 10
4.8991405793
 20
57.1239954968
 10
4.9341682901
 20
56.9915467713
 10
4.9630955611
 20
56.8577177881
 10
4.9858600701
 20
56.7228840426
 10
5.0024472101
 20
56.58723317
 10
5.0128336371
 20
56.4510470279
  0
LINE
  5
3FF
100
AcDbEntity
  8
DRAFT
100
AcDbLine
 62
7
  6
CONTINUOUS
 10
-55.0900996077
 20
59.6856710198
 11
-55.0900996077
 21
59.6078564743
  0
LINE
  5
400
100
AcDbEntity
  8
ASSI
100
AcDbLine
 62
7
  6
CONTINUOUS
 10
-55.0900996077
 20
59.6856710198
 11
-55.0900996077
 21
59.6078564743
  0
LINE
  5
401
100
AcDbEntity
  8
DRAFT
100
AcDbLine
 62
7
  6
CONTINUOUS
 10
-55.0900996077
 20
2.3583134584
 11
-55.0900996077
 21
2.4361280039
  0
LINE
  5
402
100
AcDbEntity
  8
ASSI
100
AcDbLine
 62
7
  6
CONTINUOUS
 10
-55.0900996077
 20
2.3583134584
 11
-55.0900996077
 21
2.4361280039
  0
LINE
  5
403
100
AcDbEntity
  8
DRAFT
100
AcDbLine
 62
7
  6
CONTINUOUS
 10
-53.5900996077
 20
59.6856710198
 11
-53.5900996077
 21
59.6078564743
  0
LINE
  5
404
100
AcDbEntity
  8
ASSI
100
AcDbLine
 62
7
  6
CONTINUOUS
 10
-53.5900996077
 20
59.6856710198
 11
-53.5900996077
 21
59.6078564743
  0
LINE
  5
405
100
AcDbEntity
  8
DRAFT
100
AcDbLine
 62
7
  6
CONTINUOUS
 10
-53.5900996077
 20
2.3583134584
 11
-53.5900996077
 21
2.4361280039
  0
LINE
  5
406
100
AcDbEntity
  8
ASSI
100
AcDbLine
 62
7
  6
CONTINUOUS
 10
-53.5900996077
 20
2.3583134584
 11
-53.5900996077
 21
2.4361280039
  0
LINE
  5
407
100
AcDbEntity
  8
RACCORDO
100
AcDbLine
 62
253
  6
CONTINUOUS
 10
2.1741657159
 20
58.989179727
 11
2.4672784693
 21
59.2551947896
  0
LINE
  5
408
100
AcDbEntity
  8
ASSI
100
AcDbLine
 62
253
  6
CONTINUOUS
 10
2.1741657159
 20
58.989179727
 11
2.4672784693
 21
59.2551947896
  0
LINE
  5
409
100
AcDbEntity
  8
RACCORDO
100
AcDbLine
 62
253
  6
CONTINUOUS
 10
2.1741657159
 20
3.0548047512
 11
2.4630782086
 21
2.7926024681
  0
LINE
  5
40A
100
AcDbEntity
  8
ASSI
100
AcDbLine
 62
253
  6
CONTINUOUS
 10
2.1741657159
 20
3.0548047512
 11
2.4630782086
 21
2.7926024681
  0
LINE
  5
40B
100
AcDbEntity
  8
RACCORDO
100
AcDbLine
 62
253
  6
CONTINUOUS
 10
2.4630782086
 20
2.7926024681
 11
2.4672784693
 21
2.7887896885
  0
LINE
  5
40C
100
AcDbEntity
  8
ASSI
100
AcDbLine
 62
253
  6
CONTINUOUS
 10
2.4630782086
 20
2.7926024681
 11
2.4672784693
 21
2.7887896885
  0
LINE
  5
40D
100
AcDbEntity
  8
DRAFT
100
AcDbLine
 62
7
  6
CONTINUOUS
 10
-46.9099198674
 20
59.6078564743
 11
-46.9099198674
 21
57.4521719794
  0
LINE
  5
40E
100
AcDbEntity
  8
DRAFT
100
AcDbLine
 62
7
  6
CONTINUOUS
 10
-46.9099198674
 20
2.4361280039
 11
-46.9099198674
 21
4.5918124988
  0
LINE
  5
40F
100
AcDbEntity
  8
DRAFT
100
AcDbLine
 62
7
  6
CONTINUOUS
 10
-46.8400996077
 20
59.5380362145
 11
-46.8400996077
 21
57.5219922391
  0
LINE
  5
410
100
AcDbEntity
  8
DRAFT
100
AcDbLine
 62
7
  6
CONTINUOUS
 10
-46.8400996077
 20
2.5059482636
 11
-46.8400996077
 21
4.5219922391
  0
LINE
  5
411
100
AcDbEntity
  8
0
100
AcDbLine
 62
7
  6
CONTINUOUS
 10
-46.5900996077
 20
2.2361280039
 11
-46.5900996077
 21
4.0219922391
  0
LINE
  5
412
100
AcDbEntity
  8
ASSI
100
AcDbLine
 62
7
  6
CONTINUOUS
 10
-46.5900996077
 20
2.2361280039
 11
-46.5900996077
 21
4.0219922391
  0
LINE
  5
413
100
AcDbEntity
  8
0
100
AcDbLine
 62
7
  6
CONTINUOUS
 10
-46.5900996077
 20
58.0219922391
 11
-46.5900996077
 21
59.8078564743
  0
LINE
  5
414
100
AcDbEntity
  8
ASSI
100
AcDbLine
 62
7
  6
CONTINUOUS
 10
-46.5900996077
 20
58.0219922391
 11
-46.5900996077
 21
59.8078564743
  0
LINE
  5
415
100
AcDbEntity
  8
DRAFT
100
AcDbLine
 62
7
  6
CONTINUOUS
 10
-53.551195298
 20
2.4361280039
 11
-53.5900996077
 21
2.3583134584
  0
LINE
  5
416
100
AcDbEntity
  8
ASSI
100
AcDbLine
 62
7
  6
CONTINUOUS
 10
-53.551195298
 20
2.4361280039
 11
-53.5900996077
 21
2.3583134584
  0
LINE
  5
417
100
AcDbEntity
  8
DRAFT
100
AcDbLine
 62
7
  6
CONTINUOUS
 10
-46.9099198674
 20
2.4361280039
 11
-46.8400996077
 21
2.5059482636
  0
LINE
  5
418
100
AcDbEntity
  8
RACCORDO
100
AcDbLine
 62
253
  6
CONTINUOUS
 10
4.7197973021
 20
56.1835251581
 11
5.0128336371
 21
56.4510470279
  0
LINE
  5
419
100
AcDbEntity
  8
ASSI
100
AcDbLine
 62
253
  6
CONTINUOUS
 10
4.7197973021
 20
56.1835251581
 11
5.0128336371
 21
56.4510470279
  0
LINE
  5
41A
100
AcDbEntity
  8
RACCORDO
100
AcDbLine
 62
253
  6
CONTINUOUS
 10
4.7197973021
 20
5.8604593201
 11
5.0086043767
 21
5.5967993808
  0
LINE
  5
41B
100
AcDbEntity
  8
ASSI
100
AcDbLine
 62
253
  6
CONTINUOUS
 10
4.7197973021
 20
5.8604593201
 11
5.0086043767
 21
5.5967993808
  0
LINE
  5
41C
100
AcDbEntity
  8
RACCORDO
100
AcDbLine
 62
253
  6
CONTINUOUS
 10
5.0086043767
 20
5.5967993808
 11
5.0128336371
 21
5.5929374503
  0
LINE
  5
41D
100
AcDbEntity
  8
ASSI
100
AcDbLine
 62
253
  6
CONTINUOUS
 10
5.0086043767
 20
5.5967993808
 11
5.0128336371
 21
5.5929374503
  0
LINE
  5
41E
100
AcDbEntity
  8
DRAFT
100
AcDbLine
 62
7
  6
CONTINUOUS
 10
-46.9099198674
 20
59.6078564743
 11
-46.8400996077
 21
59.5380362145
  0
LINE
  5
41F
100
AcDbEntity
  8
DRAFT
100
AcDbLine
 62
7
  6
CONTINUOUS
 10
-53.551195298
 20
59.6078564743
 11
-53.5900996077
 21
59.6856710198
  0
LINE
  5
420
100
AcDbEntity
  8
ASSI
100
AcDbLine
 62
7
  6
CONTINUOUS
 10
-53.551195298
 20
59.6078564743
 11
-53.5900996077
 21
59.6856710198
  0
LINE
  5
421
100
AcDbEntity
  8
0
100
AcDbLine
 62
7
  6
CONTINUOUS
 10
-40.0900996077
 20
2.2361280039
 11
-40.0900996077
 21
4.0219922391
  0
LINE
  5
422
100
AcDbEntity
  8
ASSI
100
AcDbLine
 62
7
  6
CONTINUOUS
 10
-40.0900996077
 20
2.2361280039
 11
-40.0900996077
 21
4.0219922391
  0
LINE
  5
423
100
AcDbEntity
  8
0
100
AcDbLine
 62
7
  6
CONTINUOUS
 10
-40.0900996077
 20
58.0219922391
 11
-40.0900996077
 21
59.8078564743
  0
LINE
  5
424
100
AcDbEntity
  8
ASSI
100
AcDbLine
 62
7
  6
CONTINUOUS
 10
-40.0900996077
 20
58.0219922391
 11
-40.0900996077
 21
59.8078564743
  0
LINE
  5
425
100
AcDbEntity
  8
DRAFT
100
AcDbLine
 62
7
  6
CONTINUOUS
 10
-39.8400996077
 20
59.5380362145
 11
-39.8400996077
 21
57.5219922391
  0
LINE
  5
426
100
AcDbEntity
  8
DRAFT
100
AcDbLine
 62
7
  6
CONTINUOUS
 10
-39.8400996077
 20
2.5059482636
 11
-39.8400996077
 21
4.5219922391
  0
LINE
  5
427
100
AcDbEntity
  8
DRAFT
100
AcDbLine
 62
7
  6
CONTINUOUS
 10
-39.7702793479
 20
59.6078564743
 11
-39.7702793479
 21
57.4521719794
  0
LINE
  5
428
100
AcDbEntity
  8
DRAFT
100
AcDbLine
 62
7
  6
CONTINUOUS
 10
-39.7702793479
 20
2.4361280039
 11
-39.7702793479
 21
4.5918124988
  0
LINE
  5
429
100
AcDbEntity
  8
DRAFT
100
AcDbLine
 62
7
  6
CONTINUOUS
 10
-39.8400996077
 20
4.5219922391
 11
-39.7702793479
 21
4.5918124988
  0
LINE
  5
42A
100
AcDbEntity
  8
DRAFT
100
AcDbLine
 62
7
  6
CONTINUOUS
 10
-39.8400996077
 20
57.5219922391
 11
-39.7702793479
 21
57.4521719794
  0
LINE
  5
42B
100
AcDbEntity
  8
0
100
AcDbLine
 62
253
  6
CONTINUOUS
 10
-23.3400996077
 20
59.7031234262
 11
-23.3400996077
 21
59.6078564743
  0
LINE
  5
42C
100
AcDbEntity
  8
ASSI
100
AcDbLine
 62
253
  6
CONTINUOUS
 10
-23.3400996077
 20
59.7031234262
 11
-23.3400996077
 21
59.6078564743
  0
LINE
  5
42D
100
AcDbEntity
  8
0
100
AcDbLine
 62
253
  6
CONTINUOUS
 10
-23.3400996077
 20
2.340861052
 11
-23.3400996077
 21
2.4361280039
  0
LINE
  5
42E
100
AcDbEntity
  8
ASSI
100
AcDbLine
 62
253
  6
CONTINUOUS
 10
-23.3400996077
 20
2.340861052
 11
-23.3400996077
 21
2.4361280039
  0
LINE
  5
42F
100
AcDbEntity
  8
0
100
AcDbLine
 62
7
  6
CONTINUOUS
 10
-22.8400996077
 20
59.7031234262
 11
-22.8400996077
 21
59.6078564743
  0
LINE
  5
430
100
AcDbEntity
  8
ASSI
100
AcDbLine
 62
7
  6
CONTINUOUS
 10
-22.8400996077
 20
59.7031234262
 11
-22.8400996077
 21
59.6078564743
  0
LINE
  5
431
100
AcDbEntity
  8
0
100
AcDbLine
 62
7
  6
CONTINUOUS
 10
-22.8400996077
 20
2.340861052
 11
-22.8400996077
 21
2.4361280039
  0
LINE
  5
432
100
AcDbEntity
  8
ASSI
100
AcDbLine
 62
7
  6
CONTINUOUS
 10
-22.8400996077
 20
2.340861052
 11
-22.8400996077
 21
2.4361280039
  0
LINE
  5
433
100
AcDbEntity
  8
0
100
AcDbLine
 62
7
  6
CONTINUOUS
 10
-8.8825482474
 20
59.2226676225
 11
-8.8514445358
 21
59.3121322948
  0
LINE
  5
434
100
AcDbEntity
  8
RACCORDO
100
AcDbLine
 62
253
  6
CONTINUOUS
 10
-11.1608785949
 20
0.7969922391
 11
-11.1834996096
 21
1.1032025614
  0
LINE
  5
435
100
AcDbEntity
  8
ASSI
100
AcDbLine
 62
253
  6
CONTINUOUS
 10
-11.1608785949
 20
0.7969922391
 11
-11.1834996096
 21
1.1032025614
  0
LINE
  5
436
100
AcDbEntity
  8
RACCORDO
100
AcDbLine
 62
253
  6
CONTINUOUS
 10
-10.7217172923
 20
0.829434889
 11
-10.744338307
 21
1.1356452114
  0
LINE
  5
437
100
AcDbEntity
  8
ASSI
100
AcDbLine
 62
253
  6
CONTINUOUS
 10
-10.7217172923
 20
0.829434889
 11
-10.744338307
 21
1.1356452114
  0
LINE
  5
438
100
AcDbEntity
  8
RACCORDO
100
AcDbLine
 62
253
  6
CONTINUOUS
 10
-11.1834996096
 20
60.9407819167
 11
-11.1608785949
 21
61.2469922391
  0
LINE
  5
439
100
AcDbEntity
  8
ASSI
100
AcDbLine
 62
253
  6
CONTINUOUS
 10
-11.1834996096
 20
60.9407819167
 11
-11.1608785949
 21
61.2469922391
  0
LINE
  5
43A
100
AcDbEntity
  8
RACCORDO
100
AcDbLine
 62
253
  6
CONTINUOUS
 10
-10.744338307
 20
60.9083392668
 11
-10.7217172923
 21
61.2145495891
  0
LINE
  5
43B
100
AcDbEntity
  8
ASSI
100
AcDbLine
 62
253
  6
CONTINUOUS
 10
-10.744338307
 20
60.9083392668
 11
-10.7217172923
 21
61.2145495891
  0
LINE
  5
43C
100
AcDbEntity
  8
0
100
AcDbLine
 62
7
  6
CONTINUOUS
 10
-8.8514445358
 20
59.3121322948
 11
-8.8514445358
 21
59.2180468874
  0
LINE
  5
43D
100
AcDbEntity
  8
0
100
AcDbLine
 62
7
  6
CONTINUOUS
 10
-7.8287546795
 20
59.0661171446
 11
-7.8287546795
 21
59.1626165558
  0
LWPOLYLINE
  5
43E
100
AcDbEntity
  8
RACCORDO
100
AcDbPolyline
 62
7
  6
CONTINUOUS
 90
31
 70
0
 10
4.7197973021
 20
56.1835251581
 10
4.709840747
 20
56.3199358896
 10
4.6936867459
 20
56.4554576626
 10
4.6713352988
 20
56.5900904769
 10
4.6426829639
 20
56.7242687779
 10
4.607833183
 20
56.8575581203
 10
4.5670962813
 20
56.9886551684
 10
4.5204309741
 20
57.1173993868
 10
4.4678785461
 20
57.2439513108
 10
4.4098731754
 20
57.3674892112
 10
4.3465298657
 20
57.4878074839
 10
4.2777336135
 20
57.6051117331
 10
4.2035735866
 20
57.7191970414
 10
4.1238467298
 20
57.8303322706
 10
4.0387560983
 20
57.938248559
 10
3.9490000264
 20
58.0419344043
 10
3.8544973584
 20
58.1413182333
 10
3.7553292499
 20
58.2364716191
 10
3.6524375019
 20
58.3265977798
 10
3.5460683285
 20
58.4114684541
 10
3.4359755157
 20
58.4913119032
 10
3.3223622215
 20
58.5660161284
 10
3.2050399833
 20
58.6357124324
 10
3.0841972638
 20
58.7002695124
 10
2.9606026091
 20
58.7591814621
 10
2.8340905501
 20
58.8124246047
 10
2.7048265559
 20
58.8600226168
 10
2.5740755801
 20
58.9015406228
 10
2.4422592737
 20
58.9368336638
 10
2.3089559856
 20
58.9660466985
 10
2.1741657159
 20
58.989179727
  0
LWPOLYLINE
  5
43F
100
AcDbEntity
  8
ASSI
100
AcDbPolyline
 62
7
  6
CONTINUOUS
 90
31
 70
0
 10
4.7197973021
 20
56.1835251581
 10
4.709840747
 20
56.3199358896
 10
4.6936867459
 20
56.4554576626
 10
4.6713352988
 20
56.5900904769
 10
4.6426829639
 20
56.7242687779
 10
4.607833183
 20
56.8575581203
 10
4.5670962813
 20
56.9886551684
 10
4.5204309741
 20
57.1173993868
 10
4.4678785461
 20
57.2439513108
 10
4.4098731754
 20
57.3674892112
 10
4.3465298657
 20
57.4878074839
 10
4.2777336135
 20
57.6051117331
 10
4.2035735866
 20
57.7191970414
 10
4.1238467298
 20
57.8303322706
 10
4.0387560983
 20
57.938248559
 10
3.9490000264
 20
58.0419344043
 10
3.8544973584
 20
58.1413182333
 10
3.7553292499
 20
58.2364716191
 10
3.6524375019
 20
58.3265977798
 10
3.5460683285
 20
58.4114684541
 10
3.4359755157
 20
58.4913119032
 10
3.3223622215
 20
58.5660161284
 10
3.2050399833
 20
58.6357124324
 10
3.0841972638
 20
58.7002695124
 10
2.9606026091
 20
58.7591814621
 10
2.8340905501
 20
58.8124246047
 10
2.7048265559
 20
58.8600226168
 10
2.5740755801
 20
58.9015406228
 10
2.4422592737
 20
58.9368336638
 10
2.3089559856
 20
58.9660466985
 10
2.1741657159
 20
58.989179727
  0
LINE
  5
440
100
AcDbEntity
  8
RACCORDO
100
AcDbLine
 62
7
  6
CONTINUOUS
 10
5.0133035284
 20
56.4420389827
 11
5.0128336371
 21
56.4510470279
  0
LINE
  5
441
100
AcDbEntity
  8
ASSI
100
AcDbLine
 62
7
  6
CONTINUOUS
 10
5.0133035284
 20
56.4420389827
 11
5.0128336371
 21
56.4510470279
  0
LINE
  5
442
100
AcDbEntity
  8
0
100
AcDbLine
 62
7
  6
CONTINUOUS
 10
3.4911341872
 20
56.1616327585
 11
3.4907165604
 21
56.1697707098
  0
LINE
  5
443
100
AcDbEntity
  8
ASSI
100
AcDbLine
 62
7
  6
CONTINUOUS
 10
-4.1400996077
 20
9.5219922391
 11
-4.1400996077
 21
13.5219922391
  0
LINE
  5
444
100
AcDbEntity
  8
ASSI
100
AcDbLine
 62
7
  6
CONTINUOUS
 10
-0.1400996077
 20
13.5219922391
 11
-0.1400996077
 21
9.5219922391
  0
LINE
  5
445
100
AcDbEntity
  8
0
100
AcDbLine
 62
7
  6
CONTINUOUS
 10
3.4907165604
 20
5.874213768
 11
3.4911341872
 21
5.8823517197
  0
LINE
  5
446
100
AcDbEntity
  8
RACCORDO
100
AcDbLine
 62
7
  6
CONTINUOUS
 10
5.0128336371
 20
5.5929374503
 11
5.0133035284
 21
5.6019454954
  0
LINE
  5
447
100
AcDbEntity
  8
ASSI
100
AcDbLine
 62
7
  6
CONTINUOUS
 10
5.0128336371
 20
5.5929374503
 11
5.0133035284
 21
5.6019454954
  0
LWPOLYLINE
  5
448
100
AcDbEntity
  8
RACCORDO
100
AcDbPolyline
 62
7
  6
CONTINUOUS
 90
31
 70
0
 10
5.0128336371
 20
5.5929374503
 10
5.0024472101
 20
5.4567513081
 10
4.9858600701
 20
5.3211004355
 10
4.9630955611
 20
5.18626669
 10
4.9341682901
 20
5.0524377068
 10
4.8991405793
 20
4.9199889813
 10
4.8581643644
 20
4.7894722793
 10
4.8114314627
 20
4.6613564696
 10
4.7590028652
 20
4.5356838967
 10
4.7008418006
 20
4.4123666419
 10
4.6369384187
 20
4.291475275
 10
4.5674947638
 20
4.1734748811
 10
4.4927973416
 20
4.0588633909
 10
4.4130942887
 20
3.947977541
 10
4.3284930895
 20
3.8409245315
 10
4.2391061965
 20
3.737834782
 10
4.1451184482
 20
3.638921607
 10
4.0467243369
 20
3.5443895569
 10
3.9440428275
 20
3.4543631391
 10
3.8371702538
 20
3.3689596765
 10
3.7264178498
 20
3.2884586266
 10
3.6122535907
 20
3.2131931852
 10
3.4951209064
 20
3.1434093121
 10
3.3750909877
 20
3.0791040093
 10
3.2520798722
 20
3.0202321971
 10
3.1261238242
 20
2.9668586666
 10
2.9976710261
 20
2.9192195629
 10
2.8672560166
 20
2.8775193313
 10
2.7352465294
 20
2.8418562203
 10
2.6018279163
 20
2.812262866
 10
2.4672784693
 20
2.7887896885
  0
LWPOLYLINE
  5
449
100
AcDbEntity
  8
ASSI
100
AcDbPolyline
 62
7
  6
CONTINUOUS
 90
31
 70
0
 10
5.0128336371
 20
5.5929374503
 10
5.0024472101
 20
5.4567513081
 10
4.9858600701
 20
5.3211004355
 10
4.9630955611
 20
5.18626669
 10
4.9341682901
 20
5.0524377068
 10
4.8991405793
 20
4.9199889813
 10
4.8581643644
 20
4.7894722793
 10
4.8114314627
 20
4.6613564696
 10
4.7590028652
 20
4.5356838967
 10
4.7008418006
 20
4.4123666419
 10
4.6369384187
 20
4.291475275
 10
4.5674947638
 20
4.1734748811
 10
4.4927973416
 20
4.0588633909
 10
4.4130942887
 20
3.947977541
 10
4.3284930895
 20
3.8409245315
 10
4.2391061965
 20
3.737834782
 10
4.1451184482
 20
3.638921607
 10
4.0467243369
 20
3.5443895569
 10
3.9440428275
 20
3.4543631391
 10
3.8371702538
 20
3.3689596765
 10
3.7264178498
 20
3.2884586266
 10
3.6122535907
 20
3.2131931852
 10
3.4951209064
 20
3.1434093121
 10
3.3750909877
 20
3.0791040093
 10
3.2520798722
 20
3.0202321971
 10
3.1261238242
 20
2.9668586666
 10
2.9976710261
 20
2.9192195629
 10
2.8672560166
 20
2.8775193313
 10
2.7352465294
 20
2.8418562203
 10
2.6018279163
 20
2.812262866
 10
2.4672784693
 20
2.7887896885
  0
LINE
  5
44A
100
AcDbEntity
  8
0
100
AcDbLine
 62
7
  6
CONTINUOUS
 10
-7.7968030557
 20
59.0613704446
 11
-7.8287546795
 21
59.1626165558
  0
ARC
  5
44B
100
AcDbEntity
  8
RACCORDO
100
AcDbCircle
 62
7
  6
CONTINUOUS
 10
287.6599003923
 20
31.0219922391
 40
500.0
100
AcDbArc
 50
177.0858209054
 51
182.9141790946
  0
ARC
  5
44C
100
AcDbEntity
  8
RACCORDO
100
AcDbCircle
 62
7
  6
CONTINUOUS
 10
-494.3400996077
 20
31.0219922391
 40
500.0
100
AcDbArc
 50
357.0858209054
 51
2.9141790946
  0
ARC
  5
44D
100
AcDbEntity
  8
ASSI
100
AcDbCircle
 62
7
  6
CONTINUOUS
 10
287.6599003923
 20
31.0219922391
 40
500.0
100
AcDbArc
 50
177.0858209054
 51
182.9141790946
  0
ARC
  5
44E
100
AcDbEntity
  8
ASSI
100
AcDbCircle
 62
7
  6
CONTINUOUS
 10
-494.3400996077
 20
31.0219922391
 40
500.0
100
AcDbArc
 50
357.0858209054
 51
2.9141790946
  0
ARC
  5
44F
100
AcDbEntity
  8
RACCORDO
100
AcDbCircle
 62
7
  6
CONTINUOUS
 10
287.6599003923
 20
31.0219922391
 40
499.6937896777
100
AcDbArc
 50
177.1137132597
 51
182.8862867403
  0
ARC
  5
450
100
AcDbEntity
  8
RACCORDO
100
AcDbCircle
 62
7
  6
CONTINUOUS
 10
-494.3400996077
 20
31.0219922391
 40
499.6937896777
100
AcDbArc
 50
357.1137132597
 51
2.8862867403
  0
ARC
  5
451
100
AcDbEntity
  8
ASSI
100
AcDbCircle
 62
7
  6
CONTINUOUS
 10
-494.3400996077
 20
31.0219922391
 40
499.6937896777
100
AcDbArc
 50
357.1137132597
 51
2.8862867403
  0
ARC
  5
452
100
AcDbEntity
  8
ASSI
100
AcDbCircle
 62
7
  6
CONTINUOUS
 10
287.6599003923
 20
31.0219922391
 40
499.6937896777
100
AcDbArc
 50
177.1137132597
 51
182.8862867403
  0
ARC
  5
453
100
AcDbEntity
  8
RACCORDO
100
AcDbCircle
 62
7
  6
CONTINUOUS
 10
287.6599003923
 20
31.0219922391
 40
498.5
100
AcDbArc
 50
177.0858640466
 51
182.9141359534
  0
ARC
  5
454
100
AcDbEntity
  8
RACCORDO
100
AcDbCircle
 62
7
  6
CONTINUOUS
 10
-494.3400996077
 20
31.0219922391
 40
498.5
100
AcDbArc
 50
357.0858640466
 51
2.9141359534
  0
ARC
  5
455
100
AcDbEntity
  8
ASSI
100
AcDbCircle
 62
7
  6
CONTINUOUS
 10
287.6599003923
 20
31.0219922391
 40
498.5
100
AcDbArc
 50
177.0858640466
 51
182.9141359534
  0
ARC
  5
456
100
AcDbEntity
  8
ASSI
100
AcDbCircle
 62
7
  6
CONTINUOUS
 10
-494.3400996077
 20
31.0219922391
 40
498.5
100
AcDbArc
 50
357.0858640466
 51
2.9141359534
  0
ARC
  5
457
100
AcDbEntity
  8
DRAFT
100
AcDbCircle
 62
7
  6
CONTINUOUS
 10
-494.3400996077
 20
31.0219922391
 40
498.3
100
AcDbArc
 50
357.0858640466
 51
2.9141359534
  0
ARC
  5
458
100
AcDbEntity
  8
DRAFT
100
AcDbCircle
 62
7
  6
CONTINUOUS
 10
287.6599003923
 20
31.0219922391
 40
498.3
100
AcDbArc
 50
177.0858640466
 51
182.9141359534
  0
CIRCLE
  5
459
100
AcDbEntity
  8
ASSI
100
AcDbCircle
 62
7
  6
CONTINUOUS
 10
-204.5400996077
 20
52.5219922391
 40
2.0
  0
ARC
  5
45A
100
AcDbEntity
  8
ASSI
100
AcDbCircle
 62
7
  6
CONTINUOUS
 10
-2.1400996077
 20
9.5219922391
 40
2.0
100
AcDbArc
 50
180.0
 51
360.0
  0
ARC
  5
45B
100
AcDbEntity
  8
ASSI
100
AcDbCircle
 62
7
  6
CONTINUOUS
 10
-2.1400996077
 20
13.5219922391
 40
2.0
100
AcDbArc
 50
0.0
 51
180.0
  0
ARC
  5
45C
100
AcDbEntity
  8
RACCORDO
100
AcDbCircle
 62
7
  6
CONTINUOUS
 10
-208.6974013501
 20
5.7548395105
 40
1.5
100
AcDbArc
 50
182.9141359534
 51
261.55
  0
ARC
  5
45D
100
AcDbEntity
  8
RACCORDO
100
AcDbCircle
 62
7
  6
CONTINUOUS
 10
-208.6974013501
 20
56.2891449676
 40
1.5
100
AcDbArc
 50
98.45
 51
177.0858640466
  0
ARC
  5
45E
100
AcDbEntity
  8
RACCORDO
100
AcDbCircle
 62
7
  6
CONTINUOUS
 10
2.0172021347
 20
56.2891449676
 40
1.5
100
AcDbArc
 50
2.9141359534
 51
81.55
  0
ARC
  5
45F
100
AcDbEntity
  8
RACCORDO
100
AcDbCircle
 62
7
  6
CONTINUOUS
 10
2.0172021347
 20
5.7548395105
 40
1.5
100
AcDbArc
 50
278.45
 51
357.0858640466
  0
ARC
  5
460
100
AcDbEntity
  8
ASSI
100
AcDbCircle
 62
7
  6
CONTINUOUS
 10
2.0172021347
 20
5.7548395105
 40
1.5
100
AcDbArc
 50
278.45
 51
357.0858640466
  0
ARC
  5
461
100
AcDbEntity
  8
ASSI
100
AcDbCircle
 62
7
  6
CONTINUOUS
 10
2.0172021347
 20
56.2891449676
 40
1.5
100
AcDbArc
 50
2.9141359534
 51
81.55
  0
ARC
  5
462
100
AcDbEntity
  8
ASSI
100
AcDbCircle
 62
7
  6
CONTINUOUS
 10
-208.6974013501
 20
56.2891449676
 40
1.5
100
AcDbArc
 50
98.45
 51
177.0858640466
  0
ARC
  5
463
100
AcDbEntity
  8
ASSI
100
AcDbCircle
 62
7
  6
CONTINUOUS
 10
-208.6974013501
 20
5.7548395105
 40
1.5
100
AcDbArc
 50
182.9141359534
 51
261.55
  0
ARC
  5
464
100
AcDbEntity
  8
DRAFT
100
AcDbCircle
 62
7
  6
CONTINUOUS
 10
2.0172021347
 20
56.2891449676
 40
1.3
100
AcDbArc
 50
2.9141359534
 51
81.55
  0
ARC
  5
465
100
AcDbEntity
  8
DRAFT
100
AcDbCircle
 62
7
  6
CONTINUOUS
 10
2.0172021347
 20
5.7548395105
 40
1.3
100
AcDbArc
 50
278.45
 51
357.0858640466
  0
ARC
  5
466
100
AcDbEntity
  8
DRAFT
100
AcDbCircle
 62
7
  6
CONTINUOUS
 10
-208.6974013501
 20
5.7548395105
 40
1.3
100
AcDbArc
 50
182.9141359534
 51
261.55
  0
ARC
  5
467
100
AcDbEntity
  8
DRAFT
100
AcDbCircle
 62
7
  6
CONTINUOUS
 10
-208.6974013501
 20
56.2891449676
 40
1.3
100
AcDbArc
 50
98.45
 51
177.0858640466
  0
ELLIPSE
  5
468
100
AcDbEntity
  8
0
100
AcDbEllipse
 62
7
  6
CONTINUOUS
 10
555.5834373765
 20
31.0219922391
 30
0.0
 11
5177.4812061315
 21
496.1518584059
 31
0.0
 40
0.0093342442
 41
1.71831501
 42
1.7183473948
  0
ELLIPSE
  5
469
100
AcDbEntity
  8
0
100
AcDbEllipse
 62
7
  6
CONTINUOUS
 10
295.7326419481
 20
31.0219922391
 30
0.0
 11
-506.5485233311
 21
0.0
 31
0.0
 40
0.9841110516
 41
-0.0060178492
 42
0.0060178492
  0
ELLIPSE
  5
46A
100
AcDbEntity
  8
0
100
AcDbEllipse
 62
7
  6
CONTINUOUS
 10
295.7326419481
 20
31.0219922391
 30
0.0
 11
-506.5485233311
 21
0.0
 31
0.0
 40
0.9841110516
 41
6.2323240399
 42
6.232716988
  0
ELLIPSE
  5
46B
100
AcDbEntity
  8
0
100
AcDbEllipse
 62
7
  6
CONTINUOUS
 10
295.7326419481
 20
31.0219922391
 30
0.0
 11
-506.5485233311
 21
0.0
 31
0.0
 40
0.9841110516
 41
6.3336536263
 42
6.3340465744
  0
ELLIPSE
  5
46C
100
AcDbEntity
  8
0
100
AcDbEllipse
 62
7
  6
CONTINUOUS
 10
-208.6385882269
 20
56.2891449676
 30
0.0
 11
1.5242182247
 21
-0.0
 31
0.0
 40
0.9841110516
 41
1.7182766486
 42
3.0907313864
  0
ELLIPSE
  5
46D
100
AcDbEntity
  8
0
100
AcDbEllipse
 62
7
  6
CONTINUOUS
 10
-208.6385882269
 20
5.7548395105
 30
0.0
 11
1.5242182247
 21
0.0
 31
0.0
 40
0.9841110516
 41
-3.0907313864
 42
-1.7182766486
  0
ELLIPSE
  5
46E
100
AcDbEntity
  8
0
100
AcDbEllipse
 62
7
  6
CONTINUOUS
 10
555.5834373764
 20
31.0219922391
 30
0.0
 11
5177.4812061315
 21
-496.1518584059
 31
0.0
 40
0.0093342442
 41
-1.7183473948
 42
-1.71831501
  0
ELLIPSE
  5
46F
100
AcDbEntity
  8
0
100
AcDbEllipse
 62
7
  6
CONTINUOUS
 10
-762.2636365918
 20
31.0219922391
 30
0.0
 11
5177.4812061315
 21
496.1518584059
 31
0.0
 40
0.0093342442
 41
-1.4232776436
 42
-1.4232452588
  0
ELLIPSE
  5
470
100
AcDbEntity
  8
0
100
AcDbEllipse
 62
7
  6
CONTINUOUS
 10
1.9583890115
 20
5.7548395105
 30
0.0
 11
1.5242182247
 21
0.0
 31
0.0
 40
0.9841110516
 41
-1.423316005
 42
-0.0508612672
  0
ELLIPSE
  5
471
100
AcDbEntity
  8
0
100
AcDbEllipse
 62
7
  6
CONTINUOUS
 10
1.9583890115
 20
56.2891449676
 30
0.0
 11
1.5242182247
 21
0.0
 31
0.0
 40
0.9841110516
 41
0.0508612672
 42
1.423316005
  0
ELLIPSE
  5
472
100
AcDbEntity
  8
0
100
AcDbEllipse
 62
7
  6
CONTINUOUS
 10
-762.2636365918
 20
31.0219922391
 30
0.0
 11
5177.4812061315
 21
-496.1518584059
 31
0.0
 40
0.0093342442
 41
1.4232452588
 42
1.4232776436
  0
ELLIPSE
  5
473
100
AcDbEntity
  8
RACCORDO
100
AcDbEllipse
 62
7
  6
CONTINUOUS
 10
-158.3400996077
 20
59.6236213933
 30
0.0
 11
0.5548207204
 21
0.0
 31
0.0
 40
0.0174550649
 41
0.0087266463
 42
3.1328660073
  0
ELLIPSE
  5
474
100
AcDbEntity
  8
RACCORDO
100
AcDbEllipse
 62
7
  6
CONTINUOUS
 10
-158.3400996077
 20
2.4203630849
 30
0.0
 11
0.5548207204
 21
-0.0
 31
0.0
 40
0.0174550649
 41
-3.1328660073
 42
-0.0087266463
  0
ELLIPSE
  5
475
100
AcDbEntity
  8
RACCORDO
100
AcDbEllipse
 62
7
  6
CONTINUOUS
 10
-154.3400996077
 20
59.6236213933
 30
0.0
 11
0.5548207204
 21
0.0
 31
0.0
 40
0.0174550649
 41
0.0087266463
 42
3.1328660073
  0
ELLIPSE
  5
476
100
AcDbEntity
  8
RACCORDO
100
AcDbEllipse
 62
7
  6
CONTINUOUS
 10
-154.3400996077
 20
2.4203630849
 30
0.0
 11
0.5548207204
 21
-0.0
 31
0.0
 40
0.0174550649
 41
-3.1328660073
 42
-0.0087266463
  0
ELLIPSE
  5
477
100
AcDbEntity
  8
RACCORDO
100
AcDbEllipse
 62
7
  6
CONTINUOUS
 10
-150.3400996077
 20
59.6236213933
 30
0.0
 11
0.5548207204
 21
0.0
 31
0.0
 40
0.0174550649
 41
0.0087266463
 42
3.1328660073
  0
ELLIPSE
  5
478
100
AcDbEntity
  8
RACCORDO
100
AcDbEllipse
 62
7
  6
CONTINUOUS
 10
-150.3400996077
 20
2.4203630849
 30
0.0
 11
0.5548207204
 21
0.0
 31
0.0
 40
0.0174550649
 41
-3.1328660073
 42
-0.0087266463
  0
ELLIPSE
  5
479
100
AcDbEntity
  8
RACCORDO
100
AcDbEllipse
 62
7
  6
CONTINUOUS
 10
-146.3400996077
 20
59.6236213933
 30
0.0
 11
0.5548207204
 21
0.0
 31
0.0
 40
0.0174550649
 41
0.0087266463
 42
3.1328660073
  0
ELLIPSE
  5
47A
100
AcDbEntity
  8
RACCORDO
100
AcDbEllipse
 62
7
  6
CONTINUOUS
 10
-146.3400996077
 20
2.4203630849
 30
0.0
 11
0.5548207204
 21
0.0
 31
0.0
 40
0.0174550649
 41
-3.1328660073
 42
-0.0087266463
  0
ELLIPSE
  5
47B
100
AcDbEntity
  8
RACCORDO
100
AcDbEllipse
 62
7
  6
CONTINUOUS
 10
-142.3400996077
 20
59.6236213933
 30
0.0
 11
0.5548207204
 21
-0.0
 31
0.0
 40
0.0174550649
 41
0.0087266463
 42
3.1328660073
  0
ELLIPSE
  5
47C
100
AcDbEntity
  8
RACCORDO
100
AcDbEllipse
 62
7
  6
CONTINUOUS
 10
-142.3400996077
 20
2.4203630849
 30
0.0
 11
0.5548207204
 21
-0.0
 31
0.0
 40
0.0174550649
 41
-3.1328660073
 42
-0.0087266463
  0
ELLIPSE
  5
47D
100
AcDbEntity
  8
RACCORDO
100
AcDbEllipse
 62
7
  6
CONTINUOUS
 10
-138.3400996077
 20
59.6236213933
 30
0.0
 11
0.5548207204
 21
0.0
 31
0.0
 40
0.0174550649
 41
0.0087266463
 42
3.1328660073
  0
ELLIPSE
  5
47E
100
AcDbEntity
  8
RACCORDO
100
AcDbEllipse
 62
7
  6
CONTINUOUS
 10
-138.3400996077
 20
2.4203630849
 30
0.0
 11
0.5548207204
 21
-0.0
 31
0.0
 40
0.0174550649
 41
-3.1328660073
 42
-0.0087266463
  0
ELLIPSE
  5
47F
100
AcDbEntity
  8
RACCORDO
100
AcDbEllipse
 62
7
  6
CONTINUOUS
 10
-134.3400996077
 20
59.6236213933
 30
0.0
 11
0.5548207204
 21
0.0
 31
0.0
 40
0.0174550649
 41
0.0087266463
 42
3.1328660073
  0
ELLIPSE
  5
480
100
AcDbEntity
  8
RACCORDO
100
AcDbEllipse
 62
7
  6
CONTINUOUS
 10
-134.3400996077
 20
2.4203630849
 30
0.0
 11
0.5548207204
 21
-0.0
 31
0.0
 40
0.0174550649
 41
-3.1328660073
 42
-0.0087266463
  0
ELLIPSE
  5
481
100
AcDbEntity
  8
RACCORDO
100
AcDbEllipse
 62
7
  6
CONTINUOUS
 10
-130.3400996077
 20
59.6236213933
 30
0.0
 11
0.5548207204
 21
0.0
 31
0.0
 40
0.0174550649
 41
0.0087266463
 42
3.1328660073
  0
ELLIPSE
  5
482
100
AcDbEntity
  8
RACCORDO
100
AcDbEllipse
 62
7
  6
CONTINUOUS
 10
-130.3400996077
 20
2.4203630849
 30
0.0
 11
0.5548207204
 21
-0.0
 31
0.0
 40
0.0174550649
 41
-3.1328660073
 42
-0.0087266463
  0
ELLIPSE
  5
483
100
AcDbEntity
  8
RACCORDO
100
AcDbEllipse
 62
7
  6
CONTINUOUS
 10
-126.3400996077
 20
59.6236213933
 30
0.0
 11
0.5548207204
 21
0.0
 31
0.0
 40
0.0174550649
 41
0.0087266463
 42
3.1328660073
  0
ELLIPSE
  5
484
100
AcDbEntity
  8
RACCORDO
100
AcDbEllipse
 62
7
  6
CONTINUOUS
 10
-126.3400996077
 20
2.4203630849
 30
0.0
 11
0.5548207204
 21
0.0
 31
0.0
 40
0.0174550649
 41
-3.1328660073
 42
-0.0087266463
  0
ELLIPSE
  5
485
100
AcDbEntity
  8
RACCORDO
100
AcDbEllipse
 62
7
  6
CONTINUOUS
 10
-122.3400996077
 20
59.6236213933
 30
0.0
 11
0.5548207204
 21
0.0
 31
0.0
 40
0.0174550649
 41
0.0087266463
 42
3.1328660073
  0
ELLIPSE
  5
486
100
AcDbEntity
  8
RACCORDO
100
AcDbEllipse
 62
7
  6
CONTINUOUS
 10
-122.3400996077
 20
2.4203630849
 30
0.0
 11
0.5548207204
 21
0.0
 31
0.0
 40
0.0174550649
 41
-3.1328660073
 42
-0.0087266463
  0
ELLIPSE
  5
487
100
AcDbEntity
  8
RACCORDO
100
AcDbEllipse
 62
7
  6
CONTINUOUS
 10
-118.3400996077
 20
59.6236213933
 30
0.0
 11
0.5548207204
 21
0.0
 31
0.0
 40
0.0174550649
 41
0.0087266463
 42
3.1328660073
  0
ELLIPSE
  5
488
100
AcDbEntity
  8
RACCORDO
100
AcDbEllipse
 62
7
  6
CONTINUOUS
 10
-118.3400996077
 20
2.4203630849
 30
0.0
 11
0.5548207204
 21
0.0
 31
0.0
 40
0.0174550649
 41
-3.1328660073
 42
-0.0087266463
  0
ELLIPSE
  5
489
100
AcDbEntity
  8
0
100
AcDbEllipse
 62
7
  6
CONTINUOUS
 10
-502.4128411634
 20
31.0219922391
 30
0.0
 11
506.5485233311
 21
-0.0
 31
0.0
 40
0.9841110516
 41
6.2323240399
 42
6.2335159401
  0
ELLIPSE
  5
48A
100
AcDbEntity
  8
0
100
AcDbEllipse
 62
7
  6
CONTINUOUS
 10
-502.4128411634
 20
31.0219922391
 30
0.0
 11
506.5485233311
 21
-0.0
 31
0.0
 40
0.9841110516
 41
6.3328546743
 42
6.3340465744
  0
ELLIPSE
  5
48B
100
AcDbEntity
  8
0
100
AcDbEllipse
 62
7
  6
CONTINUOUS
 10
295.7326419481
 20
31.0219922391
 30
0.0
 11
506.5485233311
 21
-0.0
 31
0.0
 40
0.9841110516
 41
3.0907313864
 42
3.0919232865
  0
ELLIPSE
  5
48C
100
AcDbEntity
  8
0
100
AcDbEllipse
 62
7
  6
CONTINUOUS
 10
295.7326419481
 20
31.0219922391
 30
0.0
 11
506.5485233311
 21
-0.0
 31
0.0
 40
0.9841110516
 41
-3.0919232865
 42
-3.0907313864
  0
ELLIPSE
  5
48D
100
AcDbEntity
  8
RACCORDO
100
AcDbEllipse
 62
7
  6
CONTINUOUS
 10
-208.6385882269
 20
5.7548395105
 30
0.0
 11
-1.5242182247
 21
0.0
 31
0.0
 40
0.9841110516
 41
6.3340465744
 42
7.7065013122
  0
ELLIPSE
  5
48E
100
AcDbEntity
  8
RACCORDO
100
AcDbEllipse
 62
7
  6
CONTINUOUS
 10
-208.6385882269
 20
56.2891449676
 30
0.0
 11
-1.5242182247
 21
0.0
 31
0.0
 40
0.9841110516
 41
4.8598693022
 42
6.2323240399
  0
ELLIPSE
  5
48F
100
AcDbEntity
  8
RACCORDO
100
AcDbEllipse
 62
7
  6
CONTINUOUS
 10
1.9583890115
 20
56.2891449676
 30
0.0
 11
-1.5242182247
 21
-0.0
 31
0.0
 40
0.9841110516
 41
3.1924539208
 42
4.5649086586
  0
ELLIPSE
  5
490
100
AcDbEntity
  8
RACCORDO
100
AcDbEllipse
 62
7
  6
CONTINUOUS
 10
1.9583890115
 20
5.7548395105
 30
0.0
 11
-1.5242182247
 21
0.0
 31
0.0
 40
0.9841110516
 41
8.0014619558
 42
9.3739166935
  0
ELLIPSE
  5
491
100
AcDbEntity
  8
RACCORDO
100
AcDbEllipse
 62
7
  6
CONTINUOUS
 10
-11.1851895108
 20
4.1146620741
 30
0.0
 11
0.2218689114
 21
-3.0033378985
 31
0.0
 40
0.9961740501
 41
-0.0734590505
 42
0.0734590505
  0
ELLIPSE
  5
492
100
AcDbEntity
  8
RACCORDO
100
AcDbEllipse
 62
7
  6
CONTINUOUS
 10
-195.4950097046
 20
4.1146620741
 30
0.0
 11
0.2218689114
 21
3.0033378985
 31
0.0
 40
0.9961740501
 41
3.0681336031
 42
3.2150517041
  0
ELLIPSE
  5
493
100
AcDbEntity
  8
RACCORDO
100
AcDbEllipse
 62
7
  6
CONTINUOUS
 10
-195.4950097046
 20
57.9293224041
 30
0.0
 11
-0.2218689114
 21
3.0033378985
 31
0.0
 40
0.9961740501
 41
-0.0734590505
 42
0.0734590505
  0
ELLIPSE
  5
494
100
AcDbEntity
  8
RACCORDO
100
AcDbEllipse
 62
7
  6
CONTINUOUS
 10
-11.1851895108
 20
57.9293224041
 30
0.0
 11
-0.2218689114
 21
-3.0033378985
 31
0.0
 40
0.9961740501
 41
3.0681336031
 42
3.2150517041
  0
ELLIPSE
  5
495
100
AcDbEntity
  8
ASSI
100
AcDbEllipse
 62
7
  6
CONTINUOUS
 10
-502.4128411634
 20
31.0219922391
 30
0.0
 11
506.5485233311
 21
-0.0
 31
0.0
 40
0.9841110516
 41
6.2323240399
 42
6.2335159401
  0
ELLIPSE
  5
496
100
AcDbEntity
  8
ASSI
100
AcDbEllipse
 62
7
  6
CONTINUOUS
 10
-502.4128411634
 20
31.0219922391
 30
0.0
 11
506.5485233311
 21
-0.0
 31
0.0
 40
0.9841110516
 41
6.3328546743
 42
6.3340465744
  0
ELLIPSE
  5
497
100
AcDbEntity
  8
ASSI
100
AcDbEllipse
 62
7
  6
CONTINUOUS
 10
295.7326419481
 20
31.0219922391
 30
0.0
 11
506.5485233311
 21
-0.0
 31
0.0
 40
0.9841110516
 41
3.0907313864
 42
3.0919232865
  0
ELLIPSE
  5
498
100
AcDbEntity
  8
ASSI
100
AcDbEllipse
 62
7
  6
CONTINUOUS
 10
295.7326419481
 20
31.0219922391
 30
0.0
 11
506.5485233311
 21
-0.0
 31
0.0
 40
0.9841110516
 41
-3.0919232865
 42
-3.0907313864
  0
ELLIPSE
  5
499
100
AcDbEntity
  8
ASSI
100
AcDbEllipse
 62
7
  6
CONTINUOUS
 10
1.9583890115
 20
5.7548395105
 30
0.0
 11
-1.5242182247
 21
0.0
 31
0.0
 40
0.9841110516
 41
8.0014619558
 42
9.3739166935
  0
ELLIPSE
  5
49A
100
AcDbEntity
  8
ASSI
100
AcDbEllipse
 62
7
  6
CONTINUOUS
 10
1.9583890115
 20
56.2891449676
 30
0.0
 11
-1.5242182247
 21
-0.0
 31
0.0
 40
0.9841110516
 41
3.1924539208
 42
4.5649086586
  0
ELLIPSE
  5
49B
100
AcDbEntity
  8
ASSI
100
AcDbEllipse
 62
7
  6
CONTINUOUS
 10
-208.6385882269
 20
56.2891449676
 30
0.0
 11
-1.5242182247
 21
0.0
 31
0.0
 40
0.9841110516
 41
4.8598693022
 42
6.2323240399
  0
ELLIPSE
  5
49C
100
AcDbEntity
  8
ASSI
100
AcDbEllipse
 62
7
  6
CONTINUOUS
 10
-208.6385882269
 20
5.7548395105
 30
0.0
 11
-1.5242182247
 21
0.0
 31
0.0
 40
0.9841110516
 41
6.3340465744
 42
7.7065013122
  0
ELLIPSE
  5
49D
100
AcDbEntity
  8
ASSI
100
AcDbEllipse
 62
7
  6
CONTINUOUS
 10
-118.3400996077
 20
2.4203630849
 30
0.0
 11
0.5548207204
 21
0.0
 31
0.0
 40
0.0174550649
 41
-3.1328660073
 42
-0.0087266463
  0
ELLIPSE
  5
49E
100
AcDbEntity
  8
ASSI
100
AcDbEllipse
 62
7
  6
CONTINUOUS
 10
-118.3400996077
 20
59.6236213933
 30
0.0
 11
0.5548207204
 21
0.0
 31
0.0
 40
0.0174550649
 41
0.0087266463
 42
3.1328660073
  0
ELLIPSE
  5
49F
100
AcDbEntity
  8
ASSI
100
AcDbEllipse
 62
7
  6
CONTINUOUS
 10
-122.3400996077
 20
2.4203630849
 30
0.0
 11
0.5548207204
 21
0.0
 31
0.0
 40
0.0174550649
 41
-3.1328660073
 42
-0.0087266463
  0
ELLIPSE
  5
4A0
100
AcDbEntity
  8
ASSI
100
AcDbEllipse
 62
7
  6
CONTINUOUS
 10
-122.3400996077
 20
59.6236213933
 30
0.0
 11
0.5548207204
 21
0.0
 31
0.0
 40
0.0174550649
 41
0.0087266463
 42
3.1328660073
  0
ELLIPSE
  5
4A1
100
AcDbEntity
  8
ASSI
100
AcDbEllipse
 62
7
  6
CONTINUOUS
 10
-126.3400996077
 20
2.4203630849
 30
0.0
 11
0.5548207204
 21
0.0
 31
0.0
 40
0.0174550649
 41
-3.1328660073
 42
-0.0087266463
  0
ELLIPSE
  5
4A2
100
AcDbEntity
  8
ASSI
100
AcDbEllipse
 62
7
  6
CONTINUOUS
 10
-126.3400996077
 20
59.6236213933
 30
0.0
 11
0.5548207204
 21
0.0
 31
0.0
 40
0.0174550649
 41
0.0087266463
 42
3.1328660073
  0
ELLIPSE
  5
4A3
100
AcDbEntity
  8
ASSI
100
AcDbEllipse
 62
7
  6
CONTINUOUS
 10
-130.3400996077
 20
2.4203630849
 30
0.0
 11
0.5548207204
 21
-0.0
 31
0.0
 40
0.0174550649
 41
-3.1328660073
 42
-0.0087266463
  0
ELLIPSE
  5
4A4
100
AcDbEntity
  8
ASSI
100
AcDbEllipse
 62
7
  6
CONTINUOUS
 10
-130.3400996077
 20
59.6236213933
 30
0.0
 11
0.5548207204
 21
0.0
 31
0.0
 40
0.0174550649
 41
0.0087266463
 42
3.1328660073
  0
ELLIPSE
  5
4A5
100
AcDbEntity
  8
ASSI
100
AcDbEllipse
 62
7
  6
CONTINUOUS
 10
-134.3400996077
 20
2.4203630849
 30
0.0
 11
0.5548207204
 21
-0.0
 31
0.0
 40
0.0174550649
 41
-3.1328660073
 42
-0.0087266463
  0
ELLIPSE
  5
4A6
100
AcDbEntity
  8
ASSI
100
AcDbEllipse
 62
7
  6
CONTINUOUS
 10
-134.3400996077
 20
59.6236213933
 30
0.0
 11
0.5548207204
 21
0.0
 31
0.0
 40
0.0174550649
 41
0.0087266463
 42
3.1328660073
  0
ELLIPSE
  5
4A7
100
AcDbEntity
  8
ASSI
100
AcDbEllipse
 62
7
  6
CONTINUOUS
 10
-138.3400996077
 20
2.4203630849
 30
0.0
 11
0.5548207204
 21
-0.0
 31
0.0
 40
0.0174550649
 41
-3.1328660073
 42
-0.0087266463
  0
ELLIPSE
  5
4A8
100
AcDbEntity
  8
ASSI
100
AcDbEllipse
 62
7
  6
CONTINUOUS
 10
-138.3400996077
 20
59.6236213933
 30
0.0
 11
0.5548207204
 21
0.0
 31
0.0
 40
0.0174550649
 41
0.0087266463
 42
3.1328660073
  0
ELLIPSE
  5
4A9
100
AcDbEntity
  8
ASSI
100
AcDbEllipse
 62
7
  6
CONTINUOUS
 10
-142.3400996077
 20
2.4203630849
 30
0.0
 11
0.5548207204
 21
-0.0
 31
0.0
 40
0.0174550649
 41
-3.1328660073
 42
-0.0087266463
  0
ELLIPSE
  5
4AA
100
AcDbEntity
  8
ASSI
100
AcDbEllipse
 62
7
  6
CONTINUOUS
 10
-142.3400996077
 20
59.6236213933
 30
0.0
 11
0.5548207204
 21
-0.0
 31
0.0
 40
0.0174550649
 41
0.0087266463
 42
3.1328660073
  0
ELLIPSE
  5
4AB
100
AcDbEntity
  8
ASSI
100
AcDbEllipse
 62
7
  6
CONTINUOUS
 10
-146.3400996077
 20
2.4203630849
 30
0.0
 11
0.5548207204
 21
0.0
 31
0.0
 40
0.0174550649
 41
-3.1328660073
 42
-0.0087266463
  0
ELLIPSE
  5
4AC
100
AcDbEntity
  8
ASSI
100
AcDbEllipse
 62
7
  6
CONTINUOUS
 10
-146.3400996077
 20
59.6236213933
 30
0.0
 11
0.5548207204
 21
0.0
 31
0.0
 40
0.0174550649
 41
0.0087266463
 42
3.1328660073
  0
ELLIPSE
  5
4AD
100
AcDbEntity
  8
ASSI
100
AcDbEllipse
 62
7
  6
CONTINUOUS
 10
-150.3400996077
 20
2.4203630849
 30
0.0
 11
0.5548207204
 21
0.0
 31
0.0
 40
0.0174550649
 41
-3.1328660073
 42
-0.0087266463
  0
ELLIPSE
  5
4AE
100
AcDbEntity
  8
ASSI
100
AcDbEllipse
 62
7
  6
CONTINUOUS
 10
-150.3400996077
 20
59.6236213933
 30
0.0
 11
0.5548207204
 21
0.0
 31
0.0
 40
0.0174550649
 41
0.0087266463
 42
3.1328660073
  0
ELLIPSE
  5
4AF
100
AcDbEntity
  8
ASSI
100
AcDbEllipse
 62
7
  6
CONTINUOUS
 10
-154.3400996077
 20
2.4203630849
 30
0.0
 11
0.5548207204
 21
-0.0
 31
0.0
 40
0.0174550649
 41
-3.1328660073
 42
-0.0087266463
  0
ELLIPSE
  5
4B0
100
AcDbEntity
  8
ASSI
100
AcDbEllipse
 62
7
  6
CONTINUOUS
 10
-154.3400996077
 20
59.6236213933
 30
0.0
 11
0.5548207204
 21
0.0
 31
0.0
 40
0.0174550649
 41
0.0087266463
 42
3.1328660073
  0
ELLIPSE
  5
4B1
100
AcDbEntity
  8
ASSI
100
AcDbEllipse
 62
7
  6
CONTINUOUS
 10
-158.3400996077
 20
2.4203630849
 30
0.0
 11
0.5548207204
 21
-0.0
 31
0.0
 40
0.0174550649
 41
-3.1328660073
 42
-0.0087266463
  0
ELLIPSE
  5
4B2
100
AcDbEntity
  8
ASSI
100
AcDbEllipse
 62
7
  6
CONTINUOUS
 10
-158.3400996077
 20
59.6236213933
 30
0.0
 11
0.5548207204
 21
0.0
 31
0.0
 40
0.0174550649
 41
0.0087266463
 42
3.1328660073
  0
ELLIPSE
  5
4B3
100
AcDbEntity
  8
ASSI
100
AcDbEllipse
 62
7
  6
CONTINUOUS
 10
-11.1851895108
 20
4.1146620741
 30
0.0
 11
0.2218689114
 21
-3.0033378985
 31
0.0
 40
0.9961740501
 41
-0.0734590505
 42
0.0734590505
  0
ELLIPSE
  5
4B4
100
AcDbEntity
  8
ASSI
100
AcDbEllipse
 62
7
  6
CONTINUOUS
 10
-195.4950097046
 20
4.1146620741
 30
0.0
 11
0.2218689114
 21
3.0033378985
 31
0.0
 40
0.9961740501
 41
3.0681336031
 42
3.2150517041
  0
ELLIPSE
  5
4B5
100
AcDbEntity
  8
ASSI
100
AcDbEllipse
 62
7
  6
CONTINUOUS
 10
-195.4950097046
 20
57.9293224041
 30
0.0
 11
-0.2218689114
 21
3.0033378985
 31
0.0
 40
0.9961740501
 41
-0.0734590505
 42
0.0734590505
  0
ELLIPSE
  5
4B6
100
AcDbEntity
  8
ASSI
100
AcDbEllipse
 62
7
  6
CONTINUOUS
 10
-11.1851895108
 20
57.9293224041
 30
0.0
 11
-0.2218689114
 21
-3.0033378985
 31
0.0
 40
0.9961740501
 41
3.0681336031
 42
3.2150517041
  0
ENDSEC
  0
SECTION
  2
OBJECTS
  0
DICTIONARY
  5
C
100
AcDbDictionary
280
0
281
1
  3
ACAD_GROUP
350
D
  3
ACAD_MLINESTYLE
350
17
  3
ACAD_LAYOUT
350
1A
  3
ACAD_PLOTSETTINGS
350
19
  3
ACAD_PLOTSTYLENAME
350
E
  0
DICTIONARY
  5
D
102
{ACAD_REACTORS
330
C
102
}
100
AcDbDictionary
280
0
281
1
  0
ACDBDICTIONARYWDFLT
  5
E
102
{ACAD_REACTORS
330
C
102
}
100
AcDbDictionary
281
1
  3
Normal
350
F
100
AcDbDictionaryWithDefault
340
F
  0
DICTIONARY
  5
17
102
{ACAD_REACTORS
330
C
102
}
100
AcDbDictionary
280
0
281
1
  3
Standard
350
18
  0
DICTIONARY
  5
19
102
{ACAD_REACTORS
330
C
102
}
100
AcDbDictionary
281
1
  0
DICTIONARY
  5
1A
102
{ACAD_REACTORS
330
C
102
}
100
AcDbDictionary
281
1
  3
Model
350
4B7
  3
Layout1
350
4B8
  0
ACDBPLACEHOLDER
  5
F
102
{ACAD_REACTORS
330
E
102
}
  0
MLINESTYLE
  5
18
102
{ACAD_REACTORS
330
17
102
}
100
AcDbMlineStyle
  2
STANDARD
 70
0
  3

 62
256
 51
90.0
 52
90.0
 71
2
 49
0.5
 62
256
  6
BYLAYER
 49
-0.5
 62
256
  6
BYLAYER
  0
LAYOUT
  5
4B7
102
{ACAD_REACTORS
330
1A
102
}
100
AcDbPlotSettings
  1

  2
none_device
  4
ISO_A4_(297.00_x_210.00_MM)
  6

 40
0.0
 41
0.0
 42
0.0
 43
0.0
 44
297.0
 45
210.0
 46
0.0
 47
0.0
 48
0.0
 49
0.0
140
0.0
141
0.0
142
1.0
143
1.0
 70
1024
 72
1
 73
0
 74
0
  7

 75
0
147
1.0
148
0.0
149
0.0
100
AcDbLayout
  1
Model
 70
0
 71
0
 10
0.0
 20
0.0
 11
297.0
 21
210.0
 12
0.0
 22
0.0
 32
0.0
 14
0.0
 24
0.0
 34
0.0
 15
0.0
 25
0.0
 35
0.0
146
0.0
 13
0.0
 23
0.0
 33
0.0
 16
1.0
 26
0.0
 36
0.0
 17
0.0
 27
1.0
 37
0.0
 76
0
330
21C
345
0
346
0
  0
LAYOUT
  5
4B8
102
{ACAD_REACTORS
330
1A
102
}
100
AcDbPlotSettings
  1

  2
none_device
  4
ISO_A4_(297.00_x_210.00_MM)
  6

 40
0.0
 41
0.0
 42
0.0
 43
0.0
 44
297.0
 45
210.0
 46
0.0
 47
0.0
 48
0.0
 49
0.0
140
0.0
141
0.0
142
1.0
143
1.0
 70
0
 72
1
 73
0
 74
0
  7

 75
0
147
1.0
148
0.0
149
0.0
100
AcDbLayout
  1
Layout1
 70
0
 71
1
 10
0.0
 20
0.0
 11
297.0
 21
210.0
 12
0.0
 22
0.0
 32
0.0
 14
0.0
 24
0.0
 34
0.0
 15
0.0
 25
0.0
 35
0.0
146
0.0
 13
0.0
 23
0.0
 33
0.0
 16
1.0
 26
0.0
 36
0.0
 17
0.0
 27
1.0
 37
0.0
 76
0
330
21D
345
0
346
0
  0
ENDSEC
  0
EOF
