  0
SECTION
  2
HEADER
  9
$ACADVER
  1
AC1015
  9
$DWGCODEPAGE
  3
ANSI_1252
  9
$EXTMAX
 10
297.0
 20
210.0
 30
0.0
  9
$EXTMIN
 10
0.0
 20
0.0
 30
0.0
  9
$LIMMIN
 10
0.0
 20
0.0
  9
$LIMMAX
 10
297.0
 20
210.0
  9
$VIEWCTR
 10
148.5
 20
105.0
  9
$VIEWSIZE
 40
210.0
  9
$CLAYER
  8
0
  9
$LTSCALE
 40
16.335
  9
$CELTYPE
  6
BYLAYER
  9
$DIMSCALE
 40
1.0
  9
$DIMASZ
 40
3.0
  9
$DIMEXO
 40
1.85625
  9
$DIMDLI
 40
11.286
  9
$DIMEXE
 40
5.346
  9
$DIMCEN
 40
2.673
  9
$DIMLFAC
 40
1.0
  9
$DIMBLK
  1
_FILLED
  9
$DIMTXT
 40
3.0
  9
$DIMTOL
 70
1
  9
$DIMLIM
 70
0
  9
$DIMTFAC
 40
1.0
  9
$DIMTP
 40
0.01
  9
$DIMTM
 40
0.01
  9
$PDMODE
 70
3
  9
$PDSIZE
 40
3.0
  9
$HANDSEED
  5
41B
  9
$TILEMODE
 70
1
  9
$MEASUREMENT
 70
1
  9
$INSUNITS
 70
4
  0
ENDSEC
  0
SECTION
  2
CLASSES
  0
CLASS
  1
ACDBDICTIONARYWDFLT
  2
AcDbDictionaryWithDefault
  3
AutoCAD 2000
 90
0
280
0
281
0
  0
CLASS
  1
ACDBPLACEHOLDER
  2
AcDbPlaceHolder
  3
AutoCAD 2000
 90
0
280
0
281
0
  0
CLASS
  1
LAYOUT
  2
AcDbLayout
  3
AutoCAD 2000
 90
0
280
0
281
0
  0
ENDSEC
  0
SECTION
  2
TABLES
  0
TABLE
  2
VPORT
  5
8
100
AcDbSymbolTable
 70
2
  0
VPORT
  5
1F4
100
AcDbSymbolTableRecord
100
AcDbViewportTableRecord
  2
*ACTIVE
 70
0
 10
0.0
 20
0.0
 11
1.0
 21
1.0
 12
148.5
 22
105.0
 13
0.0
 23
0.0
 14
1.0
 24
1.0
 15
0.0
 25
0.0
 16
0.0
 26
0.0
 36
1.0
 17
0.0
 27
0.0
 37
0.0
 40
210.0
 41
1.4142857143
 42
50.0
 43
0.0
 44
0.0
 50
0.0
 51
0.0
 71
0
 72
100
 73
1
 74
1
 75
0
 76
0
 77
0
 78
0
  0
ENDTAB
  0
TABLE
  2
LTYPE
  5
5
100
AcDbSymbolTable
 70
6
  0
LTYPE
  5
14
100
AcDbSymbolTableRecord
100
AcDbLinetypeTableRecord
  2
BYBLOCK
 70
0
  3

 72
65
 73
0
 40
0.0
  0
LTYPE
  5
15
100
AcDbSymbolTableRecord
100
AcDbLinetypeTableRecord
  2
BYLAYER
 70
0
  3

 72
65
 73
0
 40
0.0
  0
LTYPE
  5
16
100
AcDbSymbolTableRecord
100
AcDbLinetypeTableRecord
  2
CONTINUOUS
 70
64
  3
Solid line
 72
65
 73
0
 40
0.0
  0
LTYPE
  5
1F5
100
AcDbSymbolTableRecord
100
AcDbLinetypeTableRecord
  2
CENTER
 70
64
  3
____ _ ____ _ ____ _ ____ _ ____ _ ____ _ ____
 72
65
 73
4
 40
0.6
 49
0.375
 74
0
 49
-0.075
 74
0
 49
0.075
 74
0
 49
-0.075
 74
0
  0
LTYPE
  5
1F6
100
AcDbSymbolTableRecord
100
AcDbLinetypeTableRecord
  2
HIDDEN
 70
64
  3
- - - - - - - - - - - - - - - - - - - -
 72
65
 73
2
 40
0.2
 49
0.1
 74
0
 49
-0.1
 74
0
  0
LTYPE
  5
1F7
100
AcDbSymbolTableRecord
100
AcDbLinetypeTableRecord
  2
PHANTOM
 70
64
  3
_____ _ _ _____ _ _ _____ _ _ _____
 72
65
 73
6
 40
0.8
 49
0.45
 74
0
 49
-0.05
 74
0
 49
0.1
 74
0
 49
-0.05
 74
0
 49
0.1
 74
0
 49
-0.05
 74
0
  0
LTYPE
  5
1F8
100
AcDbSymbolTableRecord
100
AcDbLinetypeTableRecord
  2
DOT
 70
64
  3
. . . . . . . . . . . . . . . . . . . .
 72
65
 73
2
 40
0.2
 49
0.1
 74
0
 49
-0.1
 74
0
  0
LTYPE
  5
1F9
100
AcDbSymbolTableRecord
100
AcDbLinetypeTableRecord
  2
DASHED
 70
64
  3
- - - - - - - - - - - - - - - - - - - -
 72
65
 73
2
 40
0.2
 49
0.1
 74
0
 49
-0.1
 74
0
  0
ENDTAB
  0
TABLE
  2
LAYER
  5
2
100
AcDbSymbolTable
 70
36
  0
LAYER
  5
10
100
AcDbSymbolTableRecord
100
AcDbLayerTableRecord
  2
0
 70
0
 62
7
  6
CONTINUOUS
370
-3
390
F
  0
LAYER
  5
1FA
100
AcDbSymbolTableRecord
100
AcDbLayerTableRecord
  2
DEFAULT_1
 70
0
 62
7
  6
CENTER
370
-3
390
F
  0
LAYER
  5
1FB
100
AcDbSymbolTableRecord
100
AcDbLayerTableRecord
  2
DEFAULT_2
 70
0
 62
7
  6
HIDDEN
370
-3
390
F
  0
LAYER
  5
1FC
100
AcDbSymbolTableRecord
100
AcDbLayerTableRecord
  2
DEFAULT_3
 70
0
 62
7
  6
PHANTOM
370
-3
390
F
  0
LAYER
  5
1FD
100
AcDbSymbolTableRecord
100
AcDbLayerTableRecord
  2
2125-R1-RF-VIMAR_60000
 70
0
 62
7
  6
CONTINUOUS
370
-3
390
F
  0
LAYER
  5
1FE
100
AcDbSymbolTableRecord
100
AcDbLayerTableRecord
  2
2125-R1-RF-VIMAR_60000_1
 70
0
 62
7
  6
CONTINUOUS
370
-3
390
F
  0
LAYER
  5
1FF
100
AcDbSymbolTableRecord
100
AcDbLayerTableRecord
  2
2125-R1-RF-VIMAR_60000_2
 70
0
 62
7
  6
CONTINUOUS
370
-3
390
F
  0
LAYER
  5
200
100
AcDbSymbolTableRecord
100
AcDbLayerTableRecord
  2
2125-R1-RF-VIMAR_60000_3
 70
0
 62
7
  6
CONTINUOUS
370
-3
390
F
  0
LAYER
  5
201
100
AcDbSymbolTableRecord
100
AcDbLayerTableRecord
  2
2125-R1-RF-VIMAR_60000_4
 70
0
 62
7
  6
CONTINUOUS
370
-3
390
F
  0
LAYER
  5
202
100
AcDbSymbolTableRecord
100
AcDbLayerTableRecord
  2
2125-R1-RF-VIMAR_60000_5
 70
0
 62
7
  6
CONTINUOUS
370
-3
390
F
  0
LAYER
  5
203
100
AcDbSymbolTableRecord
100
AcDbLayerTableRecord
  2
43000460A0
 70
0
 62
7
  6
CONTINUOUS
370
-3
390
F
  0
LAYER
  5
204
100
AcDbSymbolTableRecord
100
AcDbLayerTableRecord
  2
43000460A0_
 70
0
 62
7
  6
CONTINUOUS
370
-3
390
F
  0
LAYER
  5
205
100
AcDbSymbolTableRecord
100
AcDbLayerTableRecord
  2
ASM0001
 70
0
 62
7
  6
CONTINUOUS
370
-3
390
F
  0
LAYER
  5
206
100
AcDbSymbolTableRecord
100
AcDbLayerTableRecord
  2
ASSI
 70
0
 62
7
  6
CONTINUOUS
370
-3
390
F
  0
LAYER
  5
207
100
AcDbSymbolTableRecord
100
AcDbLayerTableRecord
  2
CN-MSB02001-VIMAR_1000000
 70
0
 62
7
  6
CONTINUOUS
370
-3
390
F
  0
LAYER
  5
208
100
AcDbSymbolTableRecord
100
AcDbLayerTableRecord
  2
CN-MSB02001-VIMAR_1000000_1
 70
0
 62
7
  6
CONTINUOUS
370
-3
390
F
  0
LAYER
  5
209
100
AcDbSymbolTableRecord
100
AcDbLayerTableRecord
  2
CN-MSB02001-VIMAR_1000000_2
 70
0
 62
7
  6
CONTINUOUS
370
-3
390
F
  0
LAYER
  5
20A
100
AcDbSymbolTableRecord
100
AcDbLayerTableRecord
  2
CN1-REF_SQUAREHOLE12_SPEA-VIMAR
 70
0
 62
7
  6
CONTINUOUS
370
-3
390
F
  0
LAYER
  5
20B
100
AcDbSymbolTableRecord
100
AcDbLayerTableRecord
  2
CN1-REF_SQUAREHOLE12_SPEA-VIM_1
 70
0
 62
7
  6
CONTINUOUS
370
-3
390
F
  0
LAYER
  5
20C
100
AcDbSymbolTableRecord
100
AcDbLayerTableRecord
  2
CN1-REF_SQUAREHOLE12_SPEA-VIM_2
 70
0
 62
7
  6
CONTINUOUS
370
-3
390
F
  0
LAYER
  5
20D
100
AcDbSymbolTableRecord
100
AcDbLayerTableRecord
  2
CN1-REF_SQUAREHOLE12_SPEA-VIM_3
 70
0
 62
7
  6
CONTINUOUS
370
-3
390
F
  0
LAYER
  5
20E
100
AcDbSymbolTableRecord
100
AcDbLayerTableRecord
  2
CN1-TP10_SMD-VIMAR_10000
 70
0
 62
7
  6
CONTINUOUS
370
-3
390
F
  0
LAYER
  5
20F
100
AcDbSymbolTableRecord
100
AcDbLayerTableRecord
  2
CN1-TP10_SMD-VIMAR_10000_1
 70
0
 62
7
  6
CONTINUOUS
370
-3
390
F
  0
LAYER
  5
210
100
AcDbSymbolTableRecord
100
AcDbLayerTableRecord
  2
CN1-TP10_SMD-VIMAR_10000_2
 70
0
 62
7
  6
CONTINUOUS
370
-3
390
F
  0
LAYER
  5
211
100
AcDbSymbolTableRecord
100
AcDbLayerTableRecord
  2
CN1-TP10_SMD-VIMAR_10000_3
 70
0
 62
7
  6
CONTINUOUS
370
-3
390
F
  0
LAYER
  5
212
100
AcDbSymbolTableRecord
100
AcDbLayerTableRecord
  2
COLOR5
 70
0
 62
7
  6
CONTINUOUS
370
-3
390
F
  0
LAYER
  5
213
100
AcDbSymbolTableRecord
100
AcDbLayerTableRecord
  2
COORDINATE
 70
0
 62
7
  6
CONTINUOUS
370
-3
390
F
  0
LAYER
  5
214
100
AcDbSymbolTableRecord
100
AcDbLayerTableRecord
  2
COPY_PUBLISH
 70
0
 62
7
  6
CONTINUOUS
370
-3
390
F
  0
LAYER
  5
215
100
AcDbSymbolTableRecord
100
AcDbLayerTableRecord
  2
COSMETIC
 70
0
 62
7
  6
CONTINUOUS
370
-3
390
F
  0
LAYER
  5
216
100
AcDbSymbolTableRecord
100
AcDbLayerTableRecord
  2
CURVE
 70
0
 62
7
  6
CONTINUOUS
370
-3
390
F
  0
LAYER
  5
217
100
AcDbSymbolTableRecord
100
AcDbLayerTableRecord
  2
DRAFT
 70
0
 62
7
  6
CONTINUOUS
370
-3
390
F
  0
LAYER
  5
218
100
AcDbSymbolTableRecord
100
AcDbLayerTableRecord
  2
E2_MARK_10000
 70
0
 62
7
  6
CONTINUOUS
370
-3
390
F
  0
LAYER
  5
219
100
AcDbSymbolTableRecord
100
AcDbLayerTableRecord
  2
IMPORT_IGES
 70
0
 62
7
  6
CONTINUOUS
370
-3
390
F
  0
LAYER
  5
21A
100
AcDbSymbolTableRecord
100
AcDbLayerTableRecord
  2
LOGO_RESIST-RESTYLING_10000
 70
0
 62
7
  6
CONTINUOUS
370
-3
390
F
  0
LAYER
  5
21B
100
AcDbSymbolTableRecord
100
AcDbLayerTableRecord
  2
L_SRR0604-RF-VIMAR_480000
 70
0
 62
7
  6
CONTINUOUS
370
-3
390
F
  0
LAYER
  5
21C
100
AcDbSymbolTableRecord
100
AcDbLayerTableRecord
  2
L_SRR0604-RF-VIMAR_480000_1
 70
0
 62
7
  6
CONTINUOUS
370
-3
390
F
  0
LAYER
  5
21D
100
AcDbSymbolTableRecord
100
AcDbLayerTableRecord
  2
L_SRR0604-RF-VIMAR_480000_10
 70
0
 62
7
  6
CONTINUOUS
370
-3
390
F
  0
LAYER
  5
21E
100
AcDbSymbolTableRecord
100
AcDbLayerTableRecord
  2
L_SRR0604-RF-VIMAR_480000_11
 70
0
 62
7
  6
CONTINUOUS
370
-3
390
F
  0
LAYER
  5
21F
100
AcDbSymbolTableRecord
100
AcDbLayerTableRecord
  2
L_SRR0604-RF-VIMAR_480000_2
 70
0
 62
7
  6
CONTINUOUS
370
-3
390
F
  0
LAYER
  5
220
100
AcDbSymbolTableRecord
100
AcDbLayerTableRecord
  2
L_SRR0604-RF-VIMAR_480000_3
 70
0
 62
7
  6
CONTINUOUS
370
-3
390
F
  0
LAYER
  5
221
100
AcDbSymbolTableRecord
100
AcDbLayerTableRecord
  2
L_SRR0604-RF-VIMAR_480000_4
 70
0
 62
7
  6
CONTINUOUS
370
-3
390
F
  0
LAYER
  5
222
100
AcDbSymbolTableRecord
100
AcDbLayerTableRecord
  2
L_SRR0604-RF-VIMAR_480000_5
 70
0
 62
7
  6
CONTINUOUS
370
-3
390
F
  0
LAYER
  5
223
100
AcDbSymbolTableRecord
100
AcDbLayerTableRecord
  2
L_SRR0604-RF-VIMAR_480000_6
 70
0
 62
7
  6
CONTINUOUS
370
-3
390
F
  0
LAYER
  5
224
100
AcDbSymbolTableRecord
100
AcDbLayerTableRecord
  2
L_SRR0604-RF-VIMAR_480000_7
 70
0
 62
7
  6
CONTINUOUS
370
-3
390
F
  0
LAYER
  5
225
100
AcDbSymbolTableRecord
100
AcDbLayerTableRecord
  2
L_SRR0604-RF-VIMAR_480000_8
 70
0
 62
7
  6
CONTINUOUS
370
-3
390
F
  0
LAYER
  5
226
100
AcDbSymbolTableRecord
100
AcDbLayerTableRecord
  2
L_SRR0604-RF-VIMAR_480000_9
 70
0
 62
7
  6
CONTINUOUS
370
-3
390
F
  0
LAYER
  5
227
100
AcDbSymbolTableRecord
100
AcDbLayerTableRecord
  2
NO-PB_MARK_10000
 70
0
 62
7
  6
CONTINUOUS
370
-3
390
F
  0
LAYER
  5
228
100
AcDbSymbolTableRecord
100
AcDbLayerTableRecord
  2
PIANI
 70
0
 62
7
  6
CONTINUOUS
370
-3
390
F
  0
LAYER
  5
229
100
AcDbSymbolTableRecord
100
AcDbLayerTableRecord
  2
PUNTI
 70
0
 62
7
  6
CONTINUOUS
370
-3
390
F
  0
LAYER
  5
22A
100
AcDbSymbolTableRecord
100
AcDbLayerTableRecord
  2
RACCORDO
 70
0
 62
7
  6
CONTINUOUS
370
-3
390
F
  0
LAYER
  5
22B
100
AcDbSymbolTableRecord
100
AcDbLayerTableRecord
  2
SMUSSO
 70
0
 62
7
  6
CONTINUOUS
370
-3
390
F
  0
LAYER
  5
22C
100
AcDbSymbolTableRecord
100
AcDbLayerTableRecord
  2
SNAPLINE
 70
0
 62
7
  6
CONTINUOUS
370
-3
390
F
  0
LAYER
  5
22D
100
AcDbSymbolTableRecord
100
AcDbLayerTableRecord
  2
TRASH
 70
0
 62
7
  6
CONTINUOUS
370
-3
390
F
  0
LAYER
  5
22E
100
AcDbSymbolTableRecord
100
AcDbLayerTableRecord
  2
___SHELL
 70
0
 62
7
  6
CONTINUOUS
370
-3
390
F
  0
ENDTAB
  0
TABLE
  2
STYLE
  5
3
100
AcDbSymbolTable
 70
1
  0
STYLE
  5
11
100
AcDbSymbolTableRecord
100
AcDbTextStyleTableRecord
  2
STANDARD
 70
0
 40
0.0
 41
0.8
 50
0.0
 71
0
 42
0.2
  3
txt
  4

  0
STYLE
  5
22F
100
AcDbSymbolTableRecord
100
AcDbTextStyleTableRecord
  2
TEXTSTYLE_1
 70
0
 40
0.0
 41
0.8
 50
0.0
 71
0
 42
0.2
  3
gdt
  4

  0
ENDTAB
  0
TABLE
  2
VIEW
  5
6
100
AcDbSymbolTable
 70
0
  0
ENDTAB
  0
TABLE
  2
UCS
  5
7
100
AcDbSymbolTable
 70
0
  0
ENDTAB
  0
TABLE
  2
APPID
  5
9
100
AcDbSymbolTable
 70
1
  0
APPID
  5
230
100
AcDbSymbolTableRecord
100
AcDbRegAppTableRecord
  2
ACAD
 70
0
  0
ENDTAB
  0
TABLE
  2
BLOCK_RECORD
  5
1
100
AcDbSymbolTable
 70
0
  0
BLOCK_RECORD
  5
231
100
AcDbSymbolTableRecord
100
AcDbBlockTableRecord
  2
*Model_Space
  0
BLOCK_RECORD
  5
232
100
AcDbSymbolTableRecord
100
AcDbBlockTableRecord
  2
*Paper_Space
  0
ENDTAB
  0
TABLE
  2
DIMSTYLE
  5
A
100
AcDbSymbolTable
 70
1
100
AcDbDimStyleTable
 71
0
  0
DIMSTYLE
105
233
100
AcDbSymbolTableRecord
100
AcDbDimStyleTableRecord
  2
STANDARD
 70
0
  3

  4

 40
1.0
 41
3.0
 42
0.0625
 43
0.38
 44
0.18
 45
0.0
 46
0.0
 47
0.01
 48
0.01
140
3.0
141
0.09
142
0.0
143
25.4
144
1.0
145
0.0
146
1.0
147
0.09
 71
1.0
 72
0.0
 73
0
 74
0
 75
0
 76
0
 77
1
 78
8
170
0
171
2
172
0
173
0
174
0
175
0
176
0
177
0
178
0
270
2
271
2
272
2
273
2
274
2
275
0
280
0
281
0
282
0
283
1
284
8
285
0
286
0
287
3
288
0
340
11
  0
ENDTAB
  0
ENDSEC
  0
SECTION
  2
BLOCKS
  0
BLOCK
  5
20
100
AcDbEntity
  8
0
100
AcDbBlockBegin
  2
*Model_Space
 70
0
 10
0.0
 20
0.0
 30
0.0
  3
*Model_Space
  1

  0
ENDBLK
  5
21
100
AcDbEntity
  8
0
100
AcDbBlockEnd
  0
BLOCK
  5
1C
100
AcDbEntity
  8
0
100
AcDbBlockBegin
  2
*Paper_Space
 70
0
 10
0.0
 20
0.0
 30
0.0
  3
*Paper_Space
  1

  0
ENDBLK
  5
1D
100
AcDbEntity
  8
0
100
AcDbBlockEnd
  0
ENDSEC
  0
SECTION
  2
ENTITIES
  0
LINE
  5
234
100
AcDbEntity
  8
RACCORDO
100
AcDbLine
 62
253
  6
CONTINUOUS
 10
-29.023530838
 20
-11.8706869997
 11
-29.0411382194
 21
-11.8529371553
  0
LINE
  5
235
100
AcDbEntity
  8
RACCORDO
100
AcDbLine
 62
7
  6
CONTINUOUS
 10
-29.0411382194
 20
-15.5568102709
 11
-29.0411382194
 21
-11.8529371553
  0
LINE
  5
236
100
AcDbEntity
  8
RACCORDO
100
AcDbLine
 62
253
  6
CONTINUOUS
 10
-29.023530838
 20
-15.539061427
 11
-29.023530838
 21
-11.8706869997
  0
LINE
  5
237
100
AcDbEntity
  8
RACCORDO
100
AcDbLine
 62
253
  6
CONTINUOUS
 10
-28.5236069904
 20
-15.5392028895
 11
-28.5236069904
 21
-11.8705445366
  0
LINE
  5
238
100
AcDbEntity
  8
RACCORDO
100
AcDbLine
 62
7
  6
CONTINUOUS
 10
16.0123917665
 20
-21.8850534533
 11
12.608595691
 21
-21.8850534533
  0
LINE
  5
239
100
AcDbEntity
  8
RACCORDO
100
AcDbLine
 62
7
  6
CONTINUOUS
 10
15.9949367015
 20
-21.8675983884
 11
15.7846588671
 21
-21.8675983884
  0
LINE
  5
23A
100
AcDbEntity
  8
RACCORDO
100
AcDbLine
 62
7
  6
CONTINUOUS
 10
12.8363285903
 20
-21.8675983884
 11
12.6260507559
 21
-21.8675983884
  0
LINE
  5
23B
100
AcDbEntity
  8
RACCORDO
100
AcDbLine
 62
253
  6
CONTINUOUS
 10
12.9815528029
 20
-21.7837531502
 11
15.6394346545
 21
-21.7837531502
  0
LINE
  5
23C
100
AcDbEntity
  8
RACCORDO
100
AcDbLine
 62
253
  6
CONTINUOUS
 10
12.9815528029
 20
-21.5837836112
 11
15.6394346545
 21
-21.5837836112
  0
LINE
  5
23D
100
AcDbEntity
  8
RACCORDO
100
AcDbLine
 62
7
  6
CONTINUOUS
 10
17.8107983384
 20
-20.7048737131
 11
16.2123613055
 21
-20.7048737131
  0
LINE
  5
23E
100
AcDbEntity
  8
RACCORDO
100
AcDbLine
 62
7
  6
CONTINUOUS
 10
12.408626152
 20
-20.7048737131
 11
-18.189810881
 21
-20.7048737131
  0
LINE
  5
23F
100
AcDbEntity
  8
RACCORDO
100
AcDbLine
 62
253
  6
CONTINUOUS
 10
-17.4231465589
 20
-20.6384835398
 11
12.408626152
 21
-20.6384835398
  0
LINE
  5
240
100
AcDbEntity
  8
RACCORDO
100
AcDbLine
 62
253
  6
CONTINUOUS
 10
16.2123613055
 20
-20.6384835398
 11
17.0441340164
 21
-20.6384835398
  0
LINE
  5
241
100
AcDbEntity
  8
RACCORDO
100
AcDbLine
 62
7
  6
CONTINUOUS
 10
-17.4231465589
 20
-20.6350534533
 11
12.408626152
 21
-20.6350534533
  0
LINE
  5
242
100
AcDbEntity
  8
RACCORDO
100
AcDbLine
 62
7
  6
CONTINUOUS
 10
16.2123613055
 20
-20.6350534533
 11
17.0441340164
 21
-20.6350534533
  0
LINE
  5
243
100
AcDbEntity
  8
RACCORDO
100
AcDbLine
 62
7
  6
CONTINUOUS
 10
12.4260812169
 20
-20.6175983884
 11
12.8653016237
 21
-20.6175983884
  0
LINE
  5
244
100
AcDbEntity
  8
RACCORDO
100
AcDbLine
 62
7
  6
CONTINUOUS
 10
15.7556858338
 20
-20.6175983884
 11
16.1949062406
 21
-20.6175983884
  0
LINE
  5
245
100
AcDbEntity
  8
RACCORDO
100
AcDbLine
 62
253
  6
CONTINUOUS
 10
-18.0409858797
 20
-20.5560487118
 11
12.9719087907
 21
-20.5560487118
  0
LINE
  5
246
100
AcDbEntity
  8
RACCORDO
100
AcDbLine
 62
253
  6
CONTINUOUS
 10
15.6490786667
 20
-20.5560487118
 11
17.6618443385
 21
-20.5560487118
  0
LINE
  5
247
100
AcDbEntity
  8
RACCORDO
100
AcDbLine
 62
253
  6
CONTINUOUS
 10
-27.0236939852
 20
-9.8708491463
 11
-27.0414428291
 21
-9.8532417649
  0
LINE
  5
248
100
AcDbEntity
  8
RACCORDO
100
AcDbLine
 62
253
  6
CONTINUOUS
 10
-27.0238354477
 20
-9.8708491463
 11
-27.0238354477
 21
-10.3707729939
  0
LINE
  5
249
100
AcDbEntity
  8
RACCORDO
100
AcDbLine
 62
253
  6
CONTINUOUS
 10
-27.0238354477
 20
-17.5388982798
 11
-27.0238354477
 21
-17.0389744322
  0
LINE
  5
24A
100
AcDbEntity
  8
RACCORDO
100
AcDbLine
 62
253
  6
CONTINUOUS
 10
14.6340668736
 20
-19.0562806127
 11
17.6619733372
 21
-19.0562771691
  0
LINE
  5
24B
100
AcDbEntity
  8
RACCORDO
100
AcDbLine
 62
253
  6
CONTINUOUS
 10
-18.0409858797
 20
-19.0562771691
 11
13.9869195741
 21
-19.0562914667
  0
LINE
  5
24C
100
AcDbEntity
  8
RACCORDO
100
AcDbLine
 62
253
  6
CONTINUOUS
 10
18.1618971848
 20
-18.5563533215
 11
19.6616687275
 21
-18.5563533215
  0
LINE
  5
24D
100
AcDbEntity
  8
RACCORDO
100
AcDbLine
 62
253
  6
CONTINUOUS
 10
-18.5409097273
 20
-18.5563533215
 11
-20.04068127
 21
-18.5563533207
  0
LINE
  5
24E
100
AcDbEntity
  8
RACCORDO
100
AcDbLine
 62
7
  6
CONTINUOUS
 10
-17.4823677909
 20
-18.4901391092
 11
17.1033552484
 21
-18.4901391092
  0
LINE
  5
24F
100
AcDbEntity
  8
RACCORDO
100
AcDbLine
 62
7
  6
CONTINUOUS
 10
-17.4471023948
 20
-18.4548737131
 11
17.0680898522
 21
-18.4548737131
  0
LINE
  5
250
100
AcDbEntity
  8
RACCORDO
100
AcDbLine
 62
7
  6
CONTINUOUS
 10
-20.0411382194
 20
-17.5565056612
 11
-27.0414428291
 21
-17.5565056612
  0
LINE
  5
251
100
AcDbEntity
  8
RACCORDO
100
AcDbLine
 62
253
  6
CONTINUOUS
 10
-19.6510770331
 20
-17.5388982798
 11
-27.0236929846
 21
-17.5388982798
  0
LINE
  5
252
100
AcDbEntity
  8
RACCORDO
100
AcDbLine
 62
253
  6
CONTINUOUS
 10
-18.5409097273
 20
-17.0389744322
 11
-27.0238354477
 21
-17.0389744322
  0
LINE
  5
253
100
AcDbEntity
  8
RACCORDO
100
AcDbLine
 62
253
  6
CONTINUOUS
 10
-29.023530838
 20
-15.5392028895
 11
-28.5236069904
 21
-15.5392028895
  0
LINE
  5
254
100
AcDbEntity
  8
DRAFT
100
AcDbLine
 62
7
  6
CONTINUOUS
 10
-20.1895062713
 20
-9.7048737131
 11
-20.0411382194
 21
-9.8532417649
  0
LINE
  5
255
100
AcDbEntity
  8
RACCORDO
100
AcDbLine
 62
7
  6
CONTINUOUS
 10
-20.04068127
 20
-9.8536987143
 11
-20.0411382194
 21
-9.8532417649
  0
LINE
  5
256
100
AcDbEntity
  8
RACCORDO
100
AcDbLine
 62
253
  6
CONTINUOUS
 10
-20.3894758103
 20
-8.7048737131
 11
-20.4863922085
 21
-8.6079573149
  0
LINE
  5
257
100
AcDbEntity
  8
RACCORDO
100
AcDbLine
 62
253
  6
CONTINUOUS
 10
-20.1895062713
 20
-8.504904174
 11
-20.286423027
 21
-8.4079874183
  0
LINE
  5
258
100
AcDbEntity
  8
RACCORDO
100
AcDbLine
 62
7
  6
CONTINUOUS
 10
-21.6895062713
 20
-8.504904174
 11
-21.6895062713
 21
-5.7048737131
  0
LINE
  5
259
100
AcDbEntity
  8
RACCORDO
100
AcDbLine
 62
7
  6
CONTINUOUS
 10
-21.6895062713
 20
4.2951262869
 11
-21.6895062713
 21
7.0951567479
  0
LINE
  5
25A
100
AcDbEntity
  8
RACCORDO
100
AcDbLine
 62
7
  6
CONTINUOUS
 10
-21.5935034142
 20
3.7077747983
 11
-21.5935034142
 21
-5.1175222244
  0
LINE
  5
25B
100
AcDbEntity
  8
RACCORDO
100
AcDbLine
 62
253
  6
CONTINUOUS
 10
-21.5445683058
 20
4.1986664457
 11
-21.5445683058
 21
-5.6084138718
  0
LINE
  5
25C
100
AcDbEntity
  8
RACCORDO
100
AcDbLine
 62
253
  6
CONTINUOUS
 10
-21.3445987668
 20
4.1986664457
 11
-21.3445987668
 21
-5.6084138718
  0
LINE
  5
25D
100
AcDbEntity
  8
RACCORDO
100
AcDbLine
 62
253
  6
CONTINUOUS
 10
-20.5344137758
 20
-5.6084138718
 11
-20.5344137758
 21
4.1986664457
  0
LINE
  5
25E
100
AcDbEntity
  8
RACCORDO
100
AcDbLine
 62
253
  6
CONTINUOUS
 10
-20.3344442367
 20
-5.6084138718
 11
-20.3344442367
 21
4.1986664457
  0
LINE
  5
25F
100
AcDbEntity
  8
RACCORDO
100
AcDbLine
 62
7
  6
CONTINUOUS
 10
-20.2855091284
 20
3.7077747983
 11
-20.2855091284
 21
-5.1175222244
  0
LINE
  5
260
100
AcDbEntity
  8
RACCORDO
100
AcDbLine
 62
7
  6
CONTINUOUS
 10
-20.1895062713
 20
17.2954308966
 11
-20.1895062713
 21
4.0451262869
  0
LINE
  5
261
100
AcDbEntity
  8
DRAFT
100
AcDbLine
 62
7
  6
CONTINUOUS
 10
-20.1895062713
 20
4.2951262869
 11
-20.1895062713
 21
4.0027692087
  0
LINE
  5
262
100
AcDbEntity
  8
RACCORDO
100
AcDbLine
 62
7
  6
CONTINUOUS
 10
-20.1895062713
 20
-5.7048737131
 11
-20.1895062713
 21
-8.504904174
  0
LINE
  5
263
100
AcDbEntity
  8
DRAFT
100
AcDbLine
 62
7
  6
CONTINUOUS
 10
-20.1895062713
 20
-5.4125166348
 11
-20.1895062713
 21
-9.7048737131
  0
LINE
  5
264
100
AcDbEntity
  8
RACCORDO
100
AcDbLine
 62
7
  6
CONTINUOUS
 10
-20.1895062713
 20
-8.9048432521
 11
-20.1895062713
 21
-9.8532417649
  0
LINE
  5
265
100
AcDbEntity
  8
RACCORDO
100
AcDbLine
 62
7
  6
CONTINUOUS
 10
-20.1895062713
 20
-17.5565056612
 11
-20.1895062713
 21
-18.7051783227
  0
LINE
  5
266
100
AcDbEntity
  8
RACCORDO
100
AcDbLine
 62
7
  6
CONTINUOUS
 10
-20.2769339124
 20
-5.617446072
 11
-20.1895062713
 21
-5.7048737131
  0
LINE
  5
267
100
AcDbEntity
  8
RACCORDO
100
AcDbLine
 62
7
  6
CONTINUOUS
 10
-20.0935034142
 20
-5.064061677
 11
-20.0935034142
 21
3.6543142509
  0
LINE
  5
268
100
AcDbEntity
  8
RACCORDO
100
AcDbLine
 62
253
  6
CONTINUOUS
 10
-20.04068127
 20
-17.5560487118
 11
-20.04068127
 21
-18.5562243229
  0
LINE
  5
269
100
AcDbEntity
  8
RACCORDO
100
AcDbLine
 62
253
  6
CONTINUOUS
 10
-20.04068127
 20
-9.8536987143
 11
-20.04068127
 21
17.1464815562
  0
LINE
  5
26A
100
AcDbEntity
  8
RACCORDO
100
AcDbLine
 62
7
  6
CONTINUOUS
 10
-18.7277036071
 20
1.901398376
 11
-18.7277036071
 21
-3.3111458021
  0
LINE
  5
26B
100
AcDbEntity
  8
DRAFT
100
AcDbLine
 62
7
  6
CONTINUOUS
 10
-18.621431518
 20
-3.2048737131
 11
-18.621431518
 21
1.7951262869
  0
LINE
  5
26C
100
AcDbEntity
  8
RACCORDO
100
AcDbLine
 62
253
  6
CONTINUOUS
 10
-18.5933510977
 20
-3.2329541334
 11
-18.5933510977
 21
-3.2048737131
  0
LINE
  5
26D
100
AcDbEntity
  8
RACCORDO
100
AcDbLine
 62
253
  6
CONTINUOUS
 10
-18.5933510977
 20
1.7951262869
 11
-18.5933510977
 21
1.8232067073
  0
LINE
  5
26E
100
AcDbEntity
  8
RACCORDO
100
AcDbLine
 62
253
  6
CONTINUOUS
 10
-18.5409097273
 20
-3.3113496091
 11
-18.5409097273
 21
-10.3707729939
  0
LINE
  5
26F
100
AcDbEntity
  8
RACCORDO
100
AcDbLine
 62
253
  6
CONTINUOUS
 10
-18.5409097273
 20
-17.0389744322
 11
-18.5409097273
 21
-18.5563533215
  0
LINE
  5
270
100
AcDbEntity
  8
RACCORDO
100
AcDbLine
 62
253
  6
CONTINUOUS
 10
-18.5409097273
 20
1.901602183
 11
-18.5409097273
 21
17.1466058954
  0
LINE
  5
271
100
AcDbEntity
  8
0
100
AcDbLine
 62
7
  6
CONTINUOUS
 10
-18.1895062713
 20
1.8750648439
 11
-18.1895062713
 21
-3.28481227
  0
LINE
  5
272
100
AcDbEntity
  8
RACCORDO
100
AcDbLine
 62
253
  6
CONTINUOUS
 10
-18.0409858797
 20
19.1463012857
 11
-18.0409858797
 21
17.646529743
  0
LINE
  5
273
100
AcDbEntity
  8
RACCORDO
100
AcDbLine
 62
253
  6
CONTINUOUS
 10
-18.0409858797
 20
-19.0562771691
 11
-18.0409858797
 21
-20.5560487118
  0
LINE
  5
274
100
AcDbEntity
  8
RACCORDO
100
AcDbLine
 62
7
  6
CONTINUOUS
 10
-17.9747716674
 20
16.5879878066
 11
-17.9747716674
 21
1.901602183
  0
LINE
  5
275
100
AcDbEntity
  8
RACCORDO
100
AcDbLine
 62
7
  6
CONTINUOUS
 10
-17.9747716674
 20
-3.3113496091
 11
-17.9747716674
 21
-17.9977352327
  0
LINE
  5
276
100
AcDbEntity
  8
RACCORDO
100
AcDbLine
 62
7
  6
CONTINUOUS
 10
-17.9395062713
 20
16.5527224104
 11
-17.9395062713
 21
1.89811117
  0
LINE
  5
277
100
AcDbEntity
  8
RACCORDO
100
AcDbLine
 62
7
  6
CONTINUOUS
 10
-17.9395062713
 20
-3.3078585961
 11
-17.9395062713
 21
-17.9624698366
  0
LINE
  5
278
100
AcDbEntity
  8
RACCORDO
100
AcDbLine
 62
253
  6
CONTINUOUS
 10
-20.4863925661
 20
7.1982095312
 11
-20.3894758103
 21
7.2951262869
  0
LINE
  5
279
100
AcDbEntity
  8
RACCORDO
100
AcDbLine
 62
253
  6
CONTINUOUS
 10
-20.286423027
 20
6.9982399921
 11
-20.1895062713
 21
7.0951567479
  0
LINE
  5
27A
100
AcDbEntity
  8
RACCORDO
100
AcDbLine
 62
253
  6
CONTINUOUS
 10
-29.023530838
 20
-11.8705445366
 11
-28.5236069904
 21
-11.8705445366
  0
LINE
  5
27B
100
AcDbEntity
  8
RACCORDO
100
AcDbLine
 62
7
  6
CONTINUOUS
 10
-18.5497134354
 20
-3.2765917957
 11
-18.621431518
 21
-3.2048737131
  0
LINE
  5
27C
100
AcDbEntity
  8
RACCORDO
100
AcDbLine
 62
253
  6
CONTINUOUS
 10
-17.4231465589
 20
-20.6350534533
 11
-17.4231465589
 21
-20.6384835398
  0
LINE
  5
27D
100
AcDbEntity
  8
DRAFT
100
AcDbLine
 62
7
  6
CONTINUOUS
 10
-16.6092129726
 20
-3.2851670117
 11
-16.6092129726
 21
1.8754195856
  0
LINE
  5
27E
100
AcDbEntity
  8
DRAFT
100
AcDbLine
 62
7
  6
CONTINUOUS
 10
-16.5865213882
 20
-3.3078585961
 11
-16.5865213882
 21
1.89811117
  0
LINE
  5
27F
100
AcDbEntity
  8
RACCORDO
100
AcDbLine
 62
7
  6
CONTINUOUS
 10
-20.2769339124
 20
4.2076986459
 11
-20.1895062713
 21
4.2951262869
  0
LINE
  5
280
100
AcDbEntity
  8
RACCORDO
100
AcDbLine
 62
253
  6
CONTINUOUS
 10
1.6446804421
 20
28.1291508537
 11
1.6624302865
 21
28.1467582351
  0
LINE
  5
281
100
AcDbEntity
  8
RACCORDO
100
AcDbLine
 62
253
  6
CONTINUOUS
 10
-27.0238354477
 20
-10.3707729939
 11
-18.5409097273
 21
-10.3707729939
  0
LINE
  5
282
100
AcDbEntity
  8
RACCORDO
100
AcDbLine
 62
253
  6
CONTINUOUS
 10
-27.0236939852
 20
-9.8708491463
 11
-19.6510770331
 21
-9.8708491463
  0
LINE
  5
283
100
AcDbEntity
  8
RACCORDO
100
AcDbLine
 62
7
  6
CONTINUOUS
 10
-27.0414428291
 20
-9.8532417649
 11
-20.0411382194
 21
-9.8532417649
  0
LINE
  5
284
100
AcDbEntity
  8
RACCORDO
100
AcDbLine
 62
7
  6
CONTINUOUS
 10
21.1105241897
 20
-8.7048737131
 11
20.0104632678
 21
-8.7048737131
  0
LINE
  5
285
100
AcDbEntity
  8
RACCORDO
100
AcDbLine
 62
7
  6
CONTINUOUS
 10
-20.3894758103
 20
-8.7048737131
 11
-21.4895367322
 21
-8.7048737131
  0
LINE
  5
286
100
AcDbEntity
  8
RACCORDO
100
AcDbLine
 62
253
  6
CONTINUOUS
 10
-21.3926199765
 20
-8.6079569573
 11
-20.4863922085
 21
-8.6079573149
  0
LINE
  5
287
100
AcDbEntity
  8
RACCORDO
100
AcDbLine
 62
253
  6
CONTINUOUS
 10
20.1073800235
 20
-8.6079569573
 11
21.0136074339
 21
-8.6079569573
  0
LINE
  5
288
100
AcDbEntity
  8
RACCORDO
100
AcDbLine
 62
253
  6
CONTINUOUS
 10
12.9815528029
 20
-21.5837836112
 11
12.8083741021
 21
-21.4837988416
  0
LINE
  5
289
100
AcDbEntity
  8
RACCORDO
100
AcDbLine
 62
253
  6
CONTINUOUS
 10
15.6394346545
 20
-21.7837531502
 11
15.7846588671
 21
-21.8675983884
  0
LINE
  5
28A
100
AcDbEntity
  8
RACCORDO
100
AcDbLine
 62
253
  6
CONTINUOUS
 10
13.5245398333
 20
-20.2433633965
 11
13.6977187887
 21
-20.3433477371
  0
LINE
  5
28B
100
AcDbEntity
  8
DRAFT
100
AcDbLine
 62
7
  6
CONTINUOUS
 10
-16.6092129726
 20
-3.2851670117
 11
-16.5865213882
 21
-3.3078585961
  0
LINE
  5
28C
100
AcDbEntity
  8
RACCORDO
100
AcDbLine
 62
7
  6
CONTINUOUS
 10
-21.6020786302
 20
4.2076986459
 11
-21.6895062713
 21
4.2951262869
  0
LINE
  5
28D
100
AcDbEntity
  8
RACCORDO
100
AcDbLine
 62
253
  6
CONTINUOUS
 10
3.6445182955
 20
26.1293140009
 11
3.6621256768
 21
26.1470628447
  0
LINE
  5
28E
100
AcDbEntity
  8
RACCORDO
100
AcDbLine
 62
7
  6
CONTINUOUS
 10
-18.5497134354
 20
1.8668443696
 11
-18.621431518
 21
1.7951262869
  0
LINE
  5
28F
100
AcDbEntity
  8
0
100
AcDbLine
 62
7
  6
CONTINUOUS
 10
19.9048676773
 20
-5.4083828376
 11
19.7681366505
 21
-5.4125166348
  0
LINE
  5
290
100
AcDbEntity
  8
RACCORDO
100
AcDbLine
 62
253
  6
CONTINUOUS
 10
15.8126133553
 20
-21.4837988416
 11
15.9578375679
 21
-21.5676440799
  0
LINE
  5
291
100
AcDbEntity
  8
RACCORDO
100
AcDbLine
 62
253
  6
CONTINUOUS
 10
15.582507133
 20
-20.917552697
 11
15.475899966
 21
-20.8560030204
  0
LINE
  5
292
100
AcDbEntity
  8
RACCORDO
100
AcDbLine
 62
253
  6
CONTINUOUS
 10
15.7556858338
 20
-20.6175983884
 11
15.6490786667
 21
-20.5560487118
  0
LINE
  5
293
100
AcDbEntity
  8
RACCORDO
100
AcDbLine
 62
7
  6
CONTINUOUS
 10
-18.621431518
 20
1.7951262869
 11
-18.7277036071
 21
1.901398376
  0
LINE
  5
294
100
AcDbEntity
  8
DRAFT
100
AcDbLine
 62
7
  6
CONTINUOUS
 10
-20.1895062713
 20
4.0451262869
 11
-20.147149193
 21
4.0027692087
  0
LINE
  5
295
100
AcDbEntity
  8
RACCORDO
100
AcDbLine
 62
7
  6
CONTINUOUS
 10
-20.0986485438
 20
3.9542685594
 11
-20.147149193
 21
4.0027692087
  0
LINE
  5
296
100
AcDbEntity
  8
RACCORDO
100
AcDbLine
 62
253
  6
CONTINUOUS
 10
-21.6895062713
 20
7.0951567479
 11
-21.5925895155
 21
6.9982399921
  0
LINE
  5
297
100
AcDbEntity
  8
RACCORDO
100
AcDbLine
 62
253
  6
CONTINUOUS
 10
-21.4895367322
 20
7.2951262869
 11
-21.392620334
 21
7.1982098888
  0
LINE
  5
298
100
AcDbEntity
  8
DRAFT
100
AcDbLine
 62
7
  6
CONTINUOUS
 10
-16.6092129726
 20
1.8754195856
 11
-16.5865213882
 21
1.89811117
  0
LINE
  5
299
100
AcDbEntity
  8
RACCORDO
100
AcDbLine
 62
253
  6
CONTINUOUS
 10
19.9554316942
 20
-5.6084138718
 11
21.1655557633
 21
-5.6084138718
  0
LINE
  5
29A
100
AcDbEntity
  8
RACCORDO
100
AcDbLine
 62
253
  6
CONTINUOUS
 10
-20.3344442367
 20
-5.6084138718
 11
-21.5445683058
 21
-5.6084138718
  0
LINE
  5
29B
100
AcDbEntity
  8
RACCORDO
100
AcDbLine
 62
253
  6
CONTINUOUS
 10
-20.2843719127
 20
-5.3640159856
 11
-20.0986485438
 21
-5.3640159856
  0
LINE
  5
29C
100
AcDbEntity
  8
RACCORDO
100
AcDbLine
 62
253
  6
CONTINUOUS
 10
19.7196360012
 20
-5.3640159856
 11
19.9053593702
 21
-5.3640159856
  0
LINE
  5
29D
100
AcDbEntity
  8
RACCORDO
100
AcDbLine
 62
253
  6
CONTINUOUS
 10
-20.2855091284
 20
-5.064061677
 11
-20.0935034142
 21
-5.064061677
  0
LINE
  5
29E
100
AcDbEntity
  8
RACCORDO
100
AcDbLine
 62
253
  6
CONTINUOUS
 10
19.7144908716
 20
-5.064061677
 11
19.9064965858
 21
-5.064061677
  0
LINE
  5
29F
100
AcDbEntity
  8
0
100
AcDbLine
 62
7
  6
CONTINUOUS
 10
-20.147149193
 20
-5.4125166348
 11
-20.2838802199
 21
-5.4083828376
  0
LINE
  5
2A0
100
AcDbEntity
  8
RACCORDO
100
AcDbLine
 62
253
  6
CONTINUOUS
 10
-29.023530838
 20
-15.539061427
 11
-29.0411382194
 21
-15.5568102709
  0
LINE
  5
2A1
100
AcDbEntity
  8
RACCORDO
100
AcDbLine
 62
7
  6
CONTINUOUS
 10
-21.6020786302
 20
-5.617446072
 11
-21.6895062713
 21
-5.7048737131
  0
LINE
  5
2A2
100
AcDbEntity
  8
DRAFT
100
AcDbLine
 62
7
  6
CONTINUOUS
 10
3.740673469
 20
19.2253060272
 11
3.6621256768
 21
19.1467582351
  0
LINE
  5
2A3
100
AcDbEntity
  8
RACCORDO
100
AcDbLine
 62
7
  6
CONTINUOUS
 10
3.6616687275
 20
19.1463012857
 11
3.6621256768
 21
19.1467582351
  0
LINE
  5
2A4
100
AcDbEntity
  8
RACCORDO
100
AcDbLine
 62
7
  6
CONTINUOUS
 10
-18.621431518
 20
-3.2048737131
 11
-18.7277036071
 21
-3.3111458021
  0
LINE
  5
2A5
100
AcDbEntity
  8
DRAFT
100
AcDbLine
 62
7
  6
CONTINUOUS
 10
-20.1895062713
 20
-5.4548737131
 11
-20.147149193
 21
-5.4125166348
  0
LINE
  5
2A6
100
AcDbEntity
  8
RACCORDO
100
AcDbLine
 62
7
  6
CONTINUOUS
 10
-20.0986485438
 20
-5.3640159856
 11
-20.147149193
 21
-5.4125166348
  0
LINE
  5
2A7
100
AcDbEntity
  8
RACCORDO
100
AcDbLine
 62
253
  6
CONTINUOUS
 10
12.8083741021
 20
20.0740514155
 11
12.9815528029
 21
20.174036185
  0
LINE
  5
2A8
100
AcDbEntity
  8
RACCORDO
100
AcDbLine
 62
253
  6
CONTINUOUS
 10
15.6394346545
 20
20.3740057241
 11
15.7846588671
 21
20.4578509623
  0
LINE
  5
2A9
100
AcDbEntity
  8
RACCORDO
100
AcDbLine
 62
253
  6
CONTINUOUS
 10
13.697719353
 20
18.9335993336
 11
13.5245404673
 21
18.833614876
  0
LINE
  5
2AA
100
AcDbEntity
  8
RACCORDO
100
AcDbLine
 62
253
  6
CONTINUOUS
 10
15.8126133553
 20
20.0740514155
 11
15.9578375679
 21
20.1578966538
  0
LINE
  5
2AB
100
AcDbEntity
  8
RACCORDO
100
AcDbLine
 62
253
  6
CONTINUOUS
 10
15.475899966
 20
19.4462555943
 11
15.582507133
 21
19.5078052708
  0
LINE
  5
2AC
100
AcDbEntity
  8
DRAFT
100
AcDbLine
 62
7
  6
CONTINUOUS
 10
-17.9395062713
 20
-3.3078585961
 11
-17.9747716674
 21
-3.3113496091
  0
LINE
  5
2AD
100
AcDbEntity
  8
RACCORDO
100
AcDbLine
 62
7
  6
CONTINUOUS
 10
18.1618971848
 20
-3.3113496091
 11
17.5957591249
 21
-3.3113496091
  0
LINE
  5
2AE
100
AcDbEntity
  8
RACCORDO
100
AcDbLine
 62
7
  6
CONTINUOUS
 10
-17.9747716674
 20
-3.3113496091
 11
-18.5409097273
 21
-3.3113496091
  0
LINE
  5
2AF
100
AcDbEntity
  8
DRAFT
100
AcDbLine
 62
7
  6
CONTINUOUS
 10
-17.9395062713
 20
-3.3078585961
 11
-16.5865213882
 21
-3.3078585961
  0
LINE
  5
2B0
100
AcDbEntity
  8
DRAFT
100
AcDbLine
 62
7
  6
CONTINUOUS
 10
17.5604937287
 20
-3.3078585961
 11
16.2075088457
 21
-3.3078585961
  0
LINE
  5
2B1
100
AcDbEntity
  8
RACCORDO
100
AcDbLine
 62
7
  6
CONTINUOUS
 10
-18.0497895878
 20
-3.2851670117
 11
-16.6092129726
 21
-3.2851670117
  0
LINE
  5
2B2
100
AcDbEntity
  8
RACCORDO
100
AcDbLine
 62
7
  6
CONTINUOUS
 10
17.6707770453
 20
-3.2851670117
 11
16.2302004301
 21
-3.2851670117
  0
LINE
  5
2B3
100
AcDbEntity
  8
0
100
AcDbLine
 62
7
  6
CONTINUOUS
 10
-18.621431518
 20
-3.2048737131
 11
-18.1895062713
 21
-3.2048737131
  0
LINE
  5
2B4
100
AcDbEntity
  8
0
100
AcDbLine
 62
7
  6
CONTINUOUS
 10
17.8104937287
 20
-3.2048737131
 11
18.2424189755
 21
-3.2048737131
  0
LINE
  5
2B5
100
AcDbEntity
  8
RACCORDO
100
AcDbLine
 62
253
  6
CONTINUOUS
 10
-21.5925895155
 20
-8.4079874183
 11
-21.6895062713
 21
-8.504904174
  0
LINE
  5
2B6
100
AcDbEntity
  8
RACCORDO
100
AcDbLine
 62
253
  6
CONTINUOUS
 10
-21.3926199765
 20
-8.6079569573
 11
-21.4895367322
 21
-8.7048737131
  0
LINE
  5
2B7
100
AcDbEntity
  8
RACCORDO
100
AcDbLine
 62
253
  6
CONTINUOUS
 10
15.6490786667
 20
19.1463012857
 11
15.7556858338
 21
19.2078509623
  0
LINE
  5
2B8
100
AcDbEntity
  8
DRAFT
100
AcDbLine
 62
7
  6
CONTINUOUS
 10
17.5604937287
 20
1.89811117
 11
17.5957591249
 21
1.901602183
  0
LINE
  5
2B9
100
AcDbEntity
  8
DRAFT
100
AcDbLine
 62
7
  6
CONTINUOUS
 10
17.5604937287
 20
-3.3078585961
 11
17.5957591249
 21
-3.3113496091
  0
LINE
  5
2BA
100
AcDbEntity
  8
DRAFT
100
AcDbLine
 62
7
  6
CONTINUOUS
 10
-17.9395062713
 20
1.89811117
 11
-17.9747716674
 21
1.901602183
  0
LINE
  5
2BB
100
AcDbEntity
  8
RACCORDO
100
AcDbLine
 62
253
  6
CONTINUOUS
 10
16.0123917665
 20
-21.8850534533
 11
15.9949367015
 21
-21.8675983884
  0
LINE
  5
2BC
100
AcDbEntity
  8
RACCORDO
100
AcDbLine
 62
253
  6
CONTINUOUS
 10
16.2123613055
 20
-21.6850839143
 11
16.1949062406
 21
-21.6676288494
  0
LINE
  5
2BD
100
AcDbEntity
  8
DRAFT
100
AcDbLine
 62
7
  6
CONTINUOUS
 10
16.1949062406
 20
-20.6175983884
 11
16.2123613055
 21
-20.6350534533
  0
LINE
  5
2BE
100
AcDbEntity
  8
RACCORDO
100
AcDbLine
 62
7
  6
CONTINUOUS
 10
-4.0411382194
 20
19.1467582351
 11
-4.0411382194
 21
26.1470628447
  0
LINE
  5
2BF
100
AcDbEntity
  8
RACCORDO
100
AcDbLine
 62
253
  6
CONTINUOUS
 10
-4.023530838
 20
18.7566970488
 11
-4.023530838
 21
26.1293130003
  0
LINE
  5
2C0
100
AcDbEntity
  8
RACCORDO
100
AcDbLine
 62
253
  6
CONTINUOUS
 10
-27.0236929846
 20
-17.5388982798
 11
-27.0414428291
 21
-17.5565056612
  0
LINE
  5
2C1
100
AcDbEntity
  8
0
100
AcDbLine
 62
7
  6
CONTINUOUS
 10
-18.621431518
 20
1.7951262869
 11
-18.1895062713
 21
1.7951262869
  0
LINE
  5
2C2
100
AcDbEntity
  8
0
100
AcDbLine
 62
7
  6
CONTINUOUS
 10
17.8104937287
 20
1.7951262869
 11
18.2424189755
 21
1.7951262869
  0
LINE
  5
2C3
100
AcDbEntity
  8
RACCORDO
100
AcDbLine
 62
7
  6
CONTINUOUS
 10
-18.0497895878
 20
1.8754195856
 11
-16.6092129726
 21
1.8754195856
  0
LINE
  5
2C4
100
AcDbEntity
  8
RACCORDO
100
AcDbLine
 62
7
  6
CONTINUOUS
 10
17.6707770453
 20
1.8754195856
 11
16.2302004301
 21
1.8754195856
  0
LINE
  5
2C5
100
AcDbEntity
  8
DRAFT
100
AcDbLine
 62
7
  6
CONTINUOUS
 10
-17.9395062713
 20
1.89811117
 11
-16.5865213882
 21
1.89811117
  0
LINE
  5
2C6
100
AcDbEntity
  8
DRAFT
100
AcDbLine
 62
7
  6
CONTINUOUS
 10
17.5604937287
 20
1.89811117
 11
16.2075088457
 21
1.89811117
  0
LINE
  5
2C7
100
AcDbEntity
  8
RACCORDO
100
AcDbLine
 62
7
  6
CONTINUOUS
 10
-18.5409097273
 20
1.901602183
 11
-17.9747716674
 21
1.901602183
  0
LINE
  5
2C8
100
AcDbEntity
  8
RACCORDO
100
AcDbLine
 62
7
  6
CONTINUOUS
 10
17.5957591249
 20
1.901602183
 11
18.1618971848
 21
1.901602183
  0
LINE
  5
2C9
100
AcDbEntity
  8
RACCORDO
100
AcDbLine
 62
253
  6
CONTINUOUS
 10
17.8107983384
 20
-20.7048737131
 11
17.6618443385
 21
-20.5560487118
  0
LINE
  5
2CA
100
AcDbEntity
  8
RACCORDO
100
AcDbLine
 62
253
  6
CONTINUOUS
 10
17.1105241897
 20
-20.7048737131
 11
17.0441340164
 21
-20.6384835398
  0
LINE
  5
2CB
100
AcDbEntity
  8
RACCORDO
100
AcDbLine
 62
7
  6
CONTINUOUS
 10
17.2441035554
 20
-20.6384835398
 11
17.3104937287
 21
-20.7048737131
  0
LINE
  5
2CC
100
AcDbEntity
  8
RACCORDO
100
AcDbLine
 62
253
  6
CONTINUOUS
 10
-17.9747716674
 20
16.5879878066
 11
-17.9395062713
 21
16.5527224104
  0
LINE
  5
2CD
100
AcDbEntity
  8
RACCORDO
100
AcDbLine
 62
253
  6
CONTINUOUS
 10
17.1033552484
 20
-18.4901391092
 11
17.0680898522
 21
-18.4548737131
  0
LINE
  5
2CE
100
AcDbEntity
  8
RACCORDO
100
AcDbLine
 62
253
  6
CONTINUOUS
 10
-17.4823677909
 20
17.0803916831
 11
-17.4471023948
 21
17.0451262869
  0
LINE
  5
2CF
100
AcDbEntity
  8
RACCORDO
100
AcDbLine
 62
253
  6
CONTINUOUS
 10
17.5957591249
 20
-17.9977352327
 11
17.5604937287
 21
-17.9624698366
  0
LINE
  5
2D0
100
AcDbEntity
  8
RACCORDO
100
AcDbLine
 62
253
  6
CONTINUOUS
 10
-20.1895062713
 20
17.2954308966
 11
-20.04068127
 21
17.1464815562
  0
LINE
  5
2D1
100
AcDbEntity
  8
RACCORDO
100
AcDbLine
 62
253
  6
CONTINUOUS
 10
-3.5236069904
 20
17.646529743
 11
-3.5236069904
 21
26.1294554634
  0
LINE
  5
2D2
100
AcDbEntity
  8
RACCORDO
100
AcDbLine
 62
253
  6
CONTINUOUS
 10
-2.0238354477
 20
28.1291508537
 11
-2.0238354477
 21
27.6292270061
  0
LINE
  5
2D3
100
AcDbEntity
  8
RACCORDO
100
AcDbLine
 62
253
  6
CONTINUOUS
 10
15.9949367015
 20
20.4578509623
 11
16.0123917665
 21
20.4753060272
  0
LINE
  5
2D4
100
AcDbEntity
  8
RACCORDO
100
AcDbLine
 62
253
  6
CONTINUOUS
 10
16.1949062406
 20
20.2578814233
 11
16.2123613055
 21
20.2753364882
  0
LINE
  5
2D5
100
AcDbEntity
  8
0
100
AcDbLine
 62
7
  6
CONTINUOUS
 10
-20.147149193
 20
4.0027692087
 11
-20.2838802199
 21
3.9986354114
  0
LINE
  5
2D6
100
AcDbEntity
  8
RACCORDO
100
AcDbLine
 62
253
  6
CONTINUOUS
 10
19.9064965858
 20
3.6543142509
 11
19.7144908716
 21
3.6543142509
  0
LINE
  5
2D7
100
AcDbEntity
  8
RACCORDO
100
AcDbLine
 62
253
  6
CONTINUOUS
 10
-20.0935034142
 20
3.6543142509
 11
-20.2855091284
 21
3.6543142509
  0
LINE
  5
2D8
100
AcDbEntity
  8
RACCORDO
100
AcDbLine
 62
253
  6
CONTINUOUS
 10
19.9053593702
 20
3.9542685594
 11
19.7196360012
 21
3.9542685594
  0
LINE
  5
2D9
100
AcDbEntity
  8
RACCORDO
100
AcDbLine
 62
253
  6
CONTINUOUS
 10
-20.0986485438
 20
3.9542685594
 11
-20.2843719127
 21
3.9542685594
  0
LINE
  5
2DA
100
AcDbEntity
  8
RACCORDO
100
AcDbLine
 62
253
  6
CONTINUOUS
 10
21.1655557633
 20
4.1986664457
 11
19.9554316942
 21
4.1986664457
  0
LINE
  5
2DB
100
AcDbEntity
  8
RACCORDO
100
AcDbLine
 62
253
  6
CONTINUOUS
 10
-20.3344442367
 20
4.1986664457
 11
-21.5445683058
 21
4.1986664457
  0
LINE
  5
2DC
100
AcDbEntity
  8
0
100
AcDbLine
 62
7
  6
CONTINUOUS
 10
19.9048676773
 20
3.9986354114
 11
19.7681366505
 21
4.0027692087
  0
LINE
  5
2DD
100
AcDbEntity
  8
RACCORDO
100
AcDbLine
 62
253
  6
CONTINUOUS
 10
-18.189810881
 20
19.2951262869
 11
-18.0408589279
 21
19.1463012857
  0
LINE
  5
2DE
100
AcDbEntity
  8
RACCORDO
100
AcDbLine
 62
253
  6
CONTINUOUS
 10
19.8104937287
 20
-18.7051783227
 11
19.6616687275
 21
-18.5563533215
  0
LINE
  5
2DF
100
AcDbEntity
  8
RACCORDO
100
AcDbLine
 62
7
  6
CONTINUOUS
 10
-17.623116098
 20
19.2287361136
 11
-17.6895062713
 21
19.2951262869
  0
LINE
  5
2E0
100
AcDbEntity
  8
RACCORDO
100
AcDbLine
 62
253
  6
CONTINUOUS
 10
-20.1895062713
 20
-18.7051783227
 11
-20.04068127
 21
-18.5562243229
  0
LINE
  5
2E1
100
AcDbEntity
  8
DRAFT
100
AcDbLine
 62
7
  6
CONTINUOUS
 10
16.1949062406
 20
19.2078509623
 11
16.2123613055
 21
19.2253060272
  0
LINE
  5
2E2
100
AcDbEntity
  8
DRAFT
100
AcDbLine
 62
7
  6
CONTINUOUS
 10
-20.1895062713
 20
-17.7048737131
 11
-20.0411382194
 21
-17.5565056612
  0
LINE
  5
2E3
100
AcDbEntity
  8
RACCORDO
100
AcDbLine
 62
7
  6
CONTINUOUS
 10
-20.04068127
 20
-17.5560487118
 11
-20.0411382194
 21
-17.5565056612
  0
LINE
  5
2E4
100
AcDbEntity
  8
RACCORDO
100
AcDbLine
 62
253
  6
CONTINUOUS
 10
17.0441340164
 20
19.2287361136
 11
17.1105241897
 21
19.2951262869
  0
LINE
  5
2E5
100
AcDbEntity
  8
RACCORDO
100
AcDbLine
 62
7
  6
CONTINUOUS
 10
17.2441035554
 20
19.2287361136
 11
17.3104937287
 21
19.2951262869
  0
LINE
  5
2E6
100
AcDbEntity
  8
RACCORDO
100
AcDbLine
 62
253
  6
CONTINUOUS
 10
17.8107983384
 20
19.2951262869
 11
17.6619733372
 21
19.1463012857
  0
LINE
  5
2E7
100
AcDbEntity
  8
RACCORDO
100
AcDbLine
 62
253
  6
CONTINUOUS
 10
17.1033552484
 20
17.0803916831
 11
17.0680898522
 21
17.0451262869
  0
LINE
  5
2E8
100
AcDbEntity
  8
RACCORDO
100
AcDbLine
 62
253
  6
CONTINUOUS
 10
-17.9747716674
 20
-17.9977352327
 11
-17.9395062713
 21
-17.9624698366
  0
LINE
  5
2E9
100
AcDbEntity
  8
RACCORDO
100
AcDbLine
 62
253
  6
CONTINUOUS
 10
-20.4863925661
 20
7.1982095312
 11
-21.392620334
 21
7.1982098888
  0
LINE
  5
2EA
100
AcDbEntity
  8
RACCORDO
100
AcDbLine
 62
253
  6
CONTINUOUS
 10
21.0136074339
 20
7.1982095312
 11
20.107379666
 21
7.1982098888
  0
LINE
  5
2EB
100
AcDbEntity
  8
RACCORDO
100
AcDbLine
 62
7
  6
CONTINUOUS
 10
-21.4895367322
 20
7.2951262869
 11
-20.3894758103
 21
7.2951262869
  0
LINE
  5
2EC
100
AcDbEntity
  8
RACCORDO
100
AcDbLine
 62
7
  6
CONTINUOUS
 10
20.0104632678
 20
7.2951262869
 11
21.1105241897
 21
7.2951262869
  0
LINE
  5
2ED
100
AcDbEntity
  8
RACCORDO
100
AcDbLine
 62
253
  6
CONTINUOUS
 10
14.9232619475
 20
-20.3433360956
 11
15.6394346545
 21
-21.5837836112
  0
LINE
  5
2EE
100
AcDbEntity
  8
RACCORDO
100
AcDbLine
 62
253
  6
CONTINUOUS
 10
15.0964885805
 20
-20.2434343392
 11
15.8126133553
 21
-21.4837988416
  0
LINE
  5
2EF
100
AcDbEntity
  8
RACCORDO
100
AcDbLine
 62
7
  6
CONTINUOUS
 10
15.9578375679
 20
-21.5676440799
 11
15.582507133
 21
-20.917552697
  0
LINE
  5
2F0
100
AcDbEntity
  8
RACCORDO
100
AcDbLine
 62
253
  6
CONTINUOUS
 10
1.6448229052
 20
28.1291508537
 11
1.6448229052
 21
27.6292270061
  0
LINE
  5
2F1
100
AcDbEntity
  8
RACCORDO
100
AcDbLine
 62
253
  6
CONTINUOUS
 10
3.1445944479
 20
26.1294554634
 11
3.1445944479
 21
17.646529743
  0
LINE
  5
2F2
100
AcDbEntity
  8
RACCORDO
100
AcDbLine
 62
253
  6
CONTINUOUS
 10
19.8104937287
 20
17.2954308966
 11
19.6616687275
 21
17.1464768967
  0
LINE
  5
2F3
100
AcDbEntity
  8
RACCORDO
100
AcDbLine
 62
253
  6
CONTINUOUS
 10
17.5957591249
 20
16.5879878066
 11
17.5604937287
 21
16.5527224104
  0
LINE
  5
2F4
100
AcDbEntity
  8
RACCORDO
100
AcDbLine
 62
253
  6
CONTINUOUS
 10
-17.4823677909
 20
-18.4901391092
 11
-17.4471023948
 21
-18.4548737131
  0
LINE
  5
2F5
100
AcDbEntity
  8
RACCORDO
100
AcDbLine
 62
253
  6
CONTINUOUS
 10
-18.189810881
 20
-20.7048737131
 11
-18.0409858797
 21
-20.5560487118
  0
LINE
  5
2F6
100
AcDbEntity
  8
RACCORDO
100
AcDbLine
 62
7
  6
CONTINUOUS
 10
-17.623116098
 20
-20.6384835398
 11
-17.6895062713
 21
-20.7048737131
  0
LINE
  5
2F7
100
AcDbEntity
  8
RACCORDO
100
AcDbLine
 62
253
  6
CONTINUOUS
 10
-17.4231465589
 20
-20.6384835398
 11
-17.4895367322
 21
-20.7048737131
  0
LINE
  5
2F8
100
AcDbEntity
  8
RACCORDO
100
AcDbLine
 62
253
  6
CONTINUOUS
 10
3.6445182955
 20
26.1293140009
 11
3.6445182955
 21
18.7566970488
  0
LINE
  5
2F9
100
AcDbEntity
  8
RACCORDO
100
AcDbLine
 62
7
  6
CONTINUOUS
 10
3.6621256768
 20
26.1470628447
 11
3.6621256768
 21
19.1467582351
  0
LINE
  5
2FA
100
AcDbEntity
  8
RACCORDO
100
AcDbLine
 62
253
  6
CONTINUOUS
 10
15.6394346545
 20
20.174036185
 11
14.9232652152
 21
18.9335943293
  0
LINE
  5
2FB
100
AcDbEntity
  8
RACCORDO
100
AcDbLine
 62
253
  6
CONTINUOUS
 10
15.8126133553
 20
20.0740514155
 11
15.0964935061
 21
18.8336954403
  0
LINE
  5
2FC
100
AcDbEntity
  8
RACCORDO
100
AcDbLine
 62
7
  6
CONTINUOUS
 10
15.582507133
 20
19.5078052708
 11
15.9578375679
 21
20.1578966538
  0
LINE
  5
2FD
100
AcDbEntity
  8
RACCORDO
100
AcDbLine
 62
253
  6
CONTINUOUS
 10
21.0136074339
 20
-8.6079569573
 11
21.1105241897
 21
-8.7048737131
  0
LINE
  5
2FE
100
AcDbEntity
  8
RACCORDO
100
AcDbLine
 62
253
  6
CONTINUOUS
 10
21.213576973
 20
-8.4079874183
 11
21.3104937287
 21
-8.504904174
  0
LINE
  5
2FF
100
AcDbEntity
  8
DRAFT
100
AcDbLine
 62
7
  6
CONTINUOUS
 10
19.8104937287
 20
-5.4548737131
 11
19.7681366505
 21
-5.4125166348
  0
LINE
  5
300
100
AcDbEntity
  8
RACCORDO
100
AcDbLine
 62
7
  6
CONTINUOUS
 10
19.7196360012
 20
-5.3640159856
 11
19.7681366505
 21
-5.4125166348
  0
LINE
  5
301
100
AcDbEntity
  8
RACCORDO
100
AcDbLine
 62
7
  6
CONTINUOUS
 10
18.3486910646
 20
-3.3111458021
 11
18.2424189755
 21
-3.2048737131
  0
LINE
  5
302
100
AcDbEntity
  8
DRAFT
100
AcDbLine
 62
7
  6
CONTINUOUS
 10
-4.1196860116
 20
19.2253060272
 11
-4.0411382194
 21
19.1467582351
  0
LINE
  5
303
100
AcDbEntity
  8
RACCORDO
100
AcDbLine
 62
7
  6
CONTINUOUS
 10
-4.04068127
 20
19.1463012857
 11
-4.0411382194
 21
19.1467582351
  0
LINE
  5
304
100
AcDbEntity
  8
RACCORDO
100
AcDbLine
 62
7
  6
CONTINUOUS
 10
21.2230660876
 20
-5.617446072
 11
21.3104937287
 21
-5.7048737131
  0
LINE
  5
305
100
AcDbEntity
  8
RACCORDO
100
AcDbLine
 62
7
  6
CONTINUOUS
 10
17.0680898522
 20
17.0451262869
 11
-17.4471023948
 21
17.0451262869
  0
LINE
  5
306
100
AcDbEntity
  8
RACCORDO
100
AcDbLine
 62
7
  6
CONTINUOUS
 10
17.1033552484
 20
17.0803916831
 11
-17.4823677909
 21
17.0803916831
  0
LINE
  5
307
100
AcDbEntity
  8
RACCORDO
100
AcDbLine
 62
253
  6
CONTINUOUS
 10
-20.04068127
 20
17.1466058954
 11
-18.5409097273
 21
17.1466058954
  0
LINE
  5
308
100
AcDbEntity
  8
RACCORDO
100
AcDbLine
 62
253
  6
CONTINUOUS
 10
18.1618971848
 20
17.1466058954
 11
19.6616687275
 21
17.1466058946
  0
LINE
  5
309
100
AcDbEntity
  8
DRAFT
100
AcDbLine
 62
7
  6
CONTINUOUS
 10
16.2302004301
 20
1.8754195856
 11
16.2075088457
 21
1.89811117
  0
LINE
  5
30A
100
AcDbEntity
  8
RACCORDO
100
AcDbLine
 62
7
  6
CONTINUOUS
 10
12.408626152
 20
-21.6850839143
 11
12.408626152
 21
-20.6350534533
  0
LINE
  5
30B
100
AcDbEntity
  8
RACCORDO
100
AcDbLine
 62
7
  6
CONTINUOUS
 10
12.408626152
 20
19.2253060272
 11
12.408626152
 21
20.2753364882
  0
LINE
  5
30C
100
AcDbEntity
  8
RACCORDO
100
AcDbLine
 62
7
  6
CONTINUOUS
 10
12.4260812169
 20
-21.6676288494
 11
12.4260812169
 21
-20.6175983884
  0
LINE
  5
30D
100
AcDbEntity
  8
RACCORDO
100
AcDbLine
 62
7
  6
CONTINUOUS
 10
12.4260812169
 20
19.2078509623
 11
12.4260812169
 21
20.2578814233
  0
LINE
  5
30E
100
AcDbEntity
  8
RACCORDO
100
AcDbLine
 62
253
  6
CONTINUOUS
 10
12.9815528029
 20
-21.7837531502
 11
12.9815528029
 21
-21.5837836112
  0
LINE
  5
30F
100
AcDbEntity
  8
RACCORDO
100
AcDbLine
 62
253
  6
CONTINUOUS
 10
12.9815528029
 20
20.174036185
 11
12.9815528029
 21
20.3740057241
  0
LINE
  5
310
100
AcDbEntity
  8
RACCORDO
100
AcDbLine
 62
253
  6
CONTINUOUS
 10
21.1105241897
 20
7.2951262869
 11
21.0136074339
 21
7.1982095312
  0
LINE
  5
311
100
AcDbEntity
  8
RACCORDO
100
AcDbLine
 62
253
  6
CONTINUOUS
 10
21.3104937287
 20
7.0951567479
 11
21.213576973
 21
6.9982399921
  0
LINE
  5
312
100
AcDbEntity
  8
DRAFT
100
AcDbLine
 62
7
  6
CONTINUOUS
 10
19.8104937287
 20
4.0451262869
 11
19.7681366505
 21
4.0027692087
  0
LINE
  5
313
100
AcDbEntity
  8
RACCORDO
100
AcDbLine
 62
7
  6
CONTINUOUS
 10
19.7196360012
 20
3.9542685594
 11
19.7681366505
 21
4.0027692087
  0
LINE
  5
314
100
AcDbEntity
  8
RACCORDO
100
AcDbLine
 62
7
  6
CONTINUOUS
 10
18.3486910646
 20
1.901398376
 11
18.2424189755
 21
1.7951262869
  0
LINE
  5
315
100
AcDbEntity
  8
RACCORDO
100
AcDbLine
 62
253
  6
CONTINUOUS
 10
13.9869205609
 20
17.6465333373
 11
3.1445944479
 21
17.646529743
  0
LINE
  5
316
100
AcDbEntity
  8
RACCORDO
100
AcDbLine
 62
253
  6
CONTINUOUS
 10
-3.5236069904
 20
17.646529743
 11
-18.0409858797
 21
17.646529743
  0
LINE
  5
317
100
AcDbEntity
  8
RACCORDO
100
AcDbLine
 62
253
  6
CONTINUOUS
 10
17.6619733372
 20
17.646529743
 11
14.6340679185
 21
17.6465440406
  0
LINE
  5
318
100
AcDbEntity
  8
RACCORDO
100
AcDbLine
 62
253
  6
CONTINUOUS
 10
3.6616687275
 20
19.1463012857
 11
12.9719039039
 21
19.1463041071
  0
LINE
  5
319
100
AcDbEntity
  8
RACCORDO
100
AcDbLine
 62
253
  6
CONTINUOUS
 10
-18.0408589279
 20
19.1463012857
 11
-4.04068127
 21
19.1463012857
  0
LINE
  5
31A
100
AcDbEntity
  8
RACCORDO
100
AcDbLine
 62
253
  6
CONTINUOUS
 10
17.6619733372
 20
19.1463012857
 11
15.6490786667
 21
19.1463012857
  0
LINE
  5
31B
100
AcDbEntity
  8
RACCORDO
100
AcDbLine
 62
7
  6
CONTINUOUS
 10
12.4260812169
 20
19.2078509623
 11
12.8653016237
 21
19.2078509623
  0
LINE
  5
31C
100
AcDbEntity
  8
RACCORDO
100
AcDbLine
 62
7
  6
CONTINUOUS
 10
15.7556858338
 20
19.2078509623
 11
16.1949062406
 21
19.2078509623
  0
LINE
  5
31D
100
AcDbEntity
  8
DRAFT
100
AcDbLine
 62
7
  6
CONTINUOUS
 10
12.408626152
 20
19.2253060272
 11
3.740673469
 21
19.2253060272
  0
LINE
  5
31E
100
AcDbEntity
  8
RACCORDO
100
AcDbLine
 62
7
  6
CONTINUOUS
 10
16.2123613055
 20
19.2253060272
 11
17.0441340164
 21
19.2253060272
  0
LINE
  5
31F
100
AcDbEntity
  8
RACCORDO
100
AcDbLine
 62
7
  6
CONTINUOUS
 10
-4.1196860116
 20
19.2253060272
 11
-17.4231465589
 21
19.2253060272
  0
LINE
  5
320
100
AcDbEntity
  8
RACCORDO
100
AcDbLine
 62
253
  6
CONTINUOUS
 10
17.0441340164
 20
19.2287361136
 11
16.2123613055
 21
19.2287361136
  0
LINE
  5
321
100
AcDbEntity
  8
RACCORDO
100
AcDbLine
 62
7
  6
CONTINUOUS
 10
-17.6720512063
 20
19.277671222
 11
-4.0411382194
 21
19.277671222
  0
LINE
  5
322
100
AcDbEntity
  8
RACCORDO
100
AcDbLine
 62
7
  6
CONTINUOUS
 10
3.6621256768
 20
19.277671222
 11
12.3801141828
 21
19.277671222
  0
LINE
  5
323
100
AcDbEntity
  8
RACCORDO
100
AcDbLine
 62
7
  6
CONTINUOUS
 10
-18.189810881
 20
19.2951262869
 11
-17.6895062713
 21
19.2951262869
  0
LINE
  5
324
100
AcDbEntity
  8
RACCORDO
100
AcDbLine
 62
7
  6
CONTINUOUS
 10
16.2123613055
 20
19.2951262869
 11
17.8107983384
 21
19.2951262869
  0
LINE
  5
325
100
AcDbEntity
  8
RACCORDO
100
AcDbLine
 62
7
  6
CONTINUOUS
 10
18.1707008929
 20
1.8668443696
 11
18.2424189755
 21
1.7951262869
  0
LINE
  5
326
100
AcDbEntity
  8
RACCORDO
100
AcDbLine
 62
253
  6
CONTINUOUS
 10
-4.023530838
 20
26.1293130003
 11
-4.0411382194
 21
26.1470628447
  0
LINE
  5
327
100
AcDbEntity
  8
RACCORDO
100
AcDbLine
 62
7
  6
CONTINUOUS
 10
21.2230660876
 20
4.2076986459
 11
21.3104937287
 21
4.2951262869
  0
LINE
  5
328
100
AcDbEntity
  8
DRAFT
100
AcDbLine
 62
7
  6
CONTINUOUS
 10
16.2302004301
 20
-3.2851670117
 11
16.2075088457
 21
-3.3078585961
  0
LINE
  5
329
100
AcDbEntity
  8
RACCORDO
100
AcDbLine
 62
253
  6
CONTINUOUS
 10
15.6394346545
 20
20.174036185
 11
12.9815528029
 21
20.174036185
  0
LINE
  5
32A
100
AcDbEntity
  8
RACCORDO
100
AcDbLine
 62
253
  6
CONTINUOUS
 10
15.6394346545
 20
20.3740057241
 11
12.9815528029
 21
20.3740057241
  0
LINE
  5
32B
100
AcDbEntity
  8
RACCORDO
100
AcDbLine
 62
7
  6
CONTINUOUS
 10
12.6260507559
 20
20.4578509623
 11
12.8363285903
 21
20.4578509623
  0
LINE
  5
32C
100
AcDbEntity
  8
RACCORDO
100
AcDbLine
 62
7
  6
CONTINUOUS
 10
15.7846588671
 20
20.4578509623
 11
15.9949367015
 21
20.4578509623
  0
LINE
  5
32D
100
AcDbEntity
  8
RACCORDO
100
AcDbLine
 62
7
  6
CONTINUOUS
 10
12.608595691
 20
20.4753060272
 11
16.0123917665
 21
20.4753060272
  0
LINE
  5
32E
100
AcDbEntity
  8
RACCORDO
100
AcDbLine
 62
253
  6
CONTINUOUS
 10
-2.0236939852
 20
28.1291508537
 11
-2.0414428291
 21
28.1467582351
  0
LINE
  5
32F
100
AcDbEntity
  8
RACCORDO
100
AcDbLine
 62
7
  6
CONTINUOUS
 10
19.8979213698
 20
4.2076986459
 11
19.8104937287
 21
4.2951262869
  0
LINE
  5
330
100
AcDbEntity
  8
RACCORDO
100
AcDbLine
 62
253
  6
CONTINUOUS
 10
15.6394346545
 20
20.3740057241
 11
15.6394346545
 21
20.174036185
  0
LINE
  5
331
100
AcDbEntity
  8
RACCORDO
100
AcDbLine
 62
253
  6
CONTINUOUS
 10
15.6394346545
 20
-21.5837836112
 11
15.6394346545
 21
-21.7837531502
  0
LINE
  5
332
100
AcDbEntity
  8
RACCORDO
100
AcDbLine
 62
7
  6
CONTINUOUS
 10
16.1949062406
 20
20.2578814233
 11
16.1949062406
 21
19.2078509623
  0
LINE
  5
333
100
AcDbEntity
  8
RACCORDO
100
AcDbLine
 62
7
  6
CONTINUOUS
 10
16.1949062406
 20
-20.6175983884
 11
16.1949062406
 21
-21.6676288494
  0
LINE
  5
334
100
AcDbEntity
  8
DRAFT
100
AcDbLine
 62
7
  6
CONTINUOUS
 10
16.2075088457
 20
1.89811117
 11
16.2075088457
 21
-3.3078585961
  0
LINE
  5
335
100
AcDbEntity
  8
RACCORDO
100
AcDbLine
 62
7
  6
CONTINUOUS
 10
16.2123613055
 20
20.2753364882
 11
16.2123613055
 21
19.2253060272
  0
LINE
  5
336
100
AcDbEntity
  8
RACCORDO
100
AcDbLine
 62
7
  6
CONTINUOUS
 10
16.2123613055
 20
-20.6350534533
 11
16.2123613055
 21
-21.6850839143
  0
LINE
  5
337
100
AcDbEntity
  8
DRAFT
100
AcDbLine
 62
7
  6
CONTINUOUS
 10
16.2302004301
 20
1.8754195856
 11
16.2302004301
 21
-3.2851670117
  0
LINE
  5
338
100
AcDbEntity
  8
RACCORDO
100
AcDbLine
 62
253
  6
CONTINUOUS
 10
17.0441340164
 20
-20.6350534533
 11
17.0441340164
 21
-20.6384835398
  0
LINE
  5
339
100
AcDbEntity
  8
RACCORDO
100
AcDbLine
 62
253
  6
CONTINUOUS
 10
17.0441340164
 20
19.2253060272
 11
17.0441340164
 21
19.2287361136
  0
LINE
  5
33A
100
AcDbEntity
  8
RACCORDO
100
AcDbLine
 62
7
  6
CONTINUOUS
 10
17.5604937287
 20
-17.9624698366
 11
17.5604937287
 21
-3.3078585961
  0
LINE
  5
33B
100
AcDbEntity
  8
RACCORDO
100
AcDbLine
 62
7
  6
CONTINUOUS
 10
17.5604937287
 20
1.89811117
 11
17.5604937287
 21
16.5527224104
  0
LINE
  5
33C
100
AcDbEntity
  8
RACCORDO
100
AcDbLine
 62
7
  6
CONTINUOUS
 10
17.5957591249
 20
-17.9977352327
 11
17.5957591249
 21
-3.3113496091
  0
LINE
  5
33D
100
AcDbEntity
  8
RACCORDO
100
AcDbLine
 62
7
  6
CONTINUOUS
 10
17.5957591249
 20
1.901602183
 11
17.5957591249
 21
16.5879878066
  0
LINE
  5
33E
100
AcDbEntity
  8
RACCORDO
100
AcDbLine
 62
253
  6
CONTINUOUS
 10
17.6619733372
 20
-19.0562771691
 11
17.6619733364
 21
-20.5560487118
  0
LINE
  5
33F
100
AcDbEntity
  8
RACCORDO
100
AcDbLine
 62
253
  6
CONTINUOUS
 10
17.6619733372
 20
17.646529743
 11
17.6619733372
 21
19.1463012857
  0
LINE
  5
340
100
AcDbEntity
  8
RACCORDO
100
AcDbLine
 62
7
  6
CONTINUOUS
 10
18.1707008929
 20
-3.2765917957
 11
18.2424189755
 21
-3.2048737131
  0
LINE
  5
341
100
AcDbEntity
  8
RACCORDO
100
AcDbLine
 62
253
  6
CONTINUOUS
 10
19.8104937287
 20
7.0951567479
 11
19.9074104845
 21
6.9982399921
  0
LINE
  5
342
100
AcDbEntity
  8
RACCORDO
100
AcDbLine
 62
253
  6
CONTINUOUS
 10
20.0104632678
 20
7.2951262869
 11
20.107379666
 21
7.1982098888
  0
LINE
  5
343
100
AcDbEntity
  8
0
100
AcDbLine
 62
7
  6
CONTINUOUS
 10
17.8104937287
 20
-3.28481227
 11
17.8104937287
 21
1.8750648439
  0
LINE
  5
344
100
AcDbEntity
  8
RACCORDO
100
AcDbLine
 62
253
  6
CONTINUOUS
 10
18.1618971848
 20
-18.5563533215
 11
18.1618971848
 21
-3.3113496091
  0
LINE
  5
345
100
AcDbEntity
  8
RACCORDO
100
AcDbLine
 62
253
  6
CONTINUOUS
 10
18.1618971848
 20
1.901602183
 11
18.1618971848
 21
17.1466058954
  0
LINE
  5
346
100
AcDbEntity
  8
RACCORDO
100
AcDbLine
 62
253
  6
CONTINUOUS
 10
18.2143385552
 20
1.8232067073
 11
18.2143385552
 21
1.7951262869
  0
LINE
  5
347
100
AcDbEntity
  8
RACCORDO
100
AcDbLine
 62
253
  6
CONTINUOUS
 10
18.2143385552
 20
-3.2048737131
 11
18.2143385552
 21
-3.2329541334
  0
LINE
  5
348
100
AcDbEntity
  8
DRAFT
100
AcDbLine
 62
7
  6
CONTINUOUS
 10
18.2424189755
 20
-3.2048737131
 11
18.2424189755
 21
1.7951262869
  0
LINE
  5
349
100
AcDbEntity
  8
RACCORDO
100
AcDbLine
 62
7
  6
CONTINUOUS
 10
18.3486910646
 20
-3.3111458021
 11
18.3486910646
 21
1.901398376
  0
LINE
  5
34A
100
AcDbEntity
  8
RACCORDO
100
AcDbLine
 62
253
  6
CONTINUOUS
 10
19.6616687275
 20
17.1464768967
 11
19.6616687275
 21
-18.5563533215
  0
LINE
  5
34B
100
AcDbEntity
  8
RACCORDO
100
AcDbLine
 62
7
  6
CONTINUOUS
 10
19.7144908716
 20
-5.064061677
 11
19.7144908716
 21
3.6543142509
  0
LINE
  5
34C
100
AcDbEntity
  8
RACCORDO
100
AcDbLine
 62
7
  6
CONTINUOUS
 10
19.8104937287
 20
17.2954308966
 11
19.8104937287
 21
4.0451262869
  0
LINE
  5
34D
100
AcDbEntity
  8
RACCORDO
100
AcDbLine
 62
7
  6
CONTINUOUS
 10
19.8104937287
 20
-5.4548737131
 11
19.8104937287
 21
-18.7051783227
  0
LINE
  5
34E
100
AcDbEntity
  8
DRAFT
100
AcDbLine
 62
7
  6
CONTINUOUS
 10
19.8104937287
 20
-5.7048737131
 11
19.8104937287
 21
-5.4125166348
  0
LINE
  5
34F
100
AcDbEntity
  8
DRAFT
100
AcDbLine
 62
7
  6
CONTINUOUS
 10
19.8104937287
 20
4.0027692087
 11
19.8104937287
 21
4.2951262869
  0
LINE
  5
350
100
AcDbEntity
  8
RACCORDO
100
AcDbLine
 62
7
  6
CONTINUOUS
 10
19.9064965858
 20
3.7077747983
 11
19.9064965858
 21
-5.1175222244
  0
LINE
  5
351
100
AcDbEntity
  8
RACCORDO
100
AcDbLine
 62
253
  6
CONTINUOUS
 10
19.9554316942
 20
4.1986664457
 11
19.9554316942
 21
-5.6084138718
  0
LINE
  5
352
100
AcDbEntity
  8
RACCORDO
100
AcDbLine
 62
7
  6
CONTINUOUS
 10
19.8979213698
 20
-5.617446072
 11
19.8104937287
 21
-5.7048737131
  0
LINE
  5
353
100
AcDbEntity
  8
RACCORDO
100
AcDbLine
 62
253
  6
CONTINUOUS
 10
-4.023530838
 20
26.1294554634
 11
-3.5236069904
 21
26.1294554634
  0
LINE
  5
354
100
AcDbEntity
  8
RACCORDO
100
AcDbLine
 62
253
  6
CONTINUOUS
 10
3.6445182955
 20
26.1294554634
 11
3.1445944479
 21
26.1294554634
  0
LINE
  5
355
100
AcDbEntity
  8
RACCORDO
100
AcDbLine
 62
253
  6
CONTINUOUS
 10
12.8653016237
 20
19.2078509623
 11
12.9719039039
 21
19.1463041071
  0
LINE
  5
356
100
AcDbEntity
  8
RACCORDO
100
AcDbLine
 62
253
  6
CONTINUOUS
 10
13.0384803245
 20
19.5078052708
 11
13.1450874915
 21
19.4462555943
  0
LINE
  5
357
100
AcDbEntity
  8
RACCORDO
100
AcDbLine
 62
253
  6
CONTINUOUS
 10
12.8083741021
 20
20.0740514155
 11
12.6631498896
 21
20.1578966538
  0
LINE
  5
358
100
AcDbEntity
  8
RACCORDO
100
AcDbLine
 62
253
  6
CONTINUOUS
 10
15.0964476242
 20
18.8336159704
 11
14.9232686688
 21
18.933600311
  0
LINE
  5
359
100
AcDbEntity
  8
RACCORDO
100
AcDbLine
 62
253
  6
CONTINUOUS
 10
12.9815528029
 20
20.3740057241
 11
12.8363285903
 21
20.4578509623
  0
LINE
  5
35A
100
AcDbEntity
  8
DRAFT
100
AcDbLine
 62
7
  6
CONTINUOUS
 10
12.4260812169
 20
19.2078509623
 11
12.408626152
 21
19.2253060272
  0
LINE
  5
35B
100
AcDbEntity
  8
RACCORDO
100
AcDbLine
 62
253
  6
CONTINUOUS
 10
12.408626152
 20
20.2753364882
 11
12.4260812169
 21
20.2578814233
  0
LINE
  5
35C
100
AcDbEntity
  8
RACCORDO
100
AcDbLine
 62
253
  6
CONTINUOUS
 10
12.608595691
 20
20.4753060272
 11
12.6260507559
 21
20.4578509623
  0
LINE
  5
35D
100
AcDbEntity
  8
RACCORDO
100
AcDbLine
 62
7
  6
CONTINUOUS
 10
12.6631498896
 20
20.1578966538
 11
13.0384803245
 21
19.5078052708
  0
LINE
  5
35E
100
AcDbEntity
  8
RACCORDO
100
AcDbLine
 62
253
  6
CONTINUOUS
 10
13.5245011621
 20
18.8336829545
 11
12.8083741021
 21
20.0740514155
  0
LINE
  5
35F
100
AcDbEntity
  8
RACCORDO
100
AcDbLine
 62
253
  6
CONTINUOUS
 10
13.6977256821
 20
18.9335883713
 11
12.9815528029
 21
20.174036185
  0
LINE
  5
360
100
AcDbEntity
  8
RACCORDO
100
AcDbLine
 62
253
  6
CONTINUOUS
 10
20.1554012332
 20
4.1986664457
 11
20.1554012332
 21
-5.6084138718
  0
LINE
  5
361
100
AcDbEntity
  8
RACCORDO
100
AcDbLine
 62
253
  6
CONTINUOUS
 10
20.9655862242
 20
4.1986664457
 11
20.9655862242
 21
-5.6084138718
  0
LINE
  5
362
100
AcDbEntity
  8
RACCORDO
100
AcDbLine
 62
253
  6
CONTINUOUS
 10
21.1655557633
 20
4.1986664457
 11
21.1655557633
 21
-5.6084138718
  0
LINE
  5
363
100
AcDbEntity
  8
RACCORDO
100
AcDbLine
 62
7
  6
CONTINUOUS
 10
21.2144908716
 20
3.7077747983
 11
21.2144908716
 21
-5.1175222244
  0
LINE
  5
364
100
AcDbEntity
  8
RACCORDO
100
AcDbLine
 62
7
  6
CONTINUOUS
 10
21.3104937287
 20
7.0951567479
 11
21.3104937287
 21
4.2951262869
  0
LINE
  5
365
100
AcDbEntity
  8
RACCORDO
100
AcDbLine
 62
7
  6
CONTINUOUS
 10
21.3104937287
 20
-5.7048737131
 11
21.3104937287
 21
-8.504904174
  0
LINE
  5
366
100
AcDbEntity
  8
RACCORDO
100
AcDbLine
 62
253
  6
CONTINUOUS
 10
19.9074104845
 20
-8.4079874183
 11
19.8104937287
 21
-8.504904174
  0
LINE
  5
367
100
AcDbEntity
  8
RACCORDO
100
AcDbLine
 62
253
  6
CONTINUOUS
 10
20.1073800235
 20
-8.6079569573
 11
20.0104632678
 21
-8.7048737131
  0
LINE
  5
368
100
AcDbEntity
  8
RACCORDO
100
AcDbLine
 62
253
  6
CONTINUOUS
 10
-2.0238354477
 20
27.6292270061
 11
1.6448229052
 21
27.6292270061
  0
LINE
  5
369
100
AcDbEntity
  8
RACCORDO
100
AcDbLine
 62
253
  6
CONTINUOUS
 10
-2.0236939852
 20
28.1291508537
 11
1.6446804421
 21
28.1291508537
  0
LINE
  5
36A
100
AcDbEntity
  8
RACCORDO
100
AcDbLine
 62
7
  6
CONTINUOUS
 10
-2.0414428291
 20
28.1467582351
 11
1.6624302865
 21
28.1467582351
  0
LINE
  5
36B
100
AcDbEntity
  8
RACCORDO
100
AcDbLine
 62
253
  6
CONTINUOUS
 10
15.6394346545
 20
20.174036185
 11
15.8126133553
 21
20.0740514155
  0
LINE
  5
36C
100
AcDbEntity
  8
RACCORDO
100
AcDbLine
 62
7
  6
CONTINUOUS
 10
13.0384803245
 20
-20.917552697
 11
12.6631498896
 21
-21.5676440799
  0
LINE
  5
36D
100
AcDbEntity
  8
RACCORDO
100
AcDbLine
 62
253
  6
CONTINUOUS
 10
12.8083741021
 20
-21.4837988416
 11
13.5244939514
 21
-20.2434428664
  0
LINE
  5
36E
100
AcDbEntity
  8
RACCORDO
100
AcDbLine
 62
253
  6
CONTINUOUS
 10
12.9815528029
 20
-21.5837836112
 11
13.6977222422
 21
-20.3433417555
  0
LINE
  5
36F
100
AcDbEntity
  8
DRAFT
100
AcDbLine
 62
7
  6
CONTINUOUS
 10
12.4260812169
 20
-20.6175983884
 11
12.408626152
 21
-20.6350534533
  0
LINE
  5
370
100
AcDbEntity
  8
RACCORDO
100
AcDbLine
 62
253
  6
CONTINUOUS
 10
12.4260812169
 20
-21.6676288494
 11
12.408626152
 21
-21.6850839143
  0
LINE
  5
371
100
AcDbEntity
  8
RACCORDO
100
AcDbLine
 62
253
  6
CONTINUOUS
 10
12.6260507559
 20
-21.8675983884
 11
12.608595691
 21
-21.8850534533
  0
LINE
  5
372
100
AcDbEntity
  8
RACCORDO
100
AcDbLine
 62
253
  6
CONTINUOUS
 10
12.9719087907
 20
-20.5560487118
 11
12.8653016237
 21
-20.6175983884
  0
LINE
  5
373
100
AcDbEntity
  8
RACCORDO
100
AcDbLine
 62
253
  6
CONTINUOUS
 10
13.1450874915
 20
-20.8560030204
 11
13.0384803245
 21
-20.917552697
  0
LINE
  5
374
100
AcDbEntity
  8
RACCORDO
100
AcDbLine
 62
253
  6
CONTINUOUS
 10
12.8083741021
 20
-21.4837988416
 11
12.6631498896
 21
-21.5676440799
  0
LINE
  5
375
100
AcDbEntity
  8
RACCORDO
100
AcDbLine
 62
253
  6
CONTINUOUS
 10
14.9232682271
 20
-20.3433469721
 11
15.0964470981
 21
-20.2433624897
  0
LINE
  5
376
100
AcDbEntity
  8
RACCORDO
100
AcDbLine
 62
253
  6
CONTINUOUS
 10
12.9815528029
 20
-21.7837531502
 11
12.8363285903
 21
-21.8675983884
  0
LINE
  5
377
100
AcDbEntity
  8
RACCORDO
100
AcDbLine
 62
253
  6
CONTINUOUS
 10
15.8126133553
 20
-21.4837988416
 11
15.6394346545
 21
-21.5837836112
  0
ARC
  5
378
100
AcDbEntity
  8
RACCORDO
100
AcDbCircle
 62
253
  6
CONTINUOUS
 10
-18.0404684367
 20
-18.5558358814
 40
2.0002153773
100
AcDbArc
 50
180.0111277186
 51
269.9851779266
  0
ARC
  5
379
100
AcDbEntity
  8
RACCORDO
100
AcDbCircle
 62
253
  6
CONTINUOUS
 10
-27.0237439285
 20
-11.8706360559
 40
1.9997845929
100
AcDbArc
 50
89.9985694865
 51
180.0014591773
  0
ARC
  5
37A
100
AcDbEntity
  8
RACCORDO
100
AcDbCircle
 62
253
  6
CONTINUOUS
 10
-27.0237439284
 20
-15.5391113703
 40
1.9997845929
100
AcDbArc
 50
179.9985694865
 51
270.0014591773
  0
ARC
  5
37B
100
AcDbEntity
  8
RACCORDO
100
AcDbCircle
 62
253
  6
CONTINUOUS
 10
-27.0239264537
 20
-15.5392938955
 40
1.499676974
100
AcDbArc
 50
179.9965230863
 51
270.0034769137
  0
ARC
  5
37C
100
AcDbEntity
  8
RACCORDO
100
AcDbCircle
 62
253
  6
CONTINUOUS
 10
-27.0239264537
 20
-11.8704535306
 40
1.499676974
100
AcDbArc
 50
89.9965230863
 51
180.0034769137
  0
CIRCLE
  5
37D
100
AcDbEntity
  8
DRAFT
100
AcDbCircle
 62
7
  6
CONTINUOUS
 10
-24.6895062713
 20
-13.7048737131
 40
1.4738174026
  0
ARC
  5
37E
100
AcDbEntity
  8
RACCORDO
100
AcDbCircle
 62
253
  6
CONTINUOUS
 10
-18.0410161284
 20
-18.5563835702
 40
0.4998924427
100
AcDbArc
 50
179.9965330202
 51
270.0034669799
  0
ARC
  5
37F
100
AcDbEntity
  8
RACCORDO
100
AcDbCircle
 62
253
  6
CONTINUOUS
 10
-21.3925468029
 20
-8.4079142447
 40
0.2000430909
100
AcDbArc
 50
180.0209581929
 51
269.9790418071
  0
ARC
  5
380
100
AcDbEntity
  8
RACCORDO
100
AcDbCircle
 62
253
  6
CONTINUOUS
 10
-20.4864657396
 20
-8.4079142447
 40
0.2000430909
100
AcDbArc
 50
270.0209581928
 51
359.9790418072
  0
ARC
  5
381
100
AcDbEntity
  8
RACCORDO
100
AcDbCircle
 62
7
  6
CONTINUOUS
 10
-21.4895489298
 20
-8.5049163716
 40
0.1999569277
100
AcDbArc
 50
179.9965049109
 51
270.0034950891
  0
ARC
  5
382
100
AcDbEntity
  8
RACCORDO
100
AcDbCircle
 62
253
  6
CONTINUOUS
 10
-17.4229456282
 20
-20.4386107609
 40
0.1998728799
100
AcDbArc
 50
260.0165861762
 51
269.9424009782
  0
ARC
  5
383
100
AcDbEntity
  8
RACCORDO
100
AcDbCircle
 62
253
  6
CONTINUOUS
 10
-18.0404682775
 20
17.1460882931
 40
2.0002153719
100
AcDbArc
 50
90.0111909772
 51
179.9887342014
  0
ARC
  5
384
100
AcDbEntity
  8
RACCORDO
100
AcDbCircle
 62
253
  6
CONTINUOUS
 10
-18.0410161002
 20
17.1466361159
 40
0.4998925746
100
AcDbArc
 50
89.9965362482
 51
180.0034637518
  0
ARC
  5
385
100
AcDbEntity
  8
RACCORDO
100
AcDbCircle
 62
253
  6
CONTINUOUS
 10
-21.3925468521
 20
6.9981668677
 40
0.2000430909
100
AcDbArc
 50
90.0209441268
 51
179.9790558732
  0
ARC
  5
386
100
AcDbEntity
  8
RACCORDO
100
AcDbCircle
 62
253
  6
CONTINUOUS
 10
-20.4864656905
 20
6.9981668678
 40
0.2000430909
100
AcDbArc
 50
0.0209441259
 51
89.9790558741
  0
ARC
  5
387
100
AcDbEntity
  8
RACCORDO
100
AcDbCircle
 62
7
  6
CONTINUOUS
 10
-21.4895489298
 20
7.0951689455
 40
0.1999569277
100
AcDbArc
 50
89.9965049109
 51
180.0034950891
  0
ARC
  5
388
100
AcDbEntity
  8
RACCORDO
100
AcDbCircle
 62
253
  6
CONTINUOUS
 10
17.661455897
 20
-18.5558358785
 40
2.0002153773
100
AcDbArc
 50
270.0111277186
 51
359.9851779266
  0
ARC
  5
389
100
AcDbEntity
  8
RACCORDO
100
AcDbCircle
 62
253
  6
CONTINUOUS
 10
17.6620033549
 20
-18.5563833948
 40
0.4998926927
100
AcDbArc
 50
269.9965594961
 51
0.0034468702
  0
ARC
  5
38A
100
AcDbEntity
  8
RACCORDO
100
AcDbCircle
 62
253
  6
CONTINUOUS
 10
12.9717308198
 20
-20.7561210024
 40
0.2000761854
100
AcDbArc
 50
330.0509665853
 51
89.9490335312
  0
ARC
  5
38B
100
AcDbEntity
  8
RACCORDO
100
AcDbCircle
 62
253
  6
CONTINUOUS
 10
15.6492566285
 20
-20.7561209971
 40
0.2000761799
100
AcDbArc
 50
90.0509638529
 51
209.9490361471
  0
ARC
  5
38C
100
AcDbEntity
  8
RACCORDO
100
AcDbCircle
 62
253
  6
CONTINUOUS
 10
12.9817084958
 20
-21.5836937218
 40
0.2000609637
100
AcDbArc
 50
150.0445894771
 51
269.9554105229
  0
ARC
  5
38D
100
AcDbEntity
  8
RACCORDO
100
AcDbCircle
 62
253
  6
CONTINUOUS
 10
15.6392808501
 20
-21.5836948554
 40
0.2000590524
100
AcDbArc
 50
270.0440488697
 51
29.9559618824
  0
ARC
  5
38E
100
AcDbEntity
  8
RACCORDO
100
AcDbCircle
 62
253
  6
CONTINUOUS
 10
20.1074531971
 20
-8.4079142447
 40
0.2000430909
100
AcDbArc
 50
180.0209581929
 51
269.9790418071
  0
ARC
  5
38F
100
AcDbEntity
  8
RACCORDO
100
AcDbCircle
 62
253
  6
CONTINUOUS
 10
21.0135343095
 20
-8.4079142939
 40
0.2000430909
100
AcDbArc
 50
270.0209441259
 51
359.9790558741
  0
ARC
  5
390
100
AcDbEntity
  8
RACCORDO
100
AcDbCircle
 62
7
  6
CONTINUOUS
 10
21.1105364305
 20
-8.5049164149
 40
0.1999569277
100
AcDbArc
 50
269.9964925066
 51
0.0035074934
  0
ARC
  5
391
100
AcDbEntity
  8
RACCORDO
100
AcDbCircle
 62
253
  6
CONTINUOUS
 10
17.0439330863
 20
-20.4386107475
 40
0.1998728933
100
AcDbArc
 50
270.0575988359
 51
279.9834126409
  0
ARC
  5
392
100
AcDbEntity
  8
RACCORDO
100
AcDbCircle
 62
253
  6
CONTINUOUS
 10
17.661455729
 20
17.1460882901
 40
2.0002153773
100
AcDbArc
 50
0.0111324472
 51
89.985173198
  0
ARC
  5
393
100
AcDbEntity
  8
RACCORDO
100
AcDbCircle
 62
253
  6
CONTINUOUS
 10
-2.0237439285
 20
26.1293639441
 40
1.9997845929
100
AcDbArc
 50
89.9985694865
 51
180.0014591773
  0
ARC
  5
394
100
AcDbEntity
  8
RACCORDO
100
AcDbCircle
 62
253
  6
CONTINUOUS
 10
1.6447312036
 20
26.1293637618
 40
1.9997845929
100
AcDbArc
 50
359.9985747107
 51
90.0014539531
  0
ARC
  5
395
100
AcDbEntity
  8
RACCORDO
100
AcDbCircle
 62
253
  6
CONTINUOUS
 10
-2.0239264537
 20
26.1295464694
 40
1.499676974
100
AcDbArc
 50
89.9965230863
 51
180.0034769137
  0
ARC
  5
396
100
AcDbEntity
  8
RACCORDO
100
AcDbCircle
 62
253
  6
CONTINUOUS
 10
1.6449137679
 20
26.1295463261
 40
1.499676974
100
AcDbArc
 50
359.9965285606
 51
90.0034714394
  0
CIRCLE
  5
397
100
AcDbEntity
  8
DRAFT
100
AcDbCircle
 62
7
  6
CONTINUOUS
 10
-0.1895062713
 20
23.7951262869
 40
1.4738174026
  0
ARC
  5
398
100
AcDbEntity
  8
RACCORDO
100
AcDbCircle
 62
253
  6
CONTINUOUS
 10
17.6620034104
 20
17.1466359131
 40
0.4998926927
100
AcDbArc
 50
359.9965594963
 51
90.00344687
  0
ARC
  5
399
100
AcDbEntity
  8
RACCORDO
100
AcDbCircle
 62
253
  6
CONTINUOUS
 10
15.6492566375
 20
19.3463735762
 40
0.2000761851
100
AcDbArc
 50
150.0509665565
 51
269.94903356
  0
ARC
  5
39A
100
AcDbEntity
  8
RACCORDO
100
AcDbCircle
 62
253
  6
CONTINUOUS
 10
12.9717308293
 20
19.3463735708
 40
0.2000761799
100
AcDbArc
 50
270.0509637625
 51
29.9490362375
  0
ARC
  5
39B
100
AcDbEntity
  8
RACCORDO
100
AcDbCircle
 62
253
  6
CONTINUOUS
 10
12.9817087198
 20
20.1739461664
 40
0.2000609894
100
AcDbArc
 50
90.0446535784
 51
209.9553464197
  0
ARC
  5
39C
100
AcDbEntity
  8
RACCORDO
100
AcDbCircle
 62
253
  6
CONTINUOUS
 10
15.6392808876
 20
20.1739473644
 40
0.2000590524
100
AcDbArc
 50
330.0440488674
 51
89.9559618859
  0
ARC
  5
39D
100
AcDbEntity
  8
RACCORDO
100
AcDbCircle
 62
253
  6
CONTINUOUS
 10
20.1074531479
 20
6.9981668677
 40
0.2000430909
100
AcDbArc
 50
90.0209441268
 51
179.9790558732
  0
ARC
  5
39E
100
AcDbEntity
  8
RACCORDO
100
AcDbCircle
 62
253
  6
CONTINUOUS
 10
21.0135343095
 20
6.9981668678
 40
0.2000430909
100
AcDbArc
 50
0.0209441258
 51
89.9790558741
  0
ARC
  5
39F
100
AcDbEntity
  8
RACCORDO
100
AcDbCircle
 62
7
  6
CONTINUOUS
 10
21.1105364305
 20
7.0951689888
 40
0.1999569277
100
AcDbArc
 50
359.9964925066
 51
90.0035074934
  0
ARC
  5
3A0
100
AcDbEntity
  8
RACCORDO
100
AcDbCircle
 62
253
  6
CONTINUOUS
 10
17.0439330857
 20
19.0288633347
 40
0.1998728799
100
AcDbArc
 50
80.0165861763
 51
89.9424009781
  0
SPLINE
  5
3A1
100
AcDbEntity
  8
RACCORDO
100
AcDbSpline
 62
253
  6
CONTINUOUS
 70
0
 71
3
 72
24
 73
20
 74
18
 42
0.0000001
 43
0.0000001
 44
0.0000000001
 12
0.0000006578
 22
-2.8010645296
 32
0.0
 13
1.9801783038
 23
-1.9811250299
 33
0.0
 40
0.0
 40
0.0
 40
0.0
 40
0.0
 40
0.1928297349
 40
0.3784524977
 40
0.5498910442
 40
0.6282466907
 40
0.7006907752
 40
0.766531149
 40
0.8251490936
 40
0.8759912313
 40
0.9185827974
 40
0.9366595778
 40
0.9525313593
 40
0.9661638103
 40
0.9775267879
 40
0.9865958497
 40
0.9933569393
 40
0.9978077007
 40
1.0
 40
1.0
 40
1.0
 40
1.0
 10
21.1655557633
 20
-5.6084138718
 30
0.0
 10
21.1655558055
 20
-5.7884567154
 30
0.0
 10
21.1661447742
 20
-6.1418136704
 30
0.0
 10
21.1687789019
 20
-6.6552346574
 30
0.0
 10
21.1724304316
 20
-7.0617633689
 30
0.0
 10
21.1762387608
 20
-7.3626096342
 30
0.0
 10
21.1793599891
 20
-7.5648601807
 30
0.0
 10
21.1828006555
 20
-7.7486737665
 30
0.0
 10
21.1865218765
 20
-7.9123081494
 30
0.0
 10
21.1904858412
 20
-8.0542219349
 30
0.0
 10
21.1941137576
 20
-8.1582771401
 30
0.0
 10
21.1971942474
 20
-8.2296743244
 30
0.0
 10
21.1994083899
 20
-8.2740487566
 30
0.0
 10
21.2016577766
 20
-8.3121302616
 30
0.0
 10
21.2038950088
 20
-8.3438864638
 30
0.0
 10
21.2062060797
 20
-8.3690987212
 30
0.0
 10
21.2083021985
 20
-8.3880982398
 30
0.0
 10
21.2106914289
 20
-8.4000578669
 30
0.0
 10
21.2121299251
 20
-8.4065396786
 30
0.0
 10
21.213576973
 20
-8.4079874183
 30
0.0
 11
21.1655557633
 21
-5.6084138718
 31
0.0
 11
21.1664737352
 21
-6.1485416224
 31
0.0
 11
21.1691938571
 21
-6.6684758439
 31
0.0
 11
21.1736148751
 21
-7.1486659241
 31
0.0
 11
21.1764140363
 21
-7.3681272959
 31
0.0
 11
21.1795715121
 21
-7.5710232842
 31
0.0
 11
21.1830576037
 21
-7.7554134688
 31
0.0
 11
21.1868389399
 21
-7.9195625666
 31
0.0
 11
21.190879777
 21
-8.0619173358
 31
0.0
 11
21.195141938
 21
-8.1811429018
 31
0.0
 11
21.1973435108
 21
-8.2317292455
 31
0.0
 11
21.1995852315
 21
-8.2761305759
 31
0.0
 11
21.201861764
 21
-8.3142480295
 31
0.0
 11
21.2041676975
 21
-8.3459928218
 31
0.0
 11
21.2064976563
 21
-8.3712887721
 31
0.0
 11
21.2088463234
 21
-8.3900808185
 31
0.0
 11
21.2112081854
 21
-8.4023219152
 31
0.0
 11
21.213576973
 21
-8.4079874183
 31
0.0
  0
SPLINE
  5
3A2
100
AcDbEntity
  8
RACCORDO
100
AcDbSpline
 62
253
  6
CONTINUOUS
 70
0
 71
3
 72
24
 73
20
 74
18
 42
0.0000001
 43
0.0000001
 44
0.0000000001
 12
-1.9801646008
 22
-1.9811387264
 32
0.0
 13
-0.0000006526
 23
-2.8010645297
 33
0.0
 40
0.0
 40
0.0
 40
0.0
 40
0.0
 40
0.0021923
 40
0.0066430547
 40
0.0134041465
 40
0.0224732151
 40
0.0338361943
 40
0.0474686419
 40
0.0633404198
 40
0.0814172002
 40
0.1240087696
 40
0.1748509067
 40
0.2334688504
 40
0.2993092247
 40
0.3717533093
 40
0.4501089555
 40
0.6215475024
 40
0.8071702643
 40
1.0
 40
1.0
 40
1.0
 40
1.0
 10
21.213576973
 20
6.9982399921
 30
0.0
 10
21.2121299347
 20
6.996792242
 30
0.0
 10
21.2106914222
 20
6.9903104549
 30
0.0
 10
21.2083021996
 20
6.9783508178
 30
0.0
 10
21.2062060783
 20
6.9593513034
 30
0.0
 10
21.2038950101
 20
6.9341390333
 30
0.0
 10
21.2016577769
 20
6.9023828276
 30
0.0
 10
21.1994083899
 20
6.8643013272
 30
0.0
 10
21.1971942471
 20
6.8199269017
 30
0.0
 10
21.1941137575
 20
6.7485297176
 30
0.0
 10
21.1904858415
 20
6.64447451
 30
0.0
 10
21.1865218765
 20
6.5025607228
 30
0.0
 10
21.1828006554
 20
6.3389263409
 30
0.0
 10
21.1793599892
 20
6.1551127553
 30
0.0
 10
21.1762387608
 20
5.9528622085
 30
0.0
 10
21.1724304315
 20
5.6520159429
 30
0.0
 10
21.168778902
 20
5.2454872322
 30
0.0
 10
21.1661447741
 20
4.732066245
 30
0.0
 10
21.1655558052
 20
4.37870929
 30
0.0
 10
21.1655557633
 20
4.1986664457
 30
0.0
 11
21.213576973
 21
6.9982399921
 31
0.0
 11
21.2112081854
 21
6.9925744869
 31
0.0
 11
21.2088463234
 21
6.9803334093
 31
0.0
 11
21.2064976563
 21
6.9615413566
 31
0.0
 11
21.2041676975
 21
6.9362453875
 31
0.0
 11
21.201861764
 21
6.9045005904
 31
0.0
 11
21.1995852315
 21
6.8663831466
 31
0.0
 11
21.1973435107
 21
6.821981826
 31
0.0
 11
21.1951419379
 21
6.7713954825
 31
0.0
 11
21.190879777
 21
6.6521699072
 31
0.0
 11
21.1868389399
 21
6.5098151398
 31
0.0
 11
21.1830576037
 21
6.3456660444
 31
0.0
 11
21.1795715121
 21
6.1612758585
 31
0.0
 11
21.1764140363
 21
5.9583798698
 31
0.0
 11
21.1736148751
 21
5.7389184988
 31
0.0
 11
21.1691938571
 21
5.2587284174
 31
0.0
 11
21.1664737351
 21
4.7387941986
 31
0.0
 11
21.1655557633
 21
4.1986664457
 31
0.0
  0
SPLINE
  5
3A3
100
AcDbEntity
  8
RACCORDO
100
AcDbSpline
 62
253
  6
CONTINUOUS
 70
0
 71
3
 72
24
 73
20
 74
18
 42
0.0000001
 43
0.0000001
 44
0.0000000001
 12
-2.0473818322
 22
2.1940499194
 32
0.0
 13
-0.0000006866
 23
3.0009377561
 33
0.0
 40
0.0
 40
0.0
 40
0.0
 40
0.0
 40
0.0021710469
 40
0.006611434
 40
0.0133658742
 40
0.0224302988
 40
0.0337900356
 40
0.0474201707
 40
0.0632904445
 40
0.0813661447
 40
0.1239569222
 40
0.1747994592
 40
0.2334194661
 40
0.2992626703
 40
0.3717105454
 40
0.4500708176
 40
0.6215206423
 40
0.8071563251
 40
1.0
 40
1.0
 40
1.0
 40
1.0
 10
-20.4863922331
 20
-8.6079573148
 30
0.0
 10
-20.4878738871
 20
-8.6063695197
 30
0.0
 10
-20.4892540196
 20
-8.599450734
 30
0.0
 10
-20.4916833778
 20
-8.5866344922
 30
0.0
 10
-20.4937570982
 20
-8.5662916683
 30
0.0
 10
-20.496077046
 20
-8.5392779277
 30
0.0
 10
-20.4983107687
 20
-8.5052562698
 30
0.0
 10
-20.500561346
 20
-8.4644550377
 30
0.0
 10
-20.5027750485
 20
-8.4169116949
 30
0.0
 10
-20.5058557748
 20
-8.3404140986
 30
0.0
 10
-20.5094835612
 20
-8.228926906
 30
0.0
 10
-20.5134476093
 20
-8.076877463
 30
0.0
 10
-20.5171687648
 20
-7.9015557135
 30
0.0
 10
-20.5206094631
 20
-7.7046128158
 30
0.0
 10
-20.523730697
 20
-7.4879159154
 30
0.0
 10
-20.5275390321
 20
-7.1655794283
 30
0.0
 10
-20.5311906169
 20
-6.7300114902
 30
0.0
 10
-20.5338247545
 20
-6.1799158021
 30
0.0
 10
-20.5344137316
 20
-5.8013178269
 30
0.0
 10
-20.5344137758
 20
-5.6084138718
 30
0.0
 11
-20.4863922331
 21
-8.6079573148
 31
0.0
 11
-20.4887610538
 21
-8.6018880303
 31
0.0
 11
-20.4911229368
 21
-8.5887736944
 31
0.0
 11
-20.4934716217
 21
-8.568640573
 31
0.0
 11
-20.495801602
 21
-8.5415387705
 31
0.0
 11
-20.4981075593
 21
-8.5075269883
 31
0.0
 11
-20.5003841131
 21
-8.4666872037
 31
0.0
 11
-20.5026258496
 21
-8.4191142881
 31
0.0
 11
-20.5048274369
 21
-8.364914933
 31
0.0
 11
-20.5090896164
 21
-8.2371737465
 31
0.0
 11
-20.5131304712
 21
-8.0846519767
 31
0.0
 11
-20.5169118156
 21
-7.9087776299
 31
0.0
 11
-20.5203979201
 21
-7.7112170273
 31
0.0
 11
-20.5235554099
 21
-7.4938283931
 31
0.0
 11
-20.5263545776
 21
-7.2586907544
 31
0.0
 11
-20.5307756446
 21
-6.7441994972
 31
0.0
 11
-20.5334957914
 21
-6.1871250088
 31
0.0
 11
-20.5344137758
 21
-5.6084138718
 31
0.0
  0
SPLINE
  5
3A4
100
AcDbEntity
  8
RACCORDO
100
AcDbSpline
 62
253
  6
CONTINUOUS
 70
0
 71
3
 72
24
 73
20
 74
18
 42
0.0000001
 43
0.0000001
 44
0.0000000001
 12
-0.0000006947
 22
-3.0009373005
 32
0.0
 13
-2.0471708269
 23
-2.1942461773
 33
0.0
 40
0.0
 40
0.0
 40
0.0
 40
0.0
 40
0.1928428673
 40
0.3784778358
 40
0.5499271279
 40
0.6282872265
 40
0.700735001
 40
0.7665781845
 40
0.8251982572
 40
0.876040949
 40
0.9186319715
 40
0.9367078313
 40
0.9525782915
 40
0.9662086332
 40
0.9775685883
 40
0.986633249
 40
0.9933879793
 40
0.9978287098
 40
1.0
 40
1.0
 40
1.0
 40
1.0
 10
-21.3445987668
 20
-5.6084138718
 30
0.0
 10
-21.3445988114
 20
-5.8013169896
 30
0.0
 10
-21.3451877831
 20
-6.179913385
 30
0.0
 10
-21.3478218985
 20
-6.7300069345
 30
0.0
 10
-21.3514734532
 20
-7.1655733858
 30
0.0
 10
-21.3552817563
 20
-7.4879090172
 30
0.0
 10
-21.3584029657
 20
-7.7046055901
 30
0.0
 10
-21.3618436381
 20
-7.9015484028
 30
0.0
 10
-21.3655647669
 20
-8.0768703261
 30
0.0
 10
-21.3695287879
 20
-8.2289202127
 30
0.0
 10
-21.3731565499
 20
-8.3404079487
 30
0.0
 10
-21.3762372539
 20
-8.4169061265
 30
0.0
 10
-21.378450943
 20
-8.4644500151
 30
0.0
 10
-21.3807015074
 20
-8.5052518567
 30
0.0
 10
-21.3829352189
 20
-8.5392741654
 30
0.0
 10
-21.3852551655
 20
-8.566288668
 30
0.0
 10
-21.3873288837
 20
-8.5866323225
 30
0.0
 10
-21.3897582651
 20
-8.5994495149
 30
0.0
 10
-21.3911383092
 20
-8.6063688422
 30
0.0
 10
-21.3926199765
 20
-8.6079569573
 30
0.0
 11
-21.3445987668
 21
-5.6084138718
 31
0.0
 11
-21.3455167432
 21
-6.1871224972
 31
0.0
 11
-21.3482368663
 21
-6.7441947577
 31
0.0
 11
-21.3526578961
 21
-7.2586843386
 31
0.0
 11
-21.3554570408
 21
-7.493821421
 31
0.0
 11
-21.3586145054
 21
-7.7112097207
 31
0.0
 11
-21.362100583
 21
-7.9087702317
 31
0.0
 11
-21.3658818992
 21
-8.0846447498
 31
0.0
 11
-21.3699227251
 21
-8.2371669617
 31
0.0
 11
-21.3741848757
 21
-8.3649088655
 31
0.0
 11
-21.3763864488
 21
-8.4191086926
 31
0.0
 11
-21.3786281712
 21
-8.4666821615
 31
0.0
 11
-21.3809047112
 21
-8.5075225617
 31
0.0
 11
-21.3832106551
 21
-8.5415349959
 31
0.0
 11
-21.3855406225
 21
-8.5686375068
 31
0.0
 11
-21.3878892951
 21
-8.588771503
 31
0.0
 11
-21.3902511666
 21
-8.6018868859
 31
0.0
 11
-21.3926199765
 21
-8.6079569573
 31
0.0
  0
SPLINE
  5
3A5
100
AcDbEntity
  8
RACCORDO
100
AcDbSpline
 62
253
  6
CONTINUOUS
 70
0
 71
3
 72
24
 73
20
 74
18
 42
0.0000001
 43
0.0000001
 44
0.0000000001
 12
0.0000006947
 22
3.0009373005
 32
0.0
 13
2.0471708269
 23
2.1942461773
 33
0.0
 40
0.0
 40
0.0
 40
0.0
 40
0.0
 40
0.1928428673
 40
0.3784778358
 40
0.5499271279
 40
0.6282872265
 40
0.700735001
 40
0.7665781845
 40
0.8251982572
 40
0.876040949
 40
0.9186319715
 40
0.9367078313
 40
0.9525782915
 40
0.9662086332
 40
0.9775685883
 40
0.986633249
 40
0.9933879793
 40
0.9978287098
 40
1.0
 40
1.0
 40
1.0
 40
1.0
 10
-20.5344137758
 20
4.1986664457
 30
0.0
 10
-20.5344137311
 20
4.3915695635
 30
0.0
 10
-20.5338247594
 20
4.7701659589
 30
0.0
 10
-20.5311906441
 20
5.3202595083
 30
0.0
 10
-20.5275390894
 20
5.7558259597
 30
0.0
 10
-20.5237307863
 20
6.0781615911
 30
0.0
 10
-20.5206095768
 20
6.294858164
 30
0.0
 10
-20.5171689044
 20
6.4918009767
 30
0.0
 10
-20.5134477757
 20
6.6671229
 30
0.0
 10
-20.5094837546
 20
6.8191727866
 30
0.0
 10
-20.5058559927
 20
6.9306605226
 30
0.0
 10
-20.5027752886
 20
7.0071587003
 30
0.0
 10
-20.5005615995
 20
7.054702589
 30
0.0
 10
-20.4983110351
 20
7.0955044306
 30
0.0
 10
-20.4960773237
 20
7.1295267393
 30
0.0
 10
-20.4937573771
 20
7.1565412419
 30
0.0
 10
-20.4916836589
 20
7.1768848963
 30
0.0
 10
-20.4892542775
 20
7.1897020888
 30
0.0
 10
-20.4878742334
 20
7.1966214161
 30
0.0
 10
-20.4863925661
 20
7.1982095312
 30
0.0
 11
-20.5344137758
 21
4.1986664457
 31
0.0
 11
-20.5334957993
 21
4.7773750711
 31
0.0
 11
-20.5307756762
 21
5.3344473316
 31
0.0
 11
-20.5263546465
 21
5.8489369125
 31
0.0
 11
-20.5235555017
 21
6.0840739949
 31
0.0
 11
-20.5203980371
 21
6.3014622946
 31
0.0
 11
-20.5169119595
 21
6.4990228056
 31
0.0
 11
-20.5131306434
 21
6.6748973237
 31
0.0
 11
-20.5090898174
 21
6.8274195356
 31
0.0
 11
-20.5048276668
 21
6.9551614394
 31
0.0
 11
-20.5026260937
 21
7.0093612664
 31
0.0
 11
-20.5003843714
 21
7.0569347354
 31
0.0
 11
-20.4981078313
 21
7.0977751356
 31
0.0
 11
-20.4958018875
 21
7.1317875698
 31
0.0
 11
-20.49347192
 21
7.1588900806
 31
0.0
 11
-20.4911232474
 21
7.1790240769
 31
0.0
 11
-20.488761376
 21
7.1921394598
 31
0.0
 11
-20.4863925661
 21
7.1982095312
 31
0.0
  0
SPLINE
  5
3A6
100
AcDbEntity
  8
RACCORDO
100
AcDbSpline
 62
253
  6
CONTINUOUS
 70
0
 71
3
 72
24
 73
20
 74
18
 42
0.0000001
 43
0.0000001
 44
0.0000000001
 12
2.0473818322
 22
-2.1940499194
 32
0.0
 13
0.0000006866
 23
-3.0009377561
 33
0.0
 40
0.0
 40
0.0
 40
0.0
 40
0.0
 40
0.0021710469
 40
0.006611434
 40
0.0133658742
 40
0.0224302988
 40
0.0337900356
 40
0.0474201707
 40
0.0632904445
 40
0.0813661447
 40
0.1239569222
 40
0.1747994592
 40
0.2334194661
 40
0.2992626703
 40
0.3717105454
 40
0.4500708176
 40
0.6215206423
 40
0.8071563251
 40
1.0
 40
1.0
 40
1.0
 40
1.0
 10
-21.3926203094
 20
7.1982098887
 30
0.0
 10
-21.3911386554
 20
7.1966220936
 30
0.0
 10
-21.3897585229
 20
7.1897033078
 30
0.0
 10
-21.3873291647
 20
7.1768870661
 30
0.0
 10
-21.3852554443
 20
7.1565442422
 30
0.0
 10
-21.3829354966
 20
7.1295305016
 30
0.0
 10
-21.3807017739
 20
7.0955088437
 30
0.0
 10
-21.3784511965
 20
7.0547076115
 30
0.0
 10
-21.376237494
 20
7.0071642688
 30
0.0
 10
-21.3731567677
 20
6.9306666724
 30
0.0
 10
-21.3695289813
 20
6.8191794799
 30
0.0
 10
-21.3655649333
 20
6.6671300368
 30
0.0
 10
-21.3618437777
 20
6.4918082874
 30
0.0
 10
-21.3584030794
 20
6.2948653897
 30
0.0
 10
-21.3552818456
 20
6.0781684893
 30
0.0
 10
-21.3514735104
 20
5.7558320022
 30
0.0
 10
-21.3478219256
 20
5.320264064
 30
0.0
 10
-21.345187788
 20
4.770168376
 30
0.0
 10
-21.3445988109
 20
4.3915704007
 30
0.0
 10
-21.3445987668
 20
4.1986664457
 30
0.0
 11
-21.3926203094
 21
7.1982098887
 31
0.0
 11
-21.3902514888
 21
7.1921406042
 31
0.0
 11
-21.3878896057
 21
7.1790262682
 31
0.0
 11
-21.3855409208
 21
7.1588931469
 31
0.0
 11
-21.3832109405
 21
7.1317913444
 31
0.0
 11
-21.3809049833
 21
7.0977795622
 31
0.0
 11
-21.3786284294
 21
7.0569397776
 31
0.0
 11
-21.376386693
 21
7.009366862
 31
0.0
 11
-21.3741851056
 21
6.9551675068
 31
0.0
 11
-21.3699229262
 21
6.8274263204
 31
0.0
 11
-21.3658820713
 21
6.6749045506
 31
0.0
 11
-21.362100727
 21
6.4990302038
 31
0.0
 11
-21.3586146224
 21
6.3014696012
 31
0.0
 11
-21.3554571326
 21
6.0840809669
 31
0.0
 11
-21.3526579649
 21
5.8489433283
 31
0.0
 11
-21.348236898
 21
5.3344520711
 31
0.0
 11
-21.3455167512
 21
4.7773775827
 31
0.0
 11
-21.3445987668
 21
4.1986664457
 31
0.0
  0
SPLINE
  5
3A7
100
AcDbEntity
  8
RACCORDO
100
AcDbSpline
 62
253
  6
CONTINUOUS
 70
0
 71
3
 72
24
 73
20
 74
18
 42
0.0000001
 43
0.0000001
 44
0.0000000001
 12
2.0473818322
 22
-2.1940499194
 32
0.0
 13
0.0000006866
 23
-3.0009377561
 33
0.0
 40
0.0
 40
0.0
 40
0.0
 40
0.0
 40
0.0021710469
 40
0.006611434
 40
0.0133658742
 40
0.0224302988
 40
0.0337900356
 40
0.0474201707
 40
0.0632904445
 40
0.0813661447
 40
0.1239569222
 40
0.1747994592
 40
0.2334194661
 40
0.2992626703
 40
0.3717105454
 40
0.4500708176
 40
0.6215206423
 40
0.8071563251
 40
1.0
 40
1.0
 40
1.0
 40
1.0
 10
20.1073796906
 20
7.1982098887
 30
0.0
 10
20.1088613446
 20
7.1966220936
 30
0.0
 10
20.1102414771
 20
7.1897033078
 30
0.0
 10
20.1126708353
 20
7.1768870661
 30
0.0
 10
20.1147445557
 20
7.1565442422
 30
0.0
 10
20.1170645034
 20
7.1295305016
 30
0.0
 10
20.1192982261
 20
7.0955088437
 30
0.0
 10
20.1215488035
 20
7.0547076115
 30
0.0
 10
20.123762506
 20
7.0071642688
 30
0.0
 10
20.1268432323
 20
6.9306666724
 30
0.0
 10
20.1304710187
 20
6.8191794799
 30
0.0
 10
20.1344350667
 20
6.6671300368
 30
0.0
 10
20.1381562223
 20
6.4918082874
 30
0.0
 10
20.1415969206
 20
6.2948653897
 30
0.0
 10
20.1447181544
 20
6.0781684893
 30
0.0
 10
20.1485264896
 20
5.7558320022
 30
0.0
 10
20.1521780744
 20
5.320264064
 30
0.0
 10
20.154812212
 20
4.770168376
 30
0.0
 10
20.1554011891
 20
4.3915704007
 30
0.0
 10
20.1554012332
 20
4.1986664457
 30
0.0
 11
20.1073796906
 21
7.1982098887
 31
0.0
 11
20.1097485112
 21
7.1921406042
 31
0.0
 11
20.1121103943
 21
7.1790262682
 31
0.0
 11
20.1144590792
 21
7.1588931469
 31
0.0
 11
20.1167890595
 21
7.1317913444
 31
0.0
 11
20.1190950167
 21
7.0977795622
 31
0.0
 11
20.1213715706
 21
7.0569397776
 31
0.0
 11
20.123613307
 21
7.009366862
 31
0.0
 11
20.1258148944
 21
6.9551675068
 31
0.0
 11
20.1300770738
 21
6.8274263204
 31
0.0
 11
20.1341179287
 21
6.6749045506
 31
0.0
 11
20.137899273
 21
6.4990302038
 31
0.0
 11
20.1413853776
 21
6.3014696012
 31
0.0
 11
20.1445428674
 21
6.0840809669
 31
0.0
 11
20.1473420351
 21
5.8489433283
 31
0.0
 11
20.151763102
 21
5.3344520711
 31
0.0
 11
20.1544832488
 21
4.7773775827
 31
0.0
 11
20.1554012332
 21
4.1986664457
 31
0.0
  0
SPLINE
  5
3A8
100
AcDbEntity
  8
RACCORDO
100
AcDbSpline
 62
253
  6
CONTINUOUS
 70
0
 71
3
 72
24
 73
20
 74
18
 42
0.0000001
 43
0.0000001
 44
0.0000000001
 12
-2.0473285032
 22
-2.1940990636
 32
0.0
 13
-0.0000007074
 23
-3.0009373037
 33
0.0
 40
0.0
 40
0.0
 40
0.0
 40
0.0
 40
0.0021712718
 40
0.0066120702
 40
0.0133668817
 40
0.0224316208
 40
0.0337916539
 40
0.0474221824
 40
0.0632927554
 40
0.0813688521
 40
0.1239603626
 40
0.174803932
 40
0.233424494
 40
0.2992683657
 40
0.3717164998
 40
0.4500766323
 40
0.6215252116
 40
0.807158871
 40
1.0
 40
1.0
 40
1.0
 40
1.0
 10
21.0136074339
 20
7.1982095312
 30
0.0
 10
21.0121256651
 20
7.1966215361
 30
0.0
 10
21.0107457832
 20
7.1897019689
 30
0.0
 10
21.0083162851
 20
7.1768847897
 30
0.0
 10
21.0062426073
 20
7.156540836
 30
0.0
 10
21.0039226273
 20
7.1295261253
 30
0.0
 10
21.0016889041
 20
7.0955034627
 30
0.0
 10
20.9994383512
 20
7.0547012458
 30
0.0
 10
20.9972246258
 20
7.0071568204
 30
0.0
 10
20.9941439266
 20
6.9306578043
 30
0.0
 10
20.9905161077
 20
6.8191684659
 30
0.0
 10
20.9865521228
 20
6.667116722
 30
0.0
 10
20.982830934
 20
6.4917927436
 30
0.0
 10
20.9793902844
 20
6.2948483926
 30
0.0
 10
20.9762690769
 20
6.0781507374
 30
0.0
 10
20.9724607815
 20
5.7558154249
 30
0.0
 10
20.9688093065
 20
5.320250961
 30
0.0
 10
20.9661752244
 20
4.7701611723
 30
0.0
 10
20.9655862697
 20
4.3915678249
 30
0.0
 10
20.9655862242
 20
4.1986664457
 30
0.0
 11
21.0136074339
 21
7.1982095312
 31
0.0
 11
21.0112386195
 21
7.1921395209
 31
0.0
 11
21.0088767353
 21
7.1790239332
 31
0.0
 11
21.006528047
 21
7.1588896934
 31
0.0
 11
21.0041980685
 21
7.1317869476
 31
0.0
 11
21.0018921169
 21
7.0977742788
 31
0.0
 11
20.999615568
 21
7.0569333178
 31
0.0
 11
20.9973738326
 21
7.0093595106
 31
0.0
 11
20.9951722478
 21
6.9551589725
 31
0.0
 11
20.9909100706
 21
6.8274156043
 31
0.0
 11
20.9868692279
 21
6.6748907578
 31
0.0
 11
20.9830878942
 21
6.4990147711
 31
0.0
 11
20.9796018127
 21
6.3014521947
 31
0.0
 11
20.9764443546
 21
6.0840628156
 31
0.0
 11
20.973645218
 21
5.848925631
 31
0.0
 11
20.9692242569
 21
5.3344381878
 31
0.0
 11
20.9665041809
 21
4.7773698552
 31
0.0
 11
20.9655862242
 21
4.1986664457
 31
0.0
  0
SPLINE
  5
3A9
100
AcDbEntity
  8
RACCORDO
100
AcDbSpline
 62
253
  6
CONTINUOUS
 70
0
 71
3
 72
24
 73
20
 74
18
 42
0.0000001
 43
0.0000001
 44
0.0000000001
 12
-0.0000006947
 22
-3.0009373005
 32
0.0
 13
-2.0471708269
 23
-2.1942461773
 33
0.0
 40
0.0
 40
0.0
 40
0.0
 40
0.0
 40
0.1928428673
 40
0.3784778358
 40
0.5499271279
 40
0.6282872265
 40
0.700735001
 40
0.7665781845
 40
0.8251982572
 40
0.876040949
 40
0.9186319715
 40
0.9367078313
 40
0.9525782915
 40
0.9662086332
 40
0.9775685883
 40
0.986633249
 40
0.9933879793
 40
0.9978287098
 40
1.0
 40
1.0
 40
1.0
 40
1.0
 10
20.1554012332
 20
-5.6084138718
 30
0.0
 10
20.1554011886
 20
-5.8013169896
 30
0.0
 10
20.1548122169
 20
-6.179913385
 30
0.0
 10
20.1521781015
 20
-6.7300069345
 30
0.0
 10
20.1485265468
 20
-7.1655733858
 30
0.0
 10
20.1447182437
 20
-7.4879090172
 30
0.0
 10
20.1415970343
 20
-7.7046055901
 30
0.0
 10
20.1381563619
 20
-7.9015484028
 30
0.0
 10
20.1344352331
 20
-8.0768703261
 30
0.0
 10
20.1304712121
 20
-8.2289202127
 30
0.0
 10
20.1268434501
 20
-8.3404079487
 30
0.0
 10
20.1237627461
 20
-8.4169061265
 30
0.0
 10
20.121549057
 20
-8.4644500151
 30
0.0
 10
20.1192984926
 20
-8.5052518567
 30
0.0
 10
20.1170647811
 20
-8.5392741654
 30
0.0
 10
20.1147448345
 20
-8.566288668
 30
0.0
 10
20.1126711163
 20
-8.5866323225
 30
0.0
 10
20.1102417349
 20
-8.5994495149
 30
0.0
 10
20.1088616908
 20
-8.6063688422
 30
0.0
 10
20.1073800235
 20
-8.6079569573
 30
0.0
 11
20.1554012332
 21
-5.6084138718
 31
0.0
 11
20.1544832568
 21
-6.1871224972
 31
0.0
 11
20.1517631337
 21
-6.7441947577
 31
0.0
 11
20.1473421039
 21
-7.2586843386
 31
0.0
 11
20.1445429592
 21
-7.493821421
 31
0.0
 11
20.1413854946
 21
-7.7112097207
 31
0.0
 11
20.137899417
 21
-7.9087702317
 31
0.0
 11
20.1341181008
 21
-8.0846447498
 31
0.0
 11
20.1300772749
 21
-8.2371669617
 31
0.0
 11
20.1258151243
 21
-8.3649088655
 31
0.0
 11
20.1236135512
 21
-8.4191086926
 31
0.0
 11
20.1213718288
 21
-8.4666821615
 31
0.0
 11
20.1190952888
 21
-8.5075225617
 31
0.0
 11
20.1167893449
 21
-8.5415349959
 31
0.0
 11
20.1144593775
 21
-8.5686375068
 31
0.0
 11
20.1121107049
 21
-8.588771503
 31
0.0
 11
20.1097488334
 21
-8.6018868859
 31
0.0
 11
20.1073800235
 21
-8.6079569573
 31
0.0
  0
SPLINE
  5
3AA
100
AcDbEntity
  8
RACCORDO
100
AcDbSpline
 62
253
  6
CONTINUOUS
 70
0
 71
3
 72
24
 73
20
 74
18
 42
0.0000001
 43
0.0000001
 44
0.0000000001
 12
1.9798687919
 22
-1.9814343465
 32
0.0
 13
0.0000006322
 23
-2.8010645302
 33
0.0
 40
0.0
 40
0.0
 40
0.0
 40
0.0
 40
0.0021923352
 40
0.0066429247
 40
0.0134038527
 40
0.0224727905
 40
0.0338356592
 40
0.0474679032
 40
0.0633395577
 40
0.0814160864
 40
0.1240071268
 40
0.1748483729
 40
0.2334659155
 40
0.2993057623
 40
0.3717496067
 40
0.4501052566
 40
0.6215444604
 40
0.8071685199
 40
1.0
 40
1.0
 40
1.0
 40
1.0
 10
-21.5925895155
 20
6.9982399921
 30
0.0
 10
-21.5911426701
 20
6.9967920027
 30
0.0
 10
-21.5897038538
 20
6.990310726
 30
0.0
 10
-21.5873148159
 20
6.9783510781
 30
0.0
 10
-21.5852186184
 20
6.9593521364
 30
0.0
 10
-21.5829076032
 20
6.9341401863
 30
0.0
 10
-21.5806703773
 20
6.9023844172
 30
0.0
 10
-21.5784209831
 20
6.8643033191
 30
0.0
 10
-21.5762068777
 20
6.8199294351
 30
0.0
 10
-21.5731263845
 20
6.7485330952
 30
0.0
 10
-21.5694985246
 20
6.6444794479
 30
0.0
 10
-21.5655345233
 20
6.5025673626
 30
0.0
 10
-21.5618133651
 20
6.3389346786
 30
0.0
 10
-21.5583726783
 20
6.1551221849
 30
0.0
 10
-21.5552514459
 20
5.9528723515
 30
0.0
 10
-21.5514431056
 20
5.6520256934
 30
0.0
 10
-21.5477914936
 20
5.245495155
 30
0.0
 10
-21.5451573324
 20
4.732070714
 30
0.0
 10
-21.5445683464
 20
4.3787109188
 30
0.0
 10
-21.5445683058
 20
4.1986664457
 30
0.0
 11
-21.5925895155
 21
6.9982399921
 31
0.0
 11
-21.5902207312
 21
6.9925743788
 31
0.0
 11
-21.5878588829
 21
6.9803337697
 31
0.0
 11
-21.5855102319
 21
6.9615421774
 31
0.0
 11
-21.5831802841
 21
6.936246575
 31
0.0
 11
-21.5808743588
 21
6.9045020878
 31
0.0
 11
-21.5785978361
 21
6.8663852146
 31
0.0
 11
-21.5763561291
 21
6.8219842396
 31
0.0
 11
-21.5741545688
 21
6.7713986012
 31
0.0
 11
-21.569892436
 21
6.6521745075
 31
0.0
 11
-21.5658516173
 21
6.5098222363
 31
0.0
 11
-21.5620702995
 21
6.3456742644
 31
0.0
 11
-21.558584211
 21
6.1612855563
 31
0.0
 11
-21.5554267266
 21
5.9583902402
 31
0.0
 11
-21.5526275551
 21
5.7389288594
 31
0.0
 11
-21.548206467
 21
5.2587369382
 31
0.0
 11
-21.5454862971
 21
4.7387990848
 31
0.0
 11
-21.5445683058
 21
4.1986664457
 31
0.0
  0
SPLINE
  5
3AB
100
AcDbEntity
  8
RACCORDO
100
AcDbSpline
 62
253
  6
CONTINUOUS
 70
0
 71
3
 72
24
 73
20
 74
18
 42
0.0000001
 43
0.0000001
 44
0.0000000001
 12
-0.0000006383
 22
-2.80106453
 32
0.0
 13
-1.9798737521
 23
-1.9814293898
 33
0.0
 40
0.0
 40
0.0
 40
0.0
 40
0.0
 40
0.1928314792
 40
0.3784555398
 40
0.5498947433
 40
0.6282503933
 40
0.7006942376
 40
0.7665340842
 40
0.8251516273
 40
0.8759928738
 40
0.9185839121
 40
0.9366604408
 40
0.9525320975
 40
0.9661643439
 40
0.9775272118
 40
0.9865961454
 40
0.9933570713
 40
0.9978076641
 40
1.0
 40
1.0
 40
1.0
 40
1.0
 10
-21.5445683058
 20
-5.6084138718
 30
0.0
 10
-21.5445683468
 20
-5.788458344
 30
0.0
 10
-21.5451573325
 20
-6.1418181395
 30
0.0
 10
-21.5477914934
 20
-6.6552425802
 30
0.0
 10
-21.5514431056
 20
-7.0617731195
 30
0.0
 10
-21.5552514458
 20
-7.3626197773
 30
0.0
 10
-21.5583726783
 20
-7.5648696105
 30
0.0
 10
-21.5618133651
 20
-7.7486821043
 30
0.0
 10
-21.5655345233
 20
-7.912314789
 30
0.0
 10
-21.5694985244
 20
-8.0542268732
 30
0.0
 10
-21.5731263845
 20
-8.1582805189
 30
0.0
 10
-21.5762068779
 20
-8.2296768589
 30
0.0
 10
-21.5784209831
 20
-8.2740507473
 30
0.0
 10
-21.5806703771
 20
-8.3121318488
 30
0.0
 10
-21.5829076024
 20
-8.3438876157
 30
0.0
 10
-21.5852186189
 20
-8.369099558
 30
0.0
 10
-21.5873148156
 20
-8.3880984993
 30
0.0
 10
-21.5897038571
 20
-8.4000581437
 30
0.0
 10
-21.5911426661
 20
-8.406539432
 30
0.0
 10
-21.5925895155
 20
-8.4079874183
 30
0.0
 11
-21.5445683058
 21
-5.6084138718
 31
0.0
 11
-21.5454862972
 21
-6.1485465084
 31
0.0
 11
-21.5482064669
 21
-6.6684843649
 31
0.0
 11
-21.5526275551
 21
-7.1486762849
 31
0.0
 11
-21.5554267266
 21
-7.3681376664
 31
0.0
 11
-21.558584211
 21
-7.571032982
 31
0.0
 11
-21.5620702995
 21
-7.7554216894
 31
0.0
 11
-21.5658516173
 21
-7.9195696628
 31
0.0
 11
-21.569892436
 21
-8.0619219351
 31
0.0
 11
-21.5741545688
 21
-8.1811460229
 31
0.0
 11
-21.5763561291
 21
-8.2317316614
 31
0.0
 11
-21.578597836
 21
-8.2761326426
 31
0.0
 11
-21.5808743587
 21
-8.3142495225
 31
0.0
 11
-21.583180284
 21
-8.3459940074
 31
0.0
 11
-21.5855102319
 21
-8.3712895978
 31
0.0
 11
-21.587858883
 21
-8.3900811842
 31
0.0
 11
-21.5902207312
 21
-8.4023218028
 31
0.0
 11
-21.5925895155
 21
-8.4079874183
 31
0.0
  0
SPLINE
  5
3AC
100
AcDbEntity
  8
RACCORDO
100
AcDbSpline
 62
253
  6
CONTINUOUS
 70
0
 71
3
 72
24
 73
20
 74
18
 42
0.0000001
 43
0.0000001
 44
0.0000000001
 12
0.0000007147
 22
-3.000937304
 32
0.0
 13
2.0473361613
 23
-2.1940919181
 33
0.0
 40
0.0
 40
0.0
 40
0.0
 40
0.0
 40
0.1928411289
 40
0.3784747883
 40
0.5499233676
 40
0.6282835002
 40
0.7007316342
 40
0.7665755059
 40
0.8251960679
 40
0.8760396373
 40
0.9186311477
 40
0.9367072445
 40
0.9525778177
 40
0.9662083462
 40
0.977568379
 40
0.9866331176
 40
0.9933879298
 40
0.99782873
 40
1.0
 40
1.0
 40
1.0
 40
1.0
 10
20.9655862242
 20
-5.6084138718
 30
0.0
 10
20.9655862702
 20
-5.801315251
 30
0.0
 10
20.9661752245
 20
-6.1799085984
 30
0.0
 10
20.9688093064
 20
-6.7299983871
 30
0.0
 10
20.9724607815
 20
-7.165562851
 30
0.0
 10
20.9762690769
 20
-7.4878981636
 30
0.0
 10
20.9793902844
 20
-7.7045958187
 30
0.0
 10
20.9828309341
 20
-7.9015401697
 30
0.0
 10
20.9865521229
 20
-8.0768641481
 30
0.0
 10
20.9905161076
 20
-8.2289158919
 30
0.0
 10
20.9941439266
 20
-8.3404052303
 30
0.0
 10
20.9972246258
 20
-8.4169042466
 30
0.0
 10
20.9994383512
 20
-8.4644486723
 30
0.0
 10
21.0016889041
 20
-8.5052508888
 30
0.0
 10
21.0039226269
 20
-8.5392735511
 30
0.0
 10
21.006242608
 20
-8.5662882604
 30
0.0
 10
21.0083162841
 20
-8.5866322194
 30
0.0
 10
21.0107457858
 20
-8.5994493928
 30
0.0
 10
21.0121256608
 20
-8.6063689687
 30
0.0
 10
21.0136074339
 20
-8.6079569573
 30
0.0
 11
20.9655862242
 21
-5.6084138718
 31
0.0
 11
20.9665041811
 21
-6.1871172814
 31
0.0
 11
20.9692242568
 21
-6.7441856139
 31
0.0
 11
20.973645218
 21
-7.2586730571
 31
0.0
 11
20.9764443545
 21
-7.4938102417
 31
0.0
 11
20.9796018127
 21
-7.7111996208
 31
0.0
 11
20.9830878942
 21
-7.9087621972
 31
0.0
 11
20.9868692279
 21
-8.0846381839
 31
0.0
 11
20.9909100706
 21
-8.2371630304
 31
0.0
 11
20.9951722478
 21
-8.3649063984
 31
0.0
 11
20.9973738327
 21
-8.4191069366
 31
0.0
 11
20.999615568
 21
-8.4666807443
 31
0.0
 11
21.0018921168
 21
-8.5075217055
 31
0.0
 11
21.0041980685
 21
-8.5415343733
 31
0.0
 11
21.006528047
 21
-8.5686371176
 31
0.0
 11
21.0088767353
 21
-8.5887713594
 31
0.0
 11
21.0112386195
 21
-8.6018869528
 31
0.0
 11
21.0136074339
 21
-8.6079569573
 31
0.0
  0
SPLINE
  5
3AD
100
AcDbEntity
  8
RACCORDO
100
AcDbSpline
 62
253
  6
CONTINUOUS
 70
0
 71
3
 72
24
 73
20
 74
18
 42
0.0000001
 43
0.0000001
 44
0.0000000001
 12
1.9798687919
 22
-1.9814343465
 32
0.0
 13
0.0000006322
 23
-2.8010645302
 33
0.0
 40
0.0
 40
0.0
 40
0.0
 40
0.0
 40
0.0021923352
 40
0.0066429247
 40
0.0134038527
 40
0.0224727905
 40
0.0338356592
 40
0.0474679032
 40
0.0633395577
 40
0.0814160864
 40
0.1240071268
 40
0.1748483729
 40
0.2334659155
 40
0.2993057623
 40
0.3717496067
 40
0.4501052566
 40
0.6215444604
 40
0.8071685199
 40
1.0
 40
1.0
 40
1.0
 40
1.0
 10
19.9074104845
 20
6.9982399921
 30
0.0
 10
19.9088573299
 20
6.9967920027
 30
0.0
 10
19.9102961462
 20
6.990310726
 30
0.0
 10
19.9126851841
 20
6.9783510781
 30
0.0
 10
19.9147813816
 20
6.9593521364
 30
0.0
 10
19.9170923968
 20
6.9341401863
 30
0.0
 10
19.9193296227
 20
6.9023844172
 30
0.0
 10
19.9215790169
 20
6.8643033191
 30
0.0
 10
19.9237931223
 20
6.8199294351
 30
0.0
 10
19.9268736155
 20
6.7485330952
 30
0.0
 10
19.9305014754
 20
6.6444794479
 30
0.0
 10
19.9344654767
 20
6.5025673626
 30
0.0
 10
19.9381866349
 20
6.3389346786
 30
0.0
 10
19.9416273217
 20
6.1551221849
 30
0.0
 10
19.9447485541
 20
5.9528723515
 30
0.0
 10
19.9485568944
 20
5.6520256934
 30
0.0
 10
19.9522085064
 20
5.245495155
 30
0.0
 10
19.9548426676
 20
4.732070714
 30
0.0
 10
19.9554316536
 20
4.3787109188
 30
0.0
 10
19.9554316942
 20
4.1986664457
 30
0.0
 11
19.9074104845
 21
6.9982399921
 31
0.0
 11
19.9097792688
 21
6.9925743788
 31
0.0
 11
19.9121411171
 21
6.9803337697
 31
0.0
 11
19.9144897681
 21
6.9615421774
 31
0.0
 11
19.9168197159
 21
6.936246575
 31
0.0
 11
19.9191256412
 21
6.9045020878
 31
0.0
 11
19.9214021639
 21
6.8663852146
 31
0.0
 11
19.9236438709
 21
6.8219842396
 31
0.0
 11
19.9258454312
 21
6.7713986012
 31
0.0
 11
19.930107564
 21
6.6521745075
 31
0.0
 11
19.9341483827
 21
6.5098222363
 31
0.0
 11
19.9379297005
 21
6.3456742644
 31
0.0
 11
19.941415789
 21
6.1612855563
 31
0.0
 11
19.9445732734
 21
5.9583902402
 31
0.0
 11
19.9473724449
 21
5.7389288594
 31
0.0
 11
19.951793533
 21
5.2587369382
 31
0.0
 11
19.9545137029
 21
4.7387990848
 31
0.0
 11
19.9554316942
 21
4.1986664457
 31
0.0
  0
SPLINE
  5
3AE
100
AcDbEntity
  8
RACCORDO
100
AcDbSpline
 62
253
  6
CONTINUOUS
 70
0
 71
3
 72
24
 73
20
 74
18
 42
0.0000001
 43
0.0000001
 44
0.0000000001
 12
-0.0000006383
 22
-2.80106453
 32
0.0
 13
-1.9798737521
 23
-1.9814293898
 33
0.0
 40
0.0
 40
0.0
 40
0.0
 40
0.0
 40
0.1928314792
 40
0.3784555398
 40
0.5498947433
 40
0.6282503933
 40
0.7006942376
 40
0.7665340842
 40
0.8251516273
 40
0.8759928738
 40
0.9185839121
 40
0.9366604408
 40
0.9525320975
 40
0.9661643439
 40
0.9775272118
 40
0.9865961454
 40
0.9933570713
 40
0.9978076641
 40
1.0
 40
1.0
 40
1.0
 40
1.0
 10
19.9554316942
 20
-5.6084138718
 30
0.0
 10
19.9554316532
 20
-5.788458344
 30
0.0
 10
19.9548426675
 20
-6.1418181395
 30
0.0
 10
19.9522085066
 20
-6.6552425802
 30
0.0
 10
19.9485568944
 20
-7.0617731195
 30
0.0
 10
19.9447485542
 20
-7.3626197773
 30
0.0
 10
19.9416273217
 20
-7.5648696105
 30
0.0
 10
19.9381866349
 20
-7.7486821043
 30
0.0
 10
19.9344654767
 20
-7.912314789
 30
0.0
 10
19.9305014756
 20
-8.0542268732
 30
0.0
 10
19.9268736155
 20
-8.1582805189
 30
0.0
 10
19.9237931221
 20
-8.2296768589
 30
0.0
 10
19.9215790169
 20
-8.2740507473
 30
0.0
 10
19.9193296229
 20
-8.3121318488
 30
0.0
 10
19.9170923976
 20
-8.3438876157
 30
0.0
 10
19.9147813811
 20
-8.369099558
 30
0.0
 10
19.9126851844
 20
-8.3880984993
 30
0.0
 10
19.9102961429
 20
-8.4000581437
 30
0.0
 10
19.9088573339
 20
-8.406539432
 30
0.0
 10
19.9074104845
 20
-8.4079874183
 30
0.0
 11
19.9554316942
 21
-5.6084138718
 31
0.0
 11
19.9545137028
 21
-6.1485465084
 31
0.0
 11
19.9517935331
 21
-6.6684843649
 31
0.0
 11
19.9473724449
 21
-7.1486762849
 31
0.0
 11
19.9445732734
 21
-7.3681376664
 31
0.0
 11
19.941415789
 21
-7.571032982
 31
0.0
 11
19.9379297005
 21
-7.7554216894
 31
0.0
 11
19.9341483827
 21
-7.9195696628
 31
0.0
 11
19.930107564
 21
-8.0619219351
 31
0.0
 11
19.9258454312
 21
-8.1811460229
 31
0.0
 11
19.9236438709
 21
-8.2317316614
 31
0.0
 11
19.921402164
 21
-8.2761326426
 31
0.0
 11
19.9191256413
 21
-8.3142495225
 31
0.0
 11
19.916819716
 21
-8.3459940074
 31
0.0
 11
19.9144897681
 21
-8.3712895978
 31
0.0
 11
19.912141117
 21
-8.3900811842
 31
0.0
 11
19.9097792688
 21
-8.4023218028
 31
0.0
 11
19.9074104845
 21
-8.4079874183
 31
0.0
  0
SPLINE
  5
3AF
100
AcDbEntity
  8
RACCORDO
100
AcDbSpline
 62
253
  6
CONTINUOUS
 70
0
 71
3
 72
24
 73
20
 74
18
 42
0.0000001
 43
0.0000001
 44
0.0000000001
 12
-1.9798687919
 22
1.9814343465
 32
0.0
 13
-0.0000006322
 23
2.8010645302
 33
0.0
 40
0.0
 40
0.0
 40
0.0
 40
0.0
 40
0.0021923352
 40
0.0066429247
 40
0.0134038527
 40
0.0224727905
 40
0.0338356592
 40
0.0474679032
 40
0.0633395577
 40
0.0814160864
 40
0.1240071268
 40
0.1748483729
 40
0.2334659155
 40
0.2993057623
 40
0.3717496067
 40
0.4501052566
 40
0.6215444604
 40
0.8071685199
 40
1.0
 40
1.0
 40
1.0
 40
1.0
 10
-20.286423027
 20
-8.4079874183
 30
0.0
 10
-20.2878698724
 20
-8.4065394288
 30
0.0
 10
-20.2893086888
 20
-8.4000581521
 30
0.0
 10
-20.2916977267
 20
-8.3880985042
 30
0.0
 10
-20.2937939242
 20
-8.3690995625
 30
0.0
 10
-20.2961049394
 20
-8.3438876124
 30
0.0
 10
-20.2983421653
 20
-8.3121318433
 30
0.0
 10
-20.3005915595
 20
-8.2740507452
 30
0.0
 10
-20.3028056649
 20
-8.2296768612
 30
0.0
 10
-20.305886158
 20
-8.1582805213
 30
0.0
 10
-20.3095140179
 20
-8.054226874
 30
0.0
 10
-20.3134780192
 20
-7.9123147887
 30
0.0
 10
-20.3171991775
 20
-7.7486821047
 30
0.0
 10
-20.3206398642
 20
-7.564869611
 30
0.0
 10
-20.3237610967
 20
-7.3626197776
 30
0.0
 10
-20.327569437
 20
-7.0617731196
 30
0.0
 10
-20.331221049
 20
-6.6552425811
 30
0.0
 10
-20.3338552101
 20
-6.1418181401
 30
0.0
 10
-20.3344441961
 20
-5.7884583449
 30
0.0
 10
-20.3344442367
 20
-5.6084138718
 30
0.0
 11
-20.286423027
 21
-8.4079874183
 31
0.0
 11
-20.2887918114
 21
-8.4023218049
 31
0.0
 11
-20.2911536596
 21
-8.3900811958
 31
0.0
 11
-20.2935023107
 21
-8.3712896035
 31
0.0
 11
-20.2958322584
 21
-8.3459940011
 31
0.0
 11
-20.2981381838
 21
-8.3142495139
 31
0.0
 11
-20.3004147065
 21
-8.2761326407
 31
0.0
 11
-20.3026564134
 21
-8.2317316657
 31
0.0
 11
-20.3048579737
 21
-8.1811460273
 31
0.0
 11
-20.3091201066
 21
-8.0619219336
 31
0.0
 11
-20.3131609252
 21
-7.9195696624
 31
0.0
 11
-20.3169422431
 21
-7.7554216905
 31
0.0
 11
-20.3204283315
 21
-7.5710329824
 31
0.0
 11
-20.3235858159
 21
-7.3681376663
 31
0.0
 11
-20.3263849874
 21
-7.1486762855
 31
0.0
 11
-20.3308060755
 21
-6.6684843643
 31
0.0
 11
-20.3335262454
 21
-6.1485465109
 31
0.0
 11
-20.3344442367
 21
-5.6084138718
 31
0.0
  0
SPLINE
  5
3B0
100
AcDbEntity
  8
RACCORDO
100
AcDbSpline
 62
253
  6
CONTINUOUS
 70
0
 71
3
 72
24
 73
20
 74
18
 42
0.0000001
 43
0.0000001
 44
0.0000000001
 12
0.0000006383
 22
2.80106453
 32
0.0
 13
1.9798737521
 23
1.9814293898
 33
0.0
 40
0.0
 40
0.0
 40
0.0
 40
0.0
 40
0.1928314792
 40
0.3784555398
 40
0.5498947433
 40
0.6282503933
 40
0.7006942376
 40
0.7665340842
 40
0.8251516273
 40
0.8759928738
 40
0.9185839121
 40
0.9366604408
 40
0.9525320975
 40
0.9661643439
 40
0.9775272118
 40
0.9865961454
 40
0.9933570713
 40
0.9978076641
 40
1.0
 40
1.0
 40
1.0
 40
1.0
 10
-20.3344442367
 20
4.1986664457
 30
0.0
 10
-20.3344441957
 20
4.3787109179
 30
0.0
 10
-20.33385521
 20
4.7320707134
 30
0.0
 10
-20.3312210491
 20
5.2454951541
 30
0.0
 10
-20.3275694369
 20
5.6520256934
 30
0.0
 10
-20.3237610967
 20
5.9528723511
 30
0.0
 10
-20.3206398642
 20
6.1551221844
 30
0.0
 10
-20.3171991775
 20
6.3389346782
 30
0.0
 10
-20.3134780192
 20
6.5025673628
 30
0.0
 10
-20.3095140181
 20
6.644479447
 30
0.0
 10
-20.305886158
 20
6.7485330928
 30
0.0
 10
-20.3028056647
 20
6.8199294328
 30
0.0
 10
-20.3005915594
 20
6.8643033212
 30
0.0
 10
-20.2983421655
 20
6.9023844227
 30
0.0
 10
-20.2961049401
 20
6.9341401896
 30
0.0
 10
-20.2937939236
 20
6.9593521319
 30
0.0
 10
-20.2916977269
 20
6.9783510732
 30
0.0
 10
-20.2893086854
 20
6.9903107176
 30
0.0
 10
-20.2878698765
 20
6.9967920059
 30
0.0
 10
-20.286423027
 20
6.9982399921
 30
0.0
 11
-20.3344442367
 21
4.1986664457
 31
0.0
 11
-20.3335262453
 21
4.7387990823
 31
0.0
 11
-20.3308060756
 21
5.2587369388
 31
0.0
 11
-20.3263849874
 21
5.7389288587
 31
0.0
 11
-20.3235858159
 21
5.9583902403
 31
0.0
 11
-20.3204283315
 21
6.1612855559
 31
0.0
 11
-20.3169422431
 21
6.3456742633
 31
0.0
 11
-20.3131609252
 21
6.5098222367
 31
0.0
 11
-20.3091201066
 21
6.6521745089
 31
0.0
 11
-20.3048579737
 21
6.7713985968
 31
0.0
 11
-20.3026564134
 21
6.8219842352
 31
0.0
 11
-20.3004147065
 21
6.8663852165
 31
0.0
 11
-20.2981381838
 21
6.9045020964
 31
0.0
 11
-20.2958322585
 21
6.9362465812
 31
0.0
 11
-20.2935023107
 21
6.9615421716
 31
0.0
 11
-20.2911536596
 21
6.9803337581
 31
0.0
 11
-20.2887918114
 21
6.9925743767
 31
0.0
 11
-20.286423027
 21
6.9982399921
 31
0.0
  0
SPLINE
  5
3B1
100
AcDbEntity
  8
RACCORDO
100
AcDbSpline
 62
253
  6
CONTINUOUS
 70
0
 71
3
 72
9
 73
5
 74
3
 42
0.0000001
 43
0.0000001
 44
0.0000000001
 12
-0.1542080138
 22
-0.4691595872
 32
0.0
 13
-0.1631230068
 23
-0.4661348672
 33
0.0
 40
0.0
 40
0.0
 40
0.0
 40
0.0
 40
0.2506056604
 40
1.0
 40
1.0
 40
1.0
 40
1.0
 10
13.9869209041
 20
-19.0562771691
 30
0.0
 10
13.9740391037
 20
-19.0954685185
 30
0.0
 10
13.9225565491
 20
-19.2518272929
 30
0.0
 10
13.870267224
 20
-19.407932226
 30
0.0
 10
13.8295194047
 20
-19.5243718363
 30
0.0
 11
13.9869209041
 21
-19.0562771691
 31
0.0
 11
13.9481847968
 21
-19.1738213643
 31
0.0
 11
13.8295194047
 21
-19.5243718363
 31
0.0
  0
SPLINE
  5
3B2
100
AcDbEntity
  8
RACCORDO
100
AcDbSpline
 62
253
  6
CONTINUOUS
 70
0
 71
3
 72
10
 73
6
 74
4
 42
0.0000001
 43
0.0000001
 44
0.0000000001
 12
-0.2583064817
 22
-0.7380779579
 32
0.0
 13
-0.3942737292
 23
-0.6752995905
 33
0.0
 40
0.0
 40
0.0
 40
0.0
 40
0.0
 40
0.5041601303
 40
0.7531147463
 40
1.0
 40
1.0
 40
1.0
 40
1.0
 10
13.8295213067
 20
-19.5243721017
 30
0.0
 10
13.7861120302
 20
-19.6484085949
 30
0.0
 10
13.7188548442
 20
-19.8329746981
 30
0.0
 10
13.615762398
 20
-20.0724459839
 30
0.0
 10
13.5569924896
 20
-20.187792945
 30
0.0
 10
13.5245456997
 20
-20.2433667819
 30
0.0
 11
13.8295213067
 21
-19.5243721017
 31
0.0
 11
13.6914104604
 21
-19.8936283087
 31
0.0
 11
13.6136199194
 21
-20.0720863303
 31
0.0
 11
13.5245456997
 21
-20.2433667819
 31
0.0
  0
SPLINE
  5
3B3
100
AcDbEntity
  8
RACCORDO
100
AcDbSpline
 62
253
  6
CONTINUOUS
 70
0
 71
3
 72
9
 73
5
 74
3
 42
0.0000001
 43
0.0000001
 44
0.0000000001
 12
0.1541989042
 22
0.4691625274
 32
0.0
 13
0.1631413375
 23
0.4661283977
 33
0.0
 40
0.0
 40
0.0
 40
0.0
 40
0.0
 40
0.2505929188
 40
1.0
 40
1.0
 40
1.0
 40
1.0
 10
14.6340665533
 20
17.646529743
 30
0.0
 10
14.6469469378
 20
17.6857193454
 30
0.0
 10
14.6984327549
 20
17.842077012
 30
0.0
 10
14.7507147003
 20
17.9981844726
 30
0.0
 10
14.7914677914
 20
18.1146244466
 30
0.0
 11
14.6340665533
 21
17.646529743
 31
0.0
 11
14.6728008945
 21
17.7640678813
 31
0.0
 11
14.7914677914
 21
18.1146244466
 31
0.0
  0
SPLINE
  5
3B4
100
AcDbEntity
  8
RACCORDO
100
AcDbSpline
 62
253
  6
CONTINUOUS
 70
0
 71
3
 72
10
 73
6
 74
4
 42
0.0000001
 43
0.0000001
 44
0.0000000001
 12
0.3942741817
 22
-0.6752954513
 32
0.0
 13
0.2583113462
 23
-0.7380727101
 33
0.0
 40
0.0
 40
0.0
 40
0.0
 40
0.0
 40
0.2468853577
 40
0.4958390512
 40
1.0
 40
1.0
 40
1.0
 40
1.0
 10
13.5245465629
 20
18.8336183937
 30
0.0
 10
13.5569934037
 20
18.778044874
 30
0.0
 10
13.6157603992
 20
18.6626973169
 30
0.0
 10
13.7188579399
 20
18.4232295147
 30
0.0
 10
13.7861104679
 20
18.2386624754
 30
0.0
 10
13.8295206323
 20
18.1146266628
 30
0.0
 11
13.5245465629
 21
18.8336183937
 31
0.0
 11
13.6136193737
 21
18.6623380489
 31
0.0
 11
13.6914111575
 21
18.4838822648
 31
0.0
 11
13.8295206323
 21
18.1146266628
 31
0.0
  0
SPLINE
  5
3B5
100
AcDbEntity
  8
RACCORDO
100
AcDbSpline
 62
253
  6
CONTINUOUS
 70
0
 71
3
 72
10
 73
6
 74
4
 42
0.0000001
 43
0.0000001
 44
0.0000000001
 12
0.2583064817
 22
0.7380779579
 32
0.0
 13
0.3942737292
 23
0.6752995905
 33
0.0
 40
0.0
 40
0.0
 40
0.0
 40
0.0
 40
0.5041601303
 40
0.7531147463
 40
1.0
 40
1.0
 40
1.0
 40
1.0
 10
14.7914661508
 20
18.1146246756
 30
0.0
 10
14.8348754273
 20
18.2386611687
 30
0.0
 10
14.9021326132
 20
18.423227272
 30
0.0
 10
15.0052250595
 20
18.6626985577
 30
0.0
 10
15.0639949679
 20
18.7780455188
 30
0.0
 10
15.0964417578
 20
18.8336193557
 30
0.0
 11
14.7914661508
 21
18.1146246756
 31
0.0
 11
14.9295769971
 21
18.4838808826
 31
0.0
 11
15.007367538
 21
18.6623389042
 31
0.0
 11
15.0964417578
 21
18.8336193557
 31
0.0
  0
SPLINE
  5
3B6
100
AcDbEntity
  8
RACCORDO
100
AcDbSpline
 62
253
  6
CONTINUOUS
 70
0
 71
3
 72
8
 73
4
 74
2
 42
0.0000001
 43
0.0000001
 44
0.0000000001
 12
-0.0436426254
 22
0.4836276561
 32
0.0
 13
-0.067104356
 23
0.4809338768
 33
0.0
 40
0.0
 40
0.0
 40
0.0
 40
0.0
 40
1.0
 40
1.0
 40
1.0
 40
1.0
 10
13.9869205609
 20
17.6465333373
 30
0.0
 10
13.9723730192
 20
17.807742556
 30
0.0
 10
13.9574745822
 20
17.9690425995
 30
0.0
 10
13.9351064636
 20
18.1293538918
 30
0.0
 11
13.9869205609
 21
17.6465333373
 31
0.0
 11
13.9351064636
 21
18.1293538918
 31
0.0
  0
SPLINE
  5
3B7
100
AcDbEntity
  8
RACCORDO
100
AcDbSpline
 62
253
  6
CONTINUOUS
 70
0
 71
3
 72
9
 73
5
 74
3
 42
0.0000001
 43
0.0000001
 44
0.0000000001
 12
0.1631485205
 22
-0.4661306568
 32
0.0
 13
0.1541785377
 23
-0.4691739628
 33
0.0
 40
0.0
 40
0.0
 40
0.0
 40
0.0
 40
0.2491476482
 40
1.0
 40
1.0
 40
1.0
 40
1.0
 10
13.829518729
 20
18.1146263971
 30
0.0
 10
13.8430680857
 20
18.0759146115
 30
0.0
 10
13.8967270805
 20
17.920283937
 30
0.0
 10
13.9483324649
 20
17.7639565341
 30
0.0
 10
13.9869209041
 20
17.646529743
 30
0.0
 11
13.829518729
 21
18.1146263971
 31
0.0
 11
13.8696786334
 21
17.9983213293
 31
0.0
 11
13.9869209041
 21
17.646529743
 31
0.0
  0
SPLINE
  5
3B8
100
AcDbEntity
  8
RACCORDO
100
AcDbSpline
 62
253
  6
CONTINUOUS
 70
0
 71
3
 72
9
 73
5
 74
3
 42
0.0000001
 43
0.0000001
 44
0.0000000001
 12
0.1163965196
 22
-0.8340941356
 32
0.0
 13
0.4208776577
 23
-0.7294677334
 33
0.0
 40
0.0
 40
0.0
 40
0.0
 40
0.0
 40
0.5004234355
 40
1.0
 40
1.0
 40
1.0
 40
1.0
 10
14.6858809709
 20
-19.5391012781
 30
0.0
 10
14.7052968196
 20
-19.6782346957
 30
0.0
 10
14.7549676776
 20
-19.9547583539
 30
0.0
 10
14.8531750761
 20
-20.2218611009
 30
0.0
 10
14.9232619475
 20
-20.3433360956
 30
0.0
 11
14.6858809709
 21
-19.5391012781
 31
0.0
 11
14.7671644383
 21
-19.9526333151
 31
0.0
 11
14.9232619475
 21
-20.3433360956
 31
0.0
  0
SPLINE
  5
3B9
100
AcDbEntity
  8
RACCORDO
100
AcDbSpline
 62
7
  6
CONTINUOUS
 70
0
 71
3
 72
13
 73
9
 74
7
 42
0.0000001
 43
0.0000001
 44
0.0000000001
 12
-0.6130751096
 22
1.0618772386
 32
0.0
 13
-0.0235505014
 23
1.2259240326
 33
0.0
 40
0.0
 40
0.0
 40
0.0
 40
0.0
 40
0.2758478409
 40
0.5430135859
 40
0.6699486038
 40
0.7899788779
 40
0.900751931
 40
1.0
 40
1.0
 40
1.0
 40
1.0
 10
-3.5236069904
 20
17.646529743
 30
0.0
 10
-3.5799788055
 20
17.7441685908
 30
0.0
 10
-3.6909346528
 20
17.9363633601
 30
0.0
 10
-3.8219186877
 20
18.1769658056
 30
0.0
 10
-3.9126928093
 20
18.36654
 30
0.0
 10
-3.9685614774
 20
18.5018125827
 30
0.0
 10
-4.0091045405
 20
18.6306299852
 30
0.0
 10
-4.0227517241
 20
18.7161401845
 30
0.0
 10
-4.023530838
 20
18.7566970488
 30
0.0
 11
-3.5236069904
 21
17.646529743
 31
0.0
 11
-3.6914727695
 21
17.9401642361
 31
0.0
 11
-3.8459026227
 21
18.2290648649
 31
0.0
 11
-3.9125818467
 21
18.369699592
 31
0.0
 11
-3.9679264586
 21
18.5060722352
 31
0.0
 11
-4.0071398151
 21
18.6361129258
 31
0.0
 11
-4.023530838
 21
18.7566970488
 31
0.0
  0
SPLINE
  5
3BA
100
AcDbEntity
  8
RACCORDO
100
AcDbSpline
 62
253
  6
CONTINUOUS
 70
0
 71
3
 72
9
 73
5
 74
3
 42
0.0000001
 43
0.0000001
 44
0.0000000001
 12
0.4208792763
 22
0.7294767162
 32
0.0
 13
0.1164005276
 23
0.8341022491
 33
0.0
 40
0.0
 40
0.0
 40
0.0
 40
0.0
 40
0.4995776211
 40
1.0
 40
1.0
 40
1.0
 40
1.0
 10
13.6977222422
 20
-20.3433417555
 30
0.0
 10
13.7678095314
 20
-20.2218650079
 30
0.0
 10
13.8660186162
 20
-19.9547600175
 30
0.0
 10
13.9156911979
 20
-19.6782336983
 30
0.0
 10
13.9351076742
 20
-19.5390992211
 30
0.0
 11
13.6977222422
 21
-20.3433417555
 31
0.0
 11
13.8538220197
 21
-19.952634302
 31
0.0
 11
13.9351076742
 21
-19.5390992211
 31
0.0
  0
SPLINE
  5
3BB
100
AcDbEntity
  8
RACCORDO
100
AcDbSpline
 62
7
  6
CONTINUOUS
 70
0
 71
3
 72
13
 73
9
 74
7
 42
0.0000001
 43
0.0000001
 44
0.0000000001
 12
-0.0235505001
 22
-1.2259239629
 32
0.0
 13
-0.6130750747
 23
-1.0618771782
 33
0.0
 40
0.0
 40
0.0
 40
0.0
 40
0.0
 40
0.0992554799
 40
0.2100356037
 40
0.3300640293
 40
0.4569976937
 40
0.7241623313
 40
1.0
 40
1.0
 40
1.0
 40
1.0
 10
3.6445182955
 20
18.7566970488
 30
0.0
 10
3.6437391234
 20
18.7161371584
 30
0.0
 10
3.6300891476
 20
18.6306213167
 30
0.0
 10
3.5895450163
 20
18.5017989225
 30
0.0
 10
3.533673368
 20
18.3665258062
 30
0.0
 10
3.4428998952
 20
18.1769533371
 30
0.0
 10
3.3119176185
 20
17.9363557903
 30
0.0
 10
3.200964181
 20
17.7441649848
 30
0.0
 10
3.1445944479
 20
17.646529743
 30
0.0
 11
3.6445182955
 21
18.7566970488
 31
0.0
 11
3.6281247657
 21
18.636104103
 31
0.0
 11
3.5889082711
 21
18.5060553115
 31
0.0
 11
3.5335629245
 21
18.3696854217
 31
0.0
 11
3.4668838813
 21
18.2290524552
 31
0.0
 11
3.3124541227
 21
17.9401533367
 31
0.0
 11
3.1445944479
 21
17.646529743
 31
0.0
  0
SPLINE
  5
3BC
100
AcDbEntity
  8
RACCORDO
100
AcDbSpline
 62
7
  6
CONTINUOUS
 70
0
 71
3
 72
13
 73
9
 74
7
 42
0.0000001
 43
0.0000001
 44
0.0000000001
 12
-1.0618772386
 22
-0.6130751096
 32
0.0
 13
-1.2259240326
 23
-0.0235505014
 33
0.0
 40
0.0
 40
0.0
 40
0.0
 40
0.0
 40
0.2758478409
 40
0.5430135859
 40
0.6699486038
 40
0.7899788779
 40
0.900751931
 40
1.0
 40
1.0
 40
1.0
 40
1.0
 10
-18.5409097273
 20
-17.0389744322
 30
0.0
 10
-18.6385485752
 20
-17.0953462473
 30
0.0
 10
-18.8307433445
 20
-17.2063020946
 30
0.0
 10
-19.0713457899
 20
-17.3372861295
 30
0.0
 10
-19.2609199843
 20
-17.4280602511
 30
0.0
 10
-19.396192567
 20
-17.4839289191
 30
0.0
 10
-19.5250099695
 20
-17.5244719823
 30
0.0
 10
-19.6105201688
 20
-17.5381191659
 30
0.0
 10
-19.6510770331
 20
-17.5388982798
 30
0.0
 11
-18.5409097273
 21
-17.0389744322
 31
0.0
 11
-18.8345442204
 21
-17.2068402113
 31
0.0
 11
-19.1234448492
 21
-17.3612700645
 31
0.0
 11
-19.2640795764
 21
-17.4279492884
 31
0.0
 11
-19.4004522196
 21
-17.4832939004
 31
0.0
 11
-19.5304929101
 21
-17.5225072569
 31
0.0
 11
-19.6510770331
 21
-17.5388982798
 31
0.0
  0
SPLINE
  5
3BD
100
AcDbEntity
  8
RACCORDO
100
AcDbSpline
 62
7
  6
CONTINUOUS
 70
0
 71
3
 72
13
 73
9
 74
7
 42
0.0000001
 43
0.0000001
 44
0.0000000001
 12
1.2259239629
 22
-0.0235505001
 32
0.0
 13
1.0618771782
 23
-0.6130750747
 33
0.0
 40
0.0
 40
0.0
 40
0.0
 40
0.0
 40
0.0992554799
 40
0.2100356037
 40
0.3300640293
 40
0.4569976937
 40
0.7241623313
 40
1.0
 40
1.0
 40
1.0
 40
1.0
 10
-19.6510770331
 20
-9.8708491463
 30
0.0
 10
-19.6105171427
 20
-9.8716283184
 30
0.0
 10
-19.5250013011
 20
-9.8852782942
 30
0.0
 10
-19.3961789068
 20
-9.9258224255
 30
0.0
 10
-19.2609057905
 20
-9.9816940738
 30
0.0
 10
-19.0713333214
 20
-10.0724675466
 30
0.0
 10
-18.8307357746
 20
-10.2034498233
 30
0.0
 10
-18.6385449691
 20
-10.3144032608
 30
0.0
 10
-18.5409097273
 20
-10.3707729939
 30
0.0
 11
-19.6510770331
 21
-9.8708491463
 31
0.0
 11
-19.5304840874
 21
-9.8872426761
 31
0.0
 11
-19.4004352958
 21
-9.9264591707
 31
0.0
 11
-19.264065406
 21
-9.9818045173
 31
0.0
 11
-19.1234324395
 21
-10.0484835605
 31
0.0
 11
-18.834533321
 21
-10.2029133191
 31
0.0
 11
-18.5409097273
 21
-10.3707729939
 31
0.0
  0
SPLINE
  5
3BE
100
AcDbEntity
  8
RACCORDO
100
AcDbSpline
 62
253
  6
CONTINUOUS
 70
0
 71
3
 72
22
 73
18
 74
16
 42
0.0000001
 43
0.0000001
 44
0.0000000001
 12
-0.9918249071
 22
-1.5157868655
 32
0.0
 13
-1.6133579385
 23
-0.8236520081
 33
0.0
 40
0.0
 40
0.0
 40
0.0
 40
0.0
 40
0.1770018793
 40
0.3499730357
 40
0.5144634928
 40
0.6654632729
 40
0.7340407291
 40
0.7968764961
 40
0.8530183312
 40
0.901485445
 40
0.94127516
 40
0.9576195766
 40
0.9714516904
 40
0.9826655452
 40
0.9911854033
 40
0.9969680781
 40
1.0
 40
1.0
 40
1.0
 40
1.0
 10
13.9869115862
 20
-19.0562914667
 30
0.0
 10
13.9283932953
 20
-19.1457238413
 30
0.0
 10
13.8124378536
 20
-19.3223876346
 30
0.0
 10
13.6412247074
 20
-19.5815861206
 30
0.0
 10
13.4778648169
 20
-19.8271538005
 30
0.0
 10
13.3486687507
 20
-20.0197388675
 30
0.0
 10
13.2530883555
 20
-20.1609595258
 30
0.0
 10
13.1893017723
 20
-20.2545357574
 30
0.0
 10
13.1320061163
 20
-20.3378405872
 30
0.0
 10
13.0821881206
 20
-20.4093959329
 30
0.0
 10
13.0456847855
 20
-20.4609434207
 30
0.0
 10
13.0208922817
 20
-20.495146285
 30
0.0
 10
13.0060369371
 20
-20.515254923
 30
0.0
 10
12.9937489508
 20
-20.5313462759
 30
0.0
 10
12.9841761907
 20
-20.5434883069
 30
0.0
 10
12.9772739026
 20
-20.5512265486
 30
0.0
 10
12.9735393158
 20
-20.5552162956
 30
0.0
 10
12.9719087907
 20
-20.5560487118
 30
0.0
 11
13.9869115862
 21
-19.0562914667
 31
0.0
 11
13.8109705378
 21
-19.3243355067
 31
0.0
 11
13.6382570891
 21
-19.5857626283
 31
0.0
 11
13.4731856942
 21
-19.8338244098
 31
0.0
 11
13.320729609
 21
-20.0609244955
 31
0.0
 11
13.2510859595
 21
-20.1637904553
 31
0.0
 11
13.1869561285
 21
-20.257828407
 31
0.0
 11
13.1292948399
 21
-20.3415995669
 31
0.0
 11
13.079088646
 21
-20.4136229972
 31
0.0
 11
13.0373513841
 21
-20.4723858029
 31
0.0
 11
13.0199616931
 21
-20.4963476904
 31
0.0
 11
13.0050423888
 21
-20.5164778153
 31
0.0
 11
12.9927048862
 21
-20.5326151819
 31
0.0
 11
12.9830324652
 21
-20.5446413674
 31
0.0
 11
12.9760818656
 21
-20.5524781089
 31
0.0
 11
12.9719087907
 21
-20.5560487118
 31
0.0
  0
SPLINE
  5
3BF
100
AcDbEntity
  8
RACCORDO
100
AcDbSpline
 62
253
  6
CONTINUOUS
 70
0
 71
3
 72
22
 73
18
 74
16
 42
0.0000001
 43
0.0000001
 44
0.0000000001
 12
1.6144881709
 22
-0.8214899031
 32
0.0
 13
0.991837187
 23
-1.515808929
 33
0.0
 40
0.0
 40
0.0
 40
0.0
 40
0.0
 40
0.0030263752
 40
0.0088006283
 40
0.0173128992
 40
0.0285213265
 40
0.0423444682
 40
0.0586794693
 40
0.0984603165
 40
0.1469235491
 40
0.2030665365
 40
0.2659070893
 40
0.3344906532
 40
0.4855096743
 40
0.6500220869
 40
0.8229987931
 40
1.0
 40
1.0
 40
1.0
 40
1.0
 10
12.9718940201
 20
19.1463040984
 30
0.0
 10
12.9735227025
 20
19.1454753862
 30
0.0
 10
12.9772545823
 20
19.1414940969
 30
0.0
 10
12.9841512764
 20
19.1337684379
 30
0.0
 10
12.9937188388
 20
19.1216382654
 30
0.0
 10
13.0060000839
 20
19.1055582107
 30
0.0
 10
13.0208480115
 20
19.0854615004
 30
0.0
 10
13.0456314313
 20
19.0512716653
 30
0.0
 10
13.0821270546
 20
18.999734032
 30
0.0
 10
13.1319436364
 20
18.9281847666
 30
0.0
 10
13.1892413129
 20
18.8448781057
 30
0.0
 10
13.2530332638
 20
18.7512948263
 30
0.0
 10
13.3486252682
 20
18.6100571893
 30
0.0
 10
13.4778389817
 20
18.4174456827
 30
0.0
 10
13.6412163624
 20
18.1718508108
 30
0.0
 10
13.8124409961
 20
17.9126353195
 30
0.0
 10
13.9283997678
 20
17.735966674
 30
0.0
 10
13.9869185608
 20
17.6465333373
 30
0.0
 11
12.9718940201
 21
19.1463040984
 31
0.0
 11
12.9760626158
 21
19.1427436011
 31
0.0
 11
12.9830066998
 21
19.134921279
 31
0.0
 11
12.992673434
 21
19.1229078825
 31
0.0
 11
13.0050066869
 21
19.1067792875
 31
0.0
 11
13.0199174121
 21
19.0866626004
 31
0.0
 11
13.0372976266
 21
19.062714401
 31
0.0
 11
13.0790261767
 21
19.0039638819
 31
0.0
 11
13.1292302686
 21
18.9319460686
 31
0.0
 11
13.1868943449
 21
18.8481725768
 31
0.0
 11
13.2510303223
 21
18.7541264077
 31
0.0
 11
13.3206812569
 21
18.6512499334
 31
0.0
 11
13.4731588157
 21
18.4241177026
 31
0.0
 11
13.638254268
 21
18.1760191811
 31
0.0
 11
13.8109757183
 21
17.9145800753
 31
0.0
 11
13.9869185608
 21
17.6465333373
 31
0.0
  0
SPLINE
  5
3C0
100
AcDbEntity
  8
RACCORDO
100
AcDbSpline
 62
253
  6
CONTINUOUS
 70
0
 71
3
 72
22
 73
18
 74
16
 42
0.0000001
 43
0.0000001
 44
0.0000000001
 12
-1.6134683112
 22
0.8234645156
 32
0.0
 13
-0.9918305372
 23
1.5157987944
 33
0.0
 40
0.0
 40
0.0
 40
0.0
 40
0.0
 40
0.0030290448
 40
0.0088073879
 40
0.017324211
 40
0.0285368298
 40
0.0423635434
 40
0.058701577
 40
0.0984871405
 40
0.1469532813
 40
0.2030975275
 40
0.2659377589
 40
0.3345198261
 40
0.4855333614
 40
0.6500384007
 40
0.8230076939
 40
1.0
 40
1.0
 40
1.0
 40
1.0
 10
15.6490786667
 20
-20.5560487118
 30
0.0
 10
15.6474495775
 20
-20.5552172749
 30
0.0
 10
15.6437173244
 20
-20.5512314575
 30
0.0
 10
15.6368187493
 20
-20.5434979669
 30
0.0
 10
15.6272489247
 20
-20.5313601185
 30
0.0
 10
15.6149644835
 20
-20.5152732188
 30
0.0
 10
15.6001131365
 20
-20.4951711845
 30
0.0
 10
15.5753256587
 20
-20.4609761784
 30
0.0
 10
15.5388264433
 20
-20.4094337307
 30
0.0
 10
15.4890076234
 20
-20.3378801928
 30
0.0
 10
15.4317093312
 20
-20.2545719609
 30
0.0
 10
15.3679182341
 20
-20.1609894247
 30
0.0
 10
15.2723296097
 20
-20.019756204
 30
0.0
 10
15.1431217811
 20
-19.8271530568
 30
0.0
 10
14.979752368
 20
-19.5815699573
 30
0.0
 10
14.8085368333
 20
-19.3223680884
 30
0.0
 10
14.6925842522
 20
-19.1457088541
 30
0.0
 10
14.6340687942
 20
-19.0562806127
 30
0.0
 11
15.6490786667
 21
-20.5560487118
 31
0.0
 11
15.6449090045
 21
-20.552482076
 31
0.0
 11
15.6379630187
 21
-20.5446516299
 31
0.0
 11
15.6282937211
 21
-20.5326298447
 31
0.0
 11
15.6159574259
 21
-20.5164941888
 31
0.0
 11
15.6010434493
 21
-20.4963720665
 31
0.0
 11
15.5836600906
 21
-20.4724196063
 31
0.0
 11
15.5419267713
 21
-20.4136625869
 31
0.0
 11
15.4917203486
 21
-20.3416406927
 31
0.0
 11
15.4340557155
 21
-20.2578656422
 31
0.0
 11
15.3699207461
 21
-20.1638204125
 31
0.0
 11
15.3002719953
 21
-20.0609467374
 31
0.0
 11
15.1478012476
 21
-19.833824108
 31
0.0
 11
14.9827144171
 21
-19.585738288
 31
0.0
 11
14.8100015913
 21
-19.3243120914
 31
0.0
 11
14.6340687942
 21
-19.0562806127
 31
0.0
  0
SPLINE
  5
3C1
100
AcDbEntity
  8
RACCORDO
100
AcDbSpline
 62
253
  6
CONTINUOUS
 70
0
 71
3
 72
22
 73
18
 74
16
 42
0.0000001
 43
0.0000001
 44
0.0000000001
 12
0.9918249071
 22
1.5157868655
 32
0.0
 13
1.6133579385
 23
0.8236520081
 33
0.0
 40
0.0
 40
0.0
 40
0.0
 40
0.0
 40
0.1770018793
 40
0.3499730357
 40
0.5144634928
 40
0.6654632729
 40
0.7340407291
 40
0.7968764961
 40
0.8530183312
 40
0.901485445
 40
0.94127516
 40
0.9576195766
 40
0.9714516904
 40
0.9826655452
 40
0.9911854033
 40
0.9969680781
 40
1.0
 40
1.0
 40
1.0
 40
1.0
 10
14.6340758713
 20
17.6465440405
 30
0.0
 10
14.6925941621
 20
17.7359764152
 30
0.0
 10
14.8085496038
 20
17.9126402084
 30
0.0
 10
14.97976275
 20
18.1718386945
 30
0.0
 10
15.1431226406
 20
18.4174063744
 30
0.0
 10
15.2723187067
 20
18.6099914414
 30
0.0
 10
15.367899102
 20
18.7512120997
 30
0.0
 10
15.4316856852
 20
18.8447883313
 30
0.0
 10
15.4889813412
 20
18.9280931611
 30
0.0
 10
15.5387993369
 20
18.9996485067
 30
0.0
 10
15.575302672
 20
19.0511959946
 30
0.0
 10
15.6000951757
 20
19.0853988589
 30
0.0
 10
15.6149505203
 20
19.1055074968
 30
0.0
 10
15.6272385067
 20
19.1215988498
 30
0.0
 10
15.6368112667
 20
19.1337408808
 30
0.0
 10
15.6437135549
 20
19.1414791225
 30
0.0
 10
15.6474481417
 20
19.1454688695
 30
0.0
 10
15.6490786667
 20
19.1463012857
 30
0.0
 11
14.6340758713
 21
17.6465440405
 31
0.0
 11
14.8100169197
 21
17.9145880806
 31
0.0
 11
14.9827303684
 21
18.1760152022
 31
0.0
 11
15.1478017632
 21
18.4240769837
 31
0.0
 11
15.3002578485
 21
18.6511770694
 31
0.0
 11
15.369901498
 21
18.7540430292
 31
0.0
 11
15.434031329
 21
18.8480809809
 31
0.0
 11
15.4916926176
 21
18.9318521408
 31
0.0
 11
15.5418988115
 21
19.0038755711
 31
0.0
 11
15.5836360733
 21
19.0626383767
 31
0.0
 11
15.6010257644
 21
19.0866002643
 31
0.0
 11
15.6159450686
 21
19.1067303892
 31
0.0
 11
15.6282825713
 21
19.1228677558
 31
0.0
 11
15.6379549923
 21
19.1348939413
 31
0.0
 11
15.6449055919
 21
19.1427306828
 31
0.0
 11
15.6490786667
 21
19.1463012857
 31
0.0
  0
SPLINE
  5
3C2
100
AcDbEntity
  8
RACCORDO
100
AcDbSpline
 62
253
  6
CONTINUOUS
 70
0
 71
3
 72
9
 73
5
 74
3
 42
0.0000001
 43
0.0000001
 44
0.0000000001
 12
-0.4208792763
 22
-0.7294767162
 32
0.0
 13
-0.1164005276
 23
-0.8341022491
 33
0.0
 40
0.0
 40
0.0
 40
0.0
 40
0.0
 40
0.4995776211
 40
1.0
 40
1.0
 40
1.0
 40
1.0
 10
14.9232652152
 20
18.9335943293
 30
0.0
 10
14.853177926
 20
18.8121175818
 30
0.0
 10
14.7549688413
 20
18.5450125914
 30
0.0
 10
14.7052962596
 20
18.2684862722
 30
0.0
 10
14.6858797833
 20
18.129351795
 30
0.0
 11
14.9232652152
 21
18.9335943293
 31
0.0
 11
14.7671654378
 21
18.5428868759
 31
0.0
 11
14.6858797833
 21
18.129351795
 31
0.0
  0
SPLINE
  5
3C3
100
AcDbEntity
  8
RACCORDO
100
AcDbSpline
 62
253
  6
CONTINUOUS
 70
0
 71
3
 72
9
 73
5
 74
3
 42
0.0000001
 43
0.0000001
 44
0.0000000001
 12
-0.1163964241
 22
0.834093761
 32
0.0
 13
-0.4208772316
 23
0.7294675356
 33
0.0
 40
0.0
 40
0.0
 40
0.0
 40
0.0
 40
0.5004234253
 40
1.0
 40
1.0
 40
1.0
 40
1.0
 10
13.9351064636
 20
18.1293538918
 30
0.0
 10
13.9156906312
 20
18.2684872441
 30
0.0
 10
13.8660198178
 20
18.5450107824
 30
0.0
 10
13.767812484
 20
18.8121134071
 30
0.0
 10
13.6977256821
 20
18.9335883713
 30
0.0
 11
13.9351064636
 21
18.1293538918
 31
0.0
 11
13.8538230636
 21
18.5428857374
 31
0.0
 11
13.6977256821
 21
18.9335883713
 31
0.0
  0
SPLINE
  5
3C4
100
AcDbEntity
  8
RACCORDO
100
AcDbSpline
 62
253
  6
CONTINUOUS
 70
0
 71
3
 72
10
 73
6
 74
4
 42
0.0000001
 43
0.0000001
 44
0.0000000001
 12
-0.3942746423
 22
0.6752954993
 32
0.0
 13
-0.258311516
 23
0.7380729406
 33
0.0
 40
0.0
 40
0.0
 40
0.0
 40
0.0
 40
0.2468853869
 40
0.4958390637
 40
1.0
 40
1.0
 40
1.0
 40
1.0
 10
15.096441013
 20
-20.2433660013
 30
0.0
 10
15.0639941304
 20
-20.1877924711
 30
0.0
 10
15.0052271451
 20
-20.0724448519
 30
0.0
 10
14.9021295313
 20
-19.8329769845
 30
0.0
 10
14.8348769886
 20
-19.6484098839
 30
0.0
 10
14.7914667967
 20
-19.5243740356
 30
0.0
 11
15.096441013
 21
-20.2433660013
 31
0.0
 11
15.0073681536
 21
-20.07208558
 31
0.0
 11
14.9295763368
 21
-19.8936297501
 31
0.0
 11
14.7914667967
 21
-19.5243740356
 31
0.0
  0
SPLINE
  5
3C5
100
AcDbEntity
  8
RACCORDO
100
AcDbSpline
 62
253
  6
CONTINUOUS
 70
0
 71
3
 72
8
 73
4
 74
2
 42
0.0000001
 43
0.0000001
 44
0.0000000001
 12
0.0436600887
 22
-0.4836261907
 32
0.0
 13
0.0670604726
 23
-0.4809401092
 33
0.0
 40
0.0
 40
0.0
 40
0.0
 40
0.0
 40
1.0
 40
1.0
 40
1.0
 40
1.0
 10
14.6340668736
 20
-19.0562806127
 30
0.0
 10
14.6486202365
 20
-19.2174893429
 30
0.0
 10
14.66352748
 20
-19.3787879084
 30
0.0
 10
14.6858809709
 20
-19.5391012781
 30
0.0
 11
14.6340668736
 21
-19.0562806127
 31
0.0
 11
14.6858809709
 21
-19.5391012781
 31
0.0
  0
SPLINE
  5
3C6
100
AcDbEntity
  8
RACCORDO
100
AcDbSpline
 62
253
  6
CONTINUOUS
 70
0
 71
3
 72
9
 73
5
 74
3
 42
0.0000001
 43
0.0000001
 44
0.0000000001
 12
-0.1631302463
 22
0.4661369967
 32
0.0
 13
-0.1541896845
 23
0.4691702443
 33
0.0
 40
0.0
 40
0.0
 40
0.0
 40
0.0
 40
0.2491618808
 40
1.0
 40
1.0
 40
1.0
 40
1.0
 10
14.7914688887
 20
-19.5243737439
 30
0.0
 10
14.7779202757
 20
-19.4856592203
 30
0.0
 10
14.724263677
 20
-19.3300277522
 30
0.0
 10
14.6726570509
 20
-19.1737008037
 30
0.0
 10
14.6340665533
 20
-19.0562771691
 30
0.0
 11
14.7914688887
 21
-19.5243737439
 31
0.0
 11
14.7513091833
 21
-19.4080611851
 31
0.0
 11
14.6340665533
 21
-19.0562771691
 31
0.0
  0
SPLINE
  5
3C7
100
AcDbEntity
  8
RACCORDO
100
AcDbSpline
 62
253
  6
CONTINUOUS
 70
0
 71
3
 72
8
 73
4
 74
2
 42
0.0000001
 43
0.0000001
 44
0.0000000001
 12
0.0670591311
 22
0.4809270981
 32
0.0
 13
0.0436973229
 23
0.4836097028
 33
0.0
 40
0.0
 40
0.0
 40
0.0
 40
0.0
 40
1.0
 40
1.0
 40
1.0
 40
1.0
 10
13.9351076742
 20
-19.5390992211
 30
0.0
 10
13.9574607179
 20
-19.3787901884
 30
0.0
 10
13.9723537998
 20
-19.217494701
 30
0.0
 10
13.9869195741
 20
-19.0562914667
 30
0.0
 11
13.9351076742
 21
-19.5390992211
 31
0.0
 11
13.9869195741
 21
-19.0562914667
 31
0.0
  0
SPLINE
  5
3C8
100
AcDbEntity
  8
RACCORDO
100
AcDbSpline
 62
253
  6
CONTINUOUS
 70
0
 71
3
 72
8
 73
4
 74
2
 42
0.0000001
 43
0.0000001
 44
0.0000000001
 12
-0.0671033263
 22
-0.4809209297
 32
0.0
 13
-0.0436744047
 23
-0.4836117693
 33
0.0
 40
0.0
 40
0.0
 40
0.0
 40
0.0
 40
1.0
 40
1.0
 40
1.0
 40
1.0
 10
14.6858797833
 20
18.129351795
 30
0.0
 10
14.6635120079
 20
17.9690448184
 30
0.0
 10
14.6486260534
 20
17.8077479637
 30
0.0
 10
14.6340679185
 20
17.6465440406
 30
0.0
 11
14.6858797833
 21
18.129351795
 31
0.0
 11
14.6340679185
 21
17.6465440406
 31
0.0
  0
SPLINE
  5
3C9
100
AcDbEntity
  8
RACCORDO
100
AcDbSpline
 62
253
  6
CONTINUOUS
 70
0
 71
3
 72
18
 73
14
 74
12
 42
0.0000001
 43
0.0000001
 44
0.0000000001
 12
0.3682039957
 22
0.6197600559
 32
0.0
 13
0.6227375973
 23
0.3631454175
 33
0.0
 40
0.0
 40
0.0
 40
0.0
 40
0.0
 40
0.2063677325
 40
0.3952481047
 40
0.5636037042
 40
0.7085113394
 40
0.8270761432
 40
0.8756028817
 40
0.9165560725
 40
0.9496528971
 40
0.9746546219
 40
0.9914442594
 40
1.0
 40
1.0
 40
1.0
 40
1.0
 10
15.0964935061
 20
18.8336954403
 30
0.0
 10
15.1218219807
 20
18.8763282661
 30
0.0
 10
15.1704332749
 20
18.9579215974
 30
0.0
 10
15.2401083297
 20
19.074055398
 30
0.0
 10
15.3025857708
 20
19.1772847383
 30
0.0
 10
15.3567846748
 20
19.2657705363
 30
0.0
 10
15.3964142214
 20
19.3294179234
 30
0.0
 10
15.4232695112
 20
19.3715790895
 30
0.0
 10
15.439304987
 20
19.3962997147
 30
0.0
 10
15.4525472655
 20
19.4160438006
 30
0.0
 10
15.4628038247
 20
19.430916931
 30
0.0
 10
15.4702019124
 20
19.4403281118
 30
0.0
 10
15.4741239722
 20
19.4452199349
 30
0.0
 10
15.475899966
 20
19.4462555943
 30
0.0
 11
15.0964935061
 21
18.8336954403
 31
0.0
 11
15.1726524411
 21
18.961490674
 31
0.0
 11
15.242725308
 21
19.0782368648
 31
0.0
 11
15.3056017252
 21
19.1820447115
 31
0.0
 11
15.3602111365
 21
19.2710958176
 31
0.0
 11
15.4054841474
 21
19.3435924961
 31
0.0
 11
15.4242928142
 21
19.3730881197
 31
0.0
 11
15.4403977733
 21
19.3978310637
 31
0.0
 11
15.453691115
 21
19.4176437069
 31
0.0
 11
15.4640778626
 21
19.4323732091
 31
0.0
 11
15.4714985991
 21
19.441934869
 31
0.0
 11
15.475899966
 21
19.4462555943
 31
0.0
  0
SPLINE
  5
3CA
100
AcDbEntity
  8
RACCORDO
100
AcDbSpline
 62
253
  6
CONTINUOUS
 70
0
 71
3
 72
18
 73
14
 74
12
 42
0.0000001
 43
0.0000001
 44
0.0000000001
 12
0.6230155837
 22
-0.3626974512
 32
0.0
 13
0.3682121245
 23
-0.6197722889
 33
0.0
 40
0.0
 40
0.0
 40
0.0
 40
0.0
 40
0.0085485354
 40
0.0253299047
 40
0.0503281162
 40
0.0834183997
 40
0.1243574661
 40
0.1728756063
 40
0.2914362939
 40
0.4363435334
 40
0.6047126672
 40
0.7936183475
 40
1.0
 40
1.0
 40
1.0
 40
1.0
 10
13.1450874915
 20
19.4462555943
 30
0.0
 10
13.1468627818
 20
19.4452220836
 30
0.0
 10
13.1507833163
 20
19.4403329739
 30
0.0
 10
13.1581789605
 20
19.4309258902
 30
0.0
 10
13.1684325335
 20
19.4160553015
 30
0.0
 10
13.1816715937
 20
19.3963155992
 30
0.0
 10
13.1977039948
 20
19.3716006049
 30
0.0
 10
13.2245565741
 20
19.3294441717
 30
0.0
 10
13.2641856177
 20
19.2657983724
 30
0.0
 10
13.3183867516
 20
19.1773089264
 30
0.0
 10
13.3808705771
 20
19.0740697795
 30
0.0
 10
13.4505533929
 20
18.9579226354
 30
0.0
 10
13.4991704199
 20
18.8763194976
 30
0.0
 10
13.5245011621
 20
18.8336829545
 30
0.0
 11
13.1450874915
 21
19.4462555943
 31
0.0
 11
13.1494864567
 21
19.4419396583
 31
0.0
 11
13.1569041254
 21
19.4323828508
 31
0.0
 11
13.1672892241
 21
19.4176548362
 31
0.0
 11
13.180579914
 21
19.3978455077
 31
0.0
 11
13.1966798891
 21
19.3731107522
 31
0.0
 11
13.2154858252
 21
19.3436198944
 31
0.0
 11
13.2607585263
 21
19.2711244705
 31
0.0
 11
13.315369036
 21
19.1820718791
 31
0.0
 11
13.3782519865
 21
19.0782536952
 31
0.0
 11
13.4483355955
 21
18.9614894419
 31
0.0
 11
13.5245011621
 21
18.8336829545
 31
0.0
  0
SPLINE
  5
3CB
100
AcDbEntity
  8
RACCORDO
100
AcDbSpline
 62
253
  6
CONTINUOUS
 70
0
 71
3
 72
18
 73
14
 74
12
 42
0.0000001
 43
0.0000001
 44
0.0000000001
 12
-0.3682039957
 22
-0.6197600559
 32
0.0
 13
-0.6227375973
 23
-0.3631454175
 33
0.0
 40
0.0
 40
0.0
 40
0.0
 40
0.0
 40
0.2063677325
 40
0.3952481047
 40
0.5636037042
 40
0.7085113394
 40
0.8270761432
 40
0.8756028817
 40
0.9165560725
 40
0.9496528971
 40
0.9746546219
 40
0.9914442594
 40
1.0
 40
1.0
 40
1.0
 40
1.0
 10
13.5244939514
 20
-20.2434428664
 30
0.0
 10
13.4991654768
 20
-20.2860756922
 30
0.0
 10
13.4505541826
 20
-20.3676690235
 30
0.0
 10
13.3808791278
 20
-20.4838028242
 30
0.0
 10
13.3184016866
 20
-20.5870321644
 30
0.0
 10
13.2642027826
 20
-20.6755179624
 30
0.0
 10
13.2245732361
 20
-20.7391653496
 30
0.0
 10
13.1977179463
 20
-20.7813265156
 30
0.0
 10
13.1816824704
 20
-20.8060471408
 30
0.0
 10
13.168440192
 20
-20.8257912267
 30
0.0
 10
13.1581836328
 20
-20.8406643571
 30
0.0
 10
13.150785545
 20
-20.850075538
 30
0.0
 10
13.1468634853
 20
-20.8549673611
 30
0.0
 10
13.1450874915
 20
-20.8560030204
 30
0.0
 11
13.5244939514
 21
-20.2434428664
 31
0.0
 11
13.4483350164
 21
-20.3712381001
 31
0.0
 11
13.3782621495
 21
-20.4879842909
 31
0.0
 11
13.3153857322
 21
-20.5917921376
 31
0.0
 11
13.260776321
 21
-20.6808432437
 31
0.0
 11
13.21550331
 21
-20.7533399222
 31
0.0
 11
13.1966946433
 21
-20.7828355459
 31
0.0
 11
13.1805896842
 21
-20.8075784899
 31
0.0
 11
13.1672963425
 21
-20.827391133
 31
0.0
 11
13.1569095949
 21
-20.8421206352
 31
0.0
 11
13.1494888584
 21
-20.8516822951
 31
0.0
 11
13.1450874915
 21
-20.8560030204
 31
0.0
  0
SPLINE
  5
3CC
100
AcDbEntity
  8
RACCORDO
100
AcDbSpline
 62
253
  6
CONTINUOUS
 70
0
 71
3
 72
18
 73
14
 74
12
 42
0.0000001
 43
0.0000001
 44
0.0000000001
 12
-0.6229597725
 22
0.3627841761
 32
0.0
 13
-0.3682099685
 23
0.6197682274
 33
0.0
 40
0.0
 40
0.0
 40
0.0
 40
0.0
 40
0.0085492109
 40
0.0253306569
 40
0.0503285737
 40
0.0834187822
 40
0.1243581134
 40
0.1728765538
 40
0.2914378331
 40
0.4363456139
 40
0.6047146037
 40
0.7936188846
 40
1.0
 40
1.0
 40
1.0
 40
1.0
 10
15.475899966
 20
-20.8560030204
 30
0.0
 10
15.4741246945
 20
-20.8549691809
 30
0.0
 10
15.4702040178
 20
-20.8500802046
 30
0.0
 10
15.4628083721
 20
-20.8406729246
 30
0.0
 10
15.4525548107
 20
-20.8258026325
 30
0.0
 10
15.4393158465
 20
-20.8060630457
 30
0.0
 10
15.4232834932
 20
-20.7813481156
 30
0.0
 10
15.396430958
 20
-20.739191697
 30
0.0
 10
15.3568019899
 20
-20.6755460112
 30
0.0
 10
15.3026010725
 20
-20.5870569277
 30
0.0
 10
15.2401177603
 20
-20.4838186509
 30
0.0
 10
15.1704356119
 20
-20.3676726955
 30
0.0
 10
15.1218191085
 20
-20.2860704919
 30
0.0
 10
15.0964885805
 20
-20.2434343392
 30
0.0
 11
15.475899966
 21
-20.8560030204
 31
0.0
 11
15.4715008027
 21
-20.851686647
 31
0.0
 11
15.4640831315
 21
-20.8421298691
 31
0.0
 11
15.4536981657
 21
-20.8274021612
 31
0.0
 11
15.4404075662
 21
-20.8075930203
 31
0.0
 11
15.4243075971
 21
-20.7828582573
 31
0.0
 11
15.4055016782
 21
-20.7533673963
 31
0.0
 11
15.3602290516
 21
-20.6808720648
 31
0.0
 11
15.3056186831
 21
-20.5918197099
 31
0.0
 11
15.2427361753
 21
-20.4880022834
 31
0.0
 11
15.1726535021
 21
-20.3712396568
 31
0.0
 11
15.0964885805
 21
-20.2434343392
 31
0.0
  0
ELLIPSE
  5
3CD
100
AcDbEntity
  8
RACCORDO
100
AcDbEllipse
 62
7
  6
CONTINUOUS
 10
-20.3895367369
 20
7.4951567525
 30
0.0
 11
-0.1414644378
 21
0.1414644378
 31
0.0
 40
0.9996954599
 41
-3.9268385235
 42
-2.3563467834
  0
ELLIPSE
  5
3CE
100
AcDbEntity
  8
RACCORDO
100
AcDbEllipse
 62
7
  6
CONTINUOUS
 10
17.8101890726
 20
17.2948216309
 30
0.0
 11
-1.4146443783
 21
-1.4146443783
 31
0.0
 40
0.9996954599
 41
8.6395320906
 42
10.2100238309
  0
ELLIPSE
  5
3CF
100
AcDbEntity
  8
RACCORDO
100
AcDbEllipse
 62
7
  6
CONTINUOUS
 10
20.0105241943
 20
-8.9049041787
 30
0.0
 11
-0.1414644378
 21
0.1414644378
 31
0.0
 40
0.9996954599
 41
-0.78524587
 42
0.7852458701
  0
ELLIPSE
  5
3D0
100
AcDbEntity
  8
RACCORDO
100
AcDbEllipse
 62
7
  6
CONTINUOUS
 10
17.8101890726
 20
-18.704569057
 30
0.0
 11
-1.4146443783
 21
1.4146443783
 31
0.0
 40
0.9996954599
 41
8.6395320906
 42
10.2100238309
  0
ELLIPSE
  5
3D1
100
AcDbEntity
  8
RACCORDO
100
AcDbEllipse
 62
7
  6
CONTINUOUS
 10
12.4105089615
 20
19.1951110541
 30
0.0
 11
0.2227100583
 21
0.0525603851
 31
0.0
 40
0.3820700798
 41
1.4893013207
 42
1.6172171036
  0
ELLIPSE
  5
3D2
100
AcDbEntity
  8
RACCORDO
100
AcDbEllipse
 62
7
  6
CONTINUOUS
 10
20.0105241943
 20
7.4951567525
 30
0.0
 11
0.1414644378
 21
0.1414644378
 31
0.0
 40
0.9996954599
 41
-3.9268385238
 42
-2.3563467836
  0
ELLIPSE
  5
3D3
100
AcDbEntity
  8
RACCORDO
100
AcDbEllipse
 62
7
  6
CONTINUOUS
 10
-20.3895367369
 20
-8.9049041787
 30
0.0
 11
0.1414644378
 21
0.1414644378
 31
0.0
 40
0.9996954599
 41
-0.7852458701
 42
0.78524587
  0
ELLIPSE
  5
3D4
100
AcDbEntity
  8
RACCORDO
100
AcDbEllipse
 62
7
  6
CONTINUOUS
 10
-21.6022309466
 20
3.7077747983
 30
0.0
 11
0.0
 21
0.5
 31
0.0
 40
0.0174550649
 41
-1.5707963268
 42
-0.0174532925
  0
ELLIPSE
  5
3D5
100
AcDbEntity
  8
RACCORDO
100
AcDbEllipse
 62
7
  6
CONTINUOUS
 10
-20.2767815959
 20
3.7077747983
 30
0.0
 11
-0.0
 21
0.5
 31
0.0
 40
0.0174550649
 41
0.0174532925
 42
1.5707963268
  0
ELLIPSE
  5
3D6
100
AcDbEntity
  8
RACCORDO
100
AcDbEllipse
 62
7
  6
CONTINUOUS
 10
-20.2767815959
 20
-5.1175222244
 30
0.0
 11
0.0
 21
0.5
 31
0.0
 40
0.0174550649
 41
-4.7123889804
 42
-3.1590459461
  0
ELLIPSE
  5
3D7
100
AcDbEntity
  8
RACCORDO
100
AcDbEllipse
 62
7
  6
CONTINUOUS
 10
-21.6022309466
 20
-5.1175222244
 30
0.0
 11
-0.0
 21
0.5
 31
0.0
 40
0.0174550649
 41
-3.1241393611
 42
-1.5707963268
  0
ELLIPSE
  5
3D8
100
AcDbEntity
  8
RACCORDO
100
AcDbEllipse
 62
7
  6
CONTINUOUS
 10
21.2232184041
 20
-5.1175222244
 30
0.0
 11
-0.0
 21
0.5
 31
0.0
 40
0.0174550649
 41
-4.7123889804
 42
-3.1590459461
  0
ELLIPSE
  5
3D9
100
AcDbEntity
  8
RACCORDO
100
AcDbEllipse
 62
7
  6
CONTINUOUS
 10
19.8977690534
 20
-5.1175222244
 30
0.0
 11
-0.0
 21
0.5
 31
0.0
 40
0.0174550649
 41
-3.1241393611
 42
-1.5707963268
  0
ELLIPSE
  5
3DA
100
AcDbEntity
  8
RACCORDO
100
AcDbEllipse
 62
7
  6
CONTINUOUS
 10
19.8977690534
 20
3.7077747983
 30
0.0
 11
-0.0
 21
0.5
 31
0.0
 40
0.0174550649
 41
-1.5707963268
 42
-0.0174532925
  0
ELLIPSE
  5
3DB
100
AcDbEntity
  8
RACCORDO
100
AcDbEllipse
 62
7
  6
CONTINUOUS
 10
21.2232184041
 20
3.7077747983
 30
0.0
 11
0.0
 21
0.5
 31
0.0
 40
0.0174550649
 41
0.0174532925
 42
1.5707963268
  0
ELLIPSE
  5
3DC
100
AcDbEntity
  8
RACCORDO
100
AcDbEllipse
 62
7
  6
CONTINUOUS
 10
20.0105241943
 20
7.0950958213
 30
0.0
 11
-0.1414644378
 21
0.1414644378
 31
0.0
 40
0.9996954599
 41
-0.7852458699
 42
0.7852458702
  0
ELLIPSE
  5
3DD
100
AcDbEntity
  8
RACCORDO
100
AcDbEllipse
 62
7
  6
CONTINUOUS
 10
12.4930691294
 20
19.1125508863
 30
0.0
 11
-0.1414644378
 21
0.1414644378
 31
0.0
 40
0.9996954599
 41
-0.1382247902
 42
0.1856907321
  0
ELLIPSE
  5
3DE
100
AcDbEntity
  8
RACCORDO
100
AcDbEllipse
 62
7
  6
CONTINUOUS
 10
12.4930691294
 20
19.1125508863
 30
0.0
 11
0.1414644378
 21
-0.1414644378
 31
0.0
 40
0.9996954599
 41
2.9560982258
 42
3.0033678634
  0
ELLIPSE
  5
3DF
100
AcDbEntity
  8
RACCORDO
100
AcDbEllipse
 62
7
  6
CONTINUOUS
 10
-20.3895367369
 20
-8.5048432475
 30
0.0
 11
0.1414644378
 21
-0.1414644378
 31
0.0
 40
0.9996954599
 41
-0.78524587
 42
0.7852458702
  0
ELLIPSE
  5
3E0
100
AcDbEntity
  8
RACCORDO
100
AcDbEllipse
 62
7
  6
CONTINUOUS
 10
17.1104632631
 20
19.0950958213
 30
0.0
 11
0.1414644378
 21
0.1414644378
 31
0.0
 40
0.9996954599
 41
0.0
 42
0.78524586
  0
ELLIPSE
  5
3E1
100
AcDbEntity
  8
RACCORDO
100
AcDbEllipse
 62
7
  6
CONTINUOUS
 10
17.1104632631
 20
-20.5048432475
 30
0.0
 11
0.1414644378
 21
-0.1414644378
 31
0.0
 40
0.9996954599
 41
-0.7852458608
 42
-0.0
  0
ELLIPSE
  5
3E2
100
AcDbEntity
  8
RACCORDO
100
AcDbEllipse
 62
7
  6
CONTINUOUS
 10
-17.4894758057
 20
-20.5048432475
 30
0.0
 11
0.1414644378
 21
0.1414644378
 31
0.0
 40
0.9996954599
 41
-3.1415926536
 42
-2.3563467936
  0
ELLIPSE
  5
3E3
100
AcDbEntity
  8
RACCORDO
100
AcDbEllipse
 62
7
  6
CONTINUOUS
 10
20.0105241943
 20
-8.5048432475
 30
0.0
 11
0.1414644378
 21
0.1414644378
 31
0.0
 40
0.9996954599
 41
-3.9268385237
 42
-2.3563467836
  0
ELLIPSE
  5
3E4
100
AcDbEntity
  8
RACCORDO
100
AcDbEllipse
 62
7
  6
CONTINUOUS
 10
-20.3895367369
 20
7.0950958213
 30
0.0
 11
0.1414644378
 21
0.1414644378
 31
0.0
 40
0.9996954599
 41
-0.7852458702
 42
0.7852458699
  0
ELLIPSE
  5
3E5
100
AcDbEntity
  8
RACCORDO
100
AcDbEllipse
 62
7
  6
CONTINUOUS
 10
-18.1892016152
 20
-18.704569057
 30
0.0
 11
1.4146443783
 21
1.4146443783
 31
0.0
 40
0.9996954599
 41
-3.9268385237
 42
-2.3563467834
  0
ELLIPSE
  5
3E6
100
AcDbEntity
  8
RACCORDO
100
AcDbEllipse
 62
7
  6
CONTINUOUS
 10
-18.1892016152
 20
17.2948216309
 30
0.0
 11
1.4146443783
 21
-1.4146443783
 31
0.0
 40
0.9996954599
 41
2.3563467834
 42
3.9268385237
  0
ELLIPSE
  5
3E7
100
AcDbEntity
  8
RACCORDO
100
AcDbEllipse
 62
7
  6
CONTINUOUS
 10
17.8101890726
 20
17.2948216309
 30
0.0
 11
1.4146443783
 21
1.4146443783
 31
0.0
 40
0.9996954599
 41
-0.7852458701
 42
0.7852458701
  0
ELLIPSE
  5
3E8
100
AcDbEntity
  8
RACCORDO
100
AcDbEllipse
 62
7
  6
CONTINUOUS
 10
17.8101890726
 20
-18.704569057
 30
0.0
 11
1.4146443783
 21
-1.4146443783
 31
0.0
 40
0.9996954599
 41
-0.7852458701
 42
0.7852458701
  0
ELLIPSE
  5
3E9
100
AcDbEntity
  8
RACCORDO
100
AcDbEllipse
 62
7
  6
CONTINUOUS
 10
-17.4231465589
 20
-20.6385444663
 30
0.0
 11
0.2
 21
-0.0
 31
0.0
 40
0.0174550649
 41
1.5707963268
 42
3.1241393611
  0
ELLIPSE
  5
3EA
100
AcDbEntity
  8
RACCORDO
100
AcDbEllipse
 62
7
  6
CONTINUOUS
 10
17.0441340164
 20
19.2287970402
 30
0.0
 11
0.2
 21
0.0
 31
0.0
 40
0.0174550649
 41
-1.5707963268
 42
-0.0174532925
  0
ELLIPSE
  5
3EB
100
AcDbEntity
  8
RACCORDO
100
AcDbEllipse
 62
7
  6
CONTINUOUS
 10
17.0441340164
 20
-20.6385444663
 30
0.0
 11
0.2
 21
-0.0
 31
0.0
 40
0.0174550649
 41
0.0174532925
 42
1.5707963268
  0
ELLIPSE
  5
3EC
100
AcDbEntity
  8
RACCORDO
100
AcDbEllipse
 62
7
  6
CONTINUOUS
 10
-17.4231465589
 20
19.2287970402
 30
0.0
 11
0.2
 21
0.0
 31
0.0
 40
0.0174550649
 41
-3.1241393611
 42
-1.5707963268
  0
ELLIPSE
  5
3ED
100
AcDbEntity
  8
RACCORDO
100
AcDbEllipse
 62
7
  6
CONTINUOUS
 10
16.0123308399
 20
-21.6850229877
 30
0.0
 11
-0.1414644378
 21
0.1414644378
 31
0.0
 40
0.9996954599
 41
-3.9268385237
 42
-2.3563467834
  0
ELLIPSE
  5
3EE
100
AcDbEntity
  8
RACCORDO
100
AcDbEllipse
 62
7
  6
CONTINUOUS
 10
12.6086566176
 20
-21.6850229877
 30
0.0
 11
0.1414644378
 21
0.1414644378
 31
0.0
 40
0.9996954599
 41
-3.9268385237
 42
-2.3563467834
  0
ELLIPSE
  5
3EF
100
AcDbEntity
  8
RACCORDO
100
AcDbEllipse
 62
7
  6
CONTINUOUS
 10
12.6086566176
 20
20.2752755616
 30
0.0
 11
-0.1414644378
 21
0.1414644378
 31
0.0
 40
0.9996954599
 41
-0.7852458701
 42
0.7852458702
  0
ELLIPSE
  5
3F0
100
AcDbEntity
  8
RACCORDO
100
AcDbEllipse
 62
7
  6
CONTINUOUS
 10
16.0123308399
 20
20.2752755616
 30
0.0
 11
0.1414644378
 21
0.1414644378
 31
0.0
 40
0.9996954599
 41
-0.7852458702
 42
0.7852458701
  0
ELLIPSE
  5
3F1
100
AcDbEntity
  8
RACCORDO
100
AcDbEllipse
 62
7
  6
CONTINUOUS
 10
17.6707770453
 20
1.8666920531
 30
0.0
 11
0.5
 21
0.0
 31
0.0
 40
0.0174550649
 41
0.0174532925
 42
1.5707963268
  0
ELLIPSE
  5
3F2
100
AcDbEntity
  8
RACCORDO
100
AcDbEllipse
 62
7
  6
CONTINUOUS
 10
-18.0497895878
 20
1.8666920531
 30
0.0
 11
0.5
 21
-0.0
 31
0.0
 40
0.0174550649
 41
1.5707963268
 42
3.1241393611
  0
ELLIPSE
  5
3F3
100
AcDbEntity
  8
RACCORDO
100
AcDbEllipse
 62
7
  6
CONTINUOUS
 10
17.6707770453
 20
-3.2764394793
 30
0.0
 11
0.5
 21
0.0
 31
0.0
 40
0.0174550649
 41
-1.5707963268
 42
-0.0174532925
  0
ELLIPSE
  5
3F4
100
AcDbEntity
  8
RACCORDO
100
AcDbEllipse
 62
7
  6
CONTINUOUS
 10
-18.0497895878
 20
-3.2764394793
 30
0.0
 11
0.5
 21
-0.0
 31
0.0
 40
0.0174550649
 41
-3.1241393611
 42
-1.5707963268
  0
ELLIPSE
  5
3F5
100
AcDbEntity
  8
RACCORDO
100
AcDbEllipse
 62
7
  6
CONTINUOUS
 10
-27.0408335633
 20
-15.5562010051
 30
0.0
 11
1.4146443783
 21
1.4146443783
 31
0.0
 40
0.9996954599
 41
-3.9268385237
 42
-2.3563467834
  0
ELLIPSE
  5
3F6
100
AcDbEntity
  8
RACCORDO
100
AcDbEllipse
 62
7
  6
CONTINUOUS
 10
-27.0408335633
 20
-11.853546421
 30
0.0
 11
1.4146443783
 21
-1.4146443783
 31
0.0
 40
0.9996954599
 41
2.3563467834
 42
3.9268385237
  0
ELLIPSE
  5
3F7
100
AcDbEntity
  8
RACCORDO
100
AcDbEllipse
 62
7
  6
CONTINUOUS
 10
1.6618210208
 20
26.146453579
 30
0.0
 11
1.4146443783
 21
1.4146443783
 31
0.0
 40
0.9996954599
 41
-0.7852458702
 42
0.7852458701
  0
ELLIPSE
  5
3F8
100
AcDbEntity
  8
RACCORDO
100
AcDbEllipse
 62
7
  6
CONTINUOUS
 10
-2.0408335633
 20
26.146453579
 30
0.0
 11
1.4146443783
 21
-1.4146443783
 31
0.0
 40
0.9996954599
 41
2.3563467834
 42
3.9268385237
  0
ELLIPSE
  5
3F9
100
AcDbEntity
  8
RACCORDO
100
AcDbEllipse
 62
7
  6
CONTINUOUS
 10
12.8364341183
 20
-21.6675679228
 30
0.0
 11
0.1733105926
 21
0.1000609173
 31
0.0
 40
0.9993911978
 41
2.0946588419
 42
4.1885264653
  0
ELLIPSE
  5
3FA
100
AcDbEntity
  8
RACCORDO
100
AcDbEllipse
 62
7
  6
CONTINUOUS
 10
15.7845533392
 20
-21.6675679228
 30
0.0
 11
0.1733105926
 21
-0.1000609173
 31
0.0
 40
0.9993911978
 41
-1.0469338117
 42
1.0469338117
  0
ELLIPSE
  5
3FB
100
AcDbEntity
  8
RACCORDO
100
AcDbEllipse
 62
7
  6
CONTINUOUS
 10
-17.4670583615
 20
-17.9824258033
 30
0.0
 11
0.3643800228
 21
0.3643800228
 31
0.0
 40
0.9702875252
 41
-3.9119116865
 42
-2.3712736207
  0
ELLIPSE
  5
3FC
100
AcDbEntity
  8
RACCORDO
100
AcDbEllipse
 62
7
  6
CONTINUOUS
 10
17.0880458189
 20
-17.9824258033
 30
0.0
 11
0.3643800228
 21
-0.3643800228
 31
0.0
 40
0.9702875252
 41
-0.7703190329
 42
0.7703190329
  0
ELLIPSE
  5
3FD
100
AcDbEntity
  8
RACCORDO
100
AcDbEllipse
 62
7
  6
CONTINUOUS
 10
17.0880458189
 20
16.5726783771
 30
0.0
 11
0.3643800228
 21
0.3643800228
 31
0.0
 40
0.9702875252
 41
-0.7703190329
 42
0.7703190329
  0
ELLIPSE
  5
3FE
100
AcDbEntity
  8
RACCORDO
100
AcDbEllipse
 62
7
  6
CONTINUOUS
 10
-17.4670583615
 20
16.5726783771
 30
0.0
 11
-0.3643800228
 21
0.3643800228
 31
0.0
 40
0.9702875252
 41
-0.7703190329
 42
0.7703190329
  0
ELLIPSE
  5
3FF
100
AcDbEntity
  8
RACCORDO
100
AcDbEllipse
 62
7
  6
CONTINUOUS
 10
-20.0987399336
 20
-5.064061677
 30
0.0
 11
0.0
 21
0.3
 31
0.0
 40
0.0174550649
 41
-3.1241393611
 42
-1.5707963268
  0
ELLIPSE
  5
400
100
AcDbEntity
  8
RACCORDO
100
AcDbEllipse
 62
7
  6
CONTINUOUS
 10
15.7845533392
 20
20.2578204967
 30
0.0
 11
0.1733105926
 21
0.1000609173
 31
0.0
 40
0.9993911978
 41
-1.0469338117
 42
1.0469338117
  0
ELLIPSE
  5
401
100
AcDbEntity
  8
RACCORDO
100
AcDbEllipse
 62
7
  6
CONTINUOUS
 10
12.8364341183
 20
20.2578204967
 30
0.0
 11
0.1733105926
 21
-0.1000609173
 31
0.0
 40
0.9993911978
 41
2.0946588419
 42
4.1885264653
  0
ELLIPSE
  5
402
100
AcDbEntity
  8
RACCORDO
100
AcDbEllipse
 62
7
  6
CONTINUOUS
 10
-20.0987399336
 20
3.6543142509
 30
0.0
 11
-0.0
 21
0.3
 31
0.0
 40
0.0174550649
 41
-1.5707963268
 42
-0.0174532925
  0
ELLIPSE
  5
403
100
AcDbEntity
  8
RACCORDO
100
AcDbEllipse
 62
7
  6
CONTINUOUS
 10
19.7197273911
 20
3.6543142509
 30
0.0
 11
-0.0
 21
0.3
 31
0.0
 40
0.0174550649
 41
0.0174532925
 42
1.5707963268
  0
ELLIPSE
  5
404
100
AcDbEntity
  8
RACCORDO
100
AcDbEllipse
 62
7
  6
CONTINUOUS
 10
19.7197273911
 20
-5.064061677
 30
0.0
 11
0.0
 21
0.3
 31
0.0
 40
0.0174550649
 41
-4.7123889804
 42
-3.1590459461
  0
ELLIPSE
  5
405
100
AcDbEntity
  8
RACCORDO
100
AcDbEllipse
 62
7
  6
CONTINUOUS
 10
-18.5409097273
 20
-17.5565056612
 30
0.0
 11
1.5
 21
-0.0
 31
0.0
 40
0.0174550649
 41
2.4040325285
 42
3.1241393611
  0
ELLIPSE
  5
406
100
AcDbEntity
  8
RACCORDO
100
AcDbEllipse
 62
7
  6
CONTINUOUS
 10
3.6621256768
 20
17.646529743
 30
0.0
 11
0.0
 21
1.5
 31
0.0
 40
0.0174550649
 41
0.0174532925
 42
0.7375601251
  0
ELLIPSE
  5
407
100
AcDbEntity
  8
RACCORDO
100
AcDbEllipse
 62
7
  6
CONTINUOUS
 10
-18.5409097273
 20
-9.8532417649
 30
0.0
 11
1.5
 21
-0.0
 31
0.0
 40
0.0174550649
 41
-3.1241393611
 42
-2.4040325285
  0
ELLIPSE
  5
408
100
AcDbEntity
  8
RACCORDO
100
AcDbEllipse
 62
7
  6
CONTINUOUS
 10
-4.0411382194
 20
17.646529743
 30
0.0
 11
-0.0
 21
1.5
 31
0.0
 40
0.0174550649
 41
-0.7375601251
 42
-0.0174532925
  0
ELLIPSE
  5
409
100
AcDbEntity
  8
RACCORDO
100
AcDbEllipse
 62
7
  6
CONTINUOUS
 10
18.1618971848
 20
-3.2851670117
 30
0.0
 11
1.5
 21
-0.0
 31
0.0
 40
0.0174550649
 41
-1.5707963268
 42
-1.4459429496
  0
ELLIPSE
  5
40A
100
AcDbEntity
  8
RACCORDO
100
AcDbEllipse
 62
7
  6
CONTINUOUS
 10
-18.5409097273
 20
-3.2851670117
 30
0.0
 11
1.5
 21
0.0
 31
0.0
 40
0.0174550649
 41
-1.695649704
 42
-1.5707963268
  0
ELLIPSE
  5
40B
100
AcDbEntity
  8
RACCORDO
100
AcDbEllipse
 62
7
  6
CONTINUOUS
 10
18.1618971848
 20
1.8754195856
 30
0.0
 11
1.5
 21
-0.0
 31
0.0
 40
0.0174550649
 41
1.4459429496
 42
1.5707963268
  0
ELLIPSE
  5
40C
100
AcDbEntity
  8
RACCORDO
100
AcDbEllipse
 62
7
  6
CONTINUOUS
 10
-18.5409097273
 20
1.8754195856
 30
0.0
 11
1.5
 21
0.0
 31
0.0
 40
0.0174550649
 41
1.5707963268
 42
1.695649704
  0
ELLIPSE
  5
40D
100
AcDbEntity
  8
RACCORDO
100
AcDbEllipse
 62
7
  6
CONTINUOUS
 10
-17.4317929653
 20
16.537412981
 30
0.0
 11
0.3643800228
 21
-0.3643800228
 31
0.0
 40
0.9702875252
 41
2.3712736207
 42
3.9119116865
  0
ELLIPSE
  5
40E
100
AcDbEntity
  8
RACCORDO
100
AcDbEllipse
 62
7
  6
CONTINUOUS
 10
17.0527804228
 20
16.537412981
 30
0.0
 11
-0.3643800228
 21
-0.3643800228
 31
0.0
 40
0.9702875252
 41
2.3712736207
 42
3.9119116865
  0
ELLIPSE
  5
40F
100
AcDbEntity
  8
RACCORDO
100
AcDbEllipse
 62
7
  6
CONTINUOUS
 10
17.0527804228
 20
-17.9471604071
 30
0.0
 11
-0.3643800228
 21
0.3643800228
 31
0.0
 40
0.9702875252
 41
2.3712736207
 42
3.9119116865
  0
ELLIPSE
  5
410
100
AcDbEntity
  8
RACCORDO
100
AcDbEllipse
 62
7
  6
CONTINUOUS
 10
-17.4317929653
 20
-17.9471604071
 30
0.0
 11
0.3643800228
 21
0.3643800228
 31
0.0
 40
0.9702875252
 41
2.3712736207
 42
3.9119116865
  0
ELLIPSE
  5
411
100
AcDbEntity
  8
RACCORDO
100
AcDbEllipse
 62
7
  6
CONTINUOUS
 10
15.994875775
 20
-21.6675679228
 30
0.0
 11
0.1414644378
 21
-0.1414644378
 31
0.0
 40
0.9996954599
 41
-0.7852458701
 42
0.7852458702
  0
ELLIPSE
  5
412
100
AcDbEntity
  8
RACCORDO
100
AcDbEllipse
 62
7
  6
CONTINUOUS
 10
15.7557913617
 20
-20.817628854
 30
0.0
 11
0.1733105926
 21
-0.1000609173
 31
0.0
 40
0.9993911978
 41
2.0946588419
 42
4.1885264653
  0
ELLIPSE
  5
413
100
AcDbEntity
  8
RACCORDO
100
AcDbEllipse
 62
7
  6
CONTINUOUS
 10
12.6261116825
 20
20.2578204967
 30
0.0
 11
-0.1414644378
 21
0.1414644378
 31
0.0
 40
0.9996954599
 41
-0.7852458701
 42
0.7852458702
  0
ELLIPSE
  5
414
100
AcDbEntity
  8
RACCORDO
100
AcDbEllipse
 62
7
  6
CONTINUOUS
 10
12.8651960958
 20
19.4078814279
 30
0.0
 11
-0.1733105926
 21
0.1000609173
 31
0.0
 40
0.9993911978
 41
2.0946588419
 42
4.1885264653
  0
ELLIPSE
  5
415
100
AcDbEntity
  8
RACCORDO
100
AcDbEllipse
 62
7
  6
CONTINUOUS
 10
15.994875775
 20
20.2578204967
 30
0.0
 11
0.1414644378
 21
0.1414644378
 31
0.0
 40
0.9996954599
 41
-0.7852458702
 42
0.7852458701
  0
ELLIPSE
  5
416
100
AcDbEntity
  8
RACCORDO
100
AcDbEllipse
 62
7
  6
CONTINUOUS
 10
15.7557913617
 20
19.4078814279
 30
0.0
 11
-0.1733105926
 21
-0.1000609173
 31
0.0
 40
0.9993911978
 41
-1.0469338117
 42
1.0469338117
  0
ELLIPSE
  5
417
100
AcDbEntity
  8
RACCORDO
100
AcDbEllipse
 62
7
  6
CONTINUOUS
 10
12.6261116825
 20
-21.6675679228
 30
0.0
 11
0.1414644378
 21
0.1414644378
 31
0.0
 40
0.9996954599
 41
-3.9268385237
 42
-2.3563467834
  0
ELLIPSE
  5
418
100
AcDbEntity
  8
RACCORDO
100
AcDbEllipse
 62
7
  6
CONTINUOUS
 10
12.8651960958
 20
-20.817628854
 30
0.0
 11
0.1733105926
 21
0.1000609173
 31
0.0
 40
0.9993911978
 41
-1.0469338117
 42
1.0469338117
  0
ENDSEC
  0
SECTION
  2
OBJECTS
  0
DICTIONARY
  5
C
100
AcDbDictionary
280
0
281
1
  3
ACAD_GROUP
350
D
  3
ACAD_MLINESTYLE
350
17
  3
ACAD_LAYOUT
350
1A
  3
ACAD_PLOTSETTINGS
350
19
  3
ACAD_PLOTSTYLENAME
350
E
  0
DICTIONARY
  5
D
102
{ACAD_REACTORS
330
C
102
}
100
AcDbDictionary
280
0
281
1
  0
ACDBDICTIONARYWDFLT
  5
E
102
{ACAD_REACTORS
330
C
102
}
100
AcDbDictionary
281
1
  3
Normal
350
F
100
AcDbDictionaryWithDefault
340
F
  0
DICTIONARY
  5
17
102
{ACAD_REACTORS
330
C
102
}
100
AcDbDictionary
280
0
281
1
  3
Standard
350
18
  0
DICTIONARY
  5
19
102
{ACAD_REACTORS
330
C
102
}
100
AcDbDictionary
281
1
  0
DICTIONARY
  5
1A
102
{ACAD_REACTORS
330
C
102
}
100
AcDbDictionary
281
1
  3
Model
350
419
  3
Layout1
350
41A
  0
ACDBPLACEHOLDER
  5
F
102
{ACAD_REACTORS
330
E
102
}
  0
MLINESTYLE
  5
18
102
{ACAD_REACTORS
330
17
102
}
100
AcDbMlineStyle
  2
STANDARD
 70
0
  3

 62
256
 51
90.0
 52
90.0
 71
2
 49
0.5
 62
256
  6
BYLAYER
 49
-0.5
 62
256
  6
BYLAYER
  0
LAYOUT
  5
419
102
{ACAD_REACTORS
330
1A
102
}
100
AcDbPlotSettings
  1

  2
none_device
  4
ISO_A4_(297.00_x_210.00_MM)
  6

 40
0.0
 41
0.0
 42
0.0
 43
0.0
 44
297.0
 45
210.0
 46
0.0
 47
0.0
 48
0.0
 49
0.0
140
0.0
141
0.0
142
1.0
143
1.0
 70
1024
 72
1
 73
0
 74
0
  7

 75
0
147
1.0
148
0.0
149
0.0
100
AcDbLayout
  1
Model
 70
0
 71
0
 10
0.0
 20
0.0
 11
297.0
 21
210.0
 12
0.0
 22
0.0
 32
0.0
 14
0.0
 24
0.0
 34
0.0
 15
0.0
 25
0.0
 35
0.0
146
0.0
 13
0.0
 23
0.0
 33
0.0
 16
1.0
 26
0.0
 36
0.0
 17
0.0
 27
1.0
 37
0.0
 76
0
330
231
345
0
346
0
  0
LAYOUT
  5
41A
102
{ACAD_REACTORS
330
1A
102
}
100
AcDbPlotSettings
  1

  2
none_device
  4
ISO_A4_(297.00_x_210.00_MM)
  6

 40
0.0
 41
0.0
 42
0.0
 43
0.0
 44
297.0
 45
210.0
 46
0.0
 47
0.0
 48
0.0
 49
0.0
140
0.0
141
0.0
142
1.0
143
1.0
 70
0
 72
1
 73
0
 74
0
  7

 75
0
147
1.0
148
0.0
149
0.0
100
AcDbLayout
  1
Layout1
 70
0
 71
1
 10
0.0
 20
0.0
 11
297.0
 21
210.0
 12
0.0
 22
0.0
 32
0.0
 14
0.0
 24
0.0
 34
0.0
 15
0.0
 25
0.0
 35
0.0
146
0.0
 13
0.0
 23
0.0
 33
0.0
 16
1.0
 26
0.0
 36
0.0
 17
0.0
 27
1.0
 37
0.0
 76
0
330
232
345
0
346
0
  0
ENDSEC
  0
EOF
