  0
SECTION
  2
HEADER
  9
$ACADVER
  1
AC1015
  9
$DWGCODEPAGE
  3
ANSI_1252
  9
$EXTMAX
 10
297.0
 20
210.0
 30
0.0
  9
$EXTMIN
 10
0.0
 20
0.0
 30
0.0
  9
$LIMMIN
 10
0.0
 20
0.0
  9
$LIMMAX
 10
297.0
 20
210.0
  9
$VIEWCTR
 10
148.5
 20
105.0
  9
$VIEWSIZE
 40
210.0
  9
$CLAYER
  8
0
  9
$LTSCALE
 40
16.335
  9
$CELTYPE
  6
BYLAYER
  9
$DIMSCALE
 40
1.0
  9
$DIMASZ
 40
3.0
  9
$DIMEXO
 40
1.85625
  9
$DIMDLI
 40
11.286
  9
$DIMEXE
 40
5.346
  9
$DIMCEN
 40
2.673
  9
$DIMLFAC
 40
1.0
  9
$DIMBLK
  1
_FILLED
  9
$DIMTXT
 40
3.0
  9
$DIMTOL
 70
1
  9
$DIMLIM
 70
0
  9
$DIMTFAC
 40
1.0
  9
$DIMTP
 40
0.01
  9
$DIMTM
 40
0.01
  9
$PDMODE
 70
3
  9
$PDSIZE
 40
3.0
  9
$HANDSEED
  5
343
  9
$TILEMODE
 70
1
  9
$MEASUREMENT
 70
1
  9
$INSUNITS
 70
4
  0
ENDSEC
  0
SECTION
  2
CLASSES
  0
CLASS
  1
ACDBDICTIONARYWDFLT
  2
AcDbDictionaryWithDefault
  3
AutoCAD 2000
 90
0
280
0
281
0
  0
CLASS
  1
ACDBPLACEHOLDER
  2
AcDbPlaceHolder
  3
AutoCAD 2000
 90
0
280
0
281
0
  0
CLASS
  1
LAYOUT
  2
AcDbLayout
  3
AutoCAD 2000
 90
0
280
0
281
0
  0
ENDSEC
  0
SECTION
  2
TABLES
  0
TABLE
  2
VPORT
  5
8
100
AcDbSymbolTable
 70
2
  0
VPORT
  5
1F4
100
AcDbSymbolTableRecord
100
AcDbViewportTableRecord
  2
*ACTIVE
 70
0
 10
0.0
 20
0.0
 11
1.0
 21
1.0
 12
148.5
 22
105.0
 13
0.0
 23
0.0
 14
1.0
 24
1.0
 15
0.0
 25
0.0
 16
0.0
 26
0.0
 36
1.0
 17
0.0
 27
0.0
 37
0.0
 40
210.0
 41
1.4142857143
 42
50.0
 43
0.0
 44
0.0
 50
0.0
 51
0.0
 71
0
 72
100
 73
1
 74
1
 75
0
 76
0
 77
0
 78
0
  0
ENDTAB
  0
TABLE
  2
LTYPE
  5
5
100
AcDbSymbolTable
 70
6
  0
LTYPE
  5
14
100
AcDbSymbolTableRecord
100
AcDbLinetypeTableRecord
  2
BYBLOCK
 70
0
  3

 72
65
 73
0
 40
0.0
  0
LTYPE
  5
15
100
AcDbSymbolTableRecord
100
AcDbLinetypeTableRecord
  2
BYLAYER
 70
0
  3

 72
65
 73
0
 40
0.0
  0
LTYPE
  5
16
100
AcDbSymbolTableRecord
100
AcDbLinetypeTableRecord
  2
CONTINUOUS
 70
64
  3
Solid line
 72
65
 73
0
 40
0.0
  0
LTYPE
  5
1F5
100
AcDbSymbolTableRecord
100
AcDbLinetypeTableRecord
  2
CENTER
 70
64
  3
____ _ ____ _ ____ _ ____ _ ____ _ ____ _ ____
 72
65
 73
4
 40
0.6
 49
0.375
 74
0
 49
-0.075
 74
0
 49
0.075
 74
0
 49
-0.075
 74
0
  0
LTYPE
  5
1F6
100
AcDbSymbolTableRecord
100
AcDbLinetypeTableRecord
  2
HIDDEN
 70
64
  3
- - - - - - - - - - - - - - - - - - - -
 72
65
 73
2
 40
0.2
 49
0.1
 74
0
 49
-0.1
 74
0
  0
LTYPE
  5
1F7
100
AcDbSymbolTableRecord
100
AcDbLinetypeTableRecord
  2
PHANTOM
 70
64
  3
_____ _ _ _____ _ _ _____ _ _ _____
 72
65
 73
6
 40
0.8
 49
0.45
 74
0
 49
-0.05
 74
0
 49
0.1
 74
0
 49
-0.05
 74
0
 49
0.1
 74
0
 49
-0.05
 74
0
  0
LTYPE
  5
1F8
100
AcDbSymbolTableRecord
100
AcDbLinetypeTableRecord
  2
DOT
 70
64
  3
. . . . . . . . . . . . . . . . . . . .
 72
65
 73
2
 40
0.2
 49
0.1
 74
0
 49
-0.1
 74
0
  0
LTYPE
  5
1F9
100
AcDbSymbolTableRecord
100
AcDbLinetypeTableRecord
  2
DASHED
 70
64
  3
- - - - - - - - - - - - - - - - - - - -
 72
65
 73
2
 40
0.2
 49
0.1
 74
0
 49
-0.1
 74
0
  0
ENDTAB
  0
TABLE
  2
LAYER
  5
2
100
AcDbSymbolTable
 70
36
  0
LAYER
  5
10
100
AcDbSymbolTableRecord
100
AcDbLayerTableRecord
  2
0
 70
0
 62
7
  6
CONTINUOUS
370
-3
390
F
  0
LAYER
  5
1FA
100
AcDbSymbolTableRecord
100
AcDbLayerTableRecord
  2
DEFAULT_1
 70
0
 62
7
  6
CENTER
370
-3
390
F
  0
LAYER
  5
1FB
100
AcDbSymbolTableRecord
100
AcDbLayerTableRecord
  2
DEFAULT_2
 70
0
 62
7
  6
HIDDEN
370
-3
390
F
  0
LAYER
  5
1FC
100
AcDbSymbolTableRecord
100
AcDbLayerTableRecord
  2
DEFAULT_3
 70
0
 62
7
  6
PHANTOM
370
-3
390
F
  0
LAYER
  5
1FD
100
AcDbSymbolTableRecord
100
AcDbLayerTableRecord
  2
ASSI
 70
0
 62
7
  6
CONTINUOUS
370
-3
390
F
  0
LAYER
  5
1FE
100
AcDbSymbolTableRecord
100
AcDbLayerTableRecord
  2
COORDINATE
 70
0
 62
7
  6
CONTINUOUS
370
-3
390
F
  0
LAYER
  5
1FF
100
AcDbSymbolTableRecord
100
AcDbLayerTableRecord
  2
COPY_PUBLISH
 70
0
 62
7
  6
CONTINUOUS
370
-3
390
F
  0
LAYER
  5
200
100
AcDbSymbolTableRecord
100
AcDbLayerTableRecord
  2
COSMETIC
 70
0
 62
7
  6
CONTINUOUS
370
-3
390
F
  0
LAYER
  5
201
100
AcDbSymbolTableRecord
100
AcDbLayerTableRecord
  2
CURVE
 70
0
 62
7
  6
CONTINUOUS
370
-3
390
F
  0
LAYER
  5
202
100
AcDbSymbolTableRecord
100
AcDbLayerTableRecord
  2
DRAFT
 70
0
 62
7
  6
CONTINUOUS
370
-3
390
F
  0
LAYER
  5
203
100
AcDbSymbolTableRecord
100
AcDbLayerTableRecord
  2
IMPORT_IGES
 70
0
 62
7
  6
CONTINUOUS
370
-3
390
F
  0
LAYER
  5
204
100
AcDbSymbolTableRecord
100
AcDbLayerTableRecord
  2
PIANI
 70
0
 62
7
  6
CONTINUOUS
370
-3
390
F
  0
LAYER
  5
205
100
AcDbSymbolTableRecord
100
AcDbLayerTableRecord
  2
RACCORDO
 70
0
 62
7
  6
CONTINUOUS
370
-3
390
F
  0
LAYER
  5
206
100
AcDbSymbolTableRecord
100
AcDbLayerTableRecord
  2
SMUSSO
 70
0
 62
7
  6
CONTINUOUS
370
-3
390
F
  0
LAYER
  5
207
100
AcDbSymbolTableRecord
100
AcDbLayerTableRecord
  2
SNAPLINE
 70
0
 62
7
  6
CONTINUOUS
370
-3
390
F
  0
LAYER
  5
208
100
AcDbSymbolTableRecord
100
AcDbLayerTableRecord
  2
TRASH
 70
0
 62
7
  6
CONTINUOUS
370
-3
390
F
  0
ENDTAB
  0
TABLE
  2
STYLE
  5
3
100
AcDbSymbolTable
 70
1
  0
STYLE
  5
11
100
AcDbSymbolTableRecord
100
AcDbTextStyleTableRecord
  2
STANDARD
 70
0
 40
0.0
 41
0.8
 50
0.0
 71
0
 42
0.2
  3
txt
  4

  0
STYLE
  5
209
100
AcDbSymbolTableRecord
100
AcDbTextStyleTableRecord
  2
TEXTSTYLE_1
 70
0
 40
0.0
 41
0.8
 50
0.0
 71
0
 42
0.2
  3
gdt
  4

  0
ENDTAB
  0
TABLE
  2
VIEW
  5
6
100
AcDbSymbolTable
 70
0
  0
ENDTAB
  0
TABLE
  2
UCS
  5
7
100
AcDbSymbolTable
 70
0
  0
ENDTAB
  0
TABLE
  2
APPID
  5
9
100
AcDbSymbolTable
 70
1
  0
APPID
  5
20A
100
AcDbSymbolTableRecord
100
AcDbRegAppTableRecord
  2
ACAD
 70
0
  0
ENDTAB
  0
TABLE
  2
BLOCK_RECORD
  5
1
100
AcDbSymbolTable
 70
0
  0
BLOCK_RECORD
  5
20B
100
AcDbSymbolTableRecord
100
AcDbBlockTableRecord
  2
*Model_Space
  0
BLOCK_RECORD
  5
20C
100
AcDbSymbolTableRecord
100
AcDbBlockTableRecord
  2
*Paper_Space
  0
ENDTAB
  0
TABLE
  2
DIMSTYLE
  5
A
100
AcDbSymbolTable
 70
1
100
AcDbDimStyleTable
 71
0
  0
DIMSTYLE
105
20D
100
AcDbSymbolTableRecord
100
AcDbDimStyleTableRecord
  2
STANDARD
 70
0
  3

  4

 40
1.0
 41
3.0
 42
0.0625
 43
0.38
 44
0.18
 45
0.0
 46
0.0
 47
0.01
 48
0.01
140
3.0
141
0.09
142
0.0
143
25.4
144
1.0
145
0.0
146
1.0
147
0.09
 71
1.0
 72
0.0
 73
0
 74
0
 75
0
 76
0
 77
1
 78
8
170
0
171
2
172
0
173
0
174
0
175
0
176
0
177
0
178
0
270
2
271
2
272
2
273
2
274
2
275
0
280
0
281
0
282
0
283
1
284
8
285
0
286
0
287
3
288
0
340
11
  0
ENDTAB
  0
ENDSEC
  0
SECTION
  2
BLOCKS
  0
BLOCK
  5
20
100
AcDbEntity
  8
0
100
AcDbBlockBegin
  2
*Model_Space
 70
0
 10
0.0
 20
0.0
 30
0.0
  3
*Model_Space
  1

  0
ENDBLK
  5
21
100
AcDbEntity
  8
0
100
AcDbBlockEnd
  0
BLOCK
  5
1C
100
AcDbEntity
  8
0
100
AcDbBlockBegin
  2
*Paper_Space
 70
0
 10
0.0
 20
0.0
 30
0.0
  3
*Paper_Space
  1

  0
ENDBLK
  5
1D
100
AcDbEntity
  8
0
100
AcDbBlockEnd
  0
ENDSEC
  0
SECTION
  2
ENTITIES
  0
LINE
  5
20E
100
AcDbEntity
  8
0
100
AcDbLine
 62
7
  6
CONTINUOUS
 10
-15.0
 20
-92.7772587295
 11
15.0
 21
-92.7772587295
  0
LINE
  5
20F
100
AcDbEntity
  8
DRAFT
100
AcDbLine
 62
7
  6
CONTINUOUS
 10
18.5
 20
-90.0772587295
 11
15.0
 21
-90.0772587295
  0
LINE
  5
210
100
AcDbEntity
  8
DRAFT
100
AcDbLine
 62
7
  6
CONTINUOUS
 10
-15.0
 20
-90.0772587295
 11
-18.5
 21
-90.0772587295
  0
LINE
  5
211
100
AcDbEntity
  8
0
100
AcDbLine
 62
7
  6
CONTINUOUS
 10
15.0
 20
-90.0272587295
 11
23.9999845497
 21
-90.0272587295
  0
LINE
  5
212
100
AcDbEntity
  8
0
100
AcDbLine
 62
7
  6
CONTINUOUS
 10
-15.0
 20
-90.0272587295
 11
-23.9999845497
 21
-90.0272587295
  0
LINE
  5
213
100
AcDbEntity
  8
0
100
AcDbLine
 62
253
  6
CONTINUOUS
 10
-15.0
 20
-88.4772587295
 11
-9.9594408409
 21
-88.4772587295
  0
LINE
  5
214
100
AcDbEntity
  8
0
100
AcDbLine
 62
253
  6
CONTINUOUS
 10
-8.0405591591
 20
-88.4772587295
 11
8.0405591591
 21
-88.4772587295
  0
LINE
  5
215
100
AcDbEntity
  8
0
100
AcDbLine
 62
253
  6
CONTINUOUS
 10
9.9594408409
 20
-88.4772587295
 11
15.0
 21
-88.4772587295
  0
LINE
  5
216
100
AcDbEntity
  8
0
100
AcDbLine
 62
7
  6
CONTINUOUS
 10
15.0
 20
-88.4272587295
 11
23.9999803051
 21
-88.4272587295
  0
LINE
  5
217
100
AcDbEntity
  8
0
100
AcDbLine
 62
7
  6
CONTINUOUS
 10
-15.0
 20
-88.4272587295
 11
-23.9999803051
 21
-88.4272587295
  0
LINE
  5
218
100
AcDbEntity
  8
RACCORDO
100
AcDbLine
 62
253
  6
CONTINUOUS
 10
21.5319805153
 20
-88.0464975451
 11
15.0
 21
-88.0464975451
  0
LINE
  5
219
100
AcDbEntity
  8
RACCORDO
100
AcDbLine
 62
253
  6
CONTINUOUS
 10
-15.0
 20
-88.0464975451
 11
-21.5319805153
 21
-88.0464975451
  0
LINE
  5
21A
100
AcDbEntity
  8
0
100
AcDbLine
 62
253
  6
CONTINUOUS
 10
15.0
 20
-87.3174607549
 11
20.8029437252
 21
-87.3174607549
  0
LINE
  5
21B
100
AcDbEntity
  8
0
100
AcDbLine
 62
253
  6
CONTINUOUS
 10
-15.0
 20
-87.3174607549
 11
-20.8029437252
 21
-87.3174607549
  0
LINE
  5
21C
100
AcDbEntity
  8
RACCORDO
100
AcDbLine
 62
253
  6
CONTINUOUS
 10
-24.3569182436
 20
-80.6330581974
 11
-60.0420393717
 21
-83.2233284611
  0
LINE
  5
21D
100
AcDbEntity
  8
RACCORDO
100
AcDbLine
 62
7
  6
CONTINUOUS
 10
60.0420393717
 20
-83.2233284611
 11
46.9564279589
 21
-83.3395019237
  0
LINE
  5
21E
100
AcDbEntity
  8
0
100
AcDbLine
 62
7
  6
CONTINUOUS
 10
-15.0
 20
-82.4485356803
 11
-15.0156198416
 21
-82.4485551202
  0
LINE
  5
21F
100
AcDbEntity
  8
0
100
AcDbLine
 62
7
  6
CONTINUOUS
 10
16.7654695548
 20
-85.6772587295
 11
15.0
 21
-85.6772587295
  0
LINE
  5
220
100
AcDbEntity
  8
ASSI
100
AcDbLine
 62
7
  6
CONTINUOUS
 10
15.0
 20
-85.6772587295
 11
16.7654695548
 21
-85.6772587295
  0
LINE
  5
221
100
AcDbEntity
  8
ASSI
100
AcDbLine
 62
7
  6
CONTINUOUS
 10
-15.0
 20
-85.6772587295
 11
-16.7654695548
 21
-85.6772587295
  0
LINE
  5
222
100
AcDbEntity
  8
0
100
AcDbLine
 62
7
  6
CONTINUOUS
 10
-15.0
 20
-85.6772587295
 11
-16.7654695548
 21
-85.6772587295
  0
LINE
  5
223
100
AcDbEntity
  8
RACCORDO
100
AcDbLine
 62
253
  6
CONTINUOUS
 10
24.3569182436
 20
-80.6330581974
 11
15.0
 21
-80.6330581974
  0
LINE
  5
224
100
AcDbEntity
  8
RACCORDO
100
AcDbLine
 62
253
  6
CONTINUOUS
 10
-15.0
 20
-80.6330581974
 11
-24.3569182436
 21
-80.6330581974
  0
LINE
  5
225
100
AcDbEntity
  8
0
100
AcDbLine
 62
7
  6
CONTINUOUS
 10
15.0
 20
-82.4485356803
 11
15.0156198416
 21
-82.4485551202
  0
LINE
  5
226
100
AcDbEntity
  8
RACCORDO
100
AcDbLine
 62
7
  6
CONTINUOUS
 10
-46.9564279589
 20
-83.3395019237
 11
-60.0420393717
 21
-83.2233284611
  0
LINE
  5
227
100
AcDbEntity
  8
RACCORDO
100
AcDbLine
 62
253
  6
CONTINUOUS
 10
60.0420393717
 20
-83.2233284611
 11
24.3569182436
 21
-80.6330581974
  0
LINE
  5
228
100
AcDbEntity
  8
RACCORDO
100
AcDbLine
 62
253
  6
CONTINUOUS
 10
-28.8626166541
 20
-75.6361040623
 11
-65.0
 21
-78.2592026123
  0
LINE
  5
229
100
AcDbEntity
  8
RACCORDO
100
AcDbLine
 62
253
  6
CONTINUOUS
 10
28.8626166541
 20
-75.6361040623
 11
15.0
 21
-75.6361040623
  0
LINE
  5
22A
100
AcDbEntity
  8
RACCORDO
100
AcDbLine
 62
253
  6
CONTINUOUS
 10
-15.0
 20
-75.6361040623
 11
-28.8626166541
 21
-75.6361040623
  0
LINE
  5
22B
100
AcDbEntity
  8
ASSI
100
AcDbLine
 62
7
  6
CONTINUOUS
 10
11.0
 20
-74.2078674766
 11
5.3
 21
-74.2078674766
  0
LINE
  5
22C
100
AcDbEntity
  8
ASSI
100
AcDbLine
 62
7
  6
CONTINUOUS
 10
5.3
 20
-71.2078674766
 11
11.0
 21
-71.2078674766
  0
LINE
  5
22D
100
AcDbEntity
  8
RACCORDO
100
AcDbLine
 62
253
  6
CONTINUOUS
 10
65.0
 20
-78.2592026123
 11
28.8626166541
 21
-75.6361040623
  0
LINE
  5
22E
100
AcDbEntity
  8
RACCORDO
100
AcDbLine
 62
7
  6
CONTINUOUS
 10
-64.8089825892
 20
-81.1771017225
 11
-64.4438354827
 21
-89.298482638
  0
LINE
  5
22F
100
AcDbEntity
  8
RACCORDO
100
AcDbLine
 62
253
  6
CONTINUOUS
 10
-62.3278811491
 20
-82.558581291
 11
-62.064636745
 21
-88.4135039816
  0
LINE
  5
230
100
AcDbEntity
  8
RACCORDO
100
AcDbLine
 62
7
  6
CONTINUOUS
 10
-65.0
 20
-78.2592026123
 11
-65.0
 21
80.9046851532
  0
LINE
  5
231
100
AcDbEntity
  8
RACCORDO
100
AcDbLine
 62
7
  6
CONTINUOUS
 10
-64.5132717838
 20
90.3996050022
 11
-64.8089837568
 21
83.8225582948
  0
LINE
  5
232
100
AcDbEntity
  8
RACCORDO
100
AcDbLine
 62
253
  6
CONTINUOUS
 10
-62.3278811491
 20
85.204063832
 11
-62.0646237577
 21
91.0592753794
  0
LINE
  5
233
100
AcDbEntity
  8
ASSI
100
AcDbLine
 62
7
  6
CONTINUOUS
 10
-2.9457596643
 20
-63.9272587295
 11
-6.15
 21
-63.9272587295
  0
LINE
  5
234
100
AcDbEntity
  8
DRAFT
100
AcDbLine
 62
7
  6
CONTINUOUS
 10
21.2924608213
 20
-63.0651113012
 11
15.0
 21
-63.0651113012
  0
LINE
  5
235
100
AcDbEntity
  8
DRAFT
100
AcDbLine
 62
7
  6
CONTINUOUS
 10
3.1756916535
 20
-63.0651113012
 11
-7.3377046824
 21
-63.0651113012
  0
LINE
  5
236
100
AcDbEntity
  8
DRAFT
100
AcDbLine
 62
7
  6
CONTINUOUS
 10
-15.0
 20
-63.0651113012
 11
-21.6005633649
 21
-63.0651113012
  0
LINE
  5
237
100
AcDbEntity
  8
0
100
AcDbLine
 62
7
  6
CONTINUOUS
 10
-8.0405591591
 20
91.1227412705
 11
-8.6464466094
 21
90.265887021
  0
LINE
  5
238
100
AcDbEntity
  8
DRAFT
100
AcDbLine
 62
7
  6
CONTINUOUS
 10
-20.5
 20
-61.9645479363
 11
-15.0
 21
-61.9645479363
  0
LINE
  5
239
100
AcDbEntity
  8
DRAFT
100
AcDbLine
 62
7
  6
CONTINUOUS
 10
-7.1762303648
 20
-61.9645479363
 11
3.1186576784
 21
-61.9645479363
  0
LINE
  5
23A
100
AcDbEntity
  8
ASSI
100
AcDbLine
 62
7
  6
CONTINUOUS
 10
-6.15
 20
-61.4272587295
 11
-2.9457596643
 21
-61.4272587295
  0
LINE
  5
23B
100
AcDbEntity
  8
0
100
AcDbLine
 62
7
  6
CONTINUOUS
 10
-15.5
 20
-59.4645479363
 11
-15.0
 21
-59.4645479363
  0
LINE
  5
23C
100
AcDbEntity
  8
0
100
AcDbLine
 62
7
  6
CONTINUOUS
 10
-1.25
 20
-59.4645479363
 11
1.25
 21
-59.4645479363
  0
LINE
  5
23D
100
AcDbEntity
  8
DRAFT
100
AcDbLine
 62
7
  6
CONTINUOUS
 10
21.2924608213
 20
-63.0651113012
 11
15.0
 21
-62.3579088951
  0
LINE
  5
23E
100
AcDbEntity
  8
0
100
AcDbLine
 62
7
  6
CONTINUOUS
 10
-8.0405591591
 20
-88.4772587295
 11
-8.6464466094
 21
-87.62040448
  0
LINE
  5
23F
100
AcDbEntity
  8
0
100
AcDbLine
 62
7
  6
CONTINUOUS
 10
21.9127416998
 20
91.0727412705
 11
20.8029437252
 21
89.9629432958
  0
LINE
  5
240
100
AcDbEntity
  8
0
100
AcDbLine
 62
7
  6
CONTINUOUS
 10
20.8029437252
 20
-87.3174607549
 11
21.5319805153
 21
-88.0464975451
  0
LINE
  5
241
100
AcDbEntity
  8
ASSI
100
AcDbLine
 62
7
  6
CONTINUOUS
 10
-45.1322471164
 20
-97.8227412705
 11
-45.1322471164
 21
-92.8227412705
  0
LINE
  5
242
100
AcDbEntity
  8
0
100
AcDbLine
 62
7
  6
CONTINUOUS
 10
9.9594408409
 20
91.1227412705
 11
9.3535533906
 21
90.265887021
  0
LINE
  5
243
100
AcDbEntity
  8
0
100
AcDbLine
 62
253
  6
CONTINUOUS
 10
-15.0
 20
-38.6772587295
 11
15.0
 21
-38.6772587295
  0
LINE
  5
244
100
AcDbEntity
  8
ASSI
100
AcDbLine
 62
7
  6
CONTINUOUS
 10
43.4251403352
 20
-98.5298480516
 11
38.6199094594
 21
-93.7246171758
  0
LINE
  5
245
100
AcDbEntity
  8
0
100
AcDbLine
 62
7
  6
CONTINUOUS
 10
9.9594408409
 20
-88.4772587295
 11
9.3535533906
 21
-87.62040448
  0
LINE
  5
246
100
AcDbEntity
  8
RACCORDO
100
AcDbLine
 62
253
  6
CONTINUOUS
 10
5.5
 20
-34.3729399598
 11
-5.5
 21
-34.3729399598
  0
LINE
  5
247
100
AcDbEntity
  8
RACCORDO
100
AcDbLine
 62
253
  6
CONTINUOUS
 10
5.5
 20
-32.4410883072
 11
-5.5
 21
-32.4410883072
  0
LINE
  5
248
100
AcDbEntity
  8
0
100
AcDbLine
 62
253
  6
CONTINUOUS
 10
5.5
 20
-32.1258575679
 11
-5.5
 21
-32.1258575679
  0
LINE
  5
249
100
AcDbEntity
  8
0
100
AcDbLine
 62
253
  6
CONTINUOUS
 10
5.5
 20
-31.1599317416
 11
-5.5
 21
-31.1599317416
  0
LINE
  5
24A
100
AcDbEntity
  8
RACCORDO
100
AcDbLine
 62
253
  6
CONTINUOUS
 10
-28.8626166541
 20
78.2815866032
 11
-28.8626166541
 21
-75.6361040623
  0
LINE
  5
24B
100
AcDbEntity
  8
RACCORDO
100
AcDbLine
 62
253
  6
CONTINUOUS
 10
-24.3569182436
 20
-80.6330581974
 11
-24.3569182436
 21
83.2785407383
  0
LINE
  5
24C
100
AcDbEntity
  8
0
100
AcDbLine
 62
7
  6
CONTINUOUS
 10
-24.0
 20
92.6727412705
 11
-24.0
 21
91.0727412705
  0
LINE
  5
24D
100
AcDbEntity
  8
0
100
AcDbLine
 62
7
  6
CONTINUOUS
 10
-24.0
 20
-88.4272587295
 11
-24.0
 21
-90.0272587295
  0
LINE
  5
24E
100
AcDbEntity
  8
RACCORDO
100
AcDbLine
 62
253
  6
CONTINUOUS
 10
-9.9456812302
 20
-29.9272587295
 11
-7.6985988383
 21
-29.9272587295
  0
LINE
  5
24F
100
AcDbEntity
  8
RACCORDO
100
AcDbLine
 62
253
  6
CONTINUOUS
 10
9.9456812302
 20
-29.9272587295
 11
7.6985988383
 21
-29.9272587295
  0
LINE
  5
250
100
AcDbEntity
  8
0
100
AcDbLine
 62
253
  6
CONTINUOUS
 10
6.732673012
 20
-29.9272587295
 11
7.6985988383
 21
-29.9272587288
  0
LINE
  5
251
100
AcDbEntity
  8
0
100
AcDbLine
 62
253
  6
CONTINUOUS
 10
-6.732673012
 20
-29.9272587295
 11
-7.6985988383
 21
-29.9272587295
  0
LINE
  5
252
100
AcDbEntity
  8
0
100
AcDbLine
 62
7
  6
CONTINUOUS
 10
-15.0156198416
 20
-82.4485551202
 11
-15.0
 21
-83.22376284
  0
LINE
  5
253
100
AcDbEntity
  8
DRAFT
100
AcDbLine
 62
7
  6
CONTINUOUS
 10
-21.6005633649
 20
-63.0651113012
 11
-21.6005633649
 21
-5.8639845714
  0
LINE
  5
254
100
AcDbEntity
  8
DRAFT
100
AcDbLine
 62
7
  6
CONTINUOUS
 10
-20.5
 20
-61.9645479363
 11
-20.5
 21
-6.9645479363
  0
LINE
  5
255
100
AcDbEntity
  8
ASSI
100
AcDbLine
 62
7
  6
CONTINUOUS
 10
-18.5
 20
-90.0272587295
 11
-18.5
 21
-90.0772587295
  0
LINE
  5
256
100
AcDbEntity
  8
0
100
AcDbLine
 62
7
  6
CONTINUOUS
 10
-18.5
 20
-90.0272587295
 11
-18.5
 21
-90.0772587295
  0
LINE
  5
257
100
AcDbEntity
  8
ASSI
100
AcDbLine
 62
7
  6
CONTINUOUS
 10
-18.5
 20
92.6727412705
 11
-18.5
 21
92.7227412705
  0
LINE
  5
258
100
AcDbEntity
  8
0
100
AcDbLine
 62
7
  6
CONTINUOUS
 10
-18.5
 20
92.6727412705
 11
-18.5
 21
92.7227412705
  0
LINE
  5
259
100
AcDbEntity
  8
0
100
AcDbLine
 62
7
  6
CONTINUOUS
 10
-15.5
 20
-9.4645479363
 11
-15.5
 21
-59.4645479363
  0
LINE
  5
25A
100
AcDbEntity
  8
0
100
AcDbLine
 62
7
  6
CONTINUOUS
 10
-15.0
 20
-92.7772587295
 11
-15.0
 21
95.4227412705
  0
LINE
  5
25B
100
AcDbEntity
  8
0
100
AcDbLine
 62
7
  6
CONTINUOUS
 10
-15.0156198416
 20
85.0940376611
 11
-15.0
 21
85.8692453809
  0
LINE
  5
25C
100
AcDbEntity
  8
DRAFT
100
AcDbLine
 62
7
  6
CONTINUOUS
 10
-21.6005633649
 20
-5.8639845714
 11
-20.5
 21
-6.9645479363
  0
LINE
  5
25D
100
AcDbEntity
  8
RACCORDO
100
AcDbLine
 62
253
  6
CONTINUOUS
 10
-9.9456812302
 20
-29.9272587295
 11
-9.9456812302
 21
32.5727412705
  0
LINE
  5
25E
100
AcDbEntity
  8
0
100
AcDbLine
 62
253
  6
CONTINUOUS
 10
-9.3535533906
 20
95.4227412705
 11
-9.3535533906
 21
90.265887021
  0
LINE
  5
25F
100
AcDbEntity
  8
0
100
AcDbLine
 62
253
  6
CONTINUOUS
 10
-9.3535533906
 20
-92.7772587295
 11
-9.3535533906
 21
-87.62040448
  0
LINE
  5
260
100
AcDbEntity
  8
0
100
AcDbLine
 62
253
  6
CONTINUOUS
 10
-8.6464466094
 20
95.4227412705
 11
-8.6464466094
 21
90.265887021
  0
LINE
  5
261
100
AcDbEntity
  8
0
100
AcDbLine
 62
253
  6
CONTINUOUS
 10
-8.6464466094
 20
-92.7772587295
 11
-8.6464466094
 21
-87.62040448
  0
LINE
  5
262
100
AcDbEntity
  8
RACCORDO
100
AcDbLine
 62
253
  6
CONTINUOUS
 10
-8.0138295776
 20
-29.9272587295
 11
-8.0138295776
 21
32.5727412705
  0
LINE
  5
263
100
AcDbEntity
  8
0
100
AcDbLine
 62
253
  6
CONTINUOUS
 10
-7.6985988383
 20
-29.9272587295
 11
-7.6985988383
 21
32.5727412705
  0
LINE
  5
264
100
AcDbEntity
  8
DRAFT
100
AcDbLine
 62
7
  6
CONTINUOUS
 10
21.2924608213
 20
-5.8639845714
 11
20.0
 21
-6.0092427507
  0
LINE
  5
265
100
AcDbEntity
  8
0
100
AcDbLine
 62
7
  6
CONTINUOUS
 10
-15.0
 20
-9.4645479363
 11
-15.5
 21
-9.4645479363
  0
LINE
  5
266
100
AcDbEntity
  8
DRAFT
100
AcDbLine
 62
7
  6
CONTINUOUS
 10
-20.5
 20
-6.9645479363
 11
-15.0
 21
-6.9645479363
  0
LINE
  5
267
100
AcDbEntity
  8
0
100
AcDbLine
 62
253
  6
CONTINUOUS
 10
-6.732673012
 20
-29.9272587295
 11
-6.732673012
 21
32.5727412705
  0
LINE
  5
268
100
AcDbEntity
  8
RACCORDO
100
AcDbLine
 62
253
  6
CONTINUOUS
 10
-5.5
 20
37.0184225007
 11
-5.5
 21
34.7713401088
  0
LINE
  5
269
100
AcDbEntity
  8
RACCORDO
100
AcDbLine
 62
253
  6
CONTINUOUS
 10
-5.5
 20
-34.3729399598
 11
-5.5
 21
-32.1258575679
  0
LINE
  5
26A
100
AcDbEntity
  8
0
100
AcDbLine
 62
253
  6
CONTINUOUS
 10
-5.5
 20
-31.1599317416
 11
-5.4999999993
 21
-32.1258575678
  0
LINE
  5
26B
100
AcDbEntity
  8
0
100
AcDbLine
 62
253
  6
CONTINUOUS
 10
-5.5
 20
33.8054142825
 11
-5.5
 21
34.7713401088
  0
LINE
  5
26C
100
AcDbEntity
  8
ASSI
100
AcDbLine
 62
7
  6
CONTINUOUS
 10
-1.25
 20
71.4727412705
 11
-1.25
 21
68.2685009348
  0
LINE
  5
26D
100
AcDbEntity
  8
ASSI
100
AcDbLine
 62
7
  6
CONTINUOUS
 10
-1.25
 20
-56.5272587295
 11
-1.25
 21
-59.7314990652
  0
LINE
  5
26E
100
AcDbEntity
  8
DRAFT
100
AcDbLine
 62
7
  6
CONTINUOUS
 10
-21.6005633649
 20
-5.8639845714
 11
-15.0
 21
-5.8639845714
  0
LINE
  5
26F
100
AcDbEntity
  8
DRAFT
100
AcDbLine
 62
7
  6
CONTINUOUS
 10
20.0
 20
-5.8639845714
 11
21.2924608213
 21
-5.8639845714
  0
LINE
  5
270
100
AcDbEntity
  8
ASSI
100
AcDbLine
 62
7
  6
CONTINUOUS
 10
1.25
 20
-59.7314990652
 11
1.25
 21
-56.5272587295
  0
LINE
  5
271
100
AcDbEntity
  8
ASSI
100
AcDbLine
 62
7
  6
CONTINUOUS
 10
1.25
 20
68.2685009348
 11
1.25
 21
71.4727412705
  0
LINE
  5
272
100
AcDbEntity
  8
RACCORDO
100
AcDbLine
 62
253
  6
CONTINUOUS
 10
5.5
 20
37.0184225007
 11
5.5
 21
34.7713401088
  0
LINE
  5
273
100
AcDbEntity
  8
RACCORDO
100
AcDbLine
 62
253
  6
CONTINUOUS
 10
5.5
 20
-34.3729399598
 11
5.5
 21
-32.1258575679
  0
LINE
  5
274
100
AcDbEntity
  8
0
100
AcDbLine
 62
253
  6
CONTINUOUS
 10
5.5
 20
-31.1599317416
 11
5.5
 21
-32.1258575679
  0
LINE
  5
275
100
AcDbEntity
  8
0
100
AcDbLine
 62
253
  6
CONTINUOUS
 10
5.5
 20
33.8054142825
 11
5.4999999993
 21
34.7713401088
  0
LINE
  5
276
100
AcDbEntity
  8
0
100
AcDbLine
 62
253
  6
CONTINUOUS
 10
6.732673012
 20
32.5727412705
 11
6.732673012
 21
-29.9272587295
  0
LINE
  5
277
100
AcDbEntity
  8
0
100
AcDbLine
 62
253
  6
CONTINUOUS
 10
7.6985988383
 20
32.5727412705
 11
7.6985988383
 21
-29.9272587295
  0
LINE
  5
278
100
AcDbEntity
  8
RACCORDO
100
AcDbLine
 62
253
  6
CONTINUOUS
 10
8.0138295776
 20
32.5727412705
 11
8.0138295776
 21
-29.9272587295
  0
LINE
  5
279
100
AcDbEntity
  8
0
100
AcDbLine
 62
253
  6
CONTINUOUS
 10
8.6464466094
 20
95.4227412705
 11
8.6464466094
 21
90.265887021
  0
LINE
  5
27A
100
AcDbEntity
  8
0
100
AcDbLine
 62
253
  6
CONTINUOUS
 10
8.6464466094
 20
-92.7772587295
 11
8.6464466094
 21
-87.62040448
  0
LINE
  5
27B
100
AcDbEntity
  8
0
100
AcDbLine
 62
7
  6
CONTINUOUS
 10
15.0
 20
85.8692453809
 11
15.0156198416
 21
85.0940376611
  0
LINE
  5
27C
100
AcDbEntity
  8
0
100
AcDbLine
 62
253
  6
CONTINUOUS
 10
9.3535533906
 20
95.4227412705
 11
9.3535533906
 21
90.265887021
  0
LINE
  5
27D
100
AcDbEntity
  8
0
100
AcDbLine
 62
253
  6
CONTINUOUS
 10
9.3535533906
 20
-92.7772587295
 11
9.3535533906
 21
-87.62040448
  0
LINE
  5
27E
100
AcDbEntity
  8
RACCORDO
100
AcDbLine
 62
253
  6
CONTINUOUS
 10
9.9456812302
 20
32.5727412705
 11
9.9456812302
 21
-29.9272587295
  0
LINE
  5
27F
100
AcDbEntity
  8
0
100
AcDbLine
 62
7
  6
CONTINUOUS
 10
15.0
 20
-38.6772587295
 11
15.0
 21
-92.7772587295
  0
LINE
  5
280
100
AcDbEntity
  8
0
100
AcDbLine
 62
7
  6
CONTINUOUS
 10
15.0
 20
41.3227412705
 11
15.0
 21
95.4227412705
  0
LINE
  5
281
100
AcDbEntity
  8
ASSI
100
AcDbLine
 62
7
  6
CONTINUOUS
 10
15.2
 20
-1.6772587295
 11
15.2
 21
4.3227412705
  0
LINE
  5
282
100
AcDbEntity
  8
0
100
AcDbLine
 62
7
  6
CONTINUOUS
 10
15.0
 20
-83.22376284
 11
15.0156198416
 21
-82.4485551202
  0
LINE
  5
283
100
AcDbEntity
  8
ASSI
100
AcDbLine
 62
7
  6
CONTINUOUS
 10
17.7
 20
4.3227412705
 11
17.7
 21
-1.6772587295
  0
LINE
  5
284
100
AcDbEntity
  8
ASSI
100
AcDbLine
 62
7
  6
CONTINUOUS
 10
18.5
 20
-90.0272587295
 11
18.5
 21
-90.0772587295
  0
LINE
  5
285
100
AcDbEntity
  8
0
100
AcDbLine
 62
7
  6
CONTINUOUS
 10
18.5
 20
-90.0272587295
 11
18.5
 21
-90.0772587295
  0
LINE
  5
286
100
AcDbEntity
  8
ASSI
100
AcDbLine
 62
7
  6
CONTINUOUS
 10
18.5
 20
92.6727412705
 11
18.5
 21
92.7227412705
  0
LINE
  5
287
100
AcDbEntity
  8
0
100
AcDbLine
 62
7
  6
CONTINUOUS
 10
18.5
 20
92.6727412705
 11
18.5
 21
92.7227412705
  0
LINE
  5
288
100
AcDbEntity
  8
0
100
AcDbLine
 62
7
  6
CONTINUOUS
 10
20.0
 20
35.0727412705
 11
20.0
 21
-32.4272587295
  0
LINE
  5
289
100
AcDbEntity
  8
DRAFT
100
AcDbLine
 62
7
  6
CONTINUOUS
 10
21.2924608213
 20
-5.8639845714
 11
21.2924608213
 21
-63.0651113012
  0
LINE
  5
28A
100
AcDbEntity
  8
0
100
AcDbLine
 62
7
  6
CONTINUOUS
 10
24.0
 20
-90.0272587295
 11
24.0
 21
-88.4272587295
  0
LINE
  5
28B
100
AcDbEntity
  8
0
100
AcDbLine
 62
7
  6
CONTINUOUS
 10
24.0
 20
91.0727412705
 11
24.0
 21
92.6727412705
  0
LINE
  5
28C
100
AcDbEntity
  8
RACCORDO
100
AcDbLine
 62
253
  6
CONTINUOUS
 10
24.3569182436
 20
-80.6330581974
 11
24.3569182436
 21
83.2785407383
  0
LINE
  5
28D
100
AcDbEntity
  8
RACCORDO
100
AcDbLine
 62
253
  6
CONTINUOUS
 10
28.8626166541
 20
78.2815866032
 11
28.8626166541
 21
-75.6361040623
  0
LINE
  5
28E
100
AcDbEntity
  8
DRAFT
100
AcDbLine
 62
7
  6
CONTINUOUS
 10
-21.6005633649
 20
-63.0651113012
 11
-20.5
 21
-61.9645479363
  0
LINE
  5
28F
100
AcDbEntity
  8
RACCORDO
100
AcDbLine
 62
253
  6
CONTINUOUS
 10
-9.9456812302
 20
32.5727412705
 11
-7.6985988383
 21
32.5727412705
  0
LINE
  5
290
100
AcDbEntity
  8
RACCORDO
100
AcDbLine
 62
253
  6
CONTINUOUS
 10
9.9456812302
 20
32.5727412705
 11
7.6985988383
 21
32.5727412705
  0
LINE
  5
291
100
AcDbEntity
  8
0
100
AcDbLine
 62
253
  6
CONTINUOUS
 10
6.732673012
 20
32.5727412705
 11
7.6985988383
 21
32.5727412705
  0
LINE
  5
292
100
AcDbEntity
  8
0
100
AcDbLine
 62
253
  6
CONTINUOUS
 10
-6.732673012
 20
32.5727412705
 11
-7.6985988383
 21
32.5727412697
  0
LINE
  5
293
100
AcDbEntity
  8
0
100
AcDbLine
 62
7
  6
CONTINUOUS
 10
20.0
 20
-32.4272587295
 11
15.0
 21
-38.6772587295
  0
LINE
  5
294
100
AcDbEntity
  8
ASSI
100
AcDbLine
 62
7
  6
CONTINUOUS
 10
-38.6199094594
 20
-93.7246171758
 11
-43.4251403352
 21
-98.5298480516
  0
LINE
  5
295
100
AcDbEntity
  8
0
100
AcDbLine
 62
253
  6
CONTINUOUS
 10
-5.5
 20
33.8054142825
 11
5.5
 21
33.8054142825
  0
LINE
  5
296
100
AcDbEntity
  8
0
100
AcDbLine
 62
253
  6
CONTINUOUS
 10
-5.5
 20
34.7713401088
 11
5.5
 21
34.7713401088
  0
LINE
  5
297
100
AcDbEntity
  8
RACCORDO
100
AcDbLine
 62
253
  6
CONTINUOUS
 10
-5.5
 20
35.0865708481
 11
5.5
 21
35.0865708481
  0
LINE
  5
298
100
AcDbEntity
  8
RACCORDO
100
AcDbLine
 62
253
  6
CONTINUOUS
 10
-5.5
 20
37.0184225007
 11
5.5
 21
37.0184225007
  0
LINE
  5
299
100
AcDbEntity
  8
0
100
AcDbLine
 62
7
  6
CONTINUOUS
 10
15.0
 20
41.3227412705
 11
20.0
 21
35.0727412705
  0
LINE
  5
29A
100
AcDbEntity
  8
ASSI
100
AcDbLine
 62
7
  6
CONTINUOUS
 10
45.1322471164
 20
-92.8227412705
 11
45.1322471164
 21
-97.8227412705
  0
LINE
  5
29B
100
AcDbEntity
  8
0
100
AcDbLine
 62
7
  6
CONTINUOUS
 10
-9.9594408409
 20
-88.4772587295
 11
-9.3535533906
 21
-87.62040448
  0
LINE
  5
29C
100
AcDbEntity
  8
0
100
AcDbLine
 62
7
  6
CONTINUOUS
 10
-20.8029437252
 20
-87.3174607549
 11
-21.5319805153
 21
-88.0464975451
  0
LINE
  5
29D
100
AcDbEntity
  8
0
100
AcDbLine
 62
253
  6
CONTINUOUS
 10
15.0
 20
41.3227412705
 11
-15.0
 21
41.3227412705
  0
LINE
  5
29E
100
AcDbEntity
  8
0
100
AcDbLine
 62
7
  6
CONTINUOUS
 10
-9.9594408409
 20
91.1227412705
 11
-9.3535533906
 21
90.265887021
  0
LINE
  5
29F
100
AcDbEntity
  8
0
100
AcDbLine
 62
7
  6
CONTINUOUS
 10
-21.9127416998
 20
91.0727412705
 11
-20.8029437252
 21
89.9629432958
  0
LINE
  5
2A0
100
AcDbEntity
  8
0
100
AcDbLine
 62
7
  6
CONTINUOUS
 10
8.0405591591
 20
-88.4772587295
 11
8.6464466094
 21
-87.62040448
  0
LINE
  5
2A1
100
AcDbEntity
  8
ASSI
100
AcDbLine
 62
7
  6
CONTINUOUS
 10
-2.9457596643
 20
64.0727412705
 11
-6.15
 21
64.0727412705
  0
LINE
  5
2A2
100
AcDbEntity
  8
0
100
AcDbLine
 62
7
  6
CONTINUOUS
 10
8.0405591591
 20
91.1227412705
 11
8.6464466094
 21
90.265887021
  0
LINE
  5
2A3
100
AcDbEntity
  8
RACCORDO
100
AcDbLine
 62
253
  6
CONTINUOUS
 10
64.5132681991
 20
90.3996845016
 11
64.5132721022
 21
90.3995979182
  0
LINE
  5
2A4
100
AcDbEntity
  8
RACCORDO
100
AcDbLine
 62
253
  6
CONTINUOUS
 10
62.3278811491
 20
85.204063832
 11
62.0646017628
 21
91.0597645753
  0
LINE
  5
2A5
100
AcDbEntity
  8
RACCORDO
100
AcDbLine
 62
7
  6
CONTINUOUS
 10
64.8089825892
 20
83.8225842634
 11
64.5132717838
 21
90.3996050022
  0
LINE
  5
2A6
100
AcDbEntity
  8
RACCORDO
100
AcDbLine
 62
7
  6
CONTINUOUS
 10
65.0
 20
-78.2592026123
 11
65.0
 21
80.9046851532
  0
LINE
  5
2A7
100
AcDbEntity
  8
RACCORDO
100
AcDbLine
 62
253
  6
CONTINUOUS
 10
62.3278811491
 20
-82.558581291
 11
62.0646237577
 21
-88.4137928385
  0
LINE
  5
2A8
100
AcDbEntity
  8
RACCORDO
100
AcDbLine
 62
7
  6
CONTINUOUS
 10
64.5132717838
 20
-87.7541224613
 11
64.8089837568
 21
-81.1770757538
  0
LINE
  5
2A9
100
AcDbEntity
  8
0
100
AcDbLine
 62
7
  6
CONTINUOUS
 10
3.0537165099
 20
66.2785407383
 11
-6.9547007365
 21
66.2785407383
  0
LINE
  5
2AA
100
AcDbEntity
  8
ASSI
100
AcDbLine
 62
7
  6
CONTINUOUS
 10
-6.15
 20
66.5727412705
 11
-2.9457596643
 21
66.5727412705
  0
LINE
  5
2AB
100
AcDbEntity
  8
0
100
AcDbLine
 62
7
  6
CONTINUOUS
 10
2.7669321111
 20
66.9285407383
 11
-2.7676638841
 21
66.9285407383
  0
LINE
  5
2AC
100
AcDbEntity
  8
RACCORDO
100
AcDbLine
 62
253
  6
CONTINUOUS
 10
28.8626166541
 20
78.2815866032
 11
65.0
 21
80.9046851532
  0
LINE
  5
2AD
100
AcDbEntity
  8
ASSI
100
AcDbLine
 62
7
  6
CONTINUOUS
 10
11.0
 20
73.8533500175
 11
5.3
 21
73.8533500175
  0
LINE
  5
2AE
100
AcDbEntity
  8
ASSI
100
AcDbLine
 62
7
  6
CONTINUOUS
 10
5.3
 20
76.8533500175
 11
11.0
 21
76.8533500175
  0
LINE
  5
2AF
100
AcDbEntity
  8
RACCORDO
100
AcDbLine
 62
253
  6
CONTINUOUS
 10
-28.8626166541
 20
78.2815866032
 11
-15.0
 21
78.2815866032
  0
LINE
  5
2B0
100
AcDbEntity
  8
RACCORDO
100
AcDbLine
 62
253
  6
CONTINUOUS
 10
15.0
 20
78.2815866032
 11
28.8626166541
 21
78.2815866032
  0
LINE
  5
2B1
100
AcDbEntity
  8
RACCORDO
100
AcDbLine
 62
253
  6
CONTINUOUS
 10
-65.0
 20
80.9046851532
 11
-28.8626166541
 21
78.2815866032
  0
LINE
  5
2B2
100
AcDbEntity
  8
RACCORDO
100
AcDbLine
 62
253
  6
CONTINUOUS
 10
24.3569182436
 20
83.2785407383
 11
60.0420393717
 21
85.868811002
  0
LINE
  5
2B3
100
AcDbEntity
  8
RACCORDO
100
AcDbLine
 62
7
  6
CONTINUOUS
 10
-60.0420393717
 20
85.868811002
 11
-46.9564279589
 21
85.9849844647
  0
LINE
  5
2B4
100
AcDbEntity
  8
0
100
AcDbLine
 62
7
  6
CONTINUOUS
 10
15.0
 20
85.0940182212
 11
15.0156198416
 21
85.0940376611
  0
LINE
  5
2B5
100
AcDbEntity
  8
RACCORDO
100
AcDbLine
 62
253
  6
CONTINUOUS
 10
-24.3569182436
 20
83.2785407383
 11
-15.0
 21
83.2785407383
  0
LINE
  5
2B6
100
AcDbEntity
  8
RACCORDO
100
AcDbLine
 62
253
  6
CONTINUOUS
 10
15.0
 20
83.2785407383
 11
24.3569182436
 21
83.2785407383
  0
LINE
  5
2B7
100
AcDbEntity
  8
0
100
AcDbLine
 62
7
  6
CONTINUOUS
 10
-15.0
 20
85.0940182212
 11
-15.0156198416
 21
85.0940376611
  0
LINE
  5
2B8
100
AcDbEntity
  8
RACCORDO
100
AcDbLine
 62
7
  6
CONTINUOUS
 10
46.9564279589
 20
85.9849844647
 11
60.0420393717
 21
85.868811002
  0
LINE
  5
2B9
100
AcDbEntity
  8
RACCORDO
100
AcDbLine
 62
253
  6
CONTINUOUS
 10
-60.0420393717
 20
85.868811002
 11
-24.3569182436
 21
83.2785407383
  0
LINE
  5
2BA
100
AcDbEntity
  8
ASSI
100
AcDbLine
 62
7
  6
CONTINUOUS
 10
15.0
 20
88.3227412705
 11
16.7654695548
 21
88.3227412705
  0
LINE
  5
2BB
100
AcDbEntity
  8
ASSI
100
AcDbLine
 62
7
  6
CONTINUOUS
 10
-15.0
 20
88.3227412705
 11
-16.7654695548
 21
88.3227412705
  0
LINE
  5
2BC
100
AcDbEntity
  8
0
100
AcDbLine
 62
253
  6
CONTINUOUS
 10
15.0
 20
89.9629432958
 11
20.8029437252
 21
89.9629432958
  0
LINE
  5
2BD
100
AcDbEntity
  8
0
100
AcDbLine
 62
253
  6
CONTINUOUS
 10
-15.0000056641
 20
89.9629432958
 11
-20.8029437252
 21
89.9629432958
  0
LINE
  5
2BE
100
AcDbEntity
  8
0
100
AcDbLine
 62
7
  6
CONTINUOUS
 10
15.0
 20
91.0727412705
 11
23.9999654851
 21
91.0727412705
  0
LINE
  5
2BF
100
AcDbEntity
  8
0
100
AcDbLine
 62
7
  6
CONTINUOUS
 10
-15.0
 20
91.0727412705
 11
-23.9999654851
 21
91.0727412705
  0
LINE
  5
2C0
100
AcDbEntity
  8
0
100
AcDbLine
 62
253
  6
CONTINUOUS
 10
15.0
 20
91.1227412705
 11
9.9594408409
 21
91.1227412705
  0
LINE
  5
2C1
100
AcDbEntity
  8
0
100
AcDbLine
 62
253
  6
CONTINUOUS
 10
8.0405591591
 20
91.1227412705
 11
-8.0405591591
 21
91.1227412705
  0
LINE
  5
2C2
100
AcDbEntity
  8
0
100
AcDbLine
 62
253
  6
CONTINUOUS
 10
-9.9594408409
 20
91.1227412705
 11
-15.0
 21
91.1227412705
  0
LINE
  5
2C3
100
AcDbEntity
  8
0
100
AcDbLine
 62
7
  6
CONTINUOUS
 10
15.0
 20
92.6727412705
 11
23.9999894177
 21
92.6727412705
  0
LINE
  5
2C4
100
AcDbEntity
  8
0
100
AcDbLine
 62
7
  6
CONTINUOUS
 10
-15.0
 20
92.6727412705
 11
-23.9999894177
 21
92.6727412705
  0
LINE
  5
2C5
100
AcDbEntity
  8
DRAFT
100
AcDbLine
 62
7
  6
CONTINUOUS
 10
-18.5
 20
92.7227412705
 11
-15.0
 21
92.7227412705
  0
LINE
  5
2C6
100
AcDbEntity
  8
DRAFT
100
AcDbLine
 62
7
  6
CONTINUOUS
 10
15.0
 20
92.7227412705
 11
18.5
 21
92.7227412705
  0
LINE
  5
2C7
100
AcDbEntity
  8
0
100
AcDbLine
 62
7
  6
CONTINUOUS
 10
15.0
 20
95.4227412705
 11
-15.0
 21
95.4227412705
  0
ARC
  5
2C8
100
AcDbEntity
  8
RACCORDO
100
AcDbCircle
 62
7
  6
CONTINUOUS
 10
0.0
 20
-206.4629730153
 40
305.2857142857
100
AcDbArc
 50
78.1045415065
 51
101.8954611048
  0
ARC
  5
2C9
100
AcDbEntity
  8
RACCORDO
100
AcDbCircle
 62
253
  6
CONTINUOUS
 10
-0.7448578322
 20
-207.3798947852
 40
304.9774442112
100
AcDbArc
 50
78.115008148
 51
80.8120756925
  0
ARC
  5
2CA
100
AcDbEntity
  8
RACCORDO
100
AcDbCircle
 62
253
  6
CONTINUOUS
 10
-0.005212411
 20
-196.7703818559
 40
294.3422560415
100
AcDbArc
 50
91.0303318961
 51
99.3731329277
  0
ARC
  5
2CB
100
AcDbEntity
  8
0
100
AcDbCircle
 62
7
  6
CONTINUOUS
 10
0.0
 20
-59.7686048834
 40
35.5086538462
100
AcDbArc
 50
294.9909817581
 51
301.3993370923
  0
ARC
  5
2CC
100
AcDbEntity
  8
0
100
AcDbCircle
 62
7
  6
CONTINUOUS
 10
0.0
 20
-59.7686048834
 40
35.5086538462
100
AcDbArc
 50
248.3876313933
 51
291.6123686067
  0
ARC
  5
2CD
100
AcDbEntity
  8
0
100
AcDbCircle
 62
7
  6
CONTINUOUS
 10
0.0
 20
-59.7686048834
 40
35.5086538462
100
AcDbArc
 50
238.6006629077
 51
245.0090182419
  0
ARC
  5
2CE
100
AcDbEntity
  8
0
100
AcDbCircle
 62
7
  6
CONTINUOUS
 10
-16.8431457505
 20
-91.2772587295
 40
5.6
100
AcDbArc
 50
109.907930015
 51
135.0
  0
ARC
  5
2CF
100
AcDbEntity
  8
RACCORDO
100
AcDbCircle
 62
253
  6
CONTINUOUS
 10
-5.5
 20
-29.9272587295
 40
4.4456812302
100
AcDbArc
 50
180.0
 51
270.0
  0
ARC
  5
2D0
100
AcDbEntity
  8
ASSI
100
AcDbCircle
 62
7
  6
CONTINUOUS
 10
0.0
 20
-62.6772587295
 40
3.2
100
AcDbArc
 50
112.9933943143
 51
157.0066056857
  0
ARC
  5
2D1
100
AcDbEntity
  8
ASSI
100
AcDbCircle
 62
7
  6
CONTINUOUS
 10
0.0
 20
-62.6772587295
 40
3.2
100
AcDbArc
 50
202.9933943143
 51
67.0066056857
  0
ARC
  5
2D2
100
AcDbEntity
  8
RACCORDO
100
AcDbCircle
 62
253
  6
CONTINUOUS
 10
-5.5
 20
-29.9272587295
 40
2.5138295776
100
AcDbArc
 50
180.0
 51
270.0
  0
ARC
  5
2D3
100
AcDbEntity
  8
0
100
AcDbCircle
 62
253
  6
CONTINUOUS
 10
-5.5
 20
-29.9272587295
 40
2.1985988383
100
AcDbArc
 50
180.0
 51
270.0
  0
ARC
  5
2D4
100
AcDbEntity
  8
0
100
AcDbCircle
 62
7
  6
CONTINUOUS
 10
-14.6429285786
 20
-87.6272587295
 40
2.1
100
AcDbArc
 50
99.7901976089
 51
111.7867892983
  0
ARC
  5
2D5
100
AcDbEntity
  8
RACCORDO
100
AcDbCircle
 62
7
  6
CONTINUOUS
 10
-22.4512193309
 20
-87.1272587295
 40
1.3
100
AcDbArc
 50
270.0
 51
315.0
  0
ARC
  5
2D6
100
AcDbEntity
  8
ASSI
100
AcDbCircle
 62
7
  6
CONTINUOUS
 10
-6.15
 20
-62.6772587295
 40
1.25
100
AcDbArc
 50
90.0
 51
270.0
  0
ARC
  5
2D7
100
AcDbEntity
  8
ASSI
100
AcDbCircle
 62
7
  6
CONTINUOUS
 10
0.0
 20
-56.5272587295
 40
1.25
100
AcDbArc
 50
0.0
 51
180.0
  0
ARC
  5
2D8
100
AcDbEntity
  8
0
100
AcDbCircle
 62
253
  6
CONTINUOUS
 10
-5.5
 20
-29.9272587295
 40
1.232673012
100
AcDbArc
 50
180.0
 51
270.0
  0
ARC
  5
2D9
100
AcDbEntity
  8
ASSI
100
AcDbCircle
 62
7
  6
CONTINUOUS
 10
-44.1322471164
 20
-97.8227412705
 40
1.0
100
AcDbArc
 50
180.0
 51
315.0
  0
ARC
  5
2DA
100
AcDbEntity
  8
RACCORDO
100
AcDbCircle
 62
7
  6
CONTINUOUS
 10
-48.2083971112
 20
-90.9623133111
 40
0.2678209944
100
AcDbArc
 50
343.3184924796
 51
352.6671789785
  0
ARC
  5
2DB
100
AcDbEntity
  8
RACCORDO
100
AcDbCircle
 62
7
  6
CONTINUOUS
 10
-0.0
 20
209.1084555562
 40
305.2857142857
100
AcDbArc
 50
257.8135614187
 51
281.8954611048
  0
ARC
  5
2DC
100
AcDbEntity
  8
RACCORDO
100
AcDbCircle
 62
253
  6
CONTINUOUS
 10
-0.5578551997
 20
208.9678528644
 40
303.9036328703
100
AcDbArc
 50
279.184955896
 51
281.8915760421
  0
ARC
  5
2DD
100
AcDbEntity
  8
RACCORDO
100
AcDbCircle
 62
253
  6
CONTINUOUS
 10
-0.0052216131
 20
199.4157198225
 40
294.3421118978
100
AcDbArc
 50
260.6268642858
 51
268.9694831017
  0
ARC
  5
2DE
100
AcDbEntity
  8
0
100
AcDbCircle
 62
7
  6
CONTINUOUS
 10
-0.0
 20
62.4140874243
 40
35.5086538462
100
AcDbArc
 50
114.9909817581
 51
121.3993370923
  0
ARC
  5
2DF
100
AcDbEntity
  8
0
100
AcDbCircle
 62
7
  6
CONTINUOUS
 10
-0.0
 20
62.4140874243
 40
35.5086538462
100
AcDbArc
 50
68.3876313933
 51
111.6123686067
  0
ARC
  5
2E0
100
AcDbEntity
  8
0
100
AcDbCircle
 62
7
  6
CONTINUOUS
 10
-0.0
 20
62.4140874243
 40
35.5086538462
100
AcDbArc
 50
58.6006629077
 51
65.0090182419
  0
ARC
  5
2E1
100
AcDbEntity
  8
DRAFT
100
AcDbCircle
 62
7
  6
CONTINUOUS
 10
-0.9448781018
 20
64.2573850489
 40
33.4211939473
100
AcDbArc
 50
114.8693670778
 51
121.6012263465
  0
ARC
  5
2E2
100
AcDbEntity
  8
0
100
AcDbCircle
 62
7
  6
CONTINUOUS
 10
-16.8431457505
 20
93.9227412705
 40
5.6
100
AcDbArc
 50
225.0
 51
250.092069985
  0
ARC
  5
2E3
100
AcDbEntity
  8
RACCORDO
100
AcDbCircle
 62
253
  6
CONTINUOUS
 10
-5.5
 20
32.5727412705
 40
4.4456812302
100
AcDbArc
 50
90.0
 51
180.0
  0
ARC
  5
2E4
100
AcDbEntity
  8
ASSI
100
AcDbCircle
 62
7
  6
CONTINUOUS
 10
-0.0
 20
65.3227412705
 40
3.2
100
AcDbArc
 50
112.9933943143
 51
157.0066056857
  0
ARC
  5
2E5
100
AcDbEntity
  8
ASSI
100
AcDbCircle
 62
7
  6
CONTINUOUS
 10
-0.0
 20
65.3227412705
 40
3.2
100
AcDbArc
 50
202.9933943143
 51
67.0066056857
  0
ARC
  5
2E6
100
AcDbEntity
  8
RACCORDO
100
AcDbCircle
 62
253
  6
CONTINUOUS
 10
-5.5
 20
32.5727412705
 40
2.5138295776
100
AcDbArc
 50
90.0
 51
180.0
  0
ARC
  5
2E7
100
AcDbEntity
  8
0
100
AcDbCircle
 62
253
  6
CONTINUOUS
 10
-5.5
 20
32.5727412705
 40
2.1985988383
100
AcDbArc
 50
90.0
 51
180.0
  0
ARC
  5
2E8
100
AcDbEntity
  8
0
100
AcDbCircle
 62
7
  6
CONTINUOUS
 10
-14.6429285786
 20
90.2727412705
 40
2.1
100
AcDbArc
 50
248.2132107017
 51
260.2098023911
  0
ARC
  5
2E9
100
AcDbEntity
  8
RACCORDO
100
AcDbCircle
 62
7
  6
CONTINUOUS
 10
-62.5152814446
 20
90.309765871
 40
2.0000091162
100
AcDbArc
 50
101.8956665768
 51
177.4254439094
  0
ARC
  5
2EA
100
AcDbEntity
  8
ASSI
100
AcDbCircle
 62
7
  6
CONTINUOUS
 10
-6.15
 20
65.3227412705
 40
1.25
100
AcDbArc
 50
90.0
 51
270.0
  0
ARC
  5
2EB
100
AcDbEntity
  8
ASSI
100
AcDbCircle
 62
7
  6
CONTINUOUS
 10
-0.0
 20
71.4727412705
 40
1.25
100
AcDbArc
 50
0.0
 51
180.0
  0
ARC
  5
2EC
100
AcDbEntity
  8
0
100
AcDbCircle
 62
253
  6
CONTINUOUS
 10
-5.5
 20
32.5727412705
 40
1.232673012
100
AcDbArc
 50
90.0
 51
180.0
  0
ARC
  5
2ED
100
AcDbEntity
  8
RACCORDO
100
AcDbCircle
 62
7
  6
CONTINUOUS
 10
-48.208362182
 20
93.6078023108
 40
0.2677853685
100
AcDbArc
 50
7.3336510075
 51
16.6823556385
  0
ARC
  5
2EE
100
AcDbEntity
  8
RACCORDO
100
AcDbCircle
 62
253
  6
CONTINUOUS
 10
0.5578551998
 20
-206.3223703237
 40
303.9036328705
100
AcDbArc
 50
99.1849558961
 51
101.8915760421
  0
ARC
  5
2EF
100
AcDbEntity
  8
RACCORDO
100
AcDbCircle
 62
253
  6
CONTINUOUS
 10
0.0052216033
 20
-196.770237404
 40
294.3421120202
100
AcDbArc
 50
80.6268642876
 51
88.9694831073
  0
ARC
  5
2F0
100
AcDbEntity
  8
DRAFT
100
AcDbCircle
 62
7
  6
CONTINUOUS
 10
0.9448781018
 20
-61.611902508
 40
33.4211939474
100
AcDbArc
 50
294.8693670778
 51
301.6012263465
  0
ARC
  5
2F1
100
AcDbEntity
  8
0
100
AcDbCircle
 62
7
  6
CONTINUOUS
 10
16.8431457505
 20
-91.2772587295
 40
5.6
100
AcDbArc
 50
45.0
 51
70.092069985
  0
ARC
  5
2F2
100
AcDbEntity
  8
RACCORDO
100
AcDbCircle
 62
253
  6
CONTINUOUS
 10
5.5
 20
-29.9272587295
 40
4.4456812302
100
AcDbArc
 50
270.0
 51
360.0
  0
ARC
  5
2F3
100
AcDbEntity
  8
RACCORDO
100
AcDbCircle
 62
253
  6
CONTINUOUS
 10
5.5
 20
-29.9272587295
 40
2.5138295776
100
AcDbArc
 50
270.0
 51
360.0
  0
ARC
  5
2F4
100
AcDbEntity
  8
0
100
AcDbCircle
 62
253
  6
CONTINUOUS
 10
5.5
 20
-29.9272587295
 40
2.1985988383
100
AcDbArc
 50
270.0
 51
360.0
  0
ARC
  5
2F5
100
AcDbEntity
  8
0
100
AcDbCircle
 62
7
  6
CONTINUOUS
 10
14.5317458671
 20
-87.6272587295
 40
2.1
100
AcDbArc
 50
68.2132107017
 51
77.1133694184
  0
ARC
  5
2F6
100
AcDbEntity
  8
RACCORDO
100
AcDbCircle
 62
7
  6
CONTINUOUS
 10
62.5152814446
 20
-87.6642833301
 40
2.0000091162
100
AcDbArc
 50
281.8956665768
 51
357.4254439094
  0
ARC
  5
2F7
100
AcDbEntity
  8
ASSI
100
AcDbCircle
 62
7
  6
CONTINUOUS
 10
11.0
 20
-72.7078674766
 40
1.5
100
AcDbArc
 50
270.0
 51
90.0
  0
ARC
  5
2F8
100
AcDbEntity
  8
ASSI
100
AcDbCircle
 62
7
  6
CONTINUOUS
 10
5.3
 20
-72.7078674766
 40
1.5
100
AcDbArc
 50
90.0
 51
270.0
  0
ARC
  5
2F9
100
AcDbEntity
  8
RACCORDO
100
AcDbCircle
 62
7
  6
CONTINUOUS
 10
22.4512193309
 20
-87.1272587295
 40
1.3
100
AcDbArc
 50
225.0
 51
270.0
  0
ARC
  5
2FA
100
AcDbEntity
  8
ASSI
100
AcDbCircle
 62
7
  6
CONTINUOUS
 10
16.45
 20
-1.6772587295
 40
1.25
100
AcDbArc
 50
180.0
 51
360.0
  0
ARC
  5
2FB
100
AcDbEntity
  8
0
100
AcDbCircle
 62
253
  6
CONTINUOUS
 10
5.5
 20
-29.9272587295
 40
1.232673012
100
AcDbArc
 50
270.0
 51
360.0
  0
ARC
  5
2FC
100
AcDbEntity
  8
ASSI
100
AcDbCircle
 62
7
  6
CONTINUOUS
 10
44.1322471164
 20
-97.8227412705
 40
1.0
100
AcDbArc
 50
225.0
 51
360.0
  0
ARC
  5
2FD
100
AcDbEntity
  8
RACCORDO
100
AcDbCircle
 62
7
  6
CONTINUOUS
 10
48.2083622455
 20
-90.9623197581
 40
0.2677854332
100
AcDbArc
 50
187.3336494983
 51
196.6823541289
  0
ARC
  5
2FE
100
AcDbEntity
  8
RACCORDO
100
AcDbCircle
 62
253
  6
CONTINUOUS
 10
0.4506843149
 20
208.359424655
 40
303.2858990109
100
AcDbArc
 50
258.1045371438
 51
260.8166836303
  0
ARC
  5
2FF
100
AcDbEntity
  8
RACCORDO
100
AcDbCircle
 62
253
  6
CONTINUOUS
 10
0.0052124226
 20
199.4158642655
 40
294.3422559101
100
AcDbArc
 50
271.0303319534
 51
279.3731329296
  0
ARC
  5
300
100
AcDbEntity
  8
0
100
AcDbCircle
 62
7
  6
CONTINUOUS
 10
16.8431457505
 20
93.9227412705
 40
5.6
100
AcDbArc
 50
289.907930015
 51
315.0
  0
ARC
  5
301
100
AcDbEntity
  8
RACCORDO
100
AcDbCircle
 62
253
  6
CONTINUOUS
 10
5.5
 20
32.5727412705
 40
4.4456812302
100
AcDbArc
 50
0.0
 51
90.0
  0
CIRCLE
  5
302
100
AcDbEntity
  8
0
100
AcDbCircle
 62
7
  6
CONTINUOUS
 10
2.0
 20
1.3227412705
 40
4.25
  0
ARC
  5
303
100
AcDbEntity
  8
RACCORDO
100
AcDbCircle
 62
253
  6
CONTINUOUS
 10
5.5
 20
32.5727412705
 40
2.5138295776
100
AcDbArc
 50
0.0
 51
90.0
  0
ARC
  5
304
100
AcDbEntity
  8
0
100
AcDbCircle
 62
253
  6
CONTINUOUS
 10
5.5
 20
32.5727412705
 40
2.1985988383
100
AcDbArc
 50
0.0
 51
90.0
  0
ARC
  5
305
100
AcDbEntity
  8
0
100
AcDbCircle
 62
7
  6
CONTINUOUS
 10
14.5317458671
 20
90.2727412705
 40
2.1
100
AcDbArc
 50
282.8866305816
 51
291.7867892983
  0
ARC
  5
306
100
AcDbEntity
  8
RACCORDO
100
AcDbCircle
 62
7
  6
CONTINUOUS
 10
62.5152868186
 20
90.3097758609
 40
1.9999982331
100
AcDbArc
 50
2.5765570239
 51
78.1044250787
  0
ARC
  5
307
100
AcDbEntity
  8
ASSI
100
AcDbCircle
 62
7
  6
CONTINUOUS
 10
5.3
 20
75.3533500175
 40
1.5
100
AcDbArc
 50
90.0
 51
270.0
  0
ARC
  5
308
100
AcDbEntity
  8
ASSI
100
AcDbCircle
 62
7
  6
CONTINUOUS
 10
11.0
 20
75.3533500175
 40
1.5
100
AcDbArc
 50
270.0
 51
90.0
  0
ARC
  5
309
100
AcDbEntity
  8
ASSI
100
AcDbCircle
 62
7
  6
CONTINUOUS
 10
16.45
 20
4.3227412705
 40
1.25
100
AcDbArc
 50
0.0
 51
180.0
  0
ARC
  5
30A
100
AcDbEntity
  8
0
100
AcDbCircle
 62
253
  6
CONTINUOUS
 10
5.5
 20
32.5727412705
 40
1.232673012
100
AcDbArc
 50
0.0
 51
90.0
  0
ARC
  5
30B
100
AcDbEntity
  8
RACCORDO
100
AcDbCircle
 62
7
  6
CONTINUOUS
 10
48.2083969001
 20
93.607795891
 40
0.2678207792
100
AcDbArc
 50
163.3184874506
 51
172.6671739426
  0
SPLINE
  5
30C
100
AcDbEntity
  8
DRAFT
100
AcDbSpline
 62
7
  6
CONTINUOUS
 70
0
 71
3
 72
20
 73
16
 74
14
 42
0.0000001
 43
0.0000001
 44
0.0000000001
 12
-11.5061035555
 22
-4.4280957488
 32
0.0
 13
-6.0538739929
 23
10.7400680011
 33
0.0
 40
0.0
 40
0.0
 40
0.0
 40
0.0
 40
0.1731322722
 40
0.3376482106
 40
0.4896235375
 40
0.5598066617
 40
0.6256190388
 40
0.6868141807
 40
0.7432762706
 40
0.7950512294
 40
0.8423787077
 40
0.8857220527
 40
0.9257863539
 40
0.9635087076
 40
1.0
 40
1.0
 40
1.0
 40
1.0
 10
13.0098663708
 20
-92.777896599
 30
0.0
 10
12.3458404199
 20
-93.0334453585
 30
0.0
 10
11.0333817018
 20
-93.4882098183
 30
0.0
 10
9.0865865391
 20
-94.0041495108
 30
0.0
 10
7.5189377078
 20
-94.2801794654
 30
0.0
 10
6.3402087219
 20
-94.3917996992
 30
0.0
 10
5.5297902491
 20
-94.4203037628
 30
0.0
 10
4.7755431199
 20
-94.3956452298
 30
0.0
 10
4.0827432354
 20
-94.3179451399
 30
0.0
 10
3.4557279327
 20
-94.1877357528
 30
0.0
 10
2.897841481
 20
-94.0058030461
 30
0.0
 10
2.4115854506
 20
-93.7731172194
 30
0.0
 10
1.998852676
 20
-93.4907691234
 30
0.0
 10
1.6613553662
 20
-93.1606253856
 30
0.0
 10
1.4858964695
 20
-92.9085403983
 30
0.0
 10
1.4122585741
 20
-92.7779007443
 30
0.0
 11
13.0098663708
 21
-92.777896599
 31
0.0
 11
10.9919843738
 21
-93.4737938139
 31
0.0
 11
9.0300467908
 21
-93.9882975388
 31
0.0
 11
7.1832783371
 21
-94.3046493962
 31
0.0
 11
6.3217170872
 21
-94.3846904093
 31
0.0
 11
5.5107734032
 21
-94.4114582389
 31
0.0
 11
4.7567878626
 21
-94.3846906457
 31
0.0
 11
4.0652970082
 21
-94.3046498136
 31
0.0
 11
3.4408882555
 21
-94.1721062246
 31
0.0
 11
2.8871063699
 21
-93.9882979989
 31
0.0
 11
2.4064177681
 21
-93.7548677468
 31
0.0
 11
2.0002423093
 21
-93.4737956181
 31
0.0
 11
1.6690143695
 21
-93.147332458
 31
0.0
 11
1.4122585741
 21
-92.7779007443
 31
0.0
  0
SPLINE
  5
30D
100
AcDbEntity
  8
DRAFT
100
AcDbSpline
 62
7
  6
CONTINUOUS
 70
0
 71
3
 72
20
 73
16
 74
14
 42
0.0000001
 43
0.0000001
 44
0.0000000001
 12
11.5061035555
 22
4.4280957488
 32
0.0
 13
6.0538739929
 23
-10.7400680011
 33
0.0
 40
0.0
 40
0.0
 40
0.0
 40
0.0
 40
0.1731322722
 40
0.3376482106
 40
0.4896235375
 40
0.5598066617
 40
0.6256190388
 40
0.6868141807
 40
0.7432762706
 40
0.7950512294
 40
0.8423787077
 40
0.8857220527
 40
0.9257863539
 40
0.9635087076
 40
1.0
 40
1.0
 40
1.0
 40
1.0
 10
-13.0098663708
 20
95.42337914
 30
0.0
 10
-12.3458404199
 20
95.6789278995
 30
0.0
 10
-11.0333817018
 20
96.1336923592
 30
0.0
 10
-9.0865865391
 20
96.6496320518
 30
0.0
 10
-7.5189377078
 20
96.9256620063
 30
0.0
 10
-6.3402087219
 20
97.0372822401
 30
0.0
 10
-5.5297902491
 20
97.0657863037
 30
0.0
 10
-4.7755431199
 20
97.0411277707
 30
0.0
 10
-4.0827432354
 20
96.9634276808
 30
0.0
 10
-3.4557279327
 20
96.8332182937
 30
0.0
 10
-2.897841481
 20
96.651285587
 30
0.0
 10
-2.4115854506
 20
96.4185997604
 30
0.0
 10
-1.998852676
 20
96.1362516643
 30
0.0
 10
-1.6613553662
 20
95.8061079265
 30
0.0
 10
-1.4858964695
 20
95.5540229392
 30
0.0
 10
-1.4122585741
 20
95.4233832852
 30
0.0
 11
-13.0098663708
 21
95.42337914
 31
0.0
 11
-10.9919843738
 21
96.1192763548
 31
0.0
 11
-9.0300467908
 21
96.6337800797
 31
0.0
 11
-7.1832783371
 21
96.9501319371
 31
0.0
 11
-6.3217170872
 21
97.0301729502
 31
0.0
 11
-5.5107734032
 21
97.0569407798
 31
0.0
 11
-4.7567878626
 21
97.0301731867
 31
0.0
 11
-4.0652970082
 21
96.9501323545
 31
0.0
 11
-3.4408882555
 21
96.8175887655
 31
0.0
 11
-2.8871063699
 21
96.6337805398
 31
0.0
 11
-2.4064177681
 21
96.4003502877
 31
0.0
 11
-2.0002423093
 21
96.119278159
 31
0.0
 11
-1.6690143695
 21
95.7928149989
 31
0.0
 11
-1.4122585741
 21
95.4233832852
 31
0.0
  0
SPLINE
  5
30E
100
AcDbEntity
  8
RACCORDO
100
AcDbSpline
 62
7
  6
CONTINUOUS
 70
0
 71
3
 72
8
 73
4
 74
2
 42
0.0000001
 43
0.0000001
 44
0.0000000001
 12
-0.9848702477
 22
-7.6571831556
 32
0.0
 13
-0.9878270728
 23
-7.6568022671
 33
0.0
 40
0.0
 40
0.0
 40
0.0
 40
0.0
 40
1.0
 40
1.0
 40
1.0
 40
1.0
 10
47.9427664981
 20
93.6419786248
 30
0.0
 10
47.6144764155
 20
91.0895842396
 30
0.0
 10
47.2857036498
 20
88.537251887
 30
0.0
 10
46.9564279589
 20
85.9849844647
 30
0.0
 11
47.9427664981
 21
93.6419786248
 31
0.0
 11
46.9564279589
 21
85.9849844647
 31
0.0
  0
SPLINE
  5
30F
100
AcDbEntity
  8
RACCORDO
100
AcDbSpline
 62
7
  6
CONTINUOUS
 70
0
 71
3
 72
8
 73
4
 74
2
 42
0.0000001
 43
0.0000001
 44
0.0000000001
 12
0.9848709885
 22
-7.6571888997
 32
0.0
 13
0.9878278138
 23
-7.6568080111
 33
0.0
 40
0.0
 40
0.0
 40
0.0
 40
0.0
 40
1.0
 40
1.0
 40
1.0
 40
1.0
 10
-47.9427673932
 20
93.641984349
 30
0.0
 10
-47.6144770637
 20
91.0895880492
 30
0.0
 10
-47.2857038968
 20
88.5372538017
 30
0.0
 10
-46.9564279589
 20
85.9849844647
 30
0.0
 11
-47.9427673932
 21
93.641984349
 31
0.0
 11
-46.9564279589
 21
85.9849844647
 31
0.0
  0
SPLINE
  5
310
100
AcDbEntity
  8
RACCORDO
100
AcDbSpline
 62
7
  6
CONTINUOUS
 70
0
 71
3
 72
8
 73
4
 74
2
 42
0.0000001
 43
0.0000001
 44
0.0000000001
 12
0.9848702432
 22
7.6571831206
 32
0.0
 13
0.9878270683
 23
7.6568022321
 33
0.0
 40
0.0
 40
0.0
 40
0.0
 40
0.0
 40
1.0
 40
1.0
 40
1.0
 40
1.0
 10
-47.9427664927
 20
-90.9964960491
 30
0.0
 10
-47.6144764116
 20
-88.4441016755
 30
0.0
 10
-47.2857036483
 20
-85.8917693344
 30
0.0
 10
-46.9564279589
 20
-83.3395019237
 30
0.0
 11
-47.9427664927
 21
-90.9964960491
 31
0.0
 11
-46.9564279589
 21
-83.3395019237
 31
0.0
  0
SPLINE
  5
311
100
AcDbEntity
  8
RACCORDO
100
AcDbSpline
 62
7
  6
CONTINUOUS
 70
0
 71
3
 72
8
 73
4
 74
2
 42
0.0000001
 43
0.0000001
 44
0.0000000001
 12
-0.9848709872
 22
7.6571888892
 32
0.0
 13
-0.9878278125
 23
7.6568080006
 33
0.0
 40
0.0
 40
0.0
 40
0.0
 40
0.0
 40
1.0
 40
1.0
 40
1.0
 40
1.0
 10
47.9427673916
 20
-90.9965017977
 30
0.0
 10
47.6144770625
 20
-88.4441055013
 30
0.0
 10
47.2857038963
 20
-85.8917712573
 30
0.0
 10
46.9564279589
 20
-83.3395019237
 30
0.0
 11
47.9427673916
 21
-90.9965017977
 31
0.0
 11
46.9564279589
 21
-83.3395019237
 31
0.0
  0
SPLINE
  5
312
100
AcDbEntity
  8
RACCORDO
100
AcDbSpline
 62
7
  6
CONTINUOUS
 70
0
 71
3
 72
32
 73
28
 74
26
 42
0.0000001
 43
0.0000001
 44
0.0000000001
 12
0.1706519501
 22
3.8588998658
 32
0.0
 13
-3.2327118075
 23
-2.1141912478
 33
0.0
 40
0.0
 40
0.0
 40
0.0
 40
0.0
 40
0.0439242367
 40
0.0655276593
 40
0.0867731043
 40
0.107525929
 40
0.1275926979
 40
0.1466987848
 40
0.1644927574
 40
0.1728294482
 40
0.1808207584
 40
0.1886643926
 40
0.1968003277
 40
0.2164663557
 40
0.2290673439
 40
0.2434364146
 40
0.2760233537
 40
0.3116706061
 40
0.3488858624
 40
0.3869507323
 40
0.4643504615
 40
0.5424695359
 40
0.6207060193
 40
0.6986618315
 40
0.7759809595
 40
0.8522801318
 40
1.0
 40
1.0
 40
1.0
 40
1.0
 10
64.8090754517
 20
-81.1750431663
 30
0.0
 10
64.8115740372
 20
-81.1185434227
 30
0.0
 10
64.8121393727
 20
-81.0340526188
 30
0.0
 10
64.8056723818
 20
-80.9224859598
 30
0.0
 10
64.7970036962
 20
-80.8410162344
 30
0.0
 10
64.7840943605
 20
-80.7621064602
 30
0.0
 10
64.7663331553
 20
-80.6869250675
 30
0.0
 10
64.7427926388
 20
-80.6173443799
 30
0.0
 10
64.7164084393
 20
-80.564954883
 30
0.0
 10
64.6895965937
 20
-80.5299591691
 30
0.0
 10
64.6665501349
 20
-80.5087394202
 30
0.0
 10
64.6393362108
 20
-80.4934327285
 30
0.0
 10
64.5937133816
 20
-80.4835108315
 30
0.0
 10
64.5410813031
 20
-80.4984685407
 30
0.0
 10
64.4892833191
 20
-80.5285004392
 30
0.0
 10
64.4277511499
 20
-80.5746597258
 30
0.0
 10
64.3506077396
 20
-80.6481330453
 30
0.0
 10
64.2582653431
 20
-80.7476880137
 30
0.0
 10
64.1640957408
 20
-80.8550858334
 30
0.0
 10
64.035831911
 20
-81.0040571971
 30
0.0
 10
63.8727405712
 20
-81.1925544908
 30
0.0
 10
63.6705201748
 20
-81.4155252653
 30
0.0
 10
63.4608663312
 20
-81.6325449112
 30
0.0
 10
63.2442358661
 20
-81.8411324421
 30
0.0
 10
63.0215050021
 20
-82.0394909248
 30
0.0
 10
62.7214411161
 20
-82.2855591884
 30
0.0
 10
62.4870597364
 20
-82.4544786069
 30
0.0
 10
62.3278811491
 20
-82.558581291
 30
0.0
 11
64.8090754517
 21
-81.1750431663
 31
0.0
 11
64.8098836007
 21
-81.0053801988
 31
0.0
 11
64.804972919
 21
-80.9220778935
 31
0.0
 11
64.796165966
 21
-80.840487661
 31
0.0
 11
64.7830190738
 21
-80.7614117481
 31
0.0
 11
64.7648473219
 21
-80.6860606078
 31
0.0
 11
64.7405685175
 21
-80.6163680066
 31
0.0
 11
64.7084385983
 21
-80.5556078791
 31
0.0
 11
64.6886114485
 21
-80.5302337525
 31
0.0
 11
64.6656759854
 21
-80.5095749548
 31
0.0
 11
64.6391112983
 21
-80.4950061965
 31
0.0
 11
64.6084165244
 21
-80.4882643698
 31
0.0
 11
64.5341790703
 21
-80.504365274
 31
0.0
 11
64.4917034977
 21
-80.5281335943
 31
0.0
 11
64.4470096661
 21
-80.5610432318
 31
0.0
 11
64.3543715195
 21
-80.6462611563
 31
0.0
 11
64.2601053678
 21
-80.7466276154
 31
0.0
 11
64.1649797616
 21
-80.8544017747
 31
0.0
 11
64.0688463423
 21
-80.9656528398
 31
0.0
 11
63.8724756739
 21
-81.1910889807
 31
0.0
 11
63.6694636577
 21
-81.4143336136
 31
0.0
 11
63.4593242384
 21
-81.6315141104
 31
0.0
 11
63.2423104466
 21
-81.8402648577
 31
0.0
 11
63.0192024467
 21
-82.038808683
 31
0.0
 11
62.7912478359
 21
-82.2256127682
 31
0.0
 11
62.3278811491
 21
-82.558581291
 31
0.0
  0
SPLINE
  5
313
100
AcDbEntity
  8
RACCORDO
100
AcDbSpline
 62
253
  6
CONTINUOUS
 70
0
 71
3
 72
18
 73
14
 74
12
 42
0.0000001
 43
0.0000001
 44
0.0000000001
 12
-0.1212856595
 22
-2.7055852642
 32
0.0
 13
-2.6860021696
 23
0.3468345106
 33
0.0
 40
0.0
 40
0.0
 40
0.0
 40
0.0
 40
0.0325545287
 40
0.0671853494
 40
0.1055551607
 40
0.1487359633
 40
0.1972856285
 40
0.2513721547
 40
0.3754057694
 40
0.5178703975
 40
0.673686318
 40
0.8366429654
 40
1.0
 40
1.0
 40
1.0
 40
1.0
 10
64.5132685549
 20
-87.7541223162
 30
0.0
 10
64.5119524224
 20
-87.7834820005
 30
0.0
 10
64.5002934029
 20
-87.8439699813
 30
0.0
 10
64.4574466716
 20
-87.930123045
 30
0.0
 10
64.3906492627
 20
-88.0118919505
 30
0.0
 10
64.301157658
 20
-88.0886755826
 30
0.0
 10
64.1901052163
 20
-88.159977805
 30
0.0
 10
64.0064513337
 20
-88.2509575015
 30
0.0
 10
63.7306166525
 20
-88.3427563133
 30
0.0
 10
63.3559355316
 20
-88.4168219465
 30
0.0
 10
62.940676482
 20
-88.4555153538
 30
0.0
 10
62.5049183891
 20
-88.4568340067
 30
0.0
 10
62.2108958615
 20
-88.432389934
 30
0.0
 10
62.064636745
 20
-88.4135039816
 30
0.0
 11
64.5132685549
 21
-87.7541223162
 31
0.0
 11
64.4969880526
 21
-87.8407736559
 31
0.0
 11
64.4561876013
 21
-87.9252249734
 31
0.0
 11
64.3913766326
 21
-88.0064548447
 31
0.0
 11
64.3033522012
 21
-88.0834498012
 31
0.0
 11
64.19320502
 21
-88.1552584039
 31
0.0
 11
64.0623001129
 21
-88.2209933064
 31
0.0
 11
63.7449278897
 21
-88.3310727221
 31
0.0
 11
63.3668891307
 21
-88.4082550594
 31
0.0
 11
62.9468385312
 21
-88.4487352938
 31
0.0
 11
62.5055062393
 21
-88.4505143061
 31
0.0
 11
62.064636745
 21
-88.4135039816
 31
0.0
  0
SPLINE
  5
314
100
AcDbEntity
  8
RACCORDO
100
AcDbSpline
 62
7
  6
CONTINUOUS
 70
0
 71
3
 72
32
 73
28
 74
26
 42
0.0000001
 43
0.0000001
 44
0.0000000001
 12
-0.1706519501
 22
-3.8588998658
 32
0.0
 13
3.2327118075
 23
2.1141912478
 33
0.0
 40
0.0
 40
0.0
 40
0.0
 40
0.0
 40
0.0439242367
 40
0.0655276593
 40
0.0867731043
 40
0.107525929
 40
0.1275926979
 40
0.1466987848
 40
0.1644927574
 40
0.1728294482
 40
0.1808207584
 40
0.1886643926
 40
0.1968003277
 40
0.2164663557
 40
0.2290673439
 40
0.2434364146
 40
0.2760233537
 40
0.3116706061
 40
0.3488858624
 40
0.3869507323
 40
0.4643504615
 40
0.5424695359
 40
0.6207060193
 40
0.6986618315
 40
0.7759809595
 40
0.8522801318
 40
1.0
 40
1.0
 40
1.0
 40
1.0
 10
-64.8090754517
 20
83.8205257072
 30
0.0
 10
-64.8115740372
 20
83.7640259636
 30
0.0
 10
-64.8121393727
 20
83.6795351597
 30
0.0
 10
-64.8056723818
 20
83.5679685008
 30
0.0
 10
-64.7970036962
 20
83.4864987753
 30
0.0
 10
-64.7840943605
 20
83.4075890011
 30
0.0
 10
-64.7663331553
 20
83.3324076085
 30
0.0
 10
-64.7427926388
 20
83.2628269209
 30
0.0
 10
-64.7164084393
 20
83.2104374239
 30
0.0
 10
-64.6895965937
 20
83.1754417101
 30
0.0
 10
-64.6665501349
 20
83.1542219611
 30
0.0
 10
-64.6393362108
 20
83.1389152694
 30
0.0
 10
-64.5937133816
 20
83.1289933724
 30
0.0
 10
-64.5410813031
 20
83.1439510816
 30
0.0
 10
-64.4892833191
 20
83.1739829801
 30
0.0
 10
-64.4277511499
 20
83.2201422667
 30
0.0
 10
-64.3506077396
 20
83.2936155862
 30
0.0
 10
-64.2582653431
 20
83.3931705546
 30
0.0
 10
-64.1640957408
 20
83.5005683743
 30
0.0
 10
-64.035831911
 20
83.649539738
 30
0.0
 10
-63.8727405712
 20
83.8380370317
 30
0.0
 10
-63.6705201748
 20
84.0610078062
 30
0.0
 10
-63.4608663312
 20
84.2780274521
 30
0.0
 10
-63.2442358661
 20
84.486614983
 30
0.0
 10
-63.0215050021
 20
84.6849734657
 30
0.0
 10
-62.7214411161
 20
84.9310417293
 30
0.0
 10
-62.4870597364
 20
85.0999611478
 30
0.0
 10
-62.3278811491
 20
85.204063832
 30
0.0
 11
-64.8090754517
 21
83.8205257072
 31
0.0
 11
-64.8098836007
 21
83.6508627397
 31
0.0
 11
-64.804972919
 21
83.5675604344
 31
0.0
 11
-64.796165966
 21
83.4859702019
 31
0.0
 11
-64.7830190738
 21
83.406894289
 31
0.0
 11
-64.7648473219
 21
83.3315431487
 31
0.0
 11
-64.7405685175
 21
83.2618505475
 31
0.0
 11
-64.7084385983
 21
83.2010904201
 31
0.0
 11
-64.6886114485
 21
83.1757162934
 31
0.0
 11
-64.6656759854
 21
83.1550574957
 31
0.0
 11
-64.6391112983
 21
83.1404887374
 31
0.0
 11
-64.6084165244
 21
83.1337469107
 31
0.0
 11
-64.5341790703
 21
83.1498478149
 31
0.0
 11
-64.4917034977
 21
83.1736161352
 31
0.0
 11
-64.4470096661
 21
83.2065257727
 31
0.0
 11
-64.3543715195
 21
83.2917436972
 31
0.0
 11
-64.2601053678
 21
83.3921101563
 31
0.0
 11
-64.1649797616
 21
83.4998843156
 31
0.0
 11
-64.0688463423
 21
83.6111353807
 31
0.0
 11
-63.8724756739
 21
83.8365715216
 31
0.0
 11
-63.6694636577
 21
84.0598161545
 31
0.0
 11
-63.4593242384
 21
84.2769966514
 31
0.0
 11
-63.2423104466
 21
84.4857473987
 31
0.0
 11
-63.0192024467
 21
84.6842912239
 31
0.0
 11
-62.7912478359
 21
84.8710953091
 31
0.0
 11
-62.3278811491
 21
85.204063832
 31
0.0
  0
SPLINE
  5
315
100
AcDbEntity
  8
RACCORDO
100
AcDbSpline
 62
253
  6
CONTINUOUS
 70
0
 71
3
 72
18
 73
14
 74
12
 42
0.0000001
 43
0.0000001
 44
0.0000000001
 12
0.1212856595
 22
2.7055852642
 32
0.0
 13
2.6860021696
 23
-0.3468345106
 33
0.0
 40
0.0
 40
0.0
 40
0.0
 40
0.0
 40
0.0325545287
 40
0.0671853494
 40
0.1055551607
 40
0.1487359633
 40
0.1972856285
 40
0.2513721547
 40
0.3754057694
 40
0.5178703975
 40
0.673686318
 40
0.8366429654
 40
1.0
 40
1.0
 40
1.0
 40
1.0
 10
-64.5132685549
 20
90.3996048571
 30
0.0
 10
-64.5119524224
 20
90.4289645414
 30
0.0
 10
-64.5002934029
 20
90.4894525222
 30
0.0
 10
-64.4574466716
 20
90.5756055859
 30
0.0
 10
-64.3906492627
 20
90.6573744914
 30
0.0
 10
-64.301157658
 20
90.7341581235
 30
0.0
 10
-64.1901052163
 20
90.8054603459
 30
0.0
 10
-64.0064513337
 20
90.8964400425
 30
0.0
 10
-63.7306166525
 20
90.9882388542
 30
0.0
 10
-63.3559355316
 20
91.0623044874
 30
0.0
 10
-62.940676482
 20
91.1009978948
 30
0.0
 10
-62.5049183891
 20
91.1023165476
 30
0.0
 10
-62.2108958615
 20
91.077872475
 30
0.0
 10
-62.064636745
 20
91.0589865226
 30
0.0
 11
-64.5132685549
 21
90.3996048571
 31
0.0
 11
-64.4969880526
 21
90.4862561968
 31
0.0
 11
-64.4561876013
 21
90.5707075144
 31
0.0
 11
-64.3913766326
 21
90.6519373857
 31
0.0
 11
-64.3033522012
 21
90.7289323421
 31
0.0
 11
-64.19320502
 21
90.8007409448
 31
0.0
 11
-64.0623001129
 21
90.8664758473
 31
0.0
 11
-63.7449278897
 21
90.976555263
 31
0.0
 11
-63.3668891307
 21
91.0537376004
 31
0.0
 11
-62.9468385312
 21
91.0942178347
 31
0.0
 11
-62.5055062393
 21
91.0959968471
 31
0.0
 11
-62.064636745
 21
91.0589865226
 31
0.0
  0
SPLINE
  5
316
100
AcDbEntity
  8
RACCORDO
100
AcDbSpline
 62
7
  6
CONTINUOUS
 70
0
 71
3
 72
15
 73
11
 74
9
 42
0.0000001
 43
0.0000001
 44
0.0000000001
 12
-1.5763213245
 22
0.2555555338
 32
0.0
 13
-0.4587125411
 23
-1.5296013708
 33
0.0
 40
0.0
 40
0.0
 40
0.0
 40
0.0
 40
0.0725726592
 40
0.154720027
 40
0.2525480319
 40
0.3686277498
 40
0.5031601949
 40
0.6548599759
 40
0.8214581694
 40
1.0
 40
1.0
 40
1.0
 40
1.0
 10
48.8553581314
 20
94.888186345
 30
0.0
 10
48.8172255213
 20
94.8943684599
 30
0.0
 10
48.7323742715
 20
94.8893594317
 30
0.0
 10
48.6083687077
 20
94.8323063011
 30
0.0
 10
48.4856457702
 20
94.7316098162
 30
0.0
 10
48.3650634
 20
94.5897655728
 30
0.0
 10
48.248494797
 20
94.4095812626
 30
0.0
 10
48.1384021272
 20
94.1947835626
 30
0.0
 10
48.0373155794
 20
93.9501378934
 30
0.0
 10
47.979147106
 20
93.7757068429
 30
0.0
 10
47.9518473138
 20
93.6846742333
 30
0.0
 11
48.8553581314
 21
94.888186345
 31
0.0
 11
48.7395791644
 21
94.8830813201
 31
0.0
 11
48.618936191
 21
94.8315661203
 31
0.0
 11
48.496274713
 21
94.7348220884
 31
0.0
 11
48.3744771469
 21
94.5950843176
 31
0.0
 11
48.2564171999
 21
94.4155961276
 31
0.0
 11
48.1448918056
 21
94.2005448979
 31
0.0
 11
48.0425540198
 21
93.9549744839
 31
0.0
 11
47.9518473138
 21
93.6846742333
 31
0.0
  0
SPLINE
  5
317
100
AcDbEntity
  8
RACCORDO
100
AcDbSpline
 62
7
  6
CONTINUOUS
 70
0
 71
3
 72
15
 73
11
 74
9
 42
0.0000001
 43
0.0000001
 44
0.0000000001
 12
1.5763207567
 22
0.2555553365
 32
0.0
 13
0.4587125425
 23
-1.5296007523
 33
0.0
 40
0.0
 40
0.0
 40
0.0
 40
0.0
 40
0.0725720858
 40
0.1547196402
 40
0.2525477268
 40
0.368627507
 40
0.5031600109
 40
0.6548598514
 40
0.8214581063
 40
1.0
 40
1.0
 40
1.0
 40
1.0
 10
-48.8553581015
 20
94.8881861609
 30
0.0
 10
-48.8172258065
 20
94.8943682222
 30
0.0
 10
-48.7323748272
 20
94.8893592064
 30
0.0
 10
-48.6083693799
 20
94.8323063148
 30
0.0
 10
-48.4856463078
 20
94.7316097975
 30
0.0
 10
-48.3650638728
 20
94.5897655587
 30
0.0
 10
-48.248495227
 20
94.4095812548
 30
0.0
 10
-48.1384025218
 20
94.1947835661
 30
0.0
 10
-48.0373159424
 20
93.9501379099
 30
0.0
 10
-47.9791474493
 20
93.7757068679
 30
0.0
 10
-47.9518476473
 20
93.6846742629
 30
0.0
 11
-48.8553581015
 21
94.8881861609
 31
0.0
 11
-48.73958009
 21
94.88308123
 31
0.0
 11
-48.6189368276
 21
94.8315660715
 31
0.0
 11
-48.4962752457
 21
94.7348220544
 31
0.0
 11
-48.3744776204
 21
94.5950842943
 31
0.0
 11
-48.2564176307
 21
94.4155961154
 31
0.0
 11
-48.1448922011
 21
94.2005448982
 31
0.0
 11
-48.0425543834
 21
93.9549744983
 31
0.0
 11
-47.9518476473
 21
93.6846742629
 31
0.0
  0
SPLINE
  5
318
100
AcDbEntity
  8
RACCORDO
100
AcDbSpline
 62
253
  6
CONTINUOUS
 70
0
 71
3
 72
17
 73
13
 74
11
 42
0.0000001
 43
0.0000001
 44
0.0000000001
 12
-0.5052164722
 22
1.4812890886
 32
0.0
 13
-1.5314658971
 23
-0.3226038651
 33
0.0
 40
0.0
 40
0.0
 40
0.0
 40
0.0
 40
0.1843336008
 40
0.3559536161
 40
0.5114569087
 40
0.6480914679
 40
0.7640495703
 40
0.8589966791
 40
0.8992869269
 40
0.9354183302
 40
0.9683493006
 40
1.0
 40
1.0
 40
1.0
 40
1.0
 10
-62.064636745
 20
91.0589865226
 30
0.0
 10
-62.0956795355
 20
91.1500036397
 30
0.0
 10
-62.1555292197
 20
91.3258842099
 30
0.0
 10
-62.2600320772
 20
91.5716570317
 30
0.0
 10
-62.3694248077
 20
91.7876777577
 30
0.0
 10
-62.4822496132
 20
91.9687038513
 30
0.0
 10
-62.5956148645
 20
92.1107271905
 30
0.0
 10
-62.6939139808
 20
92.1991687532
 30
0.0
 10
-62.7714959046
 20
92.2442364084
 30
0.0
 10
-62.8251281417
 20
92.2645786958
 30
0.0
 10
-62.8774019916
 20
92.2730882535
 30
0.0
 10
-62.9113863569
 20
92.2702274936
 30
0.0
 10
-62.9275436792
 20
92.2668239476
 30
0.0
 11
-62.064636745
 21
91.0589865226
 31
0.0
 11
-62.1611210313
 21
91.3308701679
 31
0.0
 11
-62.2661666453
 21
91.5780754422
 31
0.0
 11
-62.3772348302
 21
91.7946278541
 31
0.0
 11
-62.4916412746
 21
91.9752937352
 31
0.0
 11
-62.6066209879
 21
92.1157067273
 31
0.0
 11
-62.7193951243
 21
92.2124733098
 31
0.0
 11
-62.7741801968
 21
92.2436953521
 31
0.0
 11
-62.8272381431
 21
92.2632548147
 31
0.0
 11
-62.8781871616
 21
92.2710338014
 31
0.0
 11
-62.9275436792
 21
92.2668239476
 31
0.0
  0
SPLINE
  5
319
100
AcDbEntity
  8
RACCORDO
100
AcDbSpline
 62
253
  6
CONTINUOUS
 70
0
 71
3
 72
18
 73
14
 74
12
 42
0.0000001
 43
0.0000001
 44
0.0000000001
 12
2.6859238206
 22
0.3468243936
 32
0.0
 13
0.1219794449
 23
-2.7054749943
 33
0.0
 40
0.0
 40
0.0
 40
0.0
 40
0.0
 40
0.163352438
 40
0.3263049557
 40
0.4821180925
 40
0.6245820371
 40
0.748617476
 40
0.802705808
 40
0.851257736
 40
0.8944410111
 40
0.9328131133
 40
0.9674454595
 40
1.0
 40
1.0
 40
1.0
 40
1.0
 10
62.064636745
 20
91.0589865226
 30
0.0
 10
62.2108874798
 20
91.0778713927
 30
0.0
 10
62.5048934555
 20
91.1023148428
 30
0.0
 10
62.9406283886
 20
91.1009994429
 30
0.0
 10
63.3558688849
 20
91.0623132312
 30
0.0
 10
63.7305391185
 20
90.9882581604
 30
0.0
 10
64.0063711974
 20
90.896471106
 30
0.0
 10
64.1900297127
 20
90.8055024916
 30
0.0
 10
64.3010894584
 20
90.7342080591
 30
0.0
 10
64.3905915156
 20
90.6574324425
 30
0.0
 10
64.457402748
 20
90.575671854
 30
0.0
 10
64.5002671185
 20
90.4895272793
 30
0.0
 10
64.5119413421
 20
90.4290428562
 30
0.0
 10
64.5132650037
 20
90.3996843579
 30
0.0
 11
62.064636745
 21
91.0589865226
 31
0.0
 11
62.5054808814
 21
91.0959958334
 31
0.0
 11
62.9467891294
 21
91.0942202581
 31
0.0
 11
63.3668205296
 21
91.0537477125
 31
0.0
 11
63.7448482276
 21
90.9765767153
 31
0.0
 11
64.0622201626
 21
90.8665112941
 31
0.0
 11
64.1931295767
 21
90.8007839916
 31
0.0
 11
64.3032845494
 21
90.7289831423
 31
0.0
 11
64.3913200947
 21
90.651995904
 31
0.0
 11
64.4561455188
 21
90.5707735088
 31
0.0
 11
64.4969636774
 21
90.486329198
 31
0.0
 11
64.5132650037
 21
90.3996843579
 31
0.0
  0
SPLINE
  5
31A
100
AcDbEntity
  8
RACCORDO
100
AcDbSpline
 62
253
  6
CONTINUOUS
 70
0
 71
3
 72
17
 73
13
 74
11
 42
0.0000001
 43
0.0000001
 44
0.0000000001
 12
-1.5314612275
 22
0.3226028815
 32
0.0
 13
-0.4700407058
 23
-1.4928187583
 33
0.0
 40
0.0
 40
0.0
 40
0.0
 40
0.0
 40
0.0315871078
 40
0.0645774989
 40
0.100723406
 40
0.1410006173
 40
0.235947794
 40
0.3519061937
 40
0.4885412122
 40
0.6440450749
 40
0.8156657287
 40
1.0
 40
1.0
 40
1.0
 40
1.0
 10
62.9275436792
 20
92.2668239476
 30
0.0
 10
62.9114188688
 20
92.2702206449
 30
0.0
 10
62.8774369304
 20
92.2730472003
 30
0.0
 10
62.8251518778
 20
92.2645956434
 30
0.0
 10
62.7714799873
 20
92.2442536937
 30
0.0
 10
62.6939198214
 20
92.1991490743
 30
0.0
 10
62.5956158482
 20
92.1107321699
 30
0.0
 10
62.4822434763
 20
91.968704366
 30
0.0
 10
62.3694760303
 20
91.7876618338
 30
0.0
 10
62.2598156184
 20
91.5717280778
 30
0.0
 10
62.1564657992
 20
91.3255773114
 30
0.0
 10
62.093518282
 20
91.1507124086
 30
0.0
 10
62.064636745
 20
91.0589865226
 30
0.0
 11
62.9275436792
 21
92.2668239476
 31
0.0
 11
62.8782854357
 21
92.2710130996
 31
0.0
 11
62.8272393922
 21
92.2632545516
 31
0.0
 11
62.7741554169
 21
92.2437005735
 31
0.0
 11
62.7193972879
 21
92.2124728541
 31
0.0
 11
62.6066237092
 21
92.115706154
 31
0.0
 11
62.4916441833
 21
91.9752931225
 31
0.0
 11
62.3772375515
 21
91.7946272809
 31
0.0
 11
62.266168809
 21
91.5780749864
 31
0.0
 11
62.1611222805
 21
91.3308699048
 31
0.0
 11
62.064636745
 21
91.0589865226
 31
0.0
  0
SPLINE
  5
31B
100
AcDbEntity
  8
RACCORDO
100
AcDbSpline
 62
7
  6
CONTINUOUS
 70
0
 71
3
 72
14
 73
10
 74
8
 42
0.0000001
 43
0.0000001
 44
0.0000000001
 12
2.3004125628
 22
-0.4945240841
 32
0.0
 13
1.8244384089
 23
1.4858924998
 33
0.0
 40
0.0
 40
0.0
 40
0.0
 40
0.0
 40
0.0849182446
 40
0.1853839049
 40
0.2999567101
 40
0.4261702931
 40
0.5614864914
 40
0.7035887315
 40
1.0
 40
1.0
 40
1.0
 40
1.0
 10
-64.1620392659
 20
-89.3586281172
 30
0.0
 10
-64.0969236004
 20
-89.3726261562
 30
0.0
 10
-63.9495662509
 20
-89.3782638296
 30
0.0
 10
-63.7167379976
 20
-89.339620198
 30
0.0
 10
-63.4604482204
 20
-89.2601689094
 30
0.0
 10
-63.188579479
 20
-89.1447933878
 30
0.0
 10
-62.9075537556
 20
-88.9984093433
 30
0.0
 10
-62.5228132439
 20
-88.7644677477
 30
0.0
 10
-62.2448981127
 20
-88.5603157419
 30
0.0
 10
-62.064636745
 20
-88.4135039816
 30
0.0
 11
-64.1620392659
 21
-89.3586281172
 31
0.0
 11
-63.9626507806
 21
-89.3715968056
 31
0.0
 11
-63.7288698585
 21
-89.3365565068
 31
0.0
 11
-63.4707265019
 21
-89.2588479947
 31
0.0
 11
-63.196780539
 21
-89.1441808137
 31
0.0
 11
-62.9139789783
 21
-88.9978991146
 31
0.0
 11
-62.6279646905
 21
-88.8247123335
 31
0.0
 11
-62.064636745
 21
-88.4135039816
 31
0.0
  0
SPLINE
  5
31C
100
AcDbEntity
  8
RACCORDO
100
AcDbSpline
 62
7
  6
CONTINUOUS
 70
0
 71
3
 72
15
 73
11
 74
9
 42
0.0000001
 43
0.0000001
 44
0.0000000001
 12
1.5763213225
 22
-0.255555534
 32
0.0
 13
0.4587125421
 23
1.5296013684
 33
0.0
 40
0.0
 40
0.0
 40
0.0
 40
0.0
 40
0.0725726523
 40
0.1547200241
 40
0.2525480302
 40
0.3686277486
 40
0.5031601941
 40
0.6548599754
 40
0.8214581692
 40
1.0
 40
1.0
 40
1.0
 40
1.0
 10
-48.8553581314
 20
-92.2427038041
 30
0.0
 10
-48.817225525
 20
-92.2488859184
 30
0.0
 10
-48.7323742777
 20
-92.2438768847
 30
0.0
 10
-48.6083687125
 20
-92.186823762
 30
0.0
 10
-48.4856457718
 20
-92.086127275
 30
0.0
 10
-48.3650634001
 20
-91.9442830321
 30
0.0
 10
-48.2484947964
 20
-91.7640987218
 30
0.0
 10
-48.138402126
 20
-91.5493010219
 30
0.0
 10
-48.0373155778
 20
-91.3046553527
 30
0.0
 10
-47.9791471042
 20
-91.1302243023
 30
0.0
 10
-47.9518473119
 20
-91.0391916927
 30
0.0
 11
-48.8553581314
 21
-92.2427038041
 31
0.0
 11
-48.7395791757
 21
-92.2375987772
 31
0.0
 11
-48.6189361949
 21
-92.1860835786
 31
0.0
 11
-48.4962747144
 21
-92.0893395472
 31
0.0
 11
-48.3744771471
 21
-91.9496017766
 31
0.0
 11
-48.2564171993
 21
-91.7701135867
 31
0.0
 11
-48.1448918045
 21
-91.5550623571
 31
0.0
 11
-48.0425540182
 21
-91.3094919432
 31
0.0
 11
-47.9518473119
 21
-91.0391916927
 31
0.0
  0
SPLINE
  5
31D
100
AcDbEntity
  8
RACCORDO
100
AcDbSpline
 62
7
  6
CONTINUOUS
 70
0
 71
3
 72
15
 73
11
 74
9
 42
0.0000001
 43
0.0000001
 44
0.0000000001
 12
-1.576320756
 22
-0.2555553365
 32
0.0
 13
-0.4587125429
 23
1.5296007515
 33
0.0
 40
0.0
 40
0.0
 40
0.0
 40
0.0
 40
0.0725720836
 40
0.1547196393
 40
0.2525477263
 40
0.3686275066
 40
0.5031600106
 40
0.6548598512
 40
0.8214581062
 40
1.0
 40
1.0
 40
1.0
 40
1.0
 10
48.8553581015
 20
-92.2427036199
 30
0.0
 10
48.8172258076
 20
-92.248885681
 30
0.0
 10
48.7323748291
 20
-92.2438766636
 30
0.0
 10
48.6083693815
 20
-92.1868237744
 30
0.0
 10
48.4856463083
 20
-92.0861272565
 30
0.0
 10
48.3650638728
 20
-91.9442830178
 30
0.0
 10
48.2484952269
 20
-91.7640987139
 30
0.0
 10
48.1384025215
 20
-91.5493010253
 30
0.0
 10
48.0373159419
 20
-91.304655369
 30
0.0
 10
47.9791474487
 20
-91.130224327
 30
0.0
 10
47.9518476467
 20
-91.0391917221
 30
0.0
 11
48.8553581015
 21
-92.2427036199
 31
0.0
 11
48.7395800935
 21
-92.2375986885
 31
0.0
 11
48.6189368289
 21
-92.1860835303
 31
0.0
 11
48.4962752463
 21
-92.0893395134
 31
0.0
 11
48.3744776205
 21
-91.9496017533
 31
0.0
 11
48.2564176306
 21
-91.7701135745
 31
0.0
 11
48.1448922008
 21
-91.5550623574
 31
0.0
 11
48.0425543829
 21
-91.3094919575
 31
0.0
 11
47.9518476467
 21
-91.0391917221
 31
0.0
  0
SPLINE
  5
31E
100
AcDbEntity
  8
RACCORDO
100
AcDbSpline
 62
253
  6
CONTINUOUS
 70
0
 71
3
 72
17
 73
13
 74
11
 42
0.0000001
 43
0.0000001
 44
0.0000000001
 12
0.5052164722
 22
-1.4812890886
 32
0.0
 13
1.5314658971
 23
0.3226038651
 33
0.0
 40
0.0
 40
0.0
 40
0.0
 40
0.0
 40
0.1843336008
 40
0.3559536161
 40
0.5114569087
 40
0.6480914679
 40
0.7640495703
 40
0.8589966791
 40
0.8992869269
 40
0.9354183302
 40
0.9683493006
 40
1.0
 40
1.0
 40
1.0
 40
1.0
 10
62.064636745
 20
-88.4135039816
 30
0.0
 10
62.0956795355
 20
-88.5045210988
 30
0.0
 10
62.1555292197
 20
-88.680401669
 30
0.0
 10
62.2600320772
 20
-88.9261744908
 30
0.0
 10
62.3694248077
 20
-89.1421952168
 30
0.0
 10
62.4822496132
 20
-89.3232213104
 30
0.0
 10
62.5956148645
 20
-89.4652446496
 30
0.0
 10
62.6939139808
 20
-89.5536862123
 30
0.0
 10
62.7714959046
 20
-89.5987538675
 30
0.0
 10
62.8251281417
 20
-89.6190961549
 30
0.0
 10
62.8774019916
 20
-89.6276057126
 30
0.0
 10
62.9113863569
 20
-89.6247449526
 30
0.0
 10
62.9275436792
 20
-89.6213414066
 30
0.0
 11
62.064636745
 21
-88.4135039816
 31
0.0
 11
62.1611210313
 21
-88.685387627
 31
0.0
 11
62.2661666453
 21
-88.9325929013
 31
0.0
 11
62.3772348302
 21
-89.1491453132
 31
0.0
 11
62.4916412746
 21
-89.3298111942
 31
0.0
 11
62.6066209879
 21
-89.4702241863
 31
0.0
 11
62.7193951243
 21
-89.5669907689
 31
0.0
 11
62.7741801968
 21
-89.5982128112
 31
0.0
 11
62.8272381431
 21
-89.6177722738
 31
0.0
 11
62.8781871616
 21
-89.6255512605
 31
0.0
 11
62.9275436792
 21
-89.6213414066
 31
0.0
  0
SPLINE
  5
31F
100
AcDbEntity
  8
RACCORDO
100
AcDbSpline
 62
253
  6
CONTINUOUS
 70
0
 71
3
 72
16
 73
12
 74
10
 42
0.0000001
 43
0.0000001
 44
0.0000000001
 12
7.4216663869
 22
-0.1245322548
 32
0.0
 13
0.1012549075
 23
-7.4220204584
 33
0.0
 40
0.0
 40
0.0
 40
0.0
 40
0.0
 40
0.118223503
 40
0.2378147557
 40
0.3594932419
 40
0.4836349431
 40
0.6102381698
 40
0.7389438497
 40
0.8039558053
 40
0.8692286172
 40
1.0
 40
1.0
 40
1.0
 40
1.0
 10
24.3569182436
 20
83.2785407383
 30
0.0
 10
24.6493900432
 20
83.2736331918
 30
0.0
 10
25.2385282243
 20
83.1996057829
 30
0.0
 10
26.0835136991
 20
82.9024599736
 30
0.0
 10
26.8623002628
 20
82.430982315
 30
0.0
 10
27.5452667882
 20
81.803758601
 30
0.0
 10
28.1074067921
 20
81.0451147106
 30
0.0
 10
28.457270509
 20
80.3287857893
 30
0.0
 10
28.6597078103
 20
79.7200199821
 30
0.0
 10
28.8089097334
 20
79.0909511213
 30
0.0
 10
28.858202906
 20
78.6051158959
 30
0.0
 10
28.8626166541
 20
78.2815866032
 30
0.0
 11
24.3569182436
 21
83.2785407383
 31
0.0
 11
25.2276871614
 21
83.1697472192
 31
0.0
 11
26.0656120177
 21
82.8766980525
 31
0.0
 11
26.8391373129
 21
82.4104358836
 31
0.0
 11
27.5190945228
 21
81.7885344121
 31
0.0
 11
28.079856191
 21
81.034441531
 31
0.0
 11
28.5002796079
 21
80.1765788537
 31
0.0
 11
28.6526878196
 21
79.7187134996
 31
0.0
 11
28.7645187762
 21
79.2472951339
 31
0.0
 11
28.8626166541
 21
78.2815866032
 31
0.0
  0
SPLINE
  5
320
100
AcDbEntity
  8
RACCORDO
100
AcDbSpline
 62
7
  6
CONTINUOUS
 70
0
 71
3
 72
32
 73
28
 74
26
 42
0.0000001
 43
0.0000001
 44
0.0000000001
 12
3.2327990703
 22
-2.1142483177
 32
0.0
 13
-0.1708256125
 23
3.8589965519
 33
0.0
 40
0.0
 40
0.0
 40
0.0
 40
0.0
 40
0.1477284379
 40
0.2240281599
 40
0.3013465315
 40
0.3793007921
 40
0.457535153
 40
0.5356522873
 40
0.613048573
 40
0.6511125379
 40
0.6883290184
 40
0.723978293
 40
0.7565695848
 40
0.7709299798
 40
0.7835409831
 40
0.803201099
 40
0.8113337454
 40
0.8191777834
 40
0.8271705813
 40
0.8355067783
 40
0.8533023225
 40
0.87240923
 40
0.8924767339
 40
0.913229331
 40
0.9344741639
 40
0.9560771183
 40
1.0
 40
1.0
 40
1.0
 40
1.0
 10
62.3278811491
 20
85.204063832
 30
0.0
 10
62.487073268
 20
85.0999522982
 30
0.0
 10
62.7214697893
 20
84.9310203345
 30
0.0
 10
63.021548835
 20
84.6849370616
 30
0.0
 10
63.2442823981
 20
84.4865728793
 30
0.0
 10
63.4609129237
 20
84.2779819972
 30
0.0
 10
63.6705667826
 20
84.0609609563
 30
0.0
 10
63.8727795031
 20
83.8379854979
 30
0.0
 10
64.0358760952
 20
83.6494942658
 30
0.0
 10
64.1641395979
 20
83.5005216445
 30
0.0
 10
64.2583064074
 20
83.3931101935
 30
0.0
 10
64.350672394
 20
83.2935650478
 30
0.0
 10
64.4277821243
 20
83.2200430825
 30
0.0
 10
64.4893868772
 20
83.1739703039
 30
0.0
 10
64.541139235
 20
83.1438736111
 30
0.0
 10
64.5938098057
 20
83.1289626765
 30
0.0
 10
64.6394006997
 20
83.1389544325
 30
0.0
 10
64.6666162131
 20
83.1542550982
 30
0.0
 10
64.6896399062
 20
83.175505003
 30
0.0
 10
64.7164597588
 20
83.2104974802
 30
0.0
 10
64.7428233211
 20
83.2629051224
 30
0.0
 10
64.7663596909
 20
83.3324915841
 30
0.0
 10
64.784110545
 20
83.4076799122
 30
0.0
 10
64.7970157298
 20
83.4865920999
 30
0.0
 10
64.8056806178
 20
83.5680628442
 30
0.0
 10
64.8121412893
 20
83.6796297218
 30
0.0
 10
64.8115724425
 20
83.7641204076
 30
0.0
 10
64.8090713915
 20
83.820619824
 30
0.0
 11
62.3278811491
 21
85.204063832
 31
0.0
 11
62.7912860887
 21
84.8710654213
 31
0.0
 11
63.0192473962
 21
84.6842536064
 31
0.0
 11
63.2423576952
 21
84.4857046333
 31
0.0
 11
63.4593715182
 21
84.2769508387
 31
0.0
 11
63.6695090978
 21
84.0597686192
 31
0.0
 11
63.8725182531
 21
83.8365205048
 31
0.0
 11
64.0688884913
 21
83.6110909261
 31
0.0
 11
64.1650207147
 21
83.4998382032
 31
0.0
 11
64.2601495697
 21
83.392055428
 31
0.0
 11
64.354424546
 21
83.2916814414
 31
0.0
 11
64.4470806257
 21
83.2064531585
 31
0.0
 11
64.4917737476
 21
83.1735965765
 31
0.0
 11
64.5342710547
 21
83.1497851993
 31
0.0
 11
64.6084993435
 21
83.1337401925
 31
0.0
 11
64.63917422
 21
83.1405172351
 31
0.0
 11
64.6657364371
 21
83.1550954389
 31
0.0
 11
64.6886613754
 21
83.17577574
 31
0.0
 11
64.7084849751
 21
83.2011513232
 31
0.0
 11
64.7406034106
 21
83.2619264866
 31
0.0
 11
64.7648731531
 21
83.33162771
 31
0.0
 11
64.7830367258
 21
83.4069858948
 31
0.0
 11
64.7961782125
 21
83.4860640089
 31
0.0
 11
64.8049810312
 21
83.567654537
 31
0.0
 11
64.8098872919
 21
83.6509575474
 31
0.0
 11
64.8090713915
 21
83.820619824
 31
0.0
  0
SPLINE
  5
321
100
AcDbEntity
  8
RACCORDO
100
AcDbSpline
 62
253
  6
CONTINUOUS
 70
0
 71
3
 72
16
 73
12
 74
10
 42
0.0000001
 43
0.0000001
 44
0.0000000001
 12
-7.4216663869
 22
-0.1245322548
 32
0.0
 13
-0.1012549075
 23
-7.4220204584
 33
0.0
 40
0.0
 40
0.0
 40
0.0
 40
0.0
 40
0.118223503
 40
0.2378147557
 40
0.3594932419
 40
0.4836349431
 40
0.6102381698
 40
0.7389438497
 40
0.8039558053
 40
0.8692286172
 40
1.0
 40
1.0
 40
1.0
 40
1.0
 10
-24.3569182436
 20
83.2785407383
 30
0.0
 10
-24.6493900432
 20
83.2736331918
 30
0.0
 10
-25.2385282243
 20
83.1996057829
 30
0.0
 10
-26.0835136991
 20
82.9024599736
 30
0.0
 10
-26.8623002628
 20
82.430982315
 30
0.0
 10
-27.5452667882
 20
81.803758601
 30
0.0
 10
-28.1074067921
 20
81.0451147106
 30
0.0
 10
-28.457270509
 20
80.3287857893
 30
0.0
 10
-28.6597078103
 20
79.7200199821
 30
0.0
 10
-28.8089097334
 20
79.0909511213
 30
0.0
 10
-28.858202906
 20
78.6051158959
 30
0.0
 10
-28.8626166541
 20
78.2815866032
 30
0.0
 11
-24.3569182436
 21
83.2785407383
 31
0.0
 11
-25.2276871614
 21
83.1697472192
 31
0.0
 11
-26.0656120177
 21
82.8766980525
 31
0.0
 11
-26.8391373129
 21
82.4104358836
 31
0.0
 11
-27.5190945228
 21
81.7885344121
 31
0.0
 11
-28.079856191
 21
81.034441531
 31
0.0
 11
-28.5002796079
 21
80.1765788537
 31
0.0
 11
-28.6526878196
 21
79.7187134996
 31
0.0
 11
-28.7645187762
 21
79.2472951339
 31
0.0
 11
-28.8626166541
 21
78.2815866032
 31
0.0
  0
SPLINE
  5
322
100
AcDbEntity
  8
RACCORDO
100
AcDbSpline
 62
253
  6
CONTINUOUS
 70
0
 71
3
 72
16
 73
12
 74
10
 42
0.0000001
 43
0.0000001
 44
0.0000000001
 12
-7.4216663869
 22
0.1245322548
 32
0.0
 13
-0.1012549075
 23
7.4220204584
 33
0.0
 40
0.0
 40
0.0
 40
0.0
 40
0.0
 40
0.118223503
 40
0.2378147557
 40
0.3594932419
 40
0.4836349431
 40
0.6102381698
 40
0.7389438497
 40
0.8039558053
 40
0.8692286172
 40
1.0
 40
1.0
 40
1.0
 40
1.0
 10
-24.3569182436
 20
-80.6330581974
 30
0.0
 10
-24.6493900432
 20
-80.6281506509
 30
0.0
 10
-25.2385282243
 20
-80.554123242
 30
0.0
 10
-26.0835136991
 20
-80.2569774327
 30
0.0
 10
-26.8623002628
 20
-79.7854997741
 30
0.0
 10
-27.5452667882
 20
-79.1582760601
 30
0.0
 10
-28.1074067921
 20
-78.3996321696
 30
0.0
 10
-28.457270509
 20
-77.6833032484
 30
0.0
 10
-28.6597078103
 20
-77.0745374412
 30
0.0
 10
-28.8089097334
 20
-76.4454685804
 30
0.0
 10
-28.858202906
 20
-75.959633355
 30
0.0
 10
-28.8626166541
 20
-75.6361040623
 30
0.0
 11
-24.3569182436
 21
-80.6330581974
 31
0.0
 11
-25.2276871614
 21
-80.5242646783
 31
0.0
 11
-26.0656120177
 21
-80.2312155116
 31
0.0
 11
-26.8391373129
 21
-79.7649533427
 31
0.0
 11
-27.5190945228
 21
-79.1430518712
 31
0.0
 11
-28.079856191
 21
-78.3889589901
 31
0.0
 11
-28.5002796079
 21
-77.5310963128
 31
0.0
 11
-28.6526878196
 21
-77.0732309587
 31
0.0
 11
-28.7645187762
 21
-76.601812593
 31
0.0
 11
-28.8626166541
 21
-75.6361040623
 31
0.0
  0
SPLINE
  5
323
100
AcDbEntity
  8
RACCORDO
100
AcDbSpline
 62
7
  6
CONTINUOUS
 70
0
 71
3
 72
32
 73
28
 74
26
 42
0.0000001
 43
0.0000001
 44
0.0000000001
 12
-3.2327990703
 22
2.1142483177
 32
0.0
 13
0.1708256125
 23
-3.8589965519
 33
0.0
 40
0.0
 40
0.0
 40
0.0
 40
0.0
 40
0.1477284379
 40
0.2240281599
 40
0.3013465315
 40
0.3793007921
 40
0.457535153
 40
0.5356522873
 40
0.613048573
 40
0.6511125379
 40
0.6883290184
 40
0.723978293
 40
0.7565695848
 40
0.7709299798
 40
0.7835409831
 40
0.803201099
 40
0.8113337454
 40
0.8191777834
 40
0.8271705813
 40
0.8355067783
 40
0.8533023225
 40
0.87240923
 40
0.8924767339
 40
0.913229331
 40
0.9344741639
 40
0.9560771183
 40
1.0
 40
1.0
 40
1.0
 40
1.0
 10
-62.3278811491
 20
-82.558581291
 30
0.0
 10
-62.487073268
 20
-82.4544697573
 30
0.0
 10
-62.7214697893
 20
-82.2855377936
 30
0.0
 10
-63.021548835
 20
-82.0394545207
 30
0.0
 10
-63.2442823981
 20
-81.8410903384
 30
0.0
 10
-63.4609129237
 20
-81.6324994562
 30
0.0
 10
-63.6705667826
 20
-81.4154784154
 30
0.0
 10
-63.8727795031
 20
-81.192502957
 30
0.0
 10
-64.0358760952
 20
-81.0040117249
 30
0.0
 10
-64.1641395979
 20
-80.8550391035
 30
0.0
 10
-64.2583064074
 20
-80.7476276526
 30
0.0
 10
-64.350672394
 20
-80.6480825069
 30
0.0
 10
-64.4277821243
 20
-80.5745605416
 30
0.0
 10
-64.4893868772
 20
-80.528487763
 30
0.0
 10
-64.541139235
 20
-80.4983910702
 30
0.0
 10
-64.5938098057
 20
-80.4834801356
 30
0.0
 10
-64.6394006997
 20
-80.4934718916
 30
0.0
 10
-64.6666162131
 20
-80.5087725573
 30
0.0
 10
-64.6896399062
 20
-80.5300224621
 30
0.0
 10
-64.7164597588
 20
-80.5650149393
 30
0.0
 10
-64.7428233211
 20
-80.6174225815
 30
0.0
 10
-64.7663596909
 20
-80.6870090432
 30
0.0
 10
-64.784110545
 20
-80.7621973713
 30
0.0
 10
-64.7970157298
 20
-80.841109559
 30
0.0
 10
-64.8056806178
 20
-80.9225803033
 30
0.0
 10
-64.8121412893
 20
-81.0341471809
 30
0.0
 10
-64.8115724425
 20
-81.1186378667
 30
0.0
 10
-64.8090713915
 20
-81.1751372831
 30
0.0
 11
-62.3278811491
 21
-82.558581291
 31
0.0
 11
-62.7912860887
 21
-82.2255828803
 31
0.0
 11
-63.0192473962
 21
-82.0387710655
 31
0.0
 11
-63.2423576952
 21
-81.8402220924
 31
0.0
 11
-63.4593715182
 21
-81.6314682978
 31
0.0
 11
-63.6695090978
 21
-81.4142860783
 31
0.0
 11
-63.8725182531
 21
-81.1910379638
 31
0.0
 11
-64.0688884913
 21
-80.9656083852
 31
0.0
 11
-64.1650207147
 21
-80.8543556622
 31
0.0
 11
-64.2601495697
 21
-80.7465728871
 31
0.0
 11
-64.354424546
 21
-80.6461989005
 31
0.0
 11
-64.4470806257
 21
-80.5609706176
 31
0.0
 11
-64.4917737476
 21
-80.5281140356
 31
0.0
 11
-64.5342710547
 21
-80.5043026583
 31
0.0
 11
-64.6084993435
 21
-80.4882576516
 31
0.0
 11
-64.63917422
 21
-80.4950346941
 31
0.0
 11
-64.6657364371
 21
-80.509612898
 31
0.0
 11
-64.6886613754
 21
-80.5302931991
 31
0.0
 11
-64.7084849751
 21
-80.5556687823
 31
0.0
 11
-64.7406034106
 21
-80.6164439457
 31
0.0
 11
-64.7648731531
 21
-80.6861451691
 31
0.0
 11
-64.7830367258
 21
-80.7615033539
 31
0.0
 11
-64.7961782125
 21
-80.840581468
 31
0.0
 11
-64.8049810312
 21
-80.9221719961
 31
0.0
 11
-64.8098872919
 21
-81.0054750065
 31
0.0
 11
-64.8090713915
 21
-81.1751372831
 31
0.0
  0
SPLINE
  5
324
100
AcDbEntity
  8
RACCORDO
100
AcDbSpline
 62
253
  6
CONTINUOUS
 70
0
 71
3
 72
16
 73
12
 74
10
 42
0.0000001
 43
0.0000001
 44
0.0000000001
 12
7.4216663869
 22
0.1245322548
 32
0.0
 13
0.1012549075
 23
7.4220204584
 33
0.0
 40
0.0
 40
0.0
 40
0.0
 40
0.0
 40
0.118223503
 40
0.2378147557
 40
0.3594932419
 40
0.4836349431
 40
0.6102381698
 40
0.7389438497
 40
0.8039558053
 40
0.8692286172
 40
1.0
 40
1.0
 40
1.0
 40
1.0
 10
24.3569182436
 20
-80.6330581974
 30
0.0
 10
24.6493900432
 20
-80.6281506509
 30
0.0
 10
25.2385282243
 20
-80.554123242
 30
0.0
 10
26.0835136991
 20
-80.2569774327
 30
0.0
 10
26.8623002628
 20
-79.7854997741
 30
0.0
 10
27.5452667882
 20
-79.1582760601
 30
0.0
 10
28.1074067921
 20
-78.3996321696
 30
0.0
 10
28.457270509
 20
-77.6833032484
 30
0.0
 10
28.6597078103
 20
-77.0745374412
 30
0.0
 10
28.8089097334
 20
-76.4454685804
 30
0.0
 10
28.858202906
 20
-75.959633355
 30
0.0
 10
28.8626166541
 20
-75.6361040623
 30
0.0
 11
24.3569182436
 21
-80.6330581974
 31
0.0
 11
25.2276871614
 21
-80.5242646783
 31
0.0
 11
26.0656120177
 21
-80.2312155116
 31
0.0
 11
26.8391373129
 21
-79.7649533427
 31
0.0
 11
27.5190945228
 21
-79.1430518712
 31
0.0
 11
28.079856191
 21
-78.3889589901
 31
0.0
 11
28.5002796079
 21
-77.5310963128
 31
0.0
 11
28.6526878196
 21
-77.0732309587
 31
0.0
 11
28.7645187762
 21
-76.601812593
 31
0.0
 11
28.8626166541
 21
-75.6361040623
 31
0.0
  0
SPLINE
  5
325
100
AcDbEntity
  8
ASSI
100
AcDbSpline
 62
7
  6
CONTINUOUS
 70
0
 71
3
 72
9
 73
5
 74
3
 42
0.0000001
 43
0.0000001
 44
0.0000000001
 12
-2.0178639457
 22
0.0
 32
0.0
 13
-1.910562056
 23
-0.6306599714
 33
0.0
 40
0.0
 40
0.0
 40
0.0
 40
0.0
 40
0.6819686218
 40
1.0
 40
1.0
 40
1.0
 40
1.0
 10
-16.7654695548
 20
-85.6772587295
 30
0.0
 10
-17.2241761861
 20
-85.6772587295
 30
0.0
 10
-17.8984572739
 20
-85.7621163346
 30
0.0
 10
-18.5474604387
 20
-85.9450525325
 30
0.0
 10
-18.75
 20
-86.0119090858
 30
0.0
 11
-16.7654695548
 21
-85.6772587295
 31
0.0
 11
-18.1320969876
 21
-85.8386136872
 31
0.0
 11
-18.75
 21
-86.0119090858
 31
0.0
  0
SPLINE
  5
326
100
AcDbEntity
  8
ASSI
100
AcDbSpline
 62
7
  6
CONTINUOUS
 70
0
 71
3
 72
9
 73
5
 74
3
 42
0.0000001
 43
0.0000001
 44
0.0000000001
 12
2.0178617935
 22
0.0
 32
0.0
 13
1.9105608003
 23
0.6306598279
 33
0.0
 40
0.0
 40
0.0
 40
0.0
 40
0.0
 40
0.6821852317
 40
1.0
 40
1.0
 40
1.0
 40
1.0
 10
16.7654695548
 20
88.3227412705
 30
0.0
 10
17.2243213931
 20
88.3227412705
 30
0.0
 10
17.8986035551
 20
88.407625861
 30
0.0
 10
18.5475985206
 20
88.5905806243
 30
0.0
 10
18.75
 20
88.6573916267
 30
0.0
 11
16.7654695548
 21
88.3227412705
 31
0.0
 11
18.1325239871
 21
88.484194871
 31
0.0
 11
18.75
 21
88.6573916267
 31
0.0
  0
SPLINE
  5
327
100
AcDbEntity
  8
ASSI
100
AcDbSpline
 62
7
  6
CONTINUOUS
 70
0
 71
3
 72
9
 73
5
 74
3
 42
0.0000001
 43
0.0000001
 44
0.0000000001
 12
1.910561939
 22
-0.6306599177
 32
0.0
 13
2.0178637299
 23
0.0
 33
0.0
 40
0.0
 40
0.0
 40
0.0
 40
0.0
 40
0.3180097447
 40
1.0
 40
1.0
 40
1.0
 40
1.0
 10
-18.75
 20
88.6573916267
 30
0.0
 10
-18.5474742285
 20
88.5905396269
 30
0.0
 10
-17.8984718815
 20
88.4076015796
 30
0.0
 10
-17.2241906882
 20
88.3227412705
 30
0.0
 10
-16.7654695548
 20
88.3227412705
 30
0.0
 11
-18.75
 21
88.6573916267
 31
0.0
 11
-18.1321396324
 21
88.4841060845
 31
0.0
 11
-16.7654695548
 21
88.3227412705
 31
0.0
  0
SPLINE
  5
328
100
AcDbEntity
  8
ASSI
100
AcDbSpline
 62
7
  6
CONTINUOUS
 70
0
 71
3
 72
9
 73
5
 74
3
 42
0.0000001
 43
0.0000001
 44
0.0000000001
 12
-1.9105609692
 22
0.6306597982
 32
0.0
 13
-2.0178620645
 23
0.0
 33
0.0
 40
0.0
 40
0.0
 40
0.0
 40
0.0
 40
0.3178421488
 40
1.0
 40
1.0
 40
1.0
 40
1.0
 10
18.75
 20
-86.0119090858
 30
0.0
 10
18.5475810654
 20
-85.9450923306
 30
0.0
 10
17.898585062
 20
-85.7621399198
 30
0.0
 10
17.224303038
 20
-85.6772587295
 30
0.0
 10
16.7654695548
 20
-85.6772587295
 30
0.0
 11
18.75
 21
-86.0119090858
 31
0.0
 11
18.1324700111
 21
-85.8386998667
 31
0.0
 11
16.7654695548
 21
-85.6772587295
 31
0.0
  0
ELLIPSE
  5
329
100
AcDbEntity
  8
0
100
AcDbEllipse
 62
7
  6
CONTINUOUS
 10
-11.0811183182
 20
91.1227412705
 30
0.0
 11
3.9726819898
 21
3.9726819898
 31
0.0
 40
0.4142135624
 41
5.1050880621
 42
6.6758843889
  0
ELLIPSE
  5
32A
100
AcDbEntity
  8
0
100
AcDbEllipse
 62
7
  6
CONTINUOUS
 10
-6.9188816818
 20
91.1227412705
 30
0.0
 11
3.9726819898
 21
-3.9726819898
 31
0.0
 40
0.4142135624
 41
2.7488935719
 42
4.3196898987
  0
ELLIPSE
  5
32B
100
AcDbEntity
  8
0
100
AcDbEllipse
 62
7
  6
CONTINUOUS
 10
-6.9188816818
 20
-88.4772587295
 30
0.0
 11
3.9726819898
 21
3.9726819898
 31
0.0
 40
0.4142135624
 41
8.2466807157
 42
9.8174770425
  0
ELLIPSE
  5
32C
100
AcDbEntity
  8
0
100
AcDbEllipse
 62
7
  6
CONTINUOUS
 10
-11.0811183182
 20
-88.4772587295
 30
0.0
 11
3.9726819898
 21
-3.9726819898
 31
0.0
 40
0.4142135624
 41
-0.3926990817
 42
1.1780972451
  0
ELLIPSE
  5
32D
100
AcDbEntity
  8
0
100
AcDbEllipse
 62
7
  6
CONTINUOUS
 10
11.0811183182
 20
-88.4772587295
 30
0.0
 11
3.9726819898
 21
3.9726819898
 31
0.0
 40
0.4142135624
 41
8.2466807157
 42
9.8174770425
  0
ELLIPSE
  5
32E
100
AcDbEntity
  8
0
100
AcDbEllipse
 62
7
  6
CONTINUOUS
 10
6.9188816818
 20
-88.4772587295
 30
0.0
 11
3.9726819898
 21
-3.9726819898
 31
0.0
 40
0.4142135624
 41
-0.3926990817
 42
1.1780972451
  0
ELLIPSE
  5
32F
100
AcDbEntity
  8
0
100
AcDbEllipse
 62
7
  6
CONTINUOUS
 10
-9.0
 20
90.765887021
 30
0.0
 11
0.0
 21
-0.7071067812
 31
0.0
 40
0.7071067812
 41
-0.7853981634
 42
0.7853981634
  0
ELLIPSE
  5
330
100
AcDbEntity
  8
0
100
AcDbEllipse
 62
7
  6
CONTINUOUS
 10
9.0
 20
90.765887021
 30
0.0
 11
0.0
 21
-0.7071067812
 31
0.0
 40
0.7071067812
 41
-0.7853981634
 42
0.7853981634
  0
ELLIPSE
  5
331
100
AcDbEntity
  8
0
100
AcDbEllipse
 62
7
  6
CONTINUOUS
 10
9.0
 20
-88.12040448
 30
0.0
 11
-0.0
 21
0.7071067812
 31
0.0
 40
0.7071067812
 41
-0.7853981634
 42
0.7853981634
  0
ELLIPSE
  5
332
100
AcDbEntity
  8
0
100
AcDbEllipse
 62
7
  6
CONTINUOUS
 10
-9.0
 20
-88.12040448
 30
0.0
 11
-0.0
 21
0.7071067812
 31
0.0
 40
0.7071067812
 41
-0.7853981634
 42
0.7853981634
  0
ELLIPSE
  5
333
100
AcDbEntity
  8
0
100
AcDbEllipse
 62
7
  6
CONTINUOUS
 10
6.9188816818
 20
91.1227412705
 30
0.0
 11
3.9726819898
 21
3.9726819898
 31
0.0
 40
0.4142135624
 41
5.1050880621
 42
6.6758843889
  0
ELLIPSE
  5
334
100
AcDbEntity
  8
0
100
AcDbEllipse
 62
7
  6
CONTINUOUS
 10
11.0811183182
 20
91.1227412705
 30
0.0
 11
3.9726819898
 21
-3.9726819898
 31
0.0
 40
0.4142135624
 41
2.7488935719
 42
4.3196898987
  0
ELLIPSE
  5
335
100
AcDbEntity
  8
RACCORDO
100
AcDbEllipse
 62
7
  6
CONTINUOUS
 10
64.0051515773
 20
81.159526668
 30
0.0
 11
-0.052687695
 21
5.0089511524
 31
0.0
 40
0.1983353857
 41
-1.6237816408
 42
-0.9885757595
  0
ELLIPSE
  5
336
100
AcDbEntity
  8
RACCORDO
100
AcDbEllipse
 62
7
  6
CONTINUOUS
 10
64.0051515773
 20
-78.5140441271
 30
0.0
 11
0.052687695
 21
5.0089511524
 31
0.0
 40
0.1983353857
 41
-2.1530168941
 42
-1.5178110128
  0
ELLIPSE
  5
337
100
AcDbEntity
  8
RACCORDO
100
AcDbEllipse
 62
7
  6
CONTINUOUS
 10
-64.0051515773
 20
81.159526668
 30
0.0
 11
0.052687695
 21
5.0089511524
 31
0.0
 40
0.1983353857
 41
0.9885757595
 42
1.6237816408
  0
ELLIPSE
  5
338
100
AcDbEntity
  8
RACCORDO
100
AcDbEllipse
 62
7
  6
CONTINUOUS
 10
-64.0051515773
 20
-78.5140441271
 30
0.0
 11
-0.052687695
 21
5.0089511524
 31
0.0
 40
0.1983353857
 41
1.5178110128
 42
2.1530168941
  0
ELLIPSE
  5
339
100
AcDbEntity
  8
DRAFT
100
AcDbEllipse
 62
7
  6
CONTINUOUS
 10
-0.0
 20
-79.5459264352
 30
0.0
 11
118.3378931576
 21
0.0
 31
0.0
 40
0.0349242457
 41
-1.9788238934
 42
-1.6978991958
  0
ELLIPSE
  5
33A
100
AcDbEntity
  8
DRAFT
100
AcDbEllipse
 62
7
  6
CONTINUOUS
 10
0.0
 20
-79.5459264352
 30
0.0
 11
118.3378931576
 21
0.0
 31
0.0
 40
0.0349242457
 41
-1.4436934578
 42
-1.1627687602
  0
ELLIPSE
  5
33B
100
AcDbEntity
  8
RACCORDO
100
AcDbEllipse
 62
7
  6
CONTINUOUS
 10
59.0607966403
 20
80.8006315554
 30
0.0
 11
3.8327873288
 21
3.9511739336
 31
0.0
 40
0.8282131972
 41
0.158799914
 42
0.668150464
  0
ELLIPSE
  5
33C
100
AcDbEntity
  8
RACCORDO
100
AcDbEllipse
 62
7
  6
CONTINUOUS
 10
-59.0607966403
 20
80.8006315554
 30
0.0
 11
-3.8327873288
 21
3.9511739336
 31
0.0
 40
0.8282131972
 41
-0.668150464
 42
-0.158799914
  0
ELLIPSE
  5
33D
100
AcDbEntity
  8
RACCORDO
100
AcDbEllipse
 62
7
  6
CONTINUOUS
 10
-59.0607966403
 20
-78.1551490145
 30
0.0
 11
3.8327873288
 21
3.9511739336
 31
0.0
 40
0.8282131972
 41
-2.9827927396
 42
-2.4734421896
  0
ELLIPSE
  5
33E
100
AcDbEntity
  8
RACCORDO
100
AcDbEllipse
 62
7
  6
CONTINUOUS
 10
59.0607966403
 20
-78.1551490145
 30
0.0
 11
-3.8327873288
 21
3.9511739336
 31
0.0
 40
0.8282131972
 41
-3.8097431176
 42
-3.3003925676
  0
ELLIPSE
  5
33F
100
AcDbEntity
  8
DRAFT
100
AcDbEllipse
 62
7
  6
CONTINUOUS
 10
0.0
 20
82.1914089762
 30
0.0
 11
118.3378931576
 21
0.0
 31
0.0
 40
0.0349242457
 41
1.1627687602
 42
1.4436934578
  0
ELLIPSE
  5
340
100
AcDbEntity
  8
DRAFT
100
AcDbEllipse
 62
7
  6
CONTINUOUS
 10
0.0
 20
82.1914089762
 30
0.0
 11
118.3378931576
 21
0.0
 31
0.0
 40
0.0349242457
 41
1.6978991958
 42
1.9788238934
  0
ENDSEC
  0
SECTION
  2
OBJECTS
  0
DICTIONARY
  5
C
100
AcDbDictionary
280
0
281
1
  3
ACAD_GROUP
350
D
  3
ACAD_MLINESTYLE
350
17
  3
ACAD_LAYOUT
350
1A
  3
ACAD_PLOTSETTINGS
350
19
  3
ACAD_PLOTSTYLENAME
350
E
  0
DICTIONARY
  5
D
102
{ACAD_REACTORS
330
C
102
}
100
AcDbDictionary
280
0
281
1
  0
ACDBDICTIONARYWDFLT
  5
E
102
{ACAD_REACTORS
330
C
102
}
100
AcDbDictionary
281
1
  3
Normal
350
F
100
AcDbDictionaryWithDefault
340
F
  0
DICTIONARY
  5
17
102
{ACAD_REACTORS
330
C
102
}
100
AcDbDictionary
280
0
281
1
  3
Standard
350
18
  0
DICTIONARY
  5
19
102
{ACAD_REACTORS
330
C
102
}
100
AcDbDictionary
281
1
  0
DICTIONARY
  5
1A
102
{ACAD_REACTORS
330
C
102
}
100
AcDbDictionary
281
1
  3
Model
350
341
  3
Layout1
350
342
  0
ACDBPLACEHOLDER
  5
F
102
{ACAD_REACTORS
330
E
102
}
  0
MLINESTYLE
  5
18
102
{ACAD_REACTORS
330
17
102
}
100
AcDbMlineStyle
  2
STANDARD
 70
0
  3

 62
256
 51
90.0
 52
90.0
 71
2
 49
0.5
 62
256
  6
BYLAYER
 49
-0.5
 62
256
  6
BYLAYER
  0
LAYOUT
  5
341
102
{ACAD_REACTORS
330
1A
102
}
100
AcDbPlotSettings
  1

  2
none_device
  4
ISO_A4_(297.00_x_210.00_MM)
  6

 40
0.0
 41
0.0
 42
0.0
 43
0.0
 44
297.0
 45
210.0
 46
0.0
 47
0.0
 48
0.0
 49
0.0
140
0.0
141
0.0
142
1.0
143
1.0
 70
1024
 72
1
 73
0
 74
0
  7

 75
0
147
1.0
148
0.0
149
0.0
100
AcDbLayout
  1
Model
 70
0
 71
0
 10
0.0
 20
0.0
 11
297.0
 21
210.0
 12
0.0
 22
0.0
 32
0.0
 14
0.0
 24
0.0
 34
0.0
 15
0.0
 25
0.0
 35
0.0
146
0.0
 13
0.0
 23
0.0
 33
0.0
 16
1.0
 26
0.0
 36
0.0
 17
0.0
 27
1.0
 37
0.0
 76
0
330
20B
345
0
346
0
  0
LAYOUT
  5
342
102
{ACAD_REACTORS
330
1A
102
}
100
AcDbPlotSettings
  1

  2
none_device
  4
ISO_A4_(297.00_x_210.00_MM)
  6

 40
0.0
 41
0.0
 42
0.0
 43
0.0
 44
297.0
 45
210.0
 46
0.0
 47
0.0
 48
0.0
 49
0.0
140
0.0
141
0.0
142
1.0
143
1.0
 70
0
 72
1
 73
0
 74
0
  7

 75
0
147
1.0
148
0.0
149
0.0
100
AcDbLayout
  1
Layout1
 70
0
 71
1
 10
0.0
 20
0.0
 11
297.0
 21
210.0
 12
0.0
 22
0.0
 32
0.0
 14
0.0
 24
0.0
 34
0.0
 15
0.0
 25
0.0
 35
0.0
146
0.0
 13
0.0
 23
0.0
 33
0.0
 16
1.0
 26
0.0
 36
0.0
 17
0.0
 27
1.0
 37
0.0
 76
0
330
20C
345
0
346
0
  0
ENDSEC
  0
EOF
