0
SECTION
2
HEADER
9
$ACADVER
1
AC1015
9
$DWGCODEPAGE
3
ANSI_1252
9
$EXTMAX
10
297.0000000000
20
210.0000000000
30
0.0000000000
9
$EXTMIN
10
0.0000000000
20
0.0000000000
30
0.0000000000
9
$LIMMIN
10
0.0000000000
20
0.0000000000
9
$LIMMAX
10
297.0000000000
20
210.0000000000
9
$VIEWCTR
10
148.5000000000
20
105.0000000000
9
$VIEWSIZE
40
210.0000000000
9
$CLAYER
8
0
9
$LTSCALE
40
16.3350000000
9
$CELTYPE
6
BYLAYER
9
$DIMSCALE
40
1
9
$DIMASZ
40
3.0000000000
9
$DIMEXO
40
1.8562500000
9
$DIMDLI
40
11.2860000000
9
$DIMEXE
40
5.3460000000
9
$DIMCEN
40
2.6730000000
9
$DIMLFAC
40
1.0000000000
9
$DIMBLK
1
_FILLED
9
$DIMTXT
40
3.0000000000
9
$DIMTOL
70
1
9
$DIMLIM
70
0
9
$DIMTFAC
40
1.0000000000
9
$DIMTP
40
0.0100000000
9
$DIMTM
40
0.0100000000
9
$PDMODE
70
3
9
$PDSIZE
40
3.0000000000
9
$HANDSEED
5
572
9
$MEASUREMENT
70
1
9
$INSUNITS
70
4
0
ENDSEC
0
SECTION
2
CLASSES
0
CLASS
1
ACDBDICTIONARYWDFLT
2
AcDbDictionaryWithDefault
3
AutoCAD 2000
90
0
280
0
281
0
0
CLASS
1
ACDBPLACEHOLDER
2
AcDbPlaceHolder
3
AutoCAD 2000
90
0
280
0
281
0
0
CLASS
1
LAYOUT
2
AcDbLayout
3
AutoCAD 2000
90
0
280
0
281
0
0
ENDSEC
0
SECTION
2
TABLES
0
TABLE
2
VPORT
5
8
100
AcDbSymbolTable
70
2
0
VPORT
5
1F4
100
AcDbSymbolTableRecord
100
AcDbViewportTableRecord
2
*ACTIVE
70
0
10
0.0
20
0.0
11
1.0
21
1.0
12
148.5000000000
22
105.0000000000
13
0.0
23
0.0
14
1.0
24
1.0
15
0.0
25
0.0
16
0.0
26
0.0
36
1.0
17
0.0
27
0.0
37
0.0
40
210.0000000000
41
1.4142857143
42
50.0
43
0.0
44
0.0
50
0.0
51
0.0
71
0
72
100
73
1
74
1
75
0
76
0
77
0
78
0
0
ENDTAB
0
TABLE
2
LTYPE
5
5
100
AcDbSymbolTable
70
6
0
LTYPE
5
14
100
AcDbSymbolTableRecord
100
AcDbLinetypeTableRecord
2
BYBLOCK
70
0
3

72
65
73
0
40
0.0
0
LTYPE
5
15
100
AcDbSymbolTableRecord
100
AcDbLinetypeTableRecord
2
BYLAYER
70
0
3

72
65
73
0
40
0.0
0
LTYPE
5
16
100
AcDbSymbolTableRecord
100
AcDbLinetypeTableRecord
2
CONTINUOUS
70
64
3
Solid line
72
65
73
0
40
0
0
LTYPE
5
1F5
100
AcDbSymbolTableRecord
100
AcDbLinetypeTableRecord
2
CENTER
70
64
3
____ _ ____ _ ____ _ ____ _ ____ _ ____ _ ____
72
65
73
4
40
0.6
49
0.375
74
0
49
-0.075
74
0
49
0.075
74
0
49
-0.075
74
0
0
LTYPE
5
1F6
100
AcDbSymbolTableRecord
100
AcDbLinetypeTableRecord
2
HIDDEN
70
64
3
- - - - - - - - - - - - - - - - - - - -
72
65
73
2
40
0.2
49
0.1
74
0
49
-0.1
74
0
0
LTYPE
5
1F7
100
AcDbSymbolTableRecord
100
AcDbLinetypeTableRecord
2
PHANTOM
70
64
3
_____ _ _ _____ _ _ _____ _ _ _____
72
65
73
6
40
0.8
49
0.45
74
0
49
-0.05
74
0
49
0.1
74
0
49
-0.05
74
0
49
0.1
74
0
49
-0.05
74
0
0
LTYPE
5
1F8
100
AcDbSymbolTableRecord
100
AcDbLinetypeTableRecord
2
DOT
70
64
3
. . . . . . . . . . . . . . . . . . . .
72
65
73
2
40
0.2
49
0.1
74
0
49
-0.1
74
0
0
LTYPE
5
1F9
100
AcDbSymbolTableRecord
100
AcDbLinetypeTableRecord
2
DASHED
70
64
3
- - - - - - - - - - - - - - - - - - - -
72
65
73
2
40
0.2
49
0.1
74
0
49
-0.1
74
0
0
ENDTAB
0
TABLE
2
LAYER
5
2
100
AcDbSymbolTable
70
36
0
LAYER
5
10
100
AcDbSymbolTableRecord
100
AcDbLayerTableRecord
2
0
70
0
62
7
6
CONTINUOUS
370
-3
390
F
0
LAYER
5
1FA
100
AcDbSymbolTableRecord
100
AcDbLayerTableRecord
2
DEFAULT_1
70
0
62
7
6
CENTER
370
-3
390
F
0
LAYER
5
1FB
100
AcDbSymbolTableRecord
100
AcDbLayerTableRecord
2
DEFAULT_2
70
0
62
8
6
HIDDEN
370
-3
390
F
0
LAYER
5
1FC
100
AcDbSymbolTableRecord
100
AcDbLayerTableRecord
2
DEFAULT_3
70
0
62
7
6
PHANTOM
370
-3
390
F
0
LAYER
5
1FD
100
AcDbSymbolTableRecord
100
AcDbLayerTableRecord
2
_BLACK_HOLE
70
0
62
7
6
CONTINUOUS
370
-3
390
F
0
LAYER
5
1FE
100
AcDbSymbolTableRecord
100
AcDbLayerTableRecord
2
1608-CC-RF-VIMAR_80000
70
0
62
7
6
CONTINUOUS
370
-3
390
F
0
LAYER
5
1FF
100
AcDbSymbolTableRecord
100
AcDbLayerTableRecord
2
1608-CC-RF-VIMAR_80000_1
70
0
62
7
6
CONTINUOUS
370
-3
390
F
0
LAYER
5
200
100
AcDbSymbolTableRecord
100
AcDbLayerTableRecord
2
1608-CC-RF-VIMAR_80000_10
70
0
62
7
6
CONTINUOUS
370
-3
390
F
0
LAYER
5
201
100
AcDbSymbolTableRecord
100
AcDbLayerTableRecord
2
1608-CC-RF-VIMAR_80000_11
70
0
62
7
6
CONTINUOUS
370
-3
390
F
0
LAYER
5
202
100
AcDbSymbolTableRecord
100
AcDbLayerTableRecord
2
1608-CC-RF-VIMAR_80000_12
70
0
62
7
6
CONTINUOUS
370
-3
390
F
0
LAYER
5
203
100
AcDbSymbolTableRecord
100
AcDbLayerTableRecord
2
1608-CC-RF-VIMAR_80000_13
70
0
62
7
6
CONTINUOUS
370
-3
390
F
0
LAYER
5
204
100
AcDbSymbolTableRecord
100
AcDbLayerTableRecord
2
1608-CC-RF-VIMAR_80000_14
70
0
62
7
6
CONTINUOUS
370
-3
390
F
0
LAYER
5
205
100
AcDbSymbolTableRecord
100
AcDbLayerTableRecord
2
1608-CC-RF-VIMAR_80000_15
70
0
62
7
6
CONTINUOUS
370
-3
390
F
0
LAYER
5
206
100
AcDbSymbolTableRecord
100
AcDbLayerTableRecord
2
1608-CC-RF-VIMAR_80000_16
70
0
62
7
6
CONTINUOUS
370
-3
390
F
0
LAYER
5
207
100
AcDbSymbolTableRecord
100
AcDbLayerTableRecord
2
1608-CC-RF-VIMAR_80000_17
70
0
62
7
6
CONTINUOUS
370
-3
390
F
0
LAYER
5
208
100
AcDbSymbolTableRecord
100
AcDbLayerTableRecord
2
1608-CC-RF-VIMAR_80000_18
70
0
62
7
6
CONTINUOUS
370
-3
390
F
0
LAYER
5
209
100
AcDbSymbolTableRecord
100
AcDbLayerTableRecord
2
1608-CC-RF-VIMAR_80000_19
70
0
62
7
6
CONTINUOUS
370
-3
390
F
0
LAYER
5
20A
100
AcDbSymbolTableRecord
100
AcDbLayerTableRecord
2
1608-CC-RF-VIMAR_80000_2
70
0
62
7
6
CONTINUOUS
370
-3
390
F
0
LAYER
5
20B
100
AcDbSymbolTableRecord
100
AcDbLayerTableRecord
2
1608-CC-RF-VIMAR_80000_20
70
0
62
7
6
CONTINUOUS
370
-3
390
F
0
LAYER
5
20C
100
AcDbSymbolTableRecord
100
AcDbLayerTableRecord
2
1608-CC-RF-VIMAR_80000_21
70
0
62
7
6
CONTINUOUS
370
-3
390
F
0
LAYER
5
20D
100
AcDbSymbolTableRecord
100
AcDbLayerTableRecord
2
1608-CC-RF-VIMAR_80000_22
70
0
62
7
6
CONTINUOUS
370
-3
390
F
0
LAYER
5
20E
100
AcDbSymbolTableRecord
100
AcDbLayerTableRecord
2
1608-CC-RF-VIMAR_80000_23
70
0
62
7
6
CONTINUOUS
370
-3
390
F
0
LAYER
5
20F
100
AcDbSymbolTableRecord
100
AcDbLayerTableRecord
2
1608-CC-RF-VIMAR_80000_24
70
0
62
7
6
CONTINUOUS
370
-3
390
F
0
LAYER
5
210
100
AcDbSymbolTableRecord
100
AcDbLayerTableRecord
2
1608-CC-RF-VIMAR_80000_25
70
0
62
7
6
CONTINUOUS
370
-3
390
F
0
LAYER
5
211
100
AcDbSymbolTableRecord
100
AcDbLayerTableRecord
2
1608-CC-RF-VIMAR_80000_26
70
0
62
7
6
CONTINUOUS
370
-3
390
F
0
LAYER
5
212
100
AcDbSymbolTableRecord
100
AcDbLayerTableRecord
2
1608-CC-RF-VIMAR_80000_27
70
0
62
7
6
CONTINUOUS
370
-3
390
F
0
LAYER
5
213
100
AcDbSymbolTableRecord
100
AcDbLayerTableRecord
2
1608-CC-RF-VIMAR_80000_28
70
0
62
7
6
CONTINUOUS
370
-3
390
F
0
LAYER
5
214
100
AcDbSymbolTableRecord
100
AcDbLayerTableRecord
2
1608-CC-RF-VIMAR_80000_29
70
0
62
7
6
CONTINUOUS
370
-3
390
F
0
LAYER
5
215
100
AcDbSymbolTableRecord
100
AcDbLayerTableRecord
2
1608-CC-RF-VIMAR_80000_3
70
0
62
7
6
CONTINUOUS
370
-3
390
F
0
LAYER
5
216
100
AcDbSymbolTableRecord
100
AcDbLayerTableRecord
2
1608-CC-RF-VIMAR_80000_30
70
0
62
7
6
CONTINUOUS
370
-3
390
F
0
LAYER
5
217
100
AcDbSymbolTableRecord
100
AcDbLayerTableRecord
2
1608-CC-RF-VIMAR_80000_31
70
0
62
7
6
CONTINUOUS
370
-3
390
F
0
LAYER
5
218
100
AcDbSymbolTableRecord
100
AcDbLayerTableRecord
2
1608-CC-RF-VIMAR_80000_32
70
0
62
7
6
CONTINUOUS
370
-3
390
F
0
LAYER
5
219
100
AcDbSymbolTableRecord
100
AcDbLayerTableRecord
2
1608-CC-RF-VIMAR_80000_33
70
0
62
7
6
CONTINUOUS
370
-3
390
F
0
LAYER
5
21A
100
AcDbSymbolTableRecord
100
AcDbLayerTableRecord
2
1608-CC-RF-VIMAR_80000_34
70
0
62
7
6
CONTINUOUS
370
-3
390
F
0
LAYER
5
21B
100
AcDbSymbolTableRecord
100
AcDbLayerTableRecord
2
1608-CC-RF-VIMAR_80000_35
70
0
62
7
6
CONTINUOUS
370
-3
390
F
0
LAYER
5
21C
100
AcDbSymbolTableRecord
100
AcDbLayerTableRecord
2
1608-CC-RF-VIMAR_80000_36
70
0
62
7
6
CONTINUOUS
370
-3
390
F
0
LAYER
5
21D
100
AcDbSymbolTableRecord
100
AcDbLayerTableRecord
2
1608-CC-RF-VIMAR_80000_37
70
0
62
7
6
CONTINUOUS
370
-3
390
F
0
LAYER
5
21E
100
AcDbSymbolTableRecord
100
AcDbLayerTableRecord
2
1608-CC-RF-VIMAR_80000_38
70
0
62
7
6
CONTINUOUS
370
-3
390
F
0
LAYER
5
21F
100
AcDbSymbolTableRecord
100
AcDbLayerTableRecord
2
1608-CC-RF-VIMAR_80000_39
70
0
62
7
6
CONTINUOUS
370
-3
390
F
0
LAYER
5
220
100
AcDbSymbolTableRecord
100
AcDbLayerTableRecord
2
1608-CC-RF-VIMAR_80000_4
70
0
62
7
6
CONTINUOUS
370
-3
390
F
0
LAYER
5
221
100
AcDbSymbolTableRecord
100
AcDbLayerTableRecord
2
1608-CC-RF-VIMAR_80000_40
70
0
62
7
6
CONTINUOUS
370
-3
390
F
0
LAYER
5
222
100
AcDbSymbolTableRecord
100
AcDbLayerTableRecord
2
1608-CC-RF-VIMAR_80000_41
70
0
62
7
6
CONTINUOUS
370
-3
390
F
0
LAYER
5
223
100
AcDbSymbolTableRecord
100
AcDbLayerTableRecord
2
1608-CC-RF-VIMAR_80000_42
70
0
62
7
6
CONTINUOUS
370
-3
390
F
0
LAYER
5
224
100
AcDbSymbolTableRecord
100
AcDbLayerTableRecord
2
1608-CC-RF-VIMAR_80000_43
70
0
62
7
6
CONTINUOUS
370
-3
390
F
0
LAYER
5
225
100
AcDbSymbolTableRecord
100
AcDbLayerTableRecord
2
1608-CC-RF-VIMAR_80000_44
70
0
62
7
6
CONTINUOUS
370
-3
390
F
0
LAYER
5
226
100
AcDbSymbolTableRecord
100
AcDbLayerTableRecord
2
1608-CC-RF-VIMAR_80000_45
70
0
62
7
6
CONTINUOUS
370
-3
390
F
0
LAYER
5
227
100
AcDbSymbolTableRecord
100
AcDbLayerTableRecord
2
1608-CC-RF-VIMAR_80000_46
70
0
62
7
6
CONTINUOUS
370
-3
390
F
0
LAYER
5
228
100
AcDbSymbolTableRecord
100
AcDbLayerTableRecord
2
1608-CC-RF-VIMAR_80000_47
70
0
62
7
6
CONTINUOUS
370
-3
390
F
0
LAYER
5
229
100
AcDbSymbolTableRecord
100
AcDbLayerTableRecord
2
1608-CC-RF-VIMAR_80000_48
70
0
62
7
6
CONTINUOUS
370
-3
390
F
0
LAYER
5
22A
100
AcDbSymbolTableRecord
100
AcDbLayerTableRecord
2
1608-CC-RF-VIMAR_80000_49
70
0
62
7
6
CONTINUOUS
370
-3
390
F
0
LAYER
5
22B
100
AcDbSymbolTableRecord
100
AcDbLayerTableRecord
2
1608-CC-RF-VIMAR_80000_5
70
0
62
7
6
CONTINUOUS
370
-3
390
F
0
LAYER
5
22C
100
AcDbSymbolTableRecord
100
AcDbLayerTableRecord
2
1608-CC-RF-VIMAR_80000_50
70
0
62
7
6
CONTINUOUS
370
-3
390
F
0
LAYER
5
22D
100
AcDbSymbolTableRecord
100
AcDbLayerTableRecord
2
1608-CC-RF-VIMAR_80000_51
70
0
62
7
6
CONTINUOUS
370
-3
390
F
0
LAYER
5
22E
100
AcDbSymbolTableRecord
100
AcDbLayerTableRecord
2
1608-CC-RF-VIMAR_80000_52
70
0
62
7
6
CONTINUOUS
370
-3
390
F
0
LAYER
5
22F
100
AcDbSymbolTableRecord
100
AcDbLayerTableRecord
2
1608-CC-RF-VIMAR_80000_53
70
0
62
7
6
CONTINUOUS
370
-3
390
F
0
LAYER
5
230
100
AcDbSymbolTableRecord
100
AcDbLayerTableRecord
2
1608-CC-RF-VIMAR_80000_54
70
0
62
7
6
CONTINUOUS
370
-3
390
F
0
LAYER
5
231
100
AcDbSymbolTableRecord
100
AcDbLayerTableRecord
2
1608-CC-RF-VIMAR_80000_55
70
0
62
7
6
CONTINUOUS
370
-3
390
F
0
LAYER
5
232
100
AcDbSymbolTableRecord
100
AcDbLayerTableRecord
2
1608-CC-RF-VIMAR_80000_56
70
0
62
7
6
CONTINUOUS
370
-3
390
F
0
LAYER
5
233
100
AcDbSymbolTableRecord
100
AcDbLayerTableRecord
2
1608-CC-RF-VIMAR_80000_57
70
0
62
7
6
CONTINUOUS
370
-3
390
F
0
LAYER
5
234
100
AcDbSymbolTableRecord
100
AcDbLayerTableRecord
2
1608-CC-RF-VIMAR_80000_6
70
0
62
7
6
CONTINUOUS
370
-3
390
F
0
LAYER
5
235
100
AcDbSymbolTableRecord
100
AcDbLayerTableRecord
2
1608-CC-RF-VIMAR_80000_7
70
0
62
7
6
CONTINUOUS
370
-3
390
F
0
LAYER
5
236
100
AcDbSymbolTableRecord
100
AcDbLayerTableRecord
2
1608-CC-RF-VIMAR_80000_8
70
0
62
7
6
CONTINUOUS
370
-3
390
F
0
LAYER
5
237
100
AcDbSymbolTableRecord
100
AcDbLayerTableRecord
2
1608-CC-RF-VIMAR_80000_9
70
0
62
7
6
CONTINUOUS
370
-3
390
F
0
LAYER
5
238
100
AcDbSymbolTableRecord
100
AcDbLayerTableRecord
2
1608-R-RF-VIMAR_45000
70
0
62
7
6
CONTINUOUS
370
-3
390
F
0
LAYER
5
239
100
AcDbSymbolTableRecord
100
AcDbLayerTableRecord
2
1608-R-RF-VIMAR_45000_1
70
0
62
7
6
CONTINUOUS
370
-3
390
F
0
LAYER
5
23A
100
AcDbSymbolTableRecord
100
AcDbLayerTableRecord
2
1608-R-RF-VIMAR_45000_10
70
0
62
7
6
CONTINUOUS
370
-3
390
F
0
LAYER
5
23B
100
AcDbSymbolTableRecord
100
AcDbLayerTableRecord
2
1608-R-RF-VIMAR_45000_11
70
0
62
7
6
CONTINUOUS
370
-3
390
F
0
LAYER
5
23C
100
AcDbSymbolTableRecord
100
AcDbLayerTableRecord
2
1608-R-RF-VIMAR_45000_12
70
0
62
7
6
CONTINUOUS
370
-3
390
F
0
LAYER
5
23D
100
AcDbSymbolTableRecord
100
AcDbLayerTableRecord
2
1608-R-RF-VIMAR_45000_13
70
0
62
7
6
CONTINUOUS
370
-3
390
F
0
LAYER
5
23E
100
AcDbSymbolTableRecord
100
AcDbLayerTableRecord
2
1608-R-RF-VIMAR_45000_14
70
0
62
7
6
CONTINUOUS
370
-3
390
F
0
LAYER
5
23F
100
AcDbSymbolTableRecord
100
AcDbLayerTableRecord
2
1608-R-RF-VIMAR_45000_15
70
0
62
7
6
CONTINUOUS
370
-3
390
F
0
LAYER
5
240
100
AcDbSymbolTableRecord
100
AcDbLayerTableRecord
2
1608-R-RF-VIMAR_45000_16
70
0
62
7
6
CONTINUOUS
370
-3
390
F
0
LAYER
5
241
100
AcDbSymbolTableRecord
100
AcDbLayerTableRecord
2
1608-R-RF-VIMAR_45000_17
70
0
62
7
6
CONTINUOUS
370
-3
390
F
0
LAYER
5
242
100
AcDbSymbolTableRecord
100
AcDbLayerTableRecord
2
1608-R-RF-VIMAR_45000_18
70
0
62
7
6
CONTINUOUS
370
-3
390
F
0
LAYER
5
243
100
AcDbSymbolTableRecord
100
AcDbLayerTableRecord
2
1608-R-RF-VIMAR_45000_19
70
0
62
7
6
CONTINUOUS
370
-3
390
F
0
LAYER
5
244
100
AcDbSymbolTableRecord
100
AcDbLayerTableRecord
2
1608-R-RF-VIMAR_45000_2
70
0
62
7
6
CONTINUOUS
370
-3
390
F
0
LAYER
5
245
100
AcDbSymbolTableRecord
100
AcDbLayerTableRecord
2
1608-R-RF-VIMAR_45000_20
70
0
62
7
6
CONTINUOUS
370
-3
390
F
0
LAYER
5
246
100
AcDbSymbolTableRecord
100
AcDbLayerTableRecord
2
1608-R-RF-VIMAR_45000_21
70
0
62
7
6
CONTINUOUS
370
-3
390
F
0
LAYER
5
247
100
AcDbSymbolTableRecord
100
AcDbLayerTableRecord
2
1608-R-RF-VIMAR_45000_22
70
0
62
7
6
CONTINUOUS
370
-3
390
F
0
LAYER
5
248
100
AcDbSymbolTableRecord
100
AcDbLayerTableRecord
2
1608-R-RF-VIMAR_45000_23
70
0
62
7
6
CONTINUOUS
370
-3
390
F
0
LAYER
5
249
100
AcDbSymbolTableRecord
100
AcDbLayerTableRecord
2
1608-R-RF-VIMAR_45000_24
70
0
62
7
6
CONTINUOUS
370
-3
390
F
0
LAYER
5
24A
100
AcDbSymbolTableRecord
100
AcDbLayerTableRecord
2
1608-R-RF-VIMAR_45000_25
70
0
62
7
6
CONTINUOUS
370
-3
390
F
0
LAYER
5
24B
100
AcDbSymbolTableRecord
100
AcDbLayerTableRecord
2
1608-R-RF-VIMAR_45000_26
70
0
62
7
6
CONTINUOUS
370
-3
390
F
0
LAYER
5
24C
100
AcDbSymbolTableRecord
100
AcDbLayerTableRecord
2
1608-R-RF-VIMAR_45000_27
70
0
62
7
6
CONTINUOUS
370
-3
390
F
0
LAYER
5
24D
100
AcDbSymbolTableRecord
100
AcDbLayerTableRecord
2
1608-R-RF-VIMAR_45000_28
70
0
62
7
6
CONTINUOUS
370
-3
390
F
0
LAYER
5
24E
100
AcDbSymbolTableRecord
100
AcDbLayerTableRecord
2
1608-R-RF-VIMAR_45000_29
70
0
62
7
6
CONTINUOUS
370
-3
390
F
0
LAYER
5
24F
100
AcDbSymbolTableRecord
100
AcDbLayerTableRecord
2
1608-R-RF-VIMAR_45000_3
70
0
62
7
6
CONTINUOUS
370
-3
390
F
0
LAYER
5
250
100
AcDbSymbolTableRecord
100
AcDbLayerTableRecord
2
1608-R-RF-VIMAR_45000_30
70
0
62
7
6
CONTINUOUS
370
-3
390
F
0
LAYER
5
251
100
AcDbSymbolTableRecord
100
AcDbLayerTableRecord
2
1608-R-RF-VIMAR_45000_31
70
0
62
7
6
CONTINUOUS
370
-3
390
F
0
LAYER
5
252
100
AcDbSymbolTableRecord
100
AcDbLayerTableRecord
2
1608-R-RF-VIMAR_45000_32
70
0
62
7
6
CONTINUOUS
370
-3
390
F
0
LAYER
5
253
100
AcDbSymbolTableRecord
100
AcDbLayerTableRecord
2
1608-R-RF-VIMAR_45000_33
70
0
62
7
6
CONTINUOUS
370
-3
390
F
0
LAYER
5
254
100
AcDbSymbolTableRecord
100
AcDbLayerTableRecord
2
1608-R-RF-VIMAR_45000_34
70
0
62
7
6
CONTINUOUS
370
-3
390
F
0
LAYER
5
255
100
AcDbSymbolTableRecord
100
AcDbLayerTableRecord
2
1608-R-RF-VIMAR_45000_35
70
0
62
7
6
CONTINUOUS
370
-3
390
F
0
LAYER
5
256
100
AcDbSymbolTableRecord
100
AcDbLayerTableRecord
2
1608-R-RF-VIMAR_45000_36
70
0
62
7
6
CONTINUOUS
370
-3
390
F
0
LAYER
5
257
100
AcDbSymbolTableRecord
100
AcDbLayerTableRecord
2
1608-R-RF-VIMAR_45000_37
70
0
62
7
6
CONTINUOUS
370
-3
390
F
0
LAYER
5
258
100
AcDbSymbolTableRecord
100
AcDbLayerTableRecord
2
1608-R-RF-VIMAR_45000_38
70
0
62
7
6
CONTINUOUS
370
-3
390
F
0
LAYER
5
259
100
AcDbSymbolTableRecord
100
AcDbLayerTableRecord
2
1608-R-RF-VIMAR_45000_39
70
0
62
7
6
CONTINUOUS
370
-3
390
F
0
LAYER
5
25A
100
AcDbSymbolTableRecord
100
AcDbLayerTableRecord
2
1608-R-RF-VIMAR_45000_4
70
0
62
7
6
CONTINUOUS
370
-3
390
F
0
LAYER
5
25B
100
AcDbSymbolTableRecord
100
AcDbLayerTableRecord
2
1608-R-RF-VIMAR_45000_40
70
0
62
7
6
CONTINUOUS
370
-3
390
F
0
LAYER
5
25C
100
AcDbSymbolTableRecord
100
AcDbLayerTableRecord
2
1608-R-RF-VIMAR_45000_41
70
0
62
7
6
CONTINUOUS
370
-3
390
F
0
LAYER
5
25D
100
AcDbSymbolTableRecord
100
AcDbLayerTableRecord
2
1608-R-RF-VIMAR_45000_42
70
0
62
7
6
CONTINUOUS
370
-3
390
F
0
LAYER
5
25E
100
AcDbSymbolTableRecord
100
AcDbLayerTableRecord
2
1608-R-RF-VIMAR_45000_43
70
0
62
7
6
CONTINUOUS
370
-3
390
F
0
LAYER
5
25F
100
AcDbSymbolTableRecord
100
AcDbLayerTableRecord
2
1608-R-RF-VIMAR_45000_44
70
0
62
7
6
CONTINUOUS
370
-3
390
F
0
LAYER
5
260
100
AcDbSymbolTableRecord
100
AcDbLayerTableRecord
2
1608-R-RF-VIMAR_45000_45
70
0
62
7
6
CONTINUOUS
370
-3
390
F
0
LAYER
5
261
100
AcDbSymbolTableRecord
100
AcDbLayerTableRecord
2
1608-R-RF-VIMAR_45000_46
70
0
62
7
6
CONTINUOUS
370
-3
390
F
0
LAYER
5
262
100
AcDbSymbolTableRecord
100
AcDbLayerTableRecord
2
1608-R-RF-VIMAR_45000_47
70
0
62
7
6
CONTINUOUS
370
-3
390
F
0
LAYER
5
263
100
AcDbSymbolTableRecord
100
AcDbLayerTableRecord
2
1608-R-RF-VIMAR_45000_48
70
0
62
7
6
CONTINUOUS
370
-3
390
F
0
LAYER
5
264
100
AcDbSymbolTableRecord
100
AcDbLayerTableRecord
2
1608-R-RF-VIMAR_45000_49
70
0
62
7
6
CONTINUOUS
370
-3
390
F
0
LAYER
5
265
100
AcDbSymbolTableRecord
100
AcDbLayerTableRecord
2
1608-R-RF-VIMAR_45000_5
70
0
62
7
6
CONTINUOUS
370
-3
390
F
0
LAYER
5
266
100
AcDbSymbolTableRecord
100
AcDbLayerTableRecord
2
1608-R-RF-VIMAR_45000_50
70
0
62
7
6
CONTINUOUS
370
-3
390
F
0
LAYER
5
267
100
AcDbSymbolTableRecord
100
AcDbLayerTableRecord
2
1608-R-RF-VIMAR_45000_51
70
0
62
7
6
CONTINUOUS
370
-3
390
F
0
LAYER
5
268
100
AcDbSymbolTableRecord
100
AcDbLayerTableRecord
2
1608-R-RF-VIMAR_45000_52
70
0
62
7
6
CONTINUOUS
370
-3
390
F
0
LAYER
5
269
100
AcDbSymbolTableRecord
100
AcDbLayerTableRecord
2
1608-R-RF-VIMAR_45000_53
70
0
62
7
6
CONTINUOUS
370
-3
390
F
0
LAYER
5
26A
100
AcDbSymbolTableRecord
100
AcDbLayerTableRecord
2
1608-R-RF-VIMAR_45000_54
70
0
62
7
6
CONTINUOUS
370
-3
390
F
0
LAYER
5
26B
100
AcDbSymbolTableRecord
100
AcDbLayerTableRecord
2
1608-R-RF-VIMAR_45000_55
70
0
62
7
6
CONTINUOUS
370
-3
390
F
0
LAYER
5
26C
100
AcDbSymbolTableRecord
100
AcDbLayerTableRecord
2
1608-R-RF-VIMAR_45000_56
70
0
62
7
6
CONTINUOUS
370
-3
390
F
0
LAYER
5
26D
100
AcDbSymbolTableRecord
100
AcDbLayerTableRecord
2
1608-R-RF-VIMAR_45000_57
70
0
62
7
6
CONTINUOUS
370
-3
390
F
0
LAYER
5
26E
100
AcDbSymbolTableRecord
100
AcDbLayerTableRecord
2
1608-R-RF-VIMAR_45000_58
70
0
62
7
6
CONTINUOUS
370
-3
390
F
0
LAYER
5
26F
100
AcDbSymbolTableRecord
100
AcDbLayerTableRecord
2
1608-R-RF-VIMAR_45000_59
70
0
62
7
6
CONTINUOUS
370
-3
390
F
0
LAYER
5
270
100
AcDbSymbolTableRecord
100
AcDbLayerTableRecord
2
1608-R-RF-VIMAR_45000_6
70
0
62
7
6
CONTINUOUS
370
-3
390
F
0
LAYER
5
271
100
AcDbSymbolTableRecord
100
AcDbLayerTableRecord
2
1608-R-RF-VIMAR_45000_60
70
0
62
7
6
CONTINUOUS
370
-3
390
F
0
LAYER
5
272
100
AcDbSymbolTableRecord
100
AcDbLayerTableRecord
2
1608-R-RF-VIMAR_45000_61
70
0
62
7
6
CONTINUOUS
370
-3
390
F
0
LAYER
5
273
100
AcDbSymbolTableRecord
100
AcDbLayerTableRecord
2
1608-R-RF-VIMAR_45000_62
70
0
62
7
6
CONTINUOUS
370
-3
390
F
0
LAYER
5
274
100
AcDbSymbolTableRecord
100
AcDbLayerTableRecord
2
1608-R-RF-VIMAR_45000_63
70
0
62
7
6
CONTINUOUS
370
-3
390
F
0
LAYER
5
275
100
AcDbSymbolTableRecord
100
AcDbLayerTableRecord
2
1608-R-RF-VIMAR_45000_64
70
0
62
7
6
CONTINUOUS
370
-3
390
F
0
LAYER
5
276
100
AcDbSymbolTableRecord
100
AcDbLayerTableRecord
2
1608-R-RF-VIMAR_45000_65
70
0
62
7
6
CONTINUOUS
370
-3
390
F
0
LAYER
5
277
100
AcDbSymbolTableRecord
100
AcDbLayerTableRecord
2
1608-R-RF-VIMAR_45000_66
70
0
62
7
6
CONTINUOUS
370
-3
390
F
0
LAYER
5
278
100
AcDbSymbolTableRecord
100
AcDbLayerTableRecord
2
1608-R-RF-VIMAR_45000_67
70
0
62
7
6
CONTINUOUS
370
-3
390
F
0
LAYER
5
279
100
AcDbSymbolTableRecord
100
AcDbLayerTableRecord
2
1608-R-RF-VIMAR_45000_68
70
0
62
7
6
CONTINUOUS
370
-3
390
F
0
LAYER
5
27A
100
AcDbSymbolTableRecord
100
AcDbLayerTableRecord
2
1608-R-RF-VIMAR_45000_69
70
0
62
7
6
CONTINUOUS
370
-3
390
F
0
LAYER
5
27B
100
AcDbSymbolTableRecord
100
AcDbLayerTableRecord
2
1608-R-RF-VIMAR_45000_7
70
0
62
7
6
CONTINUOUS
370
-3
390
F
0
LAYER
5
27C
100
AcDbSymbolTableRecord
100
AcDbLayerTableRecord
2
1608-R-RF-VIMAR_45000_70
70
0
62
7
6
CONTINUOUS
370
-3
390
F
0
LAYER
5
27D
100
AcDbSymbolTableRecord
100
AcDbLayerTableRecord
2
1608-R-RF-VIMAR_45000_71
70
0
62
7
6
CONTINUOUS
370
-3
390
F
0
LAYER
5
27E
100
AcDbSymbolTableRecord
100
AcDbLayerTableRecord
2
1608-R-RF-VIMAR_45000_72
70
0
62
7
6
CONTINUOUS
370
-3
390
F
0
LAYER
5
27F
100
AcDbSymbolTableRecord
100
AcDbLayerTableRecord
2
1608-R-RF-VIMAR_45000_73
70
0
62
7
6
CONTINUOUS
370
-3
390
F
0
LAYER
5
280
100
AcDbSymbolTableRecord
100
AcDbLayerTableRecord
2
1608-R-RF-VIMAR_45000_74
70
0
62
7
6
CONTINUOUS
370
-3
390
F
0
LAYER
5
281
100
AcDbSymbolTableRecord
100
AcDbLayerTableRecord
2
1608-R-RF-VIMAR_45000_75
70
0
62
7
6
CONTINUOUS
370
-3
390
F
0
LAYER
5
282
100
AcDbSymbolTableRecord
100
AcDbLayerTableRecord
2
1608-R-RF-VIMAR_45000_76
70
0
62
7
6
CONTINUOUS
370
-3
390
F
0
LAYER
5
283
100
AcDbSymbolTableRecord
100
AcDbLayerTableRecord
2
1608-R-RF-VIMAR_45000_77
70
0
62
7
6
CONTINUOUS
370
-3
390
F
0
LAYER
5
284
100
AcDbSymbolTableRecord
100
AcDbLayerTableRecord
2
1608-R-RF-VIMAR_45000_78
70
0
62
7
6
CONTINUOUS
370
-3
390
F
0
LAYER
5
285
100
AcDbSymbolTableRecord
100
AcDbLayerTableRecord
2
1608-R-RF-VIMAR_45000_79
70
0
62
7
6
CONTINUOUS
370
-3
390
F
0
LAYER
5
286
100
AcDbSymbolTableRecord
100
AcDbLayerTableRecord
2
1608-R-RF-VIMAR_45000_8
70
0
62
7
6
CONTINUOUS
370
-3
390
F
0
LAYER
5
287
100
AcDbSymbolTableRecord
100
AcDbLayerTableRecord
2
1608-R-RF-VIMAR_45000_80
70
0
62
7
6
CONTINUOUS
370
-3
390
F
0
LAYER
5
288
100
AcDbSymbolTableRecord
100
AcDbLayerTableRecord
2
1608-R-RF-VIMAR_45000_81
70
0
62
7
6
CONTINUOUS
370
-3
390
F
0
LAYER
5
289
100
AcDbSymbolTableRecord
100
AcDbLayerTableRecord
2
1608-R-RF-VIMAR_45000_82
70
0
62
7
6
CONTINUOUS
370
-3
390
F
0
LAYER
5
28A
100
AcDbSymbolTableRecord
100
AcDbLayerTableRecord
2
1608-R-RF-VIMAR_45000_83
70
0
62
7
6
CONTINUOUS
370
-3
390
F
0
LAYER
5
28B
100
AcDbSymbolTableRecord
100
AcDbLayerTableRecord
2
1608-R-RF-VIMAR_45000_84
70
0
62
7
6
CONTINUOUS
370
-3
390
F
0
LAYER
5
28C
100
AcDbSymbolTableRecord
100
AcDbLayerTableRecord
2
1608-R-RF-VIMAR_45000_85
70
0
62
7
6
CONTINUOUS
370
-3
390
F
0
LAYER
5
28D
100
AcDbSymbolTableRecord
100
AcDbLayerTableRecord
2
1608-R-RF-VIMAR_45000_86
70
0
62
7
6
CONTINUOUS
370
-3
390
F
0
LAYER
5
28E
100
AcDbSymbolTableRecord
100
AcDbLayerTableRecord
2
1608-R-RF-VIMAR_45000_9
70
0
62
7
6
CONTINUOUS
370
-3
390
F
0
LAYER
5
28F
100
AcDbSymbolTableRecord
100
AcDbLayerTableRecord
2
200A_170000
70
0
62
7
6
CONTINUOUS
370
-3
390
F
0
LAYER
5
290
100
AcDbSymbolTableRecord
100
AcDbLayerTableRecord
2
200A_170000_1
70
0
62
7
6
CONTINUOUS
370
-3
390
F
0
LAYER
5
291
100
AcDbSymbolTableRecord
100
AcDbLayerTableRecord
2
2125-CC-RF-VIMAR_65000
70
0
62
7
6
CONTINUOUS
370
-3
390
F
0
LAYER
5
292
100
AcDbSymbolTableRecord
100
AcDbLayerTableRecord
2
2125-CC-RF-VIMAR_65000_1
70
0
62
7
6
CONTINUOUS
370
-3
390
F
0
LAYER
5
293
100
AcDbSymbolTableRecord
100
AcDbLayerTableRecord
2
2125-CC-RF-VIMAR_65000_10
70
0
62
7
6
CONTINUOUS
370
-3
390
F
0
LAYER
5
294
100
AcDbSymbolTableRecord
100
AcDbLayerTableRecord
2
2125-CC-RF-VIMAR_65000_2
70
0
62
7
6
CONTINUOUS
370
-3
390
F
0
LAYER
5
295
100
AcDbSymbolTableRecord
100
AcDbLayerTableRecord
2
2125-CC-RF-VIMAR_65000_3
70
0
62
7
6
CONTINUOUS
370
-3
390
F
0
LAYER
5
296
100
AcDbSymbolTableRecord
100
AcDbLayerTableRecord
2
2125-CC-RF-VIMAR_65000_4
70
0
62
7
6
CONTINUOUS
370
-3
390
F
0
LAYER
5
297
100
AcDbSymbolTableRecord
100
AcDbLayerTableRecord
2
2125-CC-RF-VIMAR_65000_5
70
0
62
7
6
CONTINUOUS
370
-3
390
F
0
LAYER
5
298
100
AcDbSymbolTableRecord
100
AcDbLayerTableRecord
2
2125-CC-RF-VIMAR_65000_6
70
0
62
7
6
CONTINUOUS
370
-3
390
F
0
LAYER
5
299
100
AcDbSymbolTableRecord
100
AcDbLayerTableRecord
2
2125-CC-RF-VIMAR_65000_7
70
0
62
7
6
CONTINUOUS
370
-3
390
F
0
LAYER
5
29A
100
AcDbSymbolTableRecord
100
AcDbLayerTableRecord
2
2125-CC-RF-VIMAR_65000_8
70
0
62
7
6
CONTINUOUS
370
-3
390
F
0
LAYER
5
29B
100
AcDbSymbolTableRecord
100
AcDbLayerTableRecord
2
2125-CC-RF-VIMAR_65000_9
70
0
62
7
6
CONTINUOUS
370
-3
390
F
0
LAYER
5
29C
100
AcDbSymbolTableRecord
100
AcDbLayerTableRecord
2
3216-R1-RF-VIMAR_60000
70
0
62
7
6
CONTINUOUS
370
-3
390
F
0
LAYER
5
29D
100
AcDbSymbolTableRecord
100
AcDbLayerTableRecord
2
3216-R1-RF-VIMAR_60000_1
70
0
62
7
6
CONTINUOUS
370
-3
390
F
0
LAYER
5
29E
100
AcDbSymbolTableRecord
100
AcDbLayerTableRecord
2
3225-CF1-RF-VIMAR_200000
70
0
62
7
6
CONTINUOUS
370
-3
390
F
0
LAYER
5
29F
100
AcDbSymbolTableRecord
100
AcDbLayerTableRecord
2
3225-CF1-RF-VIMAR_200000_1
70
0
62
7
6
CONTINUOUS
370
-3
390
F
0
LAYER
5
2A0
100
AcDbSymbolTableRecord
100
AcDbLayerTableRecord
2
3225-CF1-RF-VIMAR_200000_2
70
0
62
7
6
CONTINUOUS
370
-3
390
F
0
LAYER
5
2A1
100
AcDbSymbolTableRecord
100
AcDbLayerTableRecord
2
3225-CF1-RF-VIMAR_200000_3
70
0
62
7
6
CONTINUOUS
370
-3
390
F
0
LAYER
5
2A2
100
AcDbSymbolTableRecord
100
AcDbLayerTableRecord
2
3225-CF1-RF-VIMAR_200000_4
70
0
62
7
6
CONTINUOUS
370
-3
390
F
0
LAYER
5
2A3
100
AcDbSymbolTableRecord
100
AcDbLayerTableRecord
2
3225-CF1-RF-VIMAR_200000_5
70
0
62
7
6
CONTINUOUS
370
-3
390
F
0
LAYER
5
2A4
100
AcDbSymbolTableRecord
100
AcDbLayerTableRecord
2
3225-CF1-RF-VIMAR_200000_6
70
0
62
7
6
CONTINUOUS
370
-3
390
F
0
LAYER
5
2A5
100
AcDbSymbolTableRecord
100
AcDbLayerTableRecord
2
43000164A0
70
0
62
7
6
CONTINUOUS
370
-3
390
F
0
LAYER
5
2A6
100
AcDbSymbolTableRecord
100
AcDbLayerTableRecord
2
43000164A0_1
70
0
62
7
6
CONTINUOUS
370
-3
390
F
0
LAYER
5
2A7
100
AcDbSymbolTableRecord
100
AcDbLayerTableRecord
2
43000165B0
70
0
62
7
6
CONTINUOUS
370
-3
390
F
0
LAYER
5
2A8
100
AcDbSymbolTableRecord
100
AcDbLayerTableRecord
2
43000165B0_1
70
0
62
7
6
CONTINUOUS
370
-3
390
F
0
LAYER
5
2A9
100
AcDbSymbolTableRecord
100
AcDbLayerTableRecord
2
ASSI
70
0
62
7
6
CONTINUOUS
370
-3
390
F
0
LAYER
5
2AA
100
AcDbSymbolTableRecord
100
AcDbLayerTableRecord
2
CN-CSF_CSM_2-VIMAR_1150000
70
0
62
7
6
CONTINUOUS
370
-3
390
F
0
LAYER
5
2AB
100
AcDbSymbolTableRecord
100
AcDbLayerTableRecord
2
CN-CSF_CSM_2-VIMAR_1150000_1
70
0
62
7
6
CONTINUOUS
370
-3
390
F
0
LAYER
5
2AC
100
AcDbSymbolTableRecord
100
AcDbLayerTableRecord
2
CN-CSF_CSM_2-VIMAR_1150000_2
70
0
62
7
6
CONTINUOUS
370
-3
390
F
0
LAYER
5
2AD
100
AcDbSymbolTableRecord
100
AcDbLayerTableRecord
2
CN-CSF_CSM_2-VIMAR_1150000_3
70
0
62
7
6
CONTINUOUS
370
-3
390
F
0
LAYER
5
2AE
100
AcDbSymbolTableRecord
100
AcDbLayerTableRecord
2
CN-CSF_CSM_2-VIMAR_1150000_4
70
0
62
7
6
CONTINUOUS
370
-3
390
F
0
LAYER
5
2AF
100
AcDbSymbolTableRecord
100
AcDbLayerTableRecord
2
CN-CSF_CSM_2-VIMAR_1150000_5
70
0
62
7
6
CONTINUOUS
370
-3
390
F
0
LAYER
5
2B0
100
AcDbSymbolTableRecord
100
AcDbLayerTableRecord
2
CN-CSF_CSM_2-VIMAR_1150000_6
70
0
62
7
6
CONTINUOUS
370
-3
390
F
0
LAYER
5
2B1
100
AcDbSymbolTableRecord
100
AcDbLayerTableRecord
2
CN1-TP10_SMD-VIMAR_10000
70
0
62
7
6
CONTINUOUS
370
-3
390
F
0
LAYER
5
2B2
100
AcDbSymbolTableRecord
100
AcDbLayerTableRecord
2
CN1-TP10_SMD-VIMAR_10000_1
70
0
62
7
6
CONTINUOUS
370
-3
390
F
0
LAYER
5
2B3
100
AcDbSymbolTableRecord
100
AcDbLayerTableRecord
2
CN1-TP10_SMD-VIMAR_10000_10
70
0
62
7
6
CONTINUOUS
370
-3
390
F
0
LAYER
5
2B4
100
AcDbSymbolTableRecord
100
AcDbLayerTableRecord
2
CN1-TP10_SMD-VIMAR_10000_11
70
0
62
7
6
CONTINUOUS
370
-3
390
F
0
LAYER
5
2B5
100
AcDbSymbolTableRecord
100
AcDbLayerTableRecord
2
CN1-TP10_SMD-VIMAR_10000_12
70
0
62
7
6
CONTINUOUS
370
-3
390
F
0
LAYER
5
2B6
100
AcDbSymbolTableRecord
100
AcDbLayerTableRecord
2
CN1-TP10_SMD-VIMAR_10000_13
70
0
62
7
6
CONTINUOUS
370
-3
390
F
0
LAYER
5
2B7
100
AcDbSymbolTableRecord
100
AcDbLayerTableRecord
2
CN1-TP10_SMD-VIMAR_10000_14
70
0
62
7
6
CONTINUOUS
370
-3
390
F
0
LAYER
5
2B8
100
AcDbSymbolTableRecord
100
AcDbLayerTableRecord
2
CN1-TP10_SMD-VIMAR_10000_15
70
0
62
7
6
CONTINUOUS
370
-3
390
F
0
LAYER
5
2B9
100
AcDbSymbolTableRecord
100
AcDbLayerTableRecord
2
CN1-TP10_SMD-VIMAR_10000_16
70
0
62
7
6
CONTINUOUS
370
-3
390
F
0
LAYER
5
2BA
100
AcDbSymbolTableRecord
100
AcDbLayerTableRecord
2
CN1-TP10_SMD-VIMAR_10000_17
70
0
62
7
6
CONTINUOUS
370
-3
390
F
0
LAYER
5
2BB
100
AcDbSymbolTableRecord
100
AcDbLayerTableRecord
2
CN1-TP10_SMD-VIMAR_10000_18
70
0
62
7
6
CONTINUOUS
370
-3
390
F
0
LAYER
5
2BC
100
AcDbSymbolTableRecord
100
AcDbLayerTableRecord
2
CN1-TP10_SMD-VIMAR_10000_19
70
0
62
7
6
CONTINUOUS
370
-3
390
F
0
LAYER
5
2BD
100
AcDbSymbolTableRecord
100
AcDbLayerTableRecord
2
CN1-TP10_SMD-VIMAR_10000_2
70
0
62
7
6
CONTINUOUS
370
-3
390
F
0
LAYER
5
2BE
100
AcDbSymbolTableRecord
100
AcDbLayerTableRecord
2
CN1-TP10_SMD-VIMAR_10000_3
70
0
62
7
6
CONTINUOUS
370
-3
390
F
0
LAYER
5
2BF
100
AcDbSymbolTableRecord
100
AcDbLayerTableRecord
2
CN1-TP10_SMD-VIMAR_10000_4
70
0
62
7
6
CONTINUOUS
370
-3
390
F
0
LAYER
5
2C0
100
AcDbSymbolTableRecord
100
AcDbLayerTableRecord
2
CN1-TP10_SMD-VIMAR_10000_5
70
0
62
7
6
CONTINUOUS
370
-3
390
F
0
LAYER
5
2C1
100
AcDbSymbolTableRecord
100
AcDbLayerTableRecord
2
CN1-TP10_SMD-VIMAR_10000_6
70
0
62
7
6
CONTINUOUS
370
-3
390
F
0
LAYER
5
2C2
100
AcDbSymbolTableRecord
100
AcDbLayerTableRecord
2
CN1-TP10_SMD-VIMAR_10000_7
70
0
62
7
6
CONTINUOUS
370
-3
390
F
0
LAYER
5
2C3
100
AcDbSymbolTableRecord
100
AcDbLayerTableRecord
2
CN1-TP10_SMD-VIMAR_10000_8
70
0
62
7
6
CONTINUOUS
370
-3
390
F
0
LAYER
5
2C4
100
AcDbSymbolTableRecord
100
AcDbLayerTableRecord
2
CN1-TP10_SMD-VIMAR_10000_9
70
0
62
7
6
CONTINUOUS
370
-3
390
F
0
LAYER
5
2C5
100
AcDbSymbolTableRecord
100
AcDbLayerTableRecord
2
CN1-TP15_SMD-VIMAR_5000
70
0
62
7
6
CONTINUOUS
370
-3
390
F
0
LAYER
5
2C6
100
AcDbSymbolTableRecord
100
AcDbLayerTableRecord
2
CN1-TP15_SMD-VIMAR_5000_1
70
0
62
7
6
CONTINUOUS
370
-3
390
F
0
LAYER
5
2C7
100
AcDbSymbolTableRecord
100
AcDbLayerTableRecord
2
CN1-TP15_SMD-VIMAR_5000_2
70
0
62
7
6
CONTINUOUS
370
-3
390
F
0
LAYER
5
2C8
100
AcDbSymbolTableRecord
100
AcDbLayerTableRecord
2
CN1-TP15_SMD-VIMAR_5000_3
70
0
62
7
6
CONTINUOUS
370
-3
390
F
0
LAYER
5
2C9
100
AcDbSymbolTableRecord
100
AcDbLayerTableRecord
2
CN1-TP15_SMD-VIMAR_5000_4
70
0
62
7
6
CONTINUOUS
370
-3
390
F
0
LAYER
5
2CA
100
AcDbSymbolTableRecord
100
AcDbLayerTableRecord
2
CN1-TP15_SMD-VIMAR_5000_5
70
0
62
7
6
CONTINUOUS
370
-3
390
F
0
LAYER
5
2CB
100
AcDbSymbolTableRecord
100
AcDbLayerTableRecord
2
CN1-TP15_SMD-VIMAR_5000_6
70
0
62
7
6
CONTINUOUS
370
-3
390
F
0
LAYER
5
2CC
100
AcDbSymbolTableRecord
100
AcDbLayerTableRecord
2
CN1-TP15_SMD-VIMAR_5000_7
70
0
62
7
6
CONTINUOUS
370
-3
390
F
0
LAYER
5
2CD
100
AcDbSymbolTableRecord
100
AcDbLayerTableRecord
2
CN1-TP15_SMD-VIMAR_5000_8
70
0
62
7
6
CONTINUOUS
370
-3
390
F
0
LAYER
5
2CE
100
AcDbSymbolTableRecord
100
AcDbLayerTableRecord
2
CN10-HEADER-SMD2_0-2-VIMAR_6500
70
0
62
7
6
CONTINUOUS
370
-3
390
F
0
LAYER
5
2CF
100
AcDbSymbolTableRecord
100
AcDbLayerTableRecord
2
CN10-HEADER-SMD2_0-2-VIMAR_65_1
70
0
62
7
6
CONTINUOUS
370
-3
390
F
0
LAYER
5
2D0
100
AcDbSymbolTableRecord
100
AcDbLayerTableRecord
2
CN10-SOCKET-SMD2_0-2-VIMAR
70
0
62
7
6
CONTINUOUS
370
-3
390
F
0
LAYER
5
2D1
100
AcDbSymbolTableRecord
100
AcDbLayerTableRecord
2
CN10-SOCKET-SMD2_0-2-VIMAR_1
70
0
62
7
6
CONTINUOUS
370
-3
390
F
0
LAYER
5
2D2
100
AcDbSymbolTableRecord
100
AcDbLayerTableRecord
2
COLOR15
70
0
62
7
6
CONTINUOUS
370
-3
390
F
0
LAYER
5
2D3
100
AcDbSymbolTableRecord
100
AcDbLayerTableRecord
2
COLOR16
70
0
62
7
6
CONTINUOUS
370
-3
390
F
0
LAYER
5
2D4
100
AcDbSymbolTableRecord
100
AcDbLayerTableRecord
2
COLOR17
70
0
62
7
6
CONTINUOUS
370
-3
390
F
0
LAYER
5
2D5
100
AcDbSymbolTableRecord
100
AcDbLayerTableRecord
2
COLOR18
70
0
62
7
6
CONTINUOUS
370
-3
390
F
0
LAYER
5
2D6
100
AcDbSymbolTableRecord
100
AcDbLayerTableRecord
2
COLOR19
70
0
62
7
6
CONTINUOUS
370
-3
390
F
0
LAYER
5
2D7
100
AcDbSymbolTableRecord
100
AcDbLayerTableRecord
2
COLOR2
70
0
62
7
6
CONTINUOUS
370
-3
390
F
0
LAYER
5
2D8
100
AcDbSymbolTableRecord
100
AcDbLayerTableRecord
2
COLOR20
70
0
62
7
6
CONTINUOUS
370
-3
390
F
0
LAYER
5
2D9
100
AcDbSymbolTableRecord
100
AcDbLayerTableRecord
2
COLOR21
70
0
62
7
6
CONTINUOUS
370
-3
390
F
0
LAYER
5
2DA
100
AcDbSymbolTableRecord
100
AcDbLayerTableRecord
2
COLOR22
70
0
62
7
6
CONTINUOUS
370
-3
390
F
0
LAYER
5
2DB
100
AcDbSymbolTableRecord
100
AcDbLayerTableRecord
2
COLOR23
70
0
62
7
6
CONTINUOUS
370
-3
390
F
0
LAYER
5
2DC
100
AcDbSymbolTableRecord
100
AcDbLayerTableRecord
2
COLOR5
70
0
62
7
6
CONTINUOUS
370
-3
390
F
0
LAYER
5
2DD
100
AcDbSymbolTableRecord
100
AcDbLayerTableRecord
2
COORDINATE
70
0
62
7
6
CONTINUOUS
370
-3
390
F
0
LAYER
5
2DE
100
AcDbSymbolTableRecord
100
AcDbLayerTableRecord
2
COORD_ORIGINE
70
0
62
7
6
CONTINUOUS
370
-3
390
F
0
LAYER
5
2DF
100
AcDbSymbolTableRecord
100
AcDbLayerTableRecord
2
COPY_PUBLISH
70
0
62
7
6
CONTINUOUS
370
-3
390
F
0
LAYER
5
2E0
100
AcDbSymbolTableRecord
100
AcDbLayerTableRecord
2
COSMETIC
70
0
62
7
6
CONTINUOUS
370
-3
390
F
0
LAYER
5
2E1
100
AcDbSymbolTableRecord
100
AcDbLayerTableRecord
2
CP-CE10-RF-VIMAR_630000
70
0
62
7
6
CONTINUOUS
370
-3
390
F
0
LAYER
5
2E2
100
AcDbSymbolTableRecord
100
AcDbLayerTableRecord
2
CP-CE10-RF-VIMAR_630000_1
70
0
62
7
6
CONTINUOUS
370
-3
390
F
0
LAYER
5
2E3
100
AcDbSymbolTableRecord
100
AcDbLayerTableRecord
2
CP-CE5-RF_650000
70
0
62
7
6
CONTINUOUS
370
-3
390
F
0
LAYER
5
2E4
100
AcDbSymbolTableRecord
100
AcDbLayerTableRecord
2
CP-CE5-RF_650000_1
70
0
62
7
6
CONTINUOUS
370
-3
390
F
0
LAYER
5
2E5
100
AcDbSymbolTableRecord
100
AcDbLayerTableRecord
2
CP-DO-214AC-D-VIMAR_240000
70
0
62
7
6
CONTINUOUS
370
-3
390
F
0
LAYER
5
2E6
100
AcDbSymbolTableRecord
100
AcDbLayerTableRecord
2
CP-DO-214AC-D-VIMAR_240000_1
70
0
62
7
6
CONTINUOUS
370
-3
390
F
0
LAYER
5
2E7
100
AcDbSymbolTableRecord
100
AcDbLayerTableRecord
2
CP-DO-214AC-VIMAR_240000
70
0
62
7
6
CONTINUOUS
370
-3
390
F
0
LAYER
5
2E8
100
AcDbSymbolTableRecord
100
AcDbLayerTableRecord
2
CP-DO-214AC-VIMAR_240000_1
70
0
62
7
6
CONTINUOUS
370
-3
390
F
0
LAYER
5
2E9
100
AcDbSymbolTableRecord
100
AcDbLayerTableRecord
2
CP-DO-214AC-VIMAR_240000_2
70
0
62
7
6
CONTINUOUS
370
-3
390
F
0
LAYER
5
2EA
100
AcDbSymbolTableRecord
100
AcDbLayerTableRecord
2
CURVE
70
0
62
7
6
CONTINUOUS
370
-3
390
F
0
LAYER
5
2EB
100
AcDbSymbolTableRecord
100
AcDbLayerTableRecord
2
DIP8-300-F-VIMAR_500000
70
0
62
7
6
CONTINUOUS
370
-3
390
F
0
LAYER
5
2EC
100
AcDbSymbolTableRecord
100
AcDbLayerTableRecord
2
DIP8-300-F-VIMAR_500000_1
70
0
62
7
6
CONTINUOUS
370
-3
390
F
0
LAYER
5
2ED
100
AcDbSymbolTableRecord
100
AcDbLayerTableRecord
2
DRAFT
70
0
62
7
6
CONTINUOUS
370
-3
390
F
0
LAYER
5
2EE
100
AcDbSymbolTableRecord
100
AcDbLayerTableRecord
2
ECAD_1608-CC-RF-VIMAR_80000
70
0
62
7
6
CONTINUOUS
370
-3
390
F
0
LAYER
5
2EF
100
AcDbSymbolTableRecord
100
AcDbLayerTableRecord
2
ECAD_1608-CC-RF-VIMAR_80000_1
70
0
62
7
6
CONTINUOUS
370
-3
390
F
0
LAYER
5
2F0
100
AcDbSymbolTableRecord
100
AcDbLayerTableRecord
2
ECAD_1608-R-RF-VIMAR_45000
70
0
62
7
6
CONTINUOUS
370
-3
390
F
0
LAYER
5
2F1
100
AcDbSymbolTableRecord
100
AcDbLayerTableRecord
2
ECAD_1608-R-RF-VIMAR_45000_1
70
0
62
7
6
CONTINUOUS
370
-3
390
F
0
LAYER
5
2F2
100
AcDbSymbolTableRecord
100
AcDbLayerTableRecord
2
ECAD_200A_170000
70
0
62
7
6
CONTINUOUS
370
-3
390
F
0
LAYER
5
2F3
100
AcDbSymbolTableRecord
100
AcDbLayerTableRecord
2
ECAD_2125-CC-RF-VIMAR_65000
70
0
62
7
6
CONTINUOUS
370
-3
390
F
0
LAYER
5
2F4
100
AcDbSymbolTableRecord
100
AcDbLayerTableRecord
2
ECAD_2125-CC-RF-VIMAR_65000_1
70
0
62
7
6
CONTINUOUS
370
-3
390
F
0
LAYER
5
2F5
100
AcDbSymbolTableRecord
100
AcDbLayerTableRecord
2
ECAD_3216-R1-RF-VIMAR_60000
70
0
62
7
6
CONTINUOUS
370
-3
390
F
0
LAYER
5
2F6
100
AcDbSymbolTableRecord
100
AcDbLayerTableRecord
2
ECAD_3225-CF1-RF-VIMAR_200000
70
0
62
7
6
CONTINUOUS
370
-3
390
F
0
LAYER
5
2F7
100
AcDbSymbolTableRecord
100
AcDbLayerTableRecord
2
ECAD_3225-CF1-RF-VIMAR_200000_1
70
0
62
7
6
CONTINUOUS
370
-3
390
F
0
LAYER
5
2F8
100
AcDbSymbolTableRecord
100
AcDbLayerTableRecord
2
ECAD_6432-R-RF-VIMAR_110000
70
0
62
7
6
CONTINUOUS
370
-3
390
F
0
LAYER
5
2F9
100
AcDbSymbolTableRecord
100
AcDbLayerTableRecord
2
ECAD_CN-CSF_CSM_2-VIMAR_1150000
70
0
62
7
6
CONTINUOUS
370
-3
390
F
0
LAYER
5
2FA
100
AcDbSymbolTableRecord
100
AcDbLayerTableRecord
2
ECAD_CN1-TP10_SMD-VIMAR_10000
70
0
62
7
6
CONTINUOUS
370
-3
390
F
0
LAYER
5
2FB
100
AcDbSymbolTableRecord
100
AcDbLayerTableRecord
2
ECAD_CN1-TP10_SMD-VIMAR_10000_1
70
0
62
7
6
CONTINUOUS
370
-3
390
F
0
LAYER
5
2FC
100
AcDbSymbolTableRecord
100
AcDbLayerTableRecord
2
ECAD_CN1-TP15_SMD-VIMAR_5000
70
0
62
7
6
CONTINUOUS
370
-3
390
F
0
LAYER
5
2FD
100
AcDbSymbolTableRecord
100
AcDbLayerTableRecord
2
ECAD_CN10-HEADER-SMD2_0-2-VIMAR
70
0
62
7
6
CONTINUOUS
370
-3
390
F
0
LAYER
5
2FE
100
AcDbSymbolTableRecord
100
AcDbLayerTableRecord
2
ECAD_CN10-SOCKET-SMD2_0-2-VIMAR
70
0
62
7
6
CONTINUOUS
370
-3
390
F
0
LAYER
5
2FF
100
AcDbSymbolTableRecord
100
AcDbLayerTableRecord
2
ECAD_CN30D-H-PIH-P2_00_1000000
70
0
62
7
6
CONTINUOUS
370
-3
390
F
0
LAYER
5
300
100
AcDbSymbolTableRecord
100
AcDbLayerTableRecord
2
ECAD_CP-CE10-RF-VIMAR_630000
70
0
62
7
6
CONTINUOUS
370
-3
390
F
0
LAYER
5
301
100
AcDbSymbolTableRecord
100
AcDbLayerTableRecord
2
ECAD_CP-CE2-RF_570000
70
0
62
7
6
CONTINUOUS
370
-3
390
F
0
LAYER
5
302
100
AcDbSymbolTableRecord
100
AcDbLayerTableRecord
2
ECAD_CP-CE4-RF_550000
70
0
62
7
6
CONTINUOUS
370
-3
390
F
0
LAYER
5
303
100
AcDbSymbolTableRecord
100
AcDbLayerTableRecord
2
ECAD_CP-CE5-RF_650000
70
0
62
7
6
CONTINUOUS
370
-3
390
F
0
LAYER
5
304
100
AcDbSymbolTableRecord
100
AcDbLayerTableRecord
2
ECAD_CP-DO-214AC-D-VIMAR_240000
70
0
62
7
6
CONTINUOUS
370
-3
390
F
0
LAYER
5
305
100
AcDbSymbolTableRecord
100
AcDbLayerTableRecord
2
ECAD_CP-DO-214AC-VIMAR_240000
70
0
62
7
6
CONTINUOUS
370
-3
390
F
0
LAYER
5
306
100
AcDbSymbolTableRecord
100
AcDbLayerTableRecord
2
ECAD_DIP8-300-F-VIMAR_500000
70
0
62
7
6
CONTINUOUS
370
-3
390
F
0
LAYER
5
307
100
AcDbSymbolTableRecord
100
AcDbLayerTableRecord
2
ECAD_LOGO_RESIST-A_VIMAR_1_1000
70
0
62
7
6
CONTINUOUS
370
-3
390
F
0
LAYER
5
308
100
AcDbSymbolTableRecord
100
AcDbLayerTableRecord
2
ECAD_LOGO_RESIST-A_VIMAR_1_100_
70
0
62
7
6
CONTINUOUS
370
-3
390
F
0
LAYER
5
309
100
AcDbSymbolTableRecord
100
AcDbLayerTableRecord
2
ECAD_L_SRR1005-RF-VIMAR_520000
70
0
62
7
6
CONTINUOUS
370
-3
390
F
0
LAYER
5
30A
100
AcDbSymbolTableRecord
100
AcDbLayerTableRecord
2
ECAD_MM2-X-1-VIMAR_430000
70
0
62
7
6
CONTINUOUS
370
-3
390
F
0
LAYER
5
30B
100
AcDbSymbolTableRecord
100
AcDbLayerTableRecord
2
ECAD_MM2-X-2-VIMAR_250000
70
0
62
7
6
CONTINUOUS
370
-3
390
F
0
LAYER
5
30C
100
AcDbSymbolTableRecord
100
AcDbLayerTableRecord
2
ECAD_MM2-X-3-VIMAR_120000
70
0
62
7
6
CONTINUOUS
370
-3
390
F
0
LAYER
5
30D
100
AcDbSymbolTableRecord
100
AcDbLayerTableRecord
2
ECAD_MM3-MPAK-RF-VIMAR_120000
70
0
62
7
6
CONTINUOUS
370
-3
390
F
0
LAYER
5
30E
100
AcDbSymbolTableRecord
100
AcDbLayerTableRecord
2
ECAD_MM3-MPAK-RF-VIMAR_120000_1
70
0
62
7
6
CONTINUOUS
370
-3
390
F
0
LAYER
5
30F
100
AcDbSymbolTableRecord
100
AcDbLayerTableRecord
2
ECAD_MM3-SOT-223-RF-VIMAR_18000
70
0
62
7
6
CONTINUOUS
370
-3
390
F
0
LAYER
5
310
100
AcDbSymbolTableRecord
100
AcDbLayerTableRecord
2
ECAD_MM3-SOT-89-RF-VIMAR_150000
70
0
62
7
6
CONTINUOUS
370
-3
390
F
0
LAYER
5
311
100
AcDbSymbolTableRecord
100
AcDbLayerTableRecord
2
ECAD_MM4-X-1-VIMAR_160000
70
0
62
7
6
CONTINUOUS
370
-3
390
F
0
LAYER
5
312
100
AcDbSymbolTableRecord
100
AcDbLayerTableRecord
2
ECAD_MM5-FMT-RF_120000
70
0
62
7
6
CONTINUOUS
370
-3
390
F
0
LAYER
5
313
100
AcDbSymbolTableRecord
100
AcDbLayerTableRecord
2
ECAD_MM5-FMT-RF_120000_1
70
0
62
7
6
CONTINUOUS
370
-3
390
F
0
LAYER
5
314
100
AcDbSymbolTableRecord
100
AcDbLayerTableRecord
2
ECAD_MM6-SC70-1-VIMAR_110000
70
0
62
7
6
CONTINUOUS
370
-3
390
F
0
LAYER
5
315
100
AcDbSymbolTableRecord
100
AcDbLayerTableRecord
2
ECAD_MSOP8-T1-RF-VIMAR_86000
70
0
62
7
6
CONTINUOUS
370
-3
390
F
0
LAYER
5
316
100
AcDbSymbolTableRecord
100
AcDbLayerTableRecord
2
ECAD_PSD25-VIMAR_0
70
0
62
7
6
CONTINUOUS
370
-3
390
F
0
LAYER
5
317
100
AcDbSymbolTableRecord
100
AcDbLayerTableRecord
2
ECAD_QFP128-N1-RF-VIMAR_160000
70
0
62
7
6
CONTINUOUS
370
-3
390
F
0
LAYER
5
318
100
AcDbSymbolTableRecord
100
AcDbLayerTableRecord
2
ECAD_QFP144-N-VIMAR-1_160000
70
0
62
7
6
CONTINUOUS
370
-3
390
F
0
LAYER
5
319
100
AcDbSymbolTableRecord
100
AcDbLayerTableRecord
2
ECAD_RD-CE50_8-1-VIMAR_700000
70
0
62
7
6
CONTINUOUS
370
-3
390
F
0
LAYER
5
31A
100
AcDbSymbolTableRecord
100
AcDbLayerTableRecord
2
ECAD_RD-CLED2_54-2-VIMAR_150000
70
0
62
7
6
CONTINUOUS
370
-3
390
F
0
LAYER
5
31B
100
AcDbSymbolTableRecord
100
AcDbLayerTableRecord
2
ECAD_RD-CPHOTO2_54-1-VIMAR_1500
70
0
62
7
6
CONTINUOUS
370
-3
390
F
0
LAYER
5
31C
100
AcDbSymbolTableRecord
100
AcDbLayerTableRecord
2
ECAD_SOP20-1-VIMAR_270000
70
0
62
7
6
CONTINUOUS
370
-3
390
F
0
LAYER
5
31D
100
AcDbSymbolTableRecord
100
AcDbLayerTableRecord
2
ECAD_SOP8-T1-RF-VIMAR_150000
70
0
62
7
6
CONTINUOUS
370
-3
390
F
0
LAYER
5
31E
100
AcDbSymbolTableRecord
100
AcDbLayerTableRecord
2
ECAD_SOP8-T1-RF-VIMAR_150000_1
70
0
62
7
6
CONTINUOUS
370
-3
390
F
0
LAYER
5
31F
100
AcDbSymbolTableRecord
100
AcDbLayerTableRecord
2
ECAD_TSOP48-TI-RF_VIMAR_120000
70
0
62
7
6
CONTINUOUS
370
-3
390
F
0
LAYER
5
320
100
AcDbSymbolTableRecord
100
AcDbLayerTableRecord
2
ECAD_TSOP50_44-TI-RF_VIMAR_1200
70
0
62
7
6
CONTINUOUS
370
-3
390
F
0
LAYER
5
321
100
AcDbSymbolTableRecord
100
AcDbLayerTableRecord
2
ECAD_TSSOP14-RF-VIMAR_110000
70
0
62
7
6
CONTINUOUS
370
-3
390
F
0
LAYER
5
322
100
AcDbSymbolTableRecord
100
AcDbLayerTableRecord
2
ECAD_TSSOP8-RF-VIMAR_110000
70
0
62
7
6
CONTINUOUS
370
-3
390
F
0
LAYER
5
323
100
AcDbSymbolTableRecord
100
AcDbLayerTableRecord
2
IGES
70
0
62
7
6
CONTINUOUS
370
-3
390
F
0
LAYER
5
324
100
AcDbSymbolTableRecord
100
AcDbLayerTableRecord
2
IMPORT_IGES
70
0
62
7
6
CONTINUOUS
370
-3
390
F
0
LAYER
5
325
100
AcDbSymbolTableRecord
100
AcDbLayerTableRecord
2
MM3-MPAK-RF-VIMAR_120000
70
0
62
7
6
CONTINUOUS
370
-3
390
F
0
LAYER
5
326
100
AcDbSymbolTableRecord
100
AcDbLayerTableRecord
2
MM3-MPAK-RF-VIMAR_120000_1
70
0
62
7
6
CONTINUOUS
370
-3
390
F
0
LAYER
5
327
100
AcDbSymbolTableRecord
100
AcDbLayerTableRecord
2
MM3-MPAK-RF-VIMAR_120000_10
70
0
62
7
6
CONTINUOUS
370
-3
390
F
0
LAYER
5
328
100
AcDbSymbolTableRecord
100
AcDbLayerTableRecord
2
MM3-MPAK-RF-VIMAR_120000_11
70
0
62
7
6
CONTINUOUS
370
-3
390
F
0
LAYER
5
329
100
AcDbSymbolTableRecord
100
AcDbLayerTableRecord
2
MM3-MPAK-RF-VIMAR_120000_12
70
0
62
7
6
CONTINUOUS
370
-3
390
F
0
LAYER
5
32A
100
AcDbSymbolTableRecord
100
AcDbLayerTableRecord
2
MM3-MPAK-RF-VIMAR_120000_13
70
0
62
7
6
CONTINUOUS
370
-3
390
F
0
LAYER
5
32B
100
AcDbSymbolTableRecord
100
AcDbLayerTableRecord
2
MM3-MPAK-RF-VIMAR_120000_2
70
0
62
7
6
CONTINUOUS
370
-3
390
F
0
LAYER
5
32C
100
AcDbSymbolTableRecord
100
AcDbLayerTableRecord
2
MM3-MPAK-RF-VIMAR_120000_3
70
0
62
7
6
CONTINUOUS
370
-3
390
F
0
LAYER
5
32D
100
AcDbSymbolTableRecord
100
AcDbLayerTableRecord
2
MM3-MPAK-RF-VIMAR_120000_4
70
0
62
7
6
CONTINUOUS
370
-3
390
F
0
LAYER
5
32E
100
AcDbSymbolTableRecord
100
AcDbLayerTableRecord
2
MM3-MPAK-RF-VIMAR_120000_5
70
0
62
7
6
CONTINUOUS
370
-3
390
F
0
LAYER
5
32F
100
AcDbSymbolTableRecord
100
AcDbLayerTableRecord
2
MM3-MPAK-RF-VIMAR_120000_6
70
0
62
7
6
CONTINUOUS
370
-3
390
F
0
LAYER
5
330
100
AcDbSymbolTableRecord
100
AcDbLayerTableRecord
2
MM3-MPAK-RF-VIMAR_120000_7
70
0
62
7
6
CONTINUOUS
370
-3
390
F
0
LAYER
5
331
100
AcDbSymbolTableRecord
100
AcDbLayerTableRecord
2
MM3-MPAK-RF-VIMAR_120000_8
70
0
62
7
6
CONTINUOUS
370
-3
390
F
0
LAYER
5
332
100
AcDbSymbolTableRecord
100
AcDbLayerTableRecord
2
MM3-MPAK-RF-VIMAR_120000_9
70
0
62
7
6
CONTINUOUS
370
-3
390
F
0
LAYER
5
333
100
AcDbSymbolTableRecord
100
AcDbLayerTableRecord
2
NOTE
70
0
62
7
6
CONTINUOUS
370
-3
390
F
0
LAYER
5
334
100
AcDbSymbolTableRecord
100
AcDbLayerTableRecord
2
PIANI
70
0
62
7
6
CONTINUOUS
370
-3
390
F
0
LAYER
5
335
100
AcDbSymbolTableRecord
100
AcDbLayerTableRecord
2
PIANI_ORIGINE
70
0
62
7
6
CONTINUOUS
370
-3
390
F
0
LAYER
5
336
100
AcDbSymbolTableRecord
100
AcDbLayerTableRecord
2
PSD25-VIMAR_0
70
0
62
7
6
CONTINUOUS
370
-3
390
F
0
LAYER
5
337
100
AcDbSymbolTableRecord
100
AcDbLayerTableRecord
2
PSD25-VIMAR_0_1
70
0
62
7
6
CONTINUOUS
370
-3
390
F
0
LAYER
5
338
100
AcDbSymbolTableRecord
100
AcDbLayerTableRecord
2
RACCORDO
70
0
62
7
6
CONTINUOUS
370
-3
390
F
0
LAYER
5
339
100
AcDbSymbolTableRecord
100
AcDbLayerTableRecord
2
SOP8-T1-RF-VIMAR_150000
70
0
62
7
6
CONTINUOUS
370
-3
390
F
0
LAYER
5
33A
100
AcDbSymbolTableRecord
100
AcDbLayerTableRecord
2
SOP8-T1-RF-VIMAR_150000_1
70
0
62
7
6
CONTINUOUS
370
-3
390
F
0
LAYER
5
33B
100
AcDbSymbolTableRecord
100
AcDbLayerTableRecord
2
SUPERFICI
70
0
62
7
6
CONTINUOUS
370
-3
390
F
0
LAYER
5
33C
100
AcDbSymbolTableRecord
100
AcDbLayerTableRecord
2
TRASH
70
0
62
7
6
CONTINUOUS
370
-3
390
F
0
LAYER
5
33D
100
AcDbSymbolTableRecord
100
AcDbLayerTableRecord
2
TSSOP8-RF-VIMAR_110000
70
0
62
7
6
CONTINUOUS
370
-3
390
F
0
LAYER
5
33E
100
AcDbSymbolTableRecord
100
AcDbLayerTableRecord
2
TSSOP8-RF-VIMAR_110000_1
70
0
62
7
6
CONTINUOUS
370
-3
390
F
0
LAYER
5
33F
100
AcDbSymbolTableRecord
100
AcDbLayerTableRecord
2
XSEC_DATUMS
70
0
62
7
6
CONTINUOUS
370
-3
390
F
0
LAYER
5
340
100
AcDbSymbolTableRecord
100
AcDbLayerTableRecord
2
___SHELL
70
0
62
7
6
CONTINUOUS
370
-3
390
F
0
ENDTAB
0
TABLE
2
STYLE
5
3
100
AcDbSymbolTable
70
1
0
STYLE
5
11
100
AcDbSymbolTableRecord
100
AcDbTextStyleTableRecord
2
STANDARD
70
0
40
0.0
41
0.8000000000
50
0.0
71
0
42
0.2
3
txt
4

0
ENDTAB
0
TABLE
2
VIEW
5
6
100
AcDbSymbolTable
70
0
0
ENDTAB
0
TABLE
2
UCS
5
7
100
AcDbSymbolTable
70
0
0
ENDTAB
0
TABLE
2
APPID
5
9
100
AcDbSymbolTable
70
1
0
APPID
5
341
100
AcDbSymbolTableRecord
100
AcDbRegAppTableRecord
2
ACAD
70
0
0
ENDTAB
0
TABLE
2
BLOCK_RECORD
5
1
100
AcDbSymbolTable
70
0
0
BLOCK_RECORD
5
1F
100
AcDbSymbolTableRecord
100
AcDbBlockTableRecord
2
*MODEL_SPACE
0
BLOCK_RECORD
5
1B
100
AcDbSymbolTableRecord
100
AcDbBlockTableRecord
2
*PAPER_SPACE
0
ENDTAB
0
TABLE
2
DIMSTYLE
5
A
100
AcDbSymbolTable
70
1
100
AcDbDimStyleTable
71
0
0
DIMSTYLE
105
342
100
AcDbSymbolTableRecord
100
AcDbDimStyleTableRecord
2
STANDARD
70
0
3

4

40
1.0
41
3.0000000000
42
0.0625
43
0.38
44
0.18
45
0.0
46
0.0
47
0.0100000000
48
0.0100000000
140
3.0000000000
141
0.09
142
0.0
143
25.4
144
1.0000000000
145
0.0
146
1.0000000000
147
0.09
71
1
72
0
73
0
74
0
75
0
76
0
77
1
78
8
170
0
171
2
172
0
173
0
174
0
175
0
176
0
177
0
178
0
270
2
271
2
272
2
273
2
274
2
275
0
280
0
281
0
282
0
283
1
284
8
285
0
286
0
287
3
288
0
340
11
0
ENDTAB
0
ENDSEC
0
SECTION
2
BLOCKS
0
BLOCK
5
20
100
AcDbEntity
8
0
100
AcDbBlockBegin
2
*MODEL_SPACE
70
0
10
0.0
20
0.0
30
0.0
3
*MODEL_SPACE
1

0
ENDBLK
5
21
100
AcDbEntity
8
0
100
AcDbBlockEnd
0
BLOCK
5
1C
100
AcDbEntity
8
0
100
AcDbBlockBegin
2
*PAPER_SPACE
70
0
10
0.0
20
0.0
30
0.0
3
*PAPER_SPACE
1

0
ENDBLK
5
1D
100
AcDbEntity
8
0
100
AcDbBlockEnd
0
ENDSEC
0
SECTION
2
ENTITIES
0
LINE
5
343
100
AcDbEntity
8
0
100
AcDbLine
62
9
6
CONTINUOUS
10
-46.2925415552
20
22.7665643518
11
-46.4499998184
21
22.6091060886
0
LINE
5
344
100
AcDbEntity
8
0
100
AcDbLine
62
9
6
CONTINUOUS
10
-45.1534299048
20
23.6058168787
11
-45.2425725891
21
23.5166741944
0
LINE
5
345
100
AcDbEntity
8
0
100
AcDbLine
62
9
6
CONTINUOUS
10
-44.9534603658
20
23.4058473397
11
-45.0426030501
21
23.3167046554
0
LINE
5
346
100
AcDbEntity
8
0
100
AcDbLine
62
9
6
CONTINUOUS
10
-45.7927128927
20
22.2667356893
11
-45.9501711559
21
22.1092774261
0
LINE
5
347
100
AcDbEntity
8
0
100
AcDbLine
62
7
6
CONTINUOUS
10
-46.4506843465
20
22.6084215605
11
-46.4506843465
21
25.8109899793
0
LINE
5
348
100
AcDbEntity
8
0
100
AcDbLine
62
9
6
CONTINUOUS
10
-46.2925415552
20
25.6528471880
11
-46.2925415552
21
22.7665643518
0
LINE
5
349
100
AcDbEntity
8
0
100
AcDbLine
62
7
6
CONTINUOUS
10
-46.1999998184
20
-27.8927782718
11
-46.1999998184
21
22.1749186388
0
LINE
5
34A
100
AcDbEntity
8
0
100
AcDbLine
62
9
6
CONTINUOUS
10
-45.7927128927
20
22.2667356893
11
-45.7927128927
21
25.6528471880
0
LINE
5
34B
100
AcDbEntity
8
0
100
AcDbLine
62
9
6
CONTINUOUS
10
-45.5826970815
20
-24.1407225739
11
-45.5826970815
21
-8.6407225739
0
LINE
5
34C
100
AcDbEntity
8
0
100
AcDbLine
62
9
6
CONTINUOUS
10
-45.5826970815
20
5.8592774261
11
-45.5826970815
21
21.3592774261
0
LINE
5
34D
100
AcDbEntity
8
0
100
AcDbLine
62
9
6
CONTINUOUS
10
-45.4425421281
20
23.5166741944
11
-45.4425421281
21
25.9021091150
0
LINE
5
34E
100
AcDbEntity
8
0
100
AcDbLine
62
9
6
CONTINUOUS
10
-45.2425725891
20
23.5166741944
11
-45.2425725891
21
25.9021091150
0
LINE
5
34F
100
AcDbEntity
8
0
100
AcDbLine
62
9
6
CONTINUOUS
10
-45.1534299048
20
23.6058168787
11
-45.1534299048
21
25.8129664308
0
LINE
5
350
100
AcDbEntity
8
0
100
AcDbLine
62
9
6
CONTINUOUS
10
-45.0426030502
20
23.3167046554
11
-45.0426030503
21
23.1167351164
0
LINE
5
351
100
AcDbEntity
8
0
100
AcDbLine
62
9
6
CONTINUOUS
10
-44.9534603658
20
23.4058473397
11
-44.9534603658
21
25.8129664308
0
LINE
5
352
100
AcDbEntity
8
0
100
AcDbLine
62
7
6
CONTINUOUS
10
-44.6999998184
20
4.1092774261
11
-44.6999998184
21
1.6092774261
0
LINE
5
353
100
AcDbEntity
8
0
100
AcDbLine
62
7
6
CONTINUOUS
10
-44.6999998184
20
-6.8907225739
11
-44.6999998184
21
-4.3907225739
0
LINE
5
354
100
AcDbEntity
8
0
100
AcDbLine
62
7
6
CONTINUOUS
10
-44.6999998184
20
-2.6407225739
11
-44.6999998184
21
-0.1407225739
0
LINE
5
355
100
AcDbEntity
8
0
100
AcDbLine
62
7
6
CONTINUOUS
10
-44.6226741753
20
-0.1793736157
11
-44.6226741753
21
-2.6020715321
0
LINE
5
356
100
AcDbEntity
8
0
100
AcDbLine
62
7
6
CONTINUOUS
10
-44.6226741753
20
-4.4293736157
11
-44.6226741753
21
-6.8520715321
0
LINE
5
357
100
AcDbEntity
8
0
100
AcDbLine
62
7
6
CONTINUOUS
10
-44.6226741753
20
1.6479284679
11
-44.6226741753
21
4.0706263843
0
LINE
5
358
100
AcDbEntity
8
0
100
AcDbLine
62
9
6
CONTINUOUS
10
-44.5828493864
20
-24.1235721418
11
-44.5828493864
21
-8.6578730059
0
LINE
5
359
100
AcDbEntity
8
0
100
AcDbLine
62
9
6
CONTINUOUS
10
-44.5828493864
20
5.8764278582
11
-44.5828493864
21
21.3421269941
0
LINE
5
35A
100
AcDbEntity
8
0
100
AcDbLine
62
7
6
CONTINUOUS
10
-44.5476346236
20
-24.0883573791
11
-44.5476346236
21
-23.8907225739
0
LINE
5
35B
100
AcDbEntity
8
0
100
AcDbLine
62
7
6
CONTINUOUS
10
-44.5476346236
20
-8.8907225739
11
-44.5476346236
21
-8.6930877687
0
LINE
5
35C
100
AcDbEntity
8
0
100
AcDbLine
62
7
6
CONTINUOUS
10
-44.5476346236
20
5.9116426209
11
-44.5476346236
21
6.1092774261
0
LINE
5
35D
100
AcDbEntity
8
0
100
AcDbLine
62
7
6
CONTINUOUS
10
-44.5476346236
20
21.0481846989
11
-44.5476346236
21
21.3069122313
0
LINE
5
35E
100
AcDbEntity
8
0
100
AcDbLine
62
7
6
CONTINUOUS
10
-44.4523809726
20
-8.8907225739
11
-44.4523809726
21
6.1092774261
0
LINE
5
35F
100
AcDbEntity
8
0
100
AcDbLine
62
7
6
CONTINUOUS
10
-44.4349205879
20
-27.8916363334
11
-44.4349205879
21
-23.8907225739
0
LINE
5
360
100
AcDbEntity
8
0
100
AcDbLine
62
7
6
CONTINUOUS
10
-44.3999998184
20
21.1267324910
11
-44.3999998184
21
22.1092774261
0
LINE
5
361
100
AcDbEntity
8
0
100
AcDbLine
62
7
6
CONTINUOUS
10
-44.3301582794
20
25.0403496466
11
-44.3301582794
21
23.6058168787
0
LINE
5
362
100
AcDbEntity
8
0
100
AcDbLine
62
9
6
CONTINUOUS
10
-44.3114791774
20
-27.7681949229
11
-44.3114791774
21
22.1756561055
0
LINE
5
363
100
AcDbEntity
8
0
100
AcDbLine
62
9
6
CONTINUOUS
10
-44.2765584079
20
23.3824856557
11
-44.2765584079
21
24.9867497751
0
LINE
5
364
100
AcDbEntity
8
0
100
AcDbLine
62
9
6
CONTINUOUS
10
-43.5428315073
20
27.8018197358
11
-43.5428315073
21
27.6018501968
0
LINE
5
365
100
AcDbEntity
8
0
100
AcDbLine
62
9
6
CONTINUOUS
10
-43.4536888230
20
27.3127379735
11
-43.4536888230
21
27.5127075125
0
LINE
5
366
100
AcDbEntity
8
0
100
AcDbLine
62
9
6
CONTINUOUS
10
-33.4072867441
20
28.6518191629
11
-33.2498284809
21
28.8092774261
0
LINE
5
367
100
AcDbEntity
8
0
100
AcDbLine
62
9
6
CONTINUOUS
10
-34.1573965867
20
27.6018501968
11
-34.2465392710
21
27.5127075125
0
LINE
5
368
100
AcDbEntity
8
0
100
AcDbLine
62
9
6
CONTINUOUS
10
-33.9574270477
20
27.4018806578
11
-34.0465697320
21
27.3127379735
0
LINE
5
369
100
AcDbEntity
8
0
100
AcDbLine
62
9
6
CONTINUOUS
10
-32.9074580816
20
28.1519905004
11
-32.7499998184
21
28.3094487636
0
LINE
5
36A
100
AcDbEntity
8
0
100
AcDbLine
62
7
6
CONTINUOUS
10
-44.3114791774
20
22.1756561055
11
-44.3999998184
21
22.1092774261
0
LINE
5
36B
100
AcDbEntity
8
0
100
AcDbLine
62
7
6
CONTINUOUS
10
-42.7047621269
20
22.2009281516
11
-42.6337018706
21
22.2542138702
0
LINE
5
36C
100
AcDbEntity
8
0
100
AcDbLine
62
9
6
CONTINUOUS
10
-43.3120883504
20
-27.7681949229
11
-43.3120883504
21
22.2009281516
0
LINE
5
36D
100
AcDbEntity
8
0
100
AcDbLine
62
9
6
CONTINUOUS
10
-43.2935695803
20
28.1519905004
11
-43.2935695803
21
28.6518191629
0
LINE
5
36E
100
AcDbEntity
8
0
100
AcDbLine
62
9
6
CONTINUOUS
10
-43.2771675809
20
23.3656397638
11
-43.2771675809
21
24.9867497751
0
LINE
5
36F
100
AcDbEntity
8
0
100
AcDbLine
62
9
6
CONTINUOUS
10
-42.8123929369
20
-29.2672811634
11
-42.8123929369
21
-28.2678903364
0
LINE
5
370
100
AcDbEntity
8
0
100
AcDbLine
62
9
6
CONTINUOUS
10
-42.7774721674
20
26.4858360156
11
-42.7774721674
21
25.4864451886
0
LINE
5
371
100
AcDbEntity
8
0
100
AcDbLine
62
7
6
CONTINUOUS
10
-42.7047621269
20
23.9146489076
11
-42.7047621269
21
23.3656397638
0
LINE
5
372
100
AcDbEntity
8
0
100
AcDbLine
62
7
6
CONTINUOUS
10
-42.7047621269
20
22.2009281516
11
-42.7047621269
21
-26.6960940553
0
LINE
5
373
100
AcDbEntity
8
0
100
AcDbLine
62
9
6
CONTINUOUS
10
-42.6337018706
20
23.8435886513
11
-42.6337018706
21
23.3301204610
0
LINE
5
374
100
AcDbEntity
8
0
100
AcDbLine
62
9
6
CONTINUOUS
10
-42.6337018706
20
22.2542138702
11
-42.6337018706
21
-26.6250337991
0
LINE
5
375
100
AcDbEntity
8
0
100
AcDbLine
62
9
6
CONTINUOUS
10
-41.6343110436
20
22.7665643518
11
-41.6343110436
21
-27.6244246261
0
LINE
5
376
100
AcDbEntity
8
0
100
AcDbLine
62
9
6
CONTINUOUS
10
-41.6343110436
20
23.1167351164
11
-41.6343110436
21
24.8429794783
0
LINE
5
377
100
AcDbEntity
8
0
100
AcDbLine
62
7
6
CONTINUOUS
10
-40.9607289133
20
-25.4334267077
11
-40.9607289133
21
-0.2907225739
0
LINE
5
378
100
AcDbEntity
8
0
100
AcDbLine
62
7
6
CONTINUOUS
10
-32.7499998184
20
26.5743566566
11
-32.8163784978
21
26.4858360156
0
LINE
5
379
100
AcDbEntity
8
0
100
AcDbLine
62
7
6
CONTINUOUS
10
-32.8416505439
20
24.9140397346
11
-32.8949362625
21
24.8429794783
0
LINE
5
37A
100
AcDbEntity
8
0
100
AcDbLine
62
7
6
CONTINUOUS
10
-44.4349205879
20
-23.8907225739
11
-44.5476346236
21
-23.8343827268
0
LINE
5
37B
100
AcDbEntity
8
0
100
AcDbLine
62
7
6
CONTINUOUS
10
-44.3999998184
20
21.1267324910
11
-44.5476346236
21
21.0529375791
0
LINE
5
37C
100
AcDbEntity
8
CURVE
100
AcDbLine
62
9
6
CONTINUOUS
10
-32.9285712214
20
-21.5383416783
11
-32.6428569527
21
-21.7764368426
0
LINE
5
37D
100
AcDbEntity
8
CURVE
100
AcDbLine
62
9
6
CONTINUOUS
10
-32.7857140871
20
-22.4907225739
11
-32.4999998184
21
-22.7764368426
0
LINE
5
37E
100
AcDbEntity
8
0
100
AcDbLine
62
7
6
CONTINUOUS
10
-44.5476346236
20
-8.6930877687
11
-44.5828493864
21
-8.6578730059
0
LINE
5
37F
100
AcDbEntity
8
0
100
AcDbLine
62
7
6
CONTINUOUS
10
-35.9999998184
20
-0.2907225739
11
-35.9999998184
21
-25.4332743390
0
LINE
5
380
100
AcDbEntity
8
0
100
AcDbLine
62
9
6
CONTINUOUS
10
-34.2465392710
20
26.5394358871
11
-34.2465392710
21
27.5127075125
0
LINE
5
381
100
AcDbEntity
8
0
100
AcDbLine
62
9
6
CONTINUOUS
10
-34.1573965867
20
27.8018197358
11
-34.1573965867
21
27.6018501968
0
LINE
5
382
100
AcDbEntity
8
0
100
AcDbLine
62
9
6
CONTINUOUS
10
-34.0465697320
20
27.3127379735
11
-34.0465697320
21
26.5325736235
0
LINE
5
383
100
AcDbEntity
8
0
100
AcDbLine
62
7
6
CONTINUOUS
10
-34.0063621561
20
25.4864451886
11
-34.0063621561
21
24.9140397346
0
LINE
5
384
100
AcDbEntity
8
0
100
AcDbLine
62
7
6
CONTINUOUS
10
-33.9999998184
20
12.6092774261
11
-33.9999998184
21
-7.3907225739
0
LINE
5
385
100
AcDbEntity
8
0
100
AcDbLine
62
9
6
CONTINUOUS
10
-33.9574270477
20
24.4389062527
11
-33.9574270477
21
27.4018806578
0
LINE
5
386
100
AcDbEntity
8
0
100
AcDbLine
62
9
6
CONTINUOUS
10
-33.7574575087
20
23.8435886513
11
-33.7574575087
21
27.4018806578
0
LINE
5
387
100
AcDbEntity
8
CURVE
100
AcDbLine
62
9
6
CONTINUOUS
10
-33.4999998184
20
-23.4907225739
11
-33.4999998184
21
-21.4907225739
0
LINE
5
388
100
AcDbEntity
8
0
100
AcDbLine
62
9
6
CONTINUOUS
10
-33.4072867441
20
23.8435886513
11
-33.4072867441
21
28.6518191629
0
LINE
5
389
100
AcDbEntity
8
CURVE
100
AcDbLine
62
9
6
CONTINUOUS
10
-32.9285712214
20
-1.9907225739
11
-32.9285712214
21
-3.9907225739
0
LINE
5
38A
100
AcDbEntity
8
0
100
AcDbLine
62
9
6
CONTINUOUS
10
-32.9074580816
20
28.1519905004
11
-32.9074580816
21
24.7019243768
0
LINE
5
38B
100
AcDbEntity
8
0
100
AcDbLine
62
7
6
CONTINUOUS
10
-32.8416505439
20
25.4864451886
11
-32.8416505439
21
24.9140397346
0
LINE
5
38C
100
AcDbEntity
8
0
100
AcDbLine
62
7
6
CONTINUOUS
10
-32.7499998184
20
26.5743566566
11
-32.7499998184
21
28.3094487636
0
LINE
5
38D
100
AcDbEntity
8
CURVE
100
AcDbLine
62
9
6
CONTINUOUS
10
-32.6428569527
20
-21.7764368426
11
-32.6428569527
21
-22.2050083052
0
LINE
5
38E
100
AcDbEntity
8
CURVE
100
AcDbLine
62
9
6
CONTINUOUS
10
-32.4999998184
20
-22.7764368426
11
-32.4999998184
21
-23.2050082754
0
LINE
5
38F
100
AcDbEntity
8
CURVE
100
AcDbLine
62
9
6
CONTINUOUS
10
-32.4999998184
20
-9.0621511113
11
-32.4999998184
21
-8.7764368426
0
LINE
5
390
100
AcDbEntity
8
0
100
AcDbLine
62
7
6
CONTINUOUS
10
-44.5476346236
20
5.9116426209
11
-44.5828493864
21
5.8764278582
0
LINE
5
391
100
AcDbEntity
8
CURVE
100
AcDbLine
62
9
6
CONTINUOUS
10
-32.9285712214
20
-14.9907225739
11
-32.3571426244
21
-16.9907225739
0
LINE
5
392
100
AcDbEntity
8
0
100
AcDbLine
62
7
6
CONTINUOUS
10
-30.7499998184
20
26.5743566566
11
-30.7499998184
21
26.6267324910
0
LINE
5
393
100
AcDbEntity
8
0
100
AcDbLine
62
7
6
CONTINUOUS
10
44.7020558795
20
-29.3907225739
11
-44.7020555163
21
-29.3907225739
0
LINE
5
394
100
AcDbEntity
8
0
100
AcDbLine
62
9
6
CONTINUOUS
10
42.8123933001
20
-29.2672811634
11
-42.8123929369
21
-29.2672811634
0
LINE
5
395
100
AcDbEntity
8
CURVE
100
AcDbLine
62
9
6
CONTINUOUS
10
-33.0714283856
20
-21.4907225739
11
-32.9285712214
21
-21.5383416783
0
LINE
5
396
100
AcDbEntity
8
CURVE
100
AcDbLine
62
9
6
CONTINUOUS
10
-32.4999998184
20
-8.7764368426
11
-32.7857140871
21
-8.4907225739
0
LINE
5
397
100
AcDbEntity
8
CURVE
100
AcDbLine
62
9
6
CONTINUOUS
10
-33.4999998184
20
-16.9907225739
11
-32.9285712214
21
-14.9907225739
0
LINE
5
398
100
AcDbEntity
8
0
100
AcDbLine
62
9
6
CONTINUOUS
10
42.8123933001
20
-28.2678903364
11
-42.8123929369
21
-28.2678903364
0
LINE
5
399
100
AcDbEntity
8
0
100
AcDbLine
62
9
6
CONTINUOUS
10
-44.3114791774
20
-27.7681949229
11
-43.3120883504
21
-27.7681949229
0
LINE
5
39A
100
AcDbEntity
8
0
100
AcDbLine
62
9
6
CONTINUOUS
10
44.3114795406
20
-27.7681949229
11
43.3120887136
21
-27.7681949229
0
LINE
5
39B
100
AcDbEntity
8
0
100
AcDbLine
62
7
6
CONTINUOUS
10
-41.7053712999
20
-27.6954848824
11
41.7053716631
21
-27.6954848824
0
LINE
5
39C
100
AcDbEntity
8
0
100
AcDbLine
62
9
6
CONTINUOUS
10
-41.6343110436
20
-27.6244246261
11
41.6343114068
21
-27.6244246261
0
LINE
5
39D
100
AcDbEntity
8
0
100
AcDbLine
62
9
6
CONTINUOUS
10
42.6337022338
20
-26.6250337991
11
-42.6337018706
21
-26.6250337991
0
LINE
5
39E
100
AcDbEntity
8
0
100
AcDbLine
62
7
6
CONTINUOUS
10
-36.4999998184
20
-25.9335791112
11
-40.4608621558
21
-25.9335791112
0
LINE
5
39F
100
AcDbEntity
8
CURVE
100
AcDbLine
62
9
6
CONTINUOUS
10
-33.2142855199
20
-8.4907225739
11
-33.4999998184
21
-8.9192940365
0
LINE
5
3A0
100
AcDbEntity
8
CURVE
100
AcDbLine
62
9
6
CONTINUOUS
10
-33.4999998184
20
-10.4907225739
11
-32.4999998184
21
-9.0621511113
0
LINE
5
3A1
100
AcDbEntity
8
CURVE
100
AcDbLine
62
9
6
CONTINUOUS
10
-33.4999998184
20
-2.5621511113
11
-32.9285712214
21
-1.9907225739
0
LINE
5
3A2
100
AcDbEntity
8
0
100
AcDbLine
62
7
6
CONTINUOUS
10
-44.6226741753
20
1.6479284679
11
-44.6999998184
21
1.6092774261
0
LINE
5
3A3
100
AcDbEntity
8
0
100
AcDbLine
62
7
6
CONTINUOUS
10
-44.5488706221
20
-24.0474750301
11
-44.4349205879
21
-24.0440299720
0
LINE
5
3A4
100
AcDbEntity
8
0
100
AcDbLine
62
7
6
CONTINUOUS
10
45.5826974447
20
-24.1407225739
11
44.4349209511
21
-24.1407225739
0
LINE
5
3A5
100
AcDbEntity
8
0
100
AcDbLine
62
7
6
CONTINUOUS
10
-44.4349205879
20
-24.1407225739
11
-45.5826970815
21
-24.1407225739
0
LINE
5
3A6
100
AcDbEntity
8
CURVE
100
AcDbLine
62
9
6
CONTINUOUS
10
-32.7857140871
20
-23.4907225739
11
-33.4999998184
21
-23.4907225739
0
LINE
5
3A7
100
AcDbEntity
8
CURVE
100
AcDbLine
62
9
6
CONTINUOUS
10
-32.7857140871
20
-22.4907225739
11
-33.4999998184
21
-22.4907225739
0
LINE
5
3A8
100
AcDbEntity
8
0
100
AcDbLine
62
7
6
CONTINUOUS
10
44.4349209511
20
-24.0440299720
11
44.5488709853
21
-24.0474750301
0
LINE
5
3A9
100
AcDbEntity
8
0
100
AcDbLine
62
7
6
CONTINUOUS
10
-44.6226741753
20
-4.4293736157
11
-44.6999998184
21
-4.3907225739
0
LINE
5
3AA
100
AcDbEntity
8
0
100
AcDbLine
62
7
6
CONTINUOUS
10
-44.6226741753
20
-2.6020715321
11
-44.6999998184
21
-2.6407225739
0
LINE
5
3AB
100
AcDbEntity
8
CURVE
100
AcDbLine
62
9
6
CONTINUOUS
10
-33.4999998184
20
-21.4907225739
11
-33.0714283856
21
-21.4907225739
0
LINE
5
3AC
100
AcDbEntity
8
0
100
AcDbLine
62
7
6
CONTINUOUS
10
29.9731814583
20
-18.9148003667
11
35.0268189049
21
-18.9148003667
0
LINE
5
3AD
100
AcDbEntity
8
0
100
AcDbLine
62
9
6
CONTINUOUS
10
30.4724267671
20
-18.4155550579
11
34.5275735961
21
-18.4155550579
0
LINE
5
3AE
100
AcDbEntity
8
0
100
AcDbLine
62
7
6
CONTINUOUS
10
-44.6226741753
20
-0.1793736157
11
-44.6999998184
21
-0.1407225739
0
LINE
5
3AF
100
AcDbEntity
8
0
100
AcDbLine
62
7
6
CONTINUOUS
10
-34.0063621561
20
24.9140397346
11
-33.9708428532
21
24.8429794783
0
LINE
5
3B0
100
AcDbEntity
8
0
100
AcDbLine
62
7
6
CONTINUOUS
10
-34.0232080480
20
26.4858360156
11
-34.0465697320
21
26.5325736235
0
LINE
5
3B1
100
AcDbEntity
8
0
100
AcDbLine
62
7
6
CONTINUOUS
10
-15.9999998184
20
-7.3907225739
11
-15.9999998184
21
12.6092774261
0
LINE
5
3B2
100
AcDbEntity
8
0
100
AcDbLine
62
7
6
CONTINUOUS
10
-44.5476346236
20
-24.0883573791
11
-44.5828493864
21
-24.1235721418
0
LINE
5
3B3
100
AcDbEntity
8
0
100
AcDbLine
62
9
6
CONTINUOUS
10
30.4724267671
20
-17.9162402905
11
34.5275735961
21
-17.9162402905
0
LINE
5
3B4
100
AcDbEntity
8
0
100
AcDbLine
62
7
6
CONTINUOUS
10
30.4993149490
20
-16.8907225739
11
34.5006854142
21
-16.8907225739
0
LINE
5
3B5
100
AcDbEntity
8
CURVE
100
AcDbLine
62
9
6
CONTINUOUS
10
-33.3095236244
20
-16.4192939769
11
-32.5476188632
21
-16.4192939769
0
LINE
5
3B6
100
AcDbEntity
8
0
100
AcDbLine
62
9
6
CONTINUOUS
10
28.9744824650
20
-16.4182959884
11
28.4751676976
21
-16.4182959884
0
LINE
5
3B7
100
AcDbEntity
8
0
100
AcDbLine
62
9
6
CONTINUOUS
10
36.0255178982
20
-16.4182959884
11
36.5248326656
21
-16.4182959884
0
LINE
5
3B8
100
AcDbEntity
8
0
100
AcDbLine
62
7
6
CONTINUOUS
10
34.5000001816
20
-16.3907225739
11
30.5000001816
21
-16.3907225739
0
LINE
5
3B9
100
AcDbEntity
8
0
100
AcDbLine
62
7
6
CONTINUOUS
10
-44.6226741753
20
4.0706263843
11
-44.6999998184
21
4.1092774261
0
LINE
5
3BA
100
AcDbEntity
8
0
100
AcDbLine
62
7
6
CONTINUOUS
10
-44.5476346236
20
21.3069122313
11
-44.5828493864
21
21.3421269941
0
LINE
5
3BB
100
AcDbEntity
8
0
100
AcDbLine
62
9
6
CONTINUOUS
10
-46.2925415552
20
25.6528471880
11
-46.4499998184
21
25.8103054512
0
LINE
5
3BC
100
AcDbEntity
8
0
100
AcDbLine
62
9
6
CONTINUOUS
10
-44.4349205879
20
-27.8916363334
11
-44.3114791774
21
-27.7681949229
0
LINE
5
3BD
100
AcDbEntity
8
0
100
AcDbLine
62
9
6
CONTINUOUS
10
-42.6337018706
20
-26.6250337991
11
-42.7047621269
21
-26.6960940553
0
LINE
5
3BE
100
AcDbEntity
8
0
100
AcDbLine
62
7
6
CONTINUOUS
10
-44.6226741753
20
-6.8520715321
11
-44.6999998184
21
-6.8907225739
0
LINE
5
3BF
100
AcDbEntity
8
0
100
AcDbLine
62
9
6
CONTINUOUS
10
-45.1534299048
20
25.8129664308
11
-45.2425725891
21
25.9021091150
0
LINE
5
3C0
100
AcDbEntity
8
0
100
AcDbLine
62
9
6
CONTINUOUS
10
-44.2765584079
20
24.9867497751
11
-44.3301582794
21
25.0403496466
0
LINE
5
3C1
100
AcDbEntity
8
0
100
AcDbLine
62
9
6
CONTINUOUS
10
-42.6337018706
20
23.8435886513
11
-42.7047621269
21
23.9146489076
0
LINE
5
3C2
100
AcDbEntity
8
0
100
AcDbLine
62
9
6
CONTINUOUS
10
-41.6343110436
20
24.8429794783
11
-41.7053712999
21
24.9140397346
0
LINE
5
3C3
100
AcDbEntity
8
0
100
AcDbLine
62
9
6
CONTINUOUS
10
-42.7774721674
20
26.4858360156
11
-42.8310720389
21
26.5394358871
0
LINE
5
3C4
100
AcDbEntity
8
0
100
AcDbLine
62
9
6
CONTINUOUS
10
-43.4536888230
20
27.5127075125
11
-43.5428315073
21
27.6018501968
0
LINE
5
3C5
100
AcDbEntity
8
0
100
AcDbLine
62
9
6
CONTINUOUS
10
-41.6343110436
20
-27.6244246261
11
-41.7053712999
21
-27.6954848824
0
LINE
5
3C6
100
AcDbEntity
8
0
100
AcDbLine
62
9
6
CONTINUOUS
10
-42.9358343474
20
-29.3907225739
11
-42.8123929369
21
-29.2672811634
0
LINE
5
3C7
100
AcDbEntity
8
CURVE
100
AcDbLine
62
9
6
CONTINUOUS
10
-32.6428569527
20
-22.2050083052
11
-32.9285712214
21
-22.4907225739
0
LINE
5
3C8
100
AcDbEntity
8
0
100
AcDbLine
62
7
6
CONTINUOUS
10
44.4523813358
20
-8.7368872949
11
44.5488709853
21
-8.7339701177
0
LINE
5
3C9
100
AcDbEntity
8
CURVE
100
AcDbLine
62
9
6
CONTINUOUS
10
-32.4999998184
20
-10.4907225739
11
-33.4999998184
21
-10.4907225739
0
LINE
5
3CA
100
AcDbEntity
8
0
100
AcDbLine
62
7
6
CONTINUOUS
10
-44.5571432811
20
-8.8907225739
11
-44.4523809726
21
-8.8907225739
0
LINE
5
3CB
100
AcDbEntity
8
0
100
AcDbLine
62
7
6
CONTINUOUS
10
44.5571436443
20
-8.8907225739
11
44.4523813358
21
-8.8907225739
0
LINE
5
3CC
100
AcDbEntity
8
0
100
AcDbLine
62
7
6
CONTINUOUS
10
-45.5826970815
20
-8.6407225739
11
-44.4523809726
21
-8.6407225739
0
LINE
5
3CD
100
AcDbEntity
8
0
100
AcDbLine
62
7
6
CONTINUOUS
10
44.4523813358
20
-8.6407225739
11
45.5826974447
21
-8.6407225739
0
LINE
5
3CE
100
AcDbEntity
8
CURVE
100
AcDbLine
62
9
6
CONTINUOUS
10
-32.7857140871
20
-8.4907225739
11
-33.2142855199
21
-8.4907225739
0
LINE
5
3CF
100
AcDbEntity
8
0
100
AcDbLine
62
7
6
CONTINUOUS
10
-33.9999998184
20
-7.3907225739
11
-15.9999998184
21
-7.3907225739
0
LINE
5
3D0
100
AcDbEntity
8
0
100
AcDbLine
62
7
6
CONTINUOUS
10
-44.5488706221
20
-8.7339701177
11
-44.4523809726
21
-8.7368872949
0
LINE
5
3D1
100
AcDbEntity
8
0
100
AcDbLine
62
9
6
CONTINUOUS
10
-43.2935695803
20
28.6518191629
11
-43.4510278435
21
28.8092774261
0
LINE
5
3D2
100
AcDbEntity
8
CURVE
100
AcDbLine
62
9
6
CONTINUOUS
10
-32.4999998184
20
-23.2050082754
11
-32.7857140871
21
-23.4907225739
0
LINE
5
3D3
100
AcDbEntity
8
0
100
AcDbLine
62
7
6
CONTINUOUS
10
44.6226745385
20
-4.4293736157
11
44.4523813358
21
-4.4345221002
0
LINE
5
3D4
100
AcDbEntity
8
0
100
AcDbLine
62
7
6
CONTINUOUS
10
-44.4523809726
20
-6.8469230476
11
-44.6226741753
21
-6.8520715321
0
LINE
5
3D5
100
AcDbEntity
8
0
100
AcDbLine
62
7
6
CONTINUOUS
10
-44.6999998184
20
-6.8907225739
11
-44.4523809726
21
-6.8907225739
0
LINE
5
3D6
100
AcDbEntity
8
0
100
AcDbLine
62
7
6
CONTINUOUS
10
44.4523813358
20
-6.8907225739
11
44.7000001816
21
-6.8907225739
0
LINE
5
3D7
100
AcDbEntity
8
0
100
AcDbLine
62
7
6
CONTINUOUS
10
44.7000001816
20
-4.3907225739
11
44.4523813358
21
-4.3907225739
0
LINE
5
3D8
100
AcDbEntity
8
0
100
AcDbLine
62
7
6
CONTINUOUS
10
-44.4523809726
20
-4.3907225739
11
-44.6999998184
21
-4.3907225739
0
LINE
5
3D9
100
AcDbEntity
8
0
100
AcDbLine
62
7
6
CONTINUOUS
10
-44.4523809726
20
-4.4345221002
11
-44.6226741753
21
-4.4293736157
0
LINE
5
3DA
100
AcDbEntity
8
0
100
AcDbLine
62
7
6
CONTINUOUS
10
44.6226745385
20
-6.8520715321
11
44.4523813358
21
-6.8469230476
0
LINE
5
3DB
100
AcDbEntity
8
0
100
AcDbLine
62
7
6
CONTINUOUS
10
42.7047624901
20
23.3656397638
11
42.6337022338
21
23.3301204610
0
LINE
5
3DC
100
AcDbEntity
8
0
100
AcDbLine
62
7
6
CONTINUOUS
10
44.2765587711
20
23.3824856557
11
44.3232963790
21
23.4058473397
0
LINE
5
3DD
100
AcDbEntity
8
0
100
AcDbLine
62
7
6
CONTINUOUS
10
44.6226745385
20
-0.1793736157
11
44.4523813358
21
-0.1845221002
0
LINE
5
3DE
100
AcDbEntity
8
0
100
AcDbLine
62
7
6
CONTINUOUS
10
-44.4523809726
20
-2.5969230476
11
-44.6226741753
21
-2.6020715321
0
LINE
5
3DF
100
AcDbEntity
8
0
100
AcDbLine
62
7
6
CONTINUOUS
10
-44.6999998184
20
-2.6407225739
11
-44.4523809726
21
-2.6407225739
0
LINE
5
3E0
100
AcDbEntity
8
0
100
AcDbLine
62
7
6
CONTINUOUS
10
44.4523813358
20
-2.6407225739
11
44.7000001816
21
-2.6407225739
0
LINE
5
3E1
100
AcDbEntity
8
0
100
AcDbLine
62
7
6
CONTINUOUS
10
44.7000001816
20
-0.1407225739
11
44.4523813358
21
-0.1407225739
0
LINE
5
3E2
100
AcDbEntity
8
0
100
AcDbLine
62
7
6
CONTINUOUS
10
-44.4523809726
20
-0.1407225739
11
-44.6999998184
21
-0.1407225739
0
LINE
5
3E3
100
AcDbEntity
8
0
100
AcDbLine
62
7
6
CONTINUOUS
10
-44.4523809726
20
-0.1845221002
11
-44.6226741753
21
-0.1793736157
0
LINE
5
3E4
100
AcDbEntity
8
0
100
AcDbLine
62
7
6
CONTINUOUS
10
44.6226745385
20
-2.6020715321
11
44.4523813358
21
-2.5969230476
0
LINE
5
3E5
100
AcDbEntity
8
0
100
AcDbLine
62
7
6
CONTINUOUS
10
44.6226745385
20
4.0706263843
11
44.4523813358
21
4.0654778998
0
LINE
5
3E6
100
AcDbEntity
8
0
100
AcDbLine
62
7
6
CONTINUOUS
10
-44.4523809726
20
1.6530769524
11
-44.6226741753
21
1.6479284679
0
LINE
5
3E7
100
AcDbEntity
8
0
100
AcDbLine
62
7
6
CONTINUOUS
10
-40.4607098741
20
0.2092774261
11
-36.4999998184
21
0.2092774261
0
LINE
5
3E8
100
AcDbEntity
8
0
100
AcDbLine
62
7
6
CONTINUOUS
10
-44.6999998184
20
1.6092774261
11
-44.4523809726
21
1.6092774261
0
LINE
5
3E9
100
AcDbEntity
8
0
100
AcDbLine
62
7
6
CONTINUOUS
10
44.4523813358
20
1.6092774261
11
44.7000001816
21
1.6092774261
0
LINE
5
3EA
100
AcDbEntity
8
0
100
AcDbLine
62
7
6
CONTINUOUS
10
-44.4523809726
20
4.0654778998
11
-44.6226741753
21
4.0706263843
0
LINE
5
3EB
100
AcDbEntity
8
0
100
AcDbLine
62
7
6
CONTINUOUS
10
44.6226745385
20
1.6479284679
11
44.4523813358
21
1.6530769524
0
LINE
5
3EC
100
AcDbEntity
8
0
100
AcDbLine
62
7
6
CONTINUOUS
10
-44.2765584079
20
23.3824856557
11
-44.3232960158
21
23.4058473397
0
LINE
5
3ED
100
AcDbEntity
8
0
100
AcDbLine
62
7
6
CONTINUOUS
10
-42.7047621269
20
23.3656397638
11
-42.6337018706
21
23.3301204610
0
LINE
5
3EE
100
AcDbEntity
8
0
100
AcDbLine
62
7
6
CONTINUOUS
10
-44.5488706221
20
5.9525249699
11
-44.4523809726
21
5.9554421472
0
LINE
5
3EF
100
AcDbEntity
8
0
100
AcDbLine
62
7
6
CONTINUOUS
10
44.7000001816
20
4.1092774261
11
44.4523813358
21
4.1092774261
0
LINE
5
3F0
100
AcDbEntity
8
0
100
AcDbLine
62
7
6
CONTINUOUS
10
-44.4523809726
20
4.1092774261
11
-44.6999998184
21
4.1092774261
0
LINE
5
3F1
100
AcDbEntity
8
0
100
AcDbLine
62
7
6
CONTINUOUS
10
45.5826974447
20
5.8592774261
11
44.4523813358
21
5.8592774261
0
LINE
5
3F2
100
AcDbEntity
8
0
100
AcDbLine
62
7
6
CONTINUOUS
10
-44.4523809726
20
5.8592774261
11
-45.5826970815
21
5.8592774261
0
LINE
5
3F3
100
AcDbEntity
8
0
100
AcDbLine
62
7
6
CONTINUOUS
10
-44.5571432811
20
6.1092774261
11
-44.4523809726
21
6.1092774261
0
LINE
5
3F4
100
AcDbEntity
8
0
100
AcDbLine
62
7
6
CONTINUOUS
10
44.5571436443
20
6.1092774261
11
44.4523813358
21
6.1092774261
0
LINE
5
3F5
100
AcDbEntity
8
0
100
AcDbLine
62
7
6
CONTINUOUS
10
44.4523813358
20
5.9554421472
11
44.5488709853
21
5.9525249699
0
LINE
5
3F6
100
AcDbEntity
8
0
100
AcDbLine
62
9
6
CONTINUOUS
10
43.2935699435
20
28.6518191629
11
43.4510282067
21
28.8092774261
0
LINE
5
3F7
100
AcDbEntity
8
0
100
AcDbLine
62
9
6
CONTINUOUS
10
43.4536891862
20
27.5127075125
11
43.5428318705
21
27.6018501968
0
LINE
5
3F8
100
AcDbEntity
8
0
100
AcDbLine
62
9
6
CONTINUOUS
10
42.7774725306
20
26.4858360156
11
42.8310724021
21
26.5394358871
0
LINE
5
3F9
100
AcDbEntity
8
0
100
AcDbLine
62
9
6
CONTINUOUS
10
42.9358347106
20
-29.3907225739
11
42.8123933001
21
-29.2672811634
0
LINE
5
3FA
100
AcDbEntity
8
0
100
AcDbLine
62
9
6
CONTINUOUS
10
41.6343114068
20
-27.6244246261
11
41.7053716631
21
-27.6954848824
0
LINE
5
3FB
100
AcDbEntity
8
0
100
AcDbLine
62
9
6
CONTINUOUS
10
41.6343114068
20
24.8429794783
11
41.7053716631
21
24.9140397346
0
LINE
5
3FC
100
AcDbEntity
8
0
100
AcDbLine
62
9
6
CONTINUOUS
10
42.6337022338
20
23.8435886513
11
42.7047624901
21
23.9146489076
0
LINE
5
3FD
100
AcDbEntity
8
0
100
AcDbLine
62
9
6
CONTINUOUS
10
34.5275735961
20
15.6341099101
11
35.0268189049
21
16.1333552189
0
LINE
5
3FE
100
AcDbEntity
8
0
100
AcDbLine
62
9
6
CONTINUOUS
10
44.2765587711
20
24.9867497751
11
44.3301586426
21
25.0403496466
0
LINE
5
3FF
100
AcDbEntity
8
0
100
AcDbLine
62
9
6
CONTINUOUS
10
45.1534302680
20
25.8129664308
11
45.2425729523
21
25.9021091150
0
LINE
5
400
100
AcDbEntity
8
0
100
AcDbLine
62
9
6
CONTINUOUS
10
46.2925419184
20
25.6528471880
11
46.4500001816
21
25.8103054512
0
LINE
5
401
100
AcDbEntity
8
0
100
AcDbLine
62
7
6
CONTINUOUS
10
-15.9999998184
20
12.6092774261
11
-33.9999998184
21
12.6092774261
0
LINE
5
402
100
AcDbEntity
8
0
100
AcDbLine
62
7
6
CONTINUOUS
10
30.5000001816
20
13.6092774261
11
34.5000001816
21
13.6092774261
0
LINE
5
403
100
AcDbEntity
8
0
100
AcDbLine
62
9
6
CONTINUOUS
10
28.9744824650
20
13.6368508406
11
28.4751676976
21
13.6368508406
0
LINE
5
404
100
AcDbEntity
8
0
100
AcDbLine
62
9
6
CONTINUOUS
10
36.0255178982
20
13.6368508406
11
36.5248326656
21
13.6368508407
0
LINE
5
405
100
AcDbEntity
8
0
100
AcDbLine
62
7
6
CONTINUOUS
10
34.5006854142
20
14.1092774261
11
30.4993149490
21
14.1092774261
0
LINE
5
406
100
AcDbEntity
8
0
100
AcDbLine
62
7
6
CONTINUOUS
10
44.7000001816
20
-6.8907225739
11
44.6226745385
21
-6.8520715321
0
LINE
5
407
100
AcDbEntity
8
0
100
AcDbLine
62
9
6
CONTINUOUS
10
42.6337022338
20
-26.6250337991
11
42.7047624901
21
-26.6960940553
0
LINE
5
408
100
AcDbEntity
8
0
100
AcDbLine
62
9
6
CONTINUOUS
10
34.5275735961
20
-18.4155550579
11
35.0268189049
21
-18.9148003667
0
LINE
5
409
100
AcDbEntity
8
0
100
AcDbLine
62
9
6
CONTINUOUS
10
44.4349209511
20
-27.8916363334
11
44.3114795406
21
-27.7681949229
0
LINE
5
40A
100
AcDbEntity
8
0
100
AcDbLine
62
9
6
CONTINUOUS
10
36.5248326656
20
-16.4182959884
11
37.0240779744
21
-16.9175412972
0
LINE
5
40B
100
AcDbEntity
8
0
100
AcDbLine
62
7
6
CONTINUOUS
10
44.5476349868
20
-24.0883573791
11
44.5828497496
21
-24.1235721418
0
LINE
5
40C
100
AcDbEntity
8
0
100
AcDbLine
62
7
6
CONTINUOUS
10
34.0232084112
20
26.4858360156
11
34.0465700952
21
26.5325736235
0
LINE
5
40D
100
AcDbEntity
8
0
100
AcDbLine
62
9
6
CONTINUOUS
10
36.5248326656
20
13.6368508406
11
37.0240779744
21
14.1360961494
0
LINE
5
40E
100
AcDbEntity
8
0
100
AcDbLine
62
7
6
CONTINUOUS
10
44.5476349868
20
21.3069122313
11
44.5828497496
21
21.3421269941
0
LINE
5
40F
100
AcDbEntity
8
0
100
AcDbLine
62
7
6
CONTINUOUS
10
44.7000001816
20
4.1092774261
11
44.6226745385
21
4.0706263843
0
LINE
5
410
100
AcDbEntity
8
0
100
AcDbLine
62
9
6
CONTINUOUS
10
34.5275735961
20
15.1347951428
11
30.4724267671
21
15.1347951428
0
LINE
5
411
100
AcDbEntity
8
0
100
AcDbLine
62
9
6
CONTINUOUS
10
34.5275735961
20
15.6341099101
11
30.4724267671
21
15.6341099101
0
LINE
5
412
100
AcDbEntity
8
0
100
AcDbLine
62
7
6
CONTINUOUS
10
32.0861801537
20
15.7140929847
11
32.9138202096
21
15.7140929847
0
LINE
5
413
100
AcDbEntity
8
0
100
AcDbLine
62
7
6
CONTINUOUS
10
35.0268189049
20
16.1333552189
11
33.2500001816
21
16.1333552189
0
LINE
5
414
100
AcDbEntity
8
0
100
AcDbLine
62
7
6
CONTINUOUS
10
31.7500001816
20
16.1333552189
11
29.9731814583
21
16.1333552189
0
LINE
5
415
100
AcDbEntity
8
0
100
AcDbLine
62
9
6
CONTINUOUS
10
31.8862106146
20
17.1194845128
11
33.1137897486
21
17.1194845128
0
LINE
5
416
100
AcDbEntity
8
0
100
AcDbLine
62
9
6
CONTINUOUS
10
32.9138202096
20
17.3192104197
11
32.0861801537
21
17.3192104197
0
LINE
5
417
100
AcDbEntity
8
0
100
AcDbLine
62
7
6
CONTINUOUS
10
33.0501524215
20
17.7285396604
11
31.9498479417
21
17.7285396604
0
LINE
5
418
100
AcDbEntity
8
0
100
AcDbLine
62
7
6
CONTINUOUS
10
44.7000001816
20
-2.6407225739
11
44.6226745385
21
-2.6020715321
0
LINE
5
419
100
AcDbEntity
8
0
100
AcDbLine
62
7
6
CONTINUOUS
10
34.0063625193
20
24.9140397346
11
33.9708432164
21
24.8429794783
0
LINE
5
41A
100
AcDbEntity
8
0
100
AcDbLine
62
7
6
CONTINUOUS
10
44.7000001816
20
-0.1407225739
11
44.6226745385
21
-0.1793736157
0
LINE
5
41B
100
AcDbEntity
8
0
100
AcDbLine
62
7
6
CONTINUOUS
10
44.4000001816
20
21.2615290625
11
44.5488709853
21
21.2660298823
0
LINE
5
41C
100
AcDbEntity
8
0
100
AcDbLine
62
7
6
CONTINUOUS
10
-45.5826970815
20
21.3592774261
11
-44.3999998184
21
21.3592774261
0
LINE
5
41D
100
AcDbEntity
8
0
100
AcDbLine
62
7
6
CONTINUOUS
10
44.4000001816
20
21.3592774261
11
45.5826974447
21
21.3592774261
0
LINE
5
41E
100
AcDbEntity
8
0
100
AcDbLine
62
7
6
CONTINUOUS
10
-45.9501711559
20
22.1092774261
11
-44.3999998184
21
22.1092774261
0
LINE
5
41F
100
AcDbEntity
8
0
100
AcDbLine
62
7
6
CONTINUOUS
10
44.4000001816
20
22.1092774261
11
45.9501715191
21
22.1092774261
0
LINE
5
420
100
AcDbEntity
8
0
100
AcDbLine
62
7
6
CONTINUOUS
10
-44.5488706221
20
21.2660298823
11
-44.3999998184
21
21.2615290625
0
LINE
5
421
100
AcDbEntity
8
0
100
AcDbLine
62
7
6
CONTINUOUS
10
44.7000001816
20
1.6092774261
11
44.6226745385
21
1.6479284679
0
LINE
5
422
100
AcDbEntity
8
0
100
AcDbLine
62
9
6
CONTINUOUS
10
32.9138202096
20
17.3192104197
11
33.0501524215
21
17.7285396604
0
LINE
5
423
100
AcDbEntity
8
0
100
AcDbLine
62
9
6
CONTINUOUS
10
33.1137897486
20
17.1194845128
11
33.2500001816
21
17.5284481195
0
LINE
5
424
100
AcDbEntity
8
0
100
AcDbLine
62
7
6
CONTINUOUS
10
44.7000001816
20
-4.3907225739
11
44.6226745385
21
-4.4293736157
0
LINE
5
425
100
AcDbEntity
8
0
100
AcDbLine
62
7
6
CONTINUOUS
10
-43.3120883504
20
22.2009281516
11
-42.7047621269
21
22.2009281516
0
LINE
5
426
100
AcDbEntity
8
0
100
AcDbLine
62
7
6
CONTINUOUS
10
43.3120887136
20
22.2009281516
11
42.7047624901
21
22.2009281516
0
LINE
5
427
100
AcDbEntity
8
0
100
AcDbLine
62
9
6
CONTINUOUS
10
45.7927132559
20
22.2667356893
11
42.4926471323
21
22.2667356893
0
LINE
5
428
100
AcDbEntity
8
0
100
AcDbLine
62
9
6
CONTINUOUS
10
-42.4926467691
20
22.2667356893
11
-45.7927128927
21
22.2667356893
0
LINE
5
429
100
AcDbEntity
8
0
100
AcDbLine
62
9
6
CONTINUOUS
10
41.6343114068
20
22.7665643518
11
46.2925419184
21
22.7665643518
0
LINE
5
42A
100
AcDbEntity
8
0
100
AcDbLine
62
9
6
CONTINUOUS
10
-41.6343110436
20
22.7665643518
11
-46.2925415552
21
22.7665643518
0
LINE
5
42B
100
AcDbEntity
8
0
100
AcDbLine
62
9
6
CONTINUOUS
10
-45.0426030501
20
23.1167351164
11
-41.6343110436
21
23.1167351164
0
LINE
5
42C
100
AcDbEntity
8
0
100
AcDbLine
62
9
6
CONTINUOUS
10
41.6343114068
20
23.1167351164
11
45.0426034133
21
23.1167351164
0
LINE
5
42D
100
AcDbEntity
8
0
100
AcDbLine
62
9
6
CONTINUOUS
10
-45.0426030501
20
23.3167046554
11
-42.2296286449
21
23.3167046554
0
LINE
5
42E
100
AcDbEntity
8
0
100
AcDbLine
62
9
6
CONTINUOUS
10
42.2296290082
20
23.3167046554
11
45.0426034133
21
23.3167046554
0
LINE
5
42F
100
AcDbEntity
8
0
100
AcDbLine
62
7
6
CONTINUOUS
10
-43.2771675809
20
23.3656397638
11
-42.7047621269
21
23.3656397638
0
LINE
5
430
100
AcDbEntity
8
0
100
AcDbLine
62
7
6
CONTINUOUS
10
43.2771679441
20
23.3656397638
11
42.7047624901
21
23.3656397638
0
LINE
5
431
100
AcDbEntity
8
0
100
AcDbLine
62
9
6
CONTINUOUS
10
44.9534607290
20
23.4058473397
11
44.3232963790
21
23.4058473397
0
LINE
5
432
100
AcDbEntity
8
0
100
AcDbLine
62
9
6
CONTINUOUS
10
-44.3232960158
20
23.4058473397
11
-44.9534603658
21
23.4058473397
0
LINE
5
433
100
AcDbEntity
8
0
100
AcDbLine
62
9
6
CONTINUOUS
10
-45.4425421281
20
23.5166741944
11
-45.2425725891
21
23.5166741944
0
LINE
5
434
100
AcDbEntity
8
0
100
AcDbLine
62
9
6
CONTINUOUS
10
45.4425424913
20
23.5166741944
11
45.2425729523
21
23.5166741944
0
LINE
5
435
100
AcDbEntity
8
0
100
AcDbLine
62
9
6
CONTINUOUS
10
44.3301586426
20
23.6058168787
11
45.1534302680
21
23.6058168787
0
LINE
5
436
100
AcDbEntity
8
0
100
AcDbLine
62
9
6
CONTINUOUS
10
-44.3301582794
20
23.6058168787
11
-45.1534299048
21
23.6058168787
0
LINE
5
437
100
AcDbEntity
8
0
100
AcDbLine
62
9
6
CONTINUOUS
10
33.4072871073
20
23.8435886513
11
-33.4072867441
21
23.8435886513
0
LINE
5
438
100
AcDbEntity
8
0
100
AcDbLine
62
9
6
CONTINUOUS
10
33.7574578719
20
23.8435886513
11
42.6337022338
21
23.8435886513
0
LINE
5
439
100
AcDbEntity
8
0
100
AcDbLine
62
9
6
CONTINUOUS
10
-33.7574575087
20
23.8435886513
11
-42.6337018706
21
23.8435886513
0
LINE
5
43A
100
AcDbEntity
8
0
100
AcDbLine
62
9
6
CONTINUOUS
10
41.6343114068
20
24.8429794783
11
33.9708432164
21
24.8429794783
0
LINE
5
43B
100
AcDbEntity
8
0
100
AcDbLine
62
9
6
CONTINUOUS
10
32.8949366257
20
24.8429794783
11
-32.8949362625
21
24.8429794783
0
LINE
5
43C
100
AcDbEntity
8
0
100
AcDbLine
62
9
6
CONTINUOUS
10
-33.9708428532
20
24.8429794783
11
-41.6343110436
21
24.8429794783
0
LINE
5
43D
100
AcDbEntity
8
0
100
AcDbLine
62
7
6
CONTINUOUS
10
41.7053716631
20
24.9140397346
11
34.0063625193
21
24.9140397346
0
LINE
5
43E
100
AcDbEntity
8
0
100
AcDbLine
62
7
6
CONTINUOUS
10
32.8416509071
20
24.9140397346
11
-32.8416505439
21
24.9140397346
0
LINE
5
43F
100
AcDbEntity
8
0
100
AcDbLine
62
7
6
CONTINUOUS
10
-34.0063621561
20
24.9140397346
11
-41.7053712999
21
24.9140397346
0
LINE
5
440
100
AcDbEntity
8
0
100
AcDbLine
62
9
6
CONTINUOUS
10
-44.2765584079
20
24.9867497751
11
-43.2771675809
21
24.9867497751
0
LINE
5
441
100
AcDbEntity
8
0
100
AcDbLine
62
9
6
CONTINUOUS
10
44.2765587711
20
24.9867497751
11
43.2771679441
21
24.9867497751
0
LINE
5
442
100
AcDbEntity
8
0
100
AcDbLine
62
9
6
CONTINUOUS
10
-42.7774721674
20
25.4864451886
11
-34.0063621561
21
25.4864451886
0
LINE
5
443
100
AcDbEntity
8
0
100
AcDbLine
62
9
6
CONTINUOUS
10
-32.8416505439
20
25.4864451886
11
32.8416509071
21
25.4864451886
0
LINE
5
444
100
AcDbEntity
8
0
100
AcDbLine
62
9
6
CONTINUOUS
10
34.0063625193
20
25.4864451886
11
42.7774725306
21
25.4864451886
0
LINE
5
445
100
AcDbEntity
8
0
100
AcDbLine
62
9
6
CONTINUOUS
10
45.7927132559
20
25.6528471880
11
46.2925419184
21
25.6528471880
0
LINE
5
446
100
AcDbEntity
8
0
100
AcDbLine
62
9
6
CONTINUOUS
10
-45.7927128927
20
25.6528471880
11
-46.2925415552
21
25.6528471880
0
LINE
5
447
100
AcDbEntity
8
0
100
AcDbLine
62
7
6
CONTINUOUS
10
27.9759223888
20
14.1360961494
11
27.9759223888
21
-16.9175412972
0
LINE
5
448
100
AcDbEntity
8
0
100
AcDbLine
62
9
6
CONTINUOUS
10
28.4751676976
20
13.6368508406
11
28.4751676976
21
-16.4182959884
0
LINE
5
449
100
AcDbEntity
8
0
100
AcDbLine
62
9
6
CONTINUOUS
10
28.9744824650
20
13.6368508406
11
28.9744824650
21
-16.4182959884
0
LINE
5
44A
100
AcDbEntity
8
0
100
AcDbLine
62
7
6
CONTINUOUS
10
33.2500001816
20
16.1333552189
11
33.1137897486
21
15.7243916122
0
LINE
5
44B
100
AcDbEntity
8
0
100
AcDbLine
62
9
6
CONTINUOUS
10
44.9534607290
20
25.8129664308
11
45.1534302680
21
25.8129664308
0
LINE
5
44C
100
AcDbEntity
8
0
100
AcDbLine
62
9
6
CONTINUOUS
10
-44.9534603658
20
25.8129664308
11
-45.1534299048
21
25.8129664308
0
LINE
5
44D
100
AcDbEntity
8
0
100
AcDbLine
62
9
6
CONTINUOUS
10
-45.4425421281
20
25.9021091150
11
-45.2425725891
21
25.9021091189
0
LINE
5
44E
100
AcDbEntity
8
0
100
AcDbLine
62
9
6
CONTINUOUS
10
45.4425424913
20
25.9021091150
11
45.2425729523
21
25.9021091150
0
LINE
5
44F
100
AcDbEntity
8
0
100
AcDbLine
62
9
6
CONTINUOUS
10
-42.7774721674
20
26.4858360156
11
-34.0232080480
21
26.4858360156
0
LINE
5
450
100
AcDbEntity
8
0
100
AcDbLine
62
9
6
CONTINUOUS
10
-32.8163784978
20
26.4858360156
11
32.8163788610
21
26.4858360156
0
LINE
5
451
100
AcDbEntity
8
0
100
AcDbLine
62
9
6
CONTINUOUS
10
34.0232084112
20
26.4858360156
11
42.7774725306
21
26.4858360156
0
LINE
5
452
100
AcDbEntity
8
0
100
AcDbLine
62
7
6
CONTINUOUS
10
42.8310724021
20
26.5394358871
11
34.2465396342
21
26.5394358871
0
LINE
5
453
100
AcDbEntity
8
0
100
AcDbLine
62
7
6
CONTINUOUS
10
-34.2465392710
20
26.5394358871
11
-42.8310720389
21
26.5394358871
0
LINE
5
454
100
AcDbEntity
8
0
100
AcDbLine
62
7
6
CONTINUOUS
10
-32.7499998184
20
26.5743566566
11
-30.7499998184
21
26.5743566566
0
LINE
5
455
100
AcDbEntity
8
0
100
AcDbLine
62
7
6
CONTINUOUS
10
30.7500001816
20
26.5743566566
11
32.7500001816
21
26.5743566566
0
LINE
5
456
100
AcDbEntity
8
0
100
AcDbLine
62
7
6
CONTINUOUS
10
-30.7150840865
20
26.6092774261
11
30.7150844497
21
26.6092774261
0
LINE
5
457
100
AcDbEntity
8
0
100
AcDbLine
62
7
6
CONTINUOUS
10
-32.7499998184
20
26.6267324910
11
-30.7499998184
21
26.6267324910
0
LINE
5
458
100
AcDbEntity
8
0
100
AcDbLine
62
7
6
CONTINUOUS
10
30.7500001816
20
26.6267324910
11
32.7500001816
21
26.6267324910
0
LINE
5
459
100
AcDbEntity
8
0
100
AcDbLine
62
9
6
CONTINUOUS
10
-43.4536888230
20
27.3127379735
11
-34.0465697320
21
27.3127379735
0
LINE
5
45A
100
AcDbEntity
8
0
100
AcDbLine
62
9
6
CONTINUOUS
10
34.0465700952
20
27.3127379735
11
43.4536891862
21
27.3127379735
0
LINE
5
45B
100
AcDbEntity
8
0
100
AcDbLine
62
9
6
CONTINUOUS
10
-33.9574270477
20
27.4018806579
11
-33.7574575087
21
27.4018806581
0
LINE
5
45C
100
AcDbEntity
8
0
100
AcDbLine
62
9
6
CONTINUOUS
10
33.9574274109
20
27.4018806579
11
33.7574578719
21
27.4018806581
0
LINE
5
45D
100
AcDbEntity
8
0
100
AcDbLine
62
9
6
CONTINUOUS
10
-43.4536888230
20
27.5127075125
11
-34.2465392710
21
27.5127075125
0
LINE
5
45E
100
AcDbEntity
8
0
100
AcDbLine
62
9
6
CONTINUOUS
10
34.2465396342
20
27.5127075125
11
43.4536891862
21
27.5127075125
0
LINE
5
45F
100
AcDbEntity
8
0
100
AcDbLine
62
9
6
CONTINUOUS
10
-43.5428315073
20
27.6018501968
11
-34.1573965867
21
27.6018501968
0
LINE
5
460
100
AcDbEntity
8
0
100
AcDbLine
62
9
6
CONTINUOUS
10
34.1573969499
20
27.6018501968
11
43.5428318705
21
27.6018501968
0
LINE
5
461
100
AcDbEntity
8
0
100
AcDbLine
62
9
6
CONTINUOUS
10
-43.5428315073
20
27.8018197358
11
-34.1573965867
21
27.8018197358
0
LINE
5
462
100
AcDbEntity
8
0
100
AcDbLine
62
9
6
CONTINUOUS
10
34.1573969499
20
27.8018197358
11
43.5428318705
21
27.8018197358
0
LINE
5
463
100
AcDbEntity
8
0
100
AcDbLine
62
9
6
CONTINUOUS
10
32.9074584448
20
28.1519905004
11
43.2935699435
21
28.1519905004
0
LINE
5
464
100
AcDbEntity
8
0
100
AcDbLine
62
9
6
CONTINUOUS
10
-32.9074580816
20
28.1519905004
11
-43.2935695803
21
28.1519905004
0
LINE
5
465
100
AcDbEntity
8
0
100
AcDbLine
62
9
6
CONTINUOUS
10
43.2935699435
20
28.6518191629
11
33.4072871073
21
28.6518191629
0
LINE
5
466
100
AcDbEntity
8
0
100
AcDbLine
62
9
6
CONTINUOUS
10
-33.4072867441
20
28.6518191629
11
-43.2935695803
21
28.6518191629
0
LINE
5
467
100
AcDbEntity
8
0
100
AcDbLine
62
7
6
CONTINUOUS
10
43.4510282067
20
28.8092774261
11
33.2498288441
21
28.8092774261
0
LINE
5
468
100
AcDbEntity
8
0
100
AcDbLine
62
7
6
CONTINUOUS
10
-33.2498284809
20
28.8092774261
11
-43.4510278435
21
28.8092774261
0
LINE
5
469
100
AcDbEntity
8
0
100
AcDbLine
62
7
6
CONTINUOUS
10
30.0000001816
20
13.6099626587
11
30.0000001816
21
-16.3914078065
0
LINE
5
46A
100
AcDbEntity
8
0
100
AcDbLine
62
9
6
CONTINUOUS
10
30.4724267671
20
-17.9162402905
11
30.4724267671
21
-18.4155550579
0
LINE
5
46B
100
AcDbEntity
8
0
100
AcDbLine
62
9
6
CONTINUOUS
10
30.4724267671
20
15.1347951428
11
30.4724267670
21
15.6341099101
0
LINE
5
46C
100
AcDbEntity
8
0
100
AcDbLine
62
7
6
CONTINUOUS
10
30.5000001816
20
-16.3907225739
11
30.5000001816
21
13.6092774261
0
LINE
5
46D
100
AcDbEntity
8
0
100
AcDbLine
62
7
6
CONTINUOUS
10
30.7500001816
20
26.5743566566
11
30.7500001816
21
26.6267324910
0
LINE
5
46E
100
AcDbEntity
8
0
100
AcDbLine
62
7
6
CONTINUOUS
10
31.7500001816
20
17.5284481195
11
31.7500001816
21
16.1333552189
0
LINE
5
46F
100
AcDbEntity
8
0
100
AcDbLine
62
9
6
CONTINUOUS
10
31.8862106146
20
17.1194845128
11
31.8862106146
21
15.7243916122
0
LINE
5
470
100
AcDbEntity
8
0
100
AcDbLine
62
9
6
CONTINUOUS
10
32.0861801537
20
15.7140929847
11
32.0861801537
21
17.3192104197
0
LINE
5
471
100
AcDbEntity
8
0
100
AcDbLine
62
7
6
CONTINUOUS
10
32.7500001816
20
26.5743566566
11
32.7500001816
21
28.3094487636
0
LINE
5
472
100
AcDbEntity
8
0
100
AcDbLine
62
7
6
CONTINUOUS
10
32.8416509071
20
25.4864451886
11
32.8416509071
21
24.9140397346
0
LINE
5
473
100
AcDbEntity
8
0
100
AcDbLine
62
9
6
CONTINUOUS
10
32.9074584448
20
24.7019243768
11
32.9074584448
21
28.1519905004
0
LINE
5
474
100
AcDbEntity
8
0
100
AcDbLine
62
9
6
CONTINUOUS
10
32.9138202096
20
15.7140929847
11
32.9138202096
21
17.3192104197
0
LINE
5
475
100
AcDbEntity
8
0
100
AcDbLine
62
9
6
CONTINUOUS
10
33.1137897486
20
15.7243916122
11
33.1137897486
21
17.1194845128
0
LINE
5
476
100
AcDbEntity
8
0
100
AcDbLine
62
7
6
CONTINUOUS
10
33.2500001816
20
16.1333552189
11
33.2500001816
21
17.5284481195
0
LINE
5
477
100
AcDbEntity
8
0
100
AcDbLine
62
9
6
CONTINUOUS
10
28.4751676976
20
-16.4182959884
11
27.9759223888
21
-16.9175412972
0
LINE
5
478
100
AcDbEntity
8
0
100
AcDbLine
62
9
6
CONTINUOUS
10
28.4751676976
20
13.6368508406
11
27.9759223888
21
14.1360961494
0
LINE
5
479
100
AcDbEntity
8
0
100
AcDbLine
62
9
6
CONTINUOUS
10
30.4724267671
20
15.6341099101
11
29.9731814583
21
16.1333552189
0
LINE
5
47A
100
AcDbEntity
8
0
100
AcDbLine
62
9
6
CONTINUOUS
10
33.4072871073
20
23.8435886513
11
33.4072871073
21
28.6518191629
0
LINE
5
47B
100
AcDbEntity
8
0
100
AcDbLine
62
9
6
CONTINUOUS
10
33.7574578719
20
27.4018806578
11
33.7574578719
21
23.8435886513
0
LINE
5
47C
100
AcDbEntity
8
0
100
AcDbLine
62
9
6
CONTINUOUS
10
33.9574274109
20
27.4018806578
11
33.9574274109
21
24.4389062527
0
LINE
5
47D
100
AcDbEntity
8
0
100
AcDbLine
62
7
6
CONTINUOUS
10
34.0063625193
20
25.4864451886
11
34.0063625193
21
24.9140397346
0
LINE
5
47E
100
AcDbEntity
8
0
100
AcDbLine
62
9
6
CONTINUOUS
10
34.0465700952
20
26.5325736235
11
34.0465700952
21
27.3127379735
0
LINE
5
47F
100
AcDbEntity
8
0
100
AcDbLine
62
9
6
CONTINUOUS
10
34.1573969499
20
27.8018197358
11
34.1573969499
21
27.6018501968
0
LINE
5
480
100
AcDbEntity
8
0
100
AcDbLine
62
9
6
CONTINUOUS
10
34.2465396342
20
26.5394358871
11
34.2465396342
21
27.5127075125
0
LINE
5
481
100
AcDbEntity
8
0
100
AcDbLine
62
7
6
CONTINUOUS
10
34.5000001816
20
13.6092774261
11
34.5000001816
21
-16.3907225739
0
LINE
5
482
100
AcDbEntity
8
0
100
AcDbLine
62
9
6
CONTINUOUS
10
34.5275735961
20
-17.9162402905
11
34.5275735962
21
-18.4155550579
0
LINE
5
483
100
AcDbEntity
8
0
100
AcDbLine
62
9
6
CONTINUOUS
10
34.5275735961
20
15.1347951428
11
34.5275735961
21
15.6341099101
0
LINE
5
484
100
AcDbEntity
8
0
100
AcDbLine
62
7
6
CONTINUOUS
10
35.0000001816
20
-16.3914078065
11
35.0000001816
21
13.6099626587
0
LINE
5
485
100
AcDbEntity
8
0
100
AcDbLine
62
9
6
CONTINUOUS
10
36.0255178982
20
-16.4182959884
11
36.0255178982
21
13.6368508406
0
LINE
5
486
100
AcDbEntity
8
0
100
AcDbLine
62
9
6
CONTINUOUS
10
36.5248326656
20
-16.4182959884
11
36.5248326656
21
13.6368508406
0
LINE
5
487
100
AcDbEntity
8
0
100
AcDbLine
62
7
6
CONTINUOUS
10
37.0240779744
20
-16.9175412972
11
37.0240779744
21
14.1360961494
0
LINE
5
488
100
AcDbEntity
8
0
100
AcDbLine
62
9
6
CONTINUOUS
10
30.4724267671
20
-18.4155550579
11
29.9731814583
21
-18.9148003667
0
LINE
5
489
100
AcDbEntity
8
0
100
AcDbLine
62
7
6
CONTINUOUS
10
44.5476349868
20
5.9116426209
11
44.5828497496
21
5.8764278582
0
LINE
5
48A
100
AcDbEntity
8
0
100
AcDbLine
62
7
6
CONTINUOUS
10
31.7500001816
20
16.1333552189
11
31.8862106146
21
15.7243916122
0
LINE
5
48B
100
AcDbEntity
8
0
100
AcDbLine
62
9
6
CONTINUOUS
10
31.8862106146
20
17.1194845128
11
31.7500001816
21
17.5284481195
0
LINE
5
48C
100
AcDbEntity
8
0
100
AcDbLine
62
9
6
CONTINUOUS
10
32.0861801537
20
17.3192104197
11
31.9498479417
21
17.7285396604
0
LINE
5
48D
100
AcDbEntity
8
0
100
AcDbLine
62
7
6
CONTINUOUS
10
44.5476349868
20
-8.6930877687
11
44.5828497496
21
-8.6578730059
0
LINE
5
48E
100
AcDbEntity
8
0
100
AcDbLine
62
7
6
CONTINUOUS
10
44.5571436443
20
21.0481846989
11
44.4000001816
21
21.1267324910
0
LINE
5
48F
100
AcDbEntity
8
0
100
AcDbLine
62
9
6
CONTINUOUS
10
41.6343114068
20
-27.6244246261
11
41.6343114068
21
22.7665643518
0
LINE
5
490
100
AcDbEntity
8
0
100
AcDbLine
62
9
6
CONTINUOUS
10
41.6343114068
20
23.1167351164
11
41.6343114068
21
24.8429794783
0
LINE
5
491
100
AcDbEntity
8
0
100
AcDbLine
62
9
6
CONTINUOUS
10
42.6337022338
20
-26.6250337991
11
42.6337022338
21
22.2542138702
0
LINE
5
492
100
AcDbEntity
8
0
100
AcDbLine
62
9
6
CONTINUOUS
10
42.6337022338
20
23.3301204610
11
42.6337022338
21
23.8435886513
0
LINE
5
493
100
AcDbEntity
8
0
100
AcDbLine
62
7
6
CONTINUOUS
10
42.7047624901
20
-26.6960940553
11
42.7047624901
21
22.2009281516
0
LINE
5
494
100
AcDbEntity
8
0
100
AcDbLine
62
7
6
CONTINUOUS
10
42.7047624901
20
23.3656397638
11
42.7047624901
21
23.9146489076
0
LINE
5
495
100
AcDbEntity
8
0
100
AcDbLine
62
9
6
CONTINUOUS
10
42.7774725306
20
26.4858360156
11
42.7774725306
21
25.4864451886
0
LINE
5
496
100
AcDbEntity
8
0
100
AcDbLine
62
9
6
CONTINUOUS
10
42.8123933001
20
-29.2672811634
11
42.8123933001
21
-28.2678903364
0
LINE
5
497
100
AcDbEntity
8
0
100
AcDbLine
62
9
6
CONTINUOUS
10
43.2771679441
20
24.9867497751
11
43.2771679441
21
23.3656397638
0
LINE
5
498
100
AcDbEntity
8
0
100
AcDbLine
62
9
6
CONTINUOUS
10
43.2935699435
20
28.1519905004
11
43.2935699435
21
28.6518191629
0
LINE
5
499
100
AcDbEntity
8
0
100
AcDbLine
62
9
6
CONTINUOUS
10
43.3120887136
20
22.2009281516
11
43.3120887136
21
-27.7681949229
0
LINE
5
49A
100
AcDbEntity
8
0
100
AcDbLine
62
9
6
CONTINUOUS
10
43.4536891862
20
27.3127379735
11
43.4536891862
21
27.5127075125
0
LINE
5
49B
100
AcDbEntity
8
0
100
AcDbLine
62
9
6
CONTINUOUS
10
43.5428318705
20
27.8018197358
11
43.5428318744
21
27.6018501968
0
LINE
5
49C
100
AcDbEntity
8
0
100
AcDbLine
62
9
6
CONTINUOUS
10
44.2765587711
20
24.9867497751
11
44.2765587711
21
23.3824856557
0
LINE
5
49D
100
AcDbEntity
8
0
100
AcDbLine
62
9
6
CONTINUOUS
10
44.3114795406
20
22.1756561055
11
44.3114795406
21
-27.7681949229
0
LINE
5
49E
100
AcDbEntity
8
0
100
AcDbLine
62
7
6
CONTINUOUS
10
44.3301586426
20
23.6058168787
11
44.3301586426
21
25.0403496466
0
LINE
5
49F
100
AcDbEntity
8
0
100
AcDbLine
62
7
6
CONTINUOUS
10
44.4349209511
20
-23.8907225739
11
44.5476349868
21
-23.8343827268
0
LINE
5
4A0
100
AcDbEntity
8
0
100
AcDbLine
62
7
6
CONTINUOUS
10
42.7047624901
20
22.2009281516
11
42.6337022338
21
22.2542138702
0
LINE
5
4A1
100
AcDbEntity
8
0
100
AcDbLine
62
9
6
CONTINUOUS
10
32.9074584448
20
28.1519905004
11
32.7500001816
21
28.3094487636
0
LINE
5
4A2
100
AcDbEntity
8
0
100
AcDbLine
62
9
6
CONTINUOUS
10
34.0465700952
20
27.3127379735
11
33.9574274109
21
27.4018806578
0
LINE
5
4A3
100
AcDbEntity
8
0
100
AcDbLine
62
9
6
CONTINUOUS
10
34.2465396342
20
27.5127075125
11
34.1573969499
21
27.6018501968
0
LINE
5
4A4
100
AcDbEntity
8
0
100
AcDbLine
62
9
6
CONTINUOUS
10
33.4072871073
20
28.6518191629
11
33.2498288441
21
28.8092774261
0
LINE
5
4A5
100
AcDbEntity
8
0
100
AcDbLine
62
7
6
CONTINUOUS
10
32.8416509071
20
24.9140397346
11
32.8949366257
21
24.8429794783
0
LINE
5
4A6
100
AcDbEntity
8
0
100
AcDbLine
62
7
6
CONTINUOUS
10
32.8163788610
20
26.4858360156
11
32.7500001816
21
26.5743566566
0
LINE
5
4A7
100
AcDbEntity
8
0
100
AcDbLine
62
7
6
CONTINUOUS
10
44.4000001816
20
21.1267324910
11
44.4000001816
21
22.1092774261
0
LINE
5
4A8
100
AcDbEntity
8
0
100
AcDbLine
62
7
6
CONTINUOUS
10
44.4349209511
20
-23.8907225739
11
44.4349209511
21
-27.8916363334
0
LINE
5
4A9
100
AcDbEntity
8
0
100
AcDbLine
62
7
6
CONTINUOUS
10
44.4523813358
20
-8.8907225739
11
44.4523813358
21
6.1092774261
0
LINE
5
4AA
100
AcDbEntity
8
0
100
AcDbLine
62
7
6
CONTINUOUS
10
44.5476349868
20
21.3069122313
11
44.5476349868
21
21.0481846989
0
LINE
5
4AB
100
AcDbEntity
8
0
100
AcDbLine
62
7
6
CONTINUOUS
10
44.5476349868
20
6.1092774261
11
44.5476349868
21
5.9116426209
0
LINE
5
4AC
100
AcDbEntity
8
0
100
AcDbLine
62
7
6
CONTINUOUS
10
44.5476349868
20
-8.6930877687
11
44.5476349868
21
-8.8907225739
0
LINE
5
4AD
100
AcDbEntity
8
0
100
AcDbLine
62
7
6
CONTINUOUS
10
44.5476349868
20
-23.8907225739
11
44.5476349868
21
-24.0883573791
0
LINE
5
4AE
100
AcDbEntity
8
0
100
AcDbLine
62
9
6
CONTINUOUS
10
44.5828497496
20
21.3421269941
11
44.5828497496
21
5.8764278582
0
LINE
5
4AF
100
AcDbEntity
8
0
100
AcDbLine
62
9
6
CONTINUOUS
10
44.5828497496
20
-8.6578730059
11
44.5828497496
21
-24.1235721418
0
LINE
5
4B0
100
AcDbEntity
8
0
100
AcDbLine
62
7
6
CONTINUOUS
10
44.6226745385
20
-0.1793736157
11
44.6226745385
21
-2.6020715321
0
LINE
5
4B1
100
AcDbEntity
8
0
100
AcDbLine
62
7
6
CONTINUOUS
10
44.6226745385
20
-4.4293736157
11
44.6226745385
21
-6.8520715321
0
LINE
5
4B2
100
AcDbEntity
8
0
100
AcDbLine
62
7
6
CONTINUOUS
10
44.6226745385
20
1.6479284679
11
44.6226745385
21
4.0706263843
0
LINE
5
4B3
100
AcDbEntity
8
0
100
AcDbLine
62
7
6
CONTINUOUS
10
44.7000001816
20
4.1092774261
11
44.7000001816
21
1.6092774261
0
LINE
5
4B4
100
AcDbEntity
8
0
100
AcDbLine
62
7
6
CONTINUOUS
10
44.7000001816
20
-6.8907225739
11
44.7000001816
21
-4.3907225739
0
LINE
5
4B5
100
AcDbEntity
8
0
100
AcDbLine
62
7
6
CONTINUOUS
10
44.7000001816
20
-2.6407225739
11
44.7000001816
21
-0.1407225739
0
LINE
5
4B6
100
AcDbEntity
8
0
100
AcDbLine
62
9
6
CONTINUOUS
10
44.9534607290
20
25.8129664308
11
44.9534607290
21
23.4058473397
0
LINE
5
4B7
100
AcDbEntity
8
0
100
AcDbLine
62
9
6
CONTINUOUS
10
45.0426034134
20
23.3167046554
11
45.0426034136
21
23.1167351164
0
LINE
5
4B8
100
AcDbEntity
8
0
100
AcDbLine
62
9
6
CONTINUOUS
10
45.1534302680
20
25.8129664308
11
45.1534302680
21
23.6058168787
0
LINE
5
4B9
100
AcDbEntity
8
0
100
AcDbLine
62
9
6
CONTINUOUS
10
45.2425729523
20
25.9021091150
11
45.2425729523
21
23.5166741944
0
LINE
5
4BA
100
AcDbEntity
8
0
100
AcDbLine
62
9
6
CONTINUOUS
10
45.4425424913
20
25.9021091150
11
45.4425424913
21
23.5166741944
0
LINE
5
4BB
100
AcDbEntity
8
0
100
AcDbLine
62
9
6
CONTINUOUS
10
45.5826974447
20
21.3592774261
11
45.5826974447
21
5.8592774261
0
LINE
5
4BC
100
AcDbEntity
8
0
100
AcDbLine
62
9
6
CONTINUOUS
10
45.5826974447
20
-8.6407225739
11
45.5826974447
21
-24.1407225739
0
LINE
5
4BD
100
AcDbEntity
8
0
100
AcDbLine
62
9
6
CONTINUOUS
10
45.7927132559
20
22.2667356893
11
45.7927132559
21
25.6528471880
0
LINE
5
4BE
100
AcDbEntity
8
0
100
AcDbLine
62
7
6
CONTINUOUS
10
46.2000001816
20
22.1764665080
11
46.2000001816
21
-27.8927782718
0
LINE
5
4BF
100
AcDbEntity
8
0
100
AcDbLine
62
9
6
CONTINUOUS
10
46.2925419184
20
22.7665643518
11
46.2925419184
21
25.6528471880
0
LINE
5
4C0
100
AcDbEntity
8
0
100
AcDbLine
62
7
6
CONTINUOUS
10
46.4500001816
20
22.6091060886
11
46.4500001816
21
25.8103054512
0
LINE
5
4C1
100
AcDbEntity
8
0
100
AcDbLine
62
7
6
CONTINUOUS
10
44.4000001816
20
22.1092774261
11
44.3114795406
21
22.1756561055
0
LINE
5
4C2
100
AcDbEntity
8
0
100
AcDbLine
62
9
6
CONTINUOUS
10
45.7927132559
20
22.2667356893
11
45.9501715191
21
22.1092774261
0
LINE
5
4C3
100
AcDbEntity
8
0
100
AcDbLine
62
9
6
CONTINUOUS
10
45.0426034133
20
23.3167046554
11
44.9534607290
21
23.4058473397
0
LINE
5
4C4
100
AcDbEntity
8
0
100
AcDbLine
62
9
6
CONTINUOUS
10
45.2425729523
20
23.5166741944
11
45.1534302680
21
23.6058168787
0
LINE
5
4C5
100
AcDbEntity
8
0
100
AcDbLine
62
9
6
CONTINUOUS
10
46.2925419184
20
22.7665643518
11
46.4493075603
21
22.6097987099
0
ARC
5
4C6
100
AcDbEntity
8
0
100
AcDbCircle
62
7
6
CONTINUOUS
10
-42.4999998184
20
-16.3907225739
40
1.7500000000
100
AcDbArc
50
331.7134747301
51
28.3005285931
0
ARC
5
4C7
100
AcDbEntity
8
0
100
AcDbCircle
62
7
6
CONTINUOUS
10
-36.4999998184
20
-0.2907225739
40
0.5000000000
100
AcDbArc
50
0.0000000000
51
90.0000000000
0
SPLINE
5
4C8
100
AcDbEntity
8
0
100
AcDbSpline
62
7
6
CONTINUOUS
70
0
71
3
72
12
73
8
74
6
42
0.0000001000
43
0.0000001000
44
0.0000000001
12
-1.0002373320
22
0.0000000000
32
0.0000000000
13
-0.7072746003
23
0.7072746003
33
0.0000000000
40
0.0000000000
40
0.0000000000
40
0.0000000000
40
0.0000000000
40
0.3043100278
40
0.5820739579
40
0.8023229216
40
0.9470588590
40
1.0000000000
40
1.0000000000
40
1.0000000000
40
1.0000000000
10
45.5826974447
20
-24.1407225739
30
0.0000000000
10
45.4812366946
20
-24.1407225739
30
0.0000000000
10
45.2866496578
20
-24.1411603990
30
0.0000000000
10
45.0211618554
20
-24.1352783559
30
0.0000000000
10
44.8017015332
20
-24.1413639293
30
0.0000000000
10
44.6725571738
20
-24.1189197786
30
0.0000000000
10
44.5953310577
20
-24.1360534500
30
0.0000000000
10
44.5828497496
20
-24.1235721418
30
0.0000000000
11
45.5826974447
21
-24.1407225739
31
0.0000000000
11
45.2783163212
21
-24.1398943368
31
0.0000000000
11
45.0004971402
21
-24.1374592690
31
0.0000000000
11
44.7802282749
21
-24.1336828342
31
0.0000000000
11
44.6355381275
21
-24.1288664568
31
0.0000000000
11
44.5828497496
21
-24.1235721418
31
0.0000000000
0
SPLINE
5
4C9
100
AcDbEntity
8
0
100
AcDbSpline
62
7
6
CONTINUOUS
70
0
71
3
72
12
73
8
74
6
42
0.0000001000
43
0.0000001000
44
0.0000000001
12
0.7072746003
22
0.7072746003
32
0.0000000000
13
1.0002373320
23
-0.0000000000
33
0.0000000000
40
0.0000000000
40
0.0000000000
40
0.0000000000
40
0.0000000000
40
0.0529411410
40
0.1976770784
40
0.4179260421
40
0.6956899722
40
1.0000000000
40
1.0000000000
40
1.0000000000
40
1.0000000000
10
44.5828497496
20
-8.6578730059
30
0.0000000000
10
44.5953310577
20
-8.6453916978
30
0.0000000000
10
44.6725571738
20
-8.6625253692
30
0.0000000000
10
44.8017015332
20
-8.6400812185
30
0.0000000000
10
45.0211618554
20
-8.6461667919
30
0.0000000000
10
45.2866496578
20
-8.6402847487
30
0.0000000000
10
45.4812366946
20
-8.6407225739
30
0.0000000000
10
45.5826974447
20
-8.6407225739
30
0.0000000000
11
44.5828497496
21
-8.6578730059
31
0.0000000000
11
44.6355381275
21
-8.6525786910
31
0.0000000000
11
44.7802282749
21
-8.6477623136
31
0.0000000000
11
45.0004971402
21
-8.6439858788
31
0.0000000000
11
45.2783163212
21
-8.6415508110
31
0.0000000000
11
45.5826974447
21
-8.6407225739
31
0.0000000000
0
SPLINE
5
4CA
100
AcDbEntity
8
0
100
AcDbSpline
62
7
6
CONTINUOUS
70
0
71
3
72
12
73
8
74
6
42
0.0000001000
43
0.0000001000
44
0.0000000001
12
1.0002373320
22
0.0000000000
32
0.0000000000
13
0.7072746003
23
-0.7072746003
33
0.0000000000
40
0.0000000000
40
0.0000000000
40
0.0000000000
40
0.0000000000
40
0.3043100278
40
0.5820739579
40
0.8023229216
40
0.9470588590
40
1.0000000000
40
1.0000000000
40
1.0000000000
40
1.0000000000
10
-45.5826970815
20
-8.6407225739
30
0.0000000000
10
-45.4812363314
20
-8.6407225739
30
0.0000000000
10
-45.2866492946
20
-8.6402847487
30
0.0000000000
10
-45.0211614922
20
-8.6461667919
30
0.0000000000
10
-44.8017011700
20
-8.6400812185
30
0.0000000000
10
-44.6725568106
20
-8.6625253692
30
0.0000000000
10
-44.5953306945
20
-8.6453916978
30
0.0000000000
10
-44.5828493864
20
-8.6578730059
30
0.0000000000
11
-45.5826970815
21
-8.6407225739
31
0.0000000000
11
-45.2783159580
21
-8.6415508110
31
0.0000000000
11
-45.0004967770
21
-8.6439858788
31
0.0000000000
11
-44.7802279117
21
-8.6477623136
31
0.0000000000
11
-44.6355377643
21
-8.6525786910
31
0.0000000000
11
-44.5828493864
21
-8.6578730059
31
0.0000000000
0
SPLINE
5
4CB
100
AcDbEntity
8
0
100
AcDbSpline
62
7
6
CONTINUOUS
70
0
71
3
72
12
73
8
74
6
42
0.0000001000
43
0.0000001000
44
0.0000000001
12
-0.7072746003
22
-0.7072746003
32
0.0000000000
13
-1.0002373320
23
0.0000000000
33
0.0000000000
40
0.0000000000
40
0.0000000000
40
0.0000000000
40
0.0000000000
40
0.0529411410
40
0.1976770784
40
0.4179260421
40
0.6956899722
40
1.0000000000
40
1.0000000000
40
1.0000000000
40
1.0000000000
10
-44.5828493864
20
-24.1235721418
30
0.0000000000
10
-44.5953306945
20
-24.1360534500
30
0.0000000000
10
-44.6725568106
20
-24.1189197786
30
0.0000000000
10
-44.8017011700
20
-24.1413639293
30
0.0000000000
10
-45.0211614922
20
-24.1352783559
30
0.0000000000
10
-45.2866492946
20
-24.1411603990
30
0.0000000000
10
-45.4812363314
20
-24.1407225739
30
0.0000000000
10
-45.5826970815
20
-24.1407225739
30
0.0000000000
11
-44.5828493864
21
-24.1235721418
31
0.0000000000
11
-44.6355377643
21
-24.1288664568
31
0.0000000000
11
-44.7802279117
21
-24.1336828342
31
0.0000000000
11
-45.0004967770
21
-24.1374592690
31
0.0000000000
11
-45.2783159580
21
-24.1398943368
31
0.0000000000
11
-45.5826970815
21
-24.1407225739
31
0.0000000000
0
SPLINE
5
4CC
100
AcDbEntity
8
0
100
AcDbSpline
62
7
6
CONTINUOUS
70
0
71
3
72
15
73
11
74
9
42
0.0000001000
43
0.0000001000
44
0.0000000001
12
2.3494347167
22
0.0000000000
32
0.0000000000
13
-0.0000000000
23
2.3494347167
33
0.0000000000
40
0.0000000000
40
0.0000000000
40
0.0000000000
40
0.0000000000
40
0.1423856443
40
0.2742073726
40
0.3977421592
40
0.5164864017
40
0.6370489091
40
0.7585213129
40
0.8796366278
40
1.0000000000
40
1.0000000000
40
1.0000000000
40
1.0000000000
10
44.7020558795
20
-29.3907225739
30
0.0000000000
10
44.8135644715
20
-29.3907225739
30
0.0000000000
10
45.0291083809
20
-29.3665986238
30
0.0000000000
10
45.3260836263
20
-29.2658630346
30
0.0000000000
10
45.5808530130
20
-29.1174453262
30
0.0000000000
10
45.7960817075
20
-28.9294110948
30
0.0000000000
10
45.9713807719
20
-28.7056622812
30
0.0000000000
10
46.1020499026
20
-28.4510857797
30
0.0000000000
10
46.1820929226
20
-28.1766366487
30
0.0000000000
10
46.2000001816
20
-27.9870402335
30
0.0000000000
10
46.2000001816
20
-27.8927782718
30
0.0000000000
11
44.7020558795
21
-29.3907225739
31
0.0000000000
11
45.0344985435
21
-29.3534483214
31
0.0000000000
11
45.3278046718
21
-29.2540015566
31
0.0000000000
11
45.5785823656
21
-29.1078919541
31
0.0000000000
11
45.7886818033
21
-28.9243460566
31
0.0000000000
11
45.9633676296
21
-28.7013717452
31
0.0000000000
11
46.0937061597
21
-28.4474816785
31
0.0000000000
11
46.1733668876
21
-28.1743071770
31
0.0000000000
11
46.2000001816
21
-27.8927782718
31
0.0000000000
0
SPLINE
5
4CD
100
AcDbEntity
8
0
100
AcDbSpline
62
7
6
CONTINUOUS
70
0
71
3
72
15
73
11
74
9
42
0.0000001000
43
0.0000001000
44
0.0000000001
12
0.0000000000
22
-2.3494347167
32
0.0000000000
13
2.3494347167
23
0.0000000000
33
0.0000000000
40
0.0000000000
40
0.0000000000
40
0.0000000000
40
0.0000000000
40
0.1423856443
40
0.2742073726
40
0.3977421592
40
0.5164864017
40
0.6370489091
40
0.7585213129
40
0.8796366278
40
1.0000000000
40
1.0000000000
40
1.0000000000
40
1.0000000000
10
-46.1999998184
20
-27.8927782718
30
0.0000000000
10
-46.1999998184
20
-28.0042868638
30
0.0000000000
10
-46.1758758683
20
-28.2198307732
30
0.0000000000
10
-46.0751402791
20
-28.5168060186
30
0.0000000000
10
-45.9267225707
20
-28.7715754053
30
0.0000000000
10
-45.7386883394
20
-28.9868040998
30
0.0000000000
10
-45.5149395258
20
-29.1621031642
30
0.0000000000
10
-45.2603630242
20
-29.2927722948
30
0.0000000000
10
-44.9859138932
20
-29.3728153148
30
0.0000000000
10
-44.7963174780
20
-29.3907225739
30
0.0000000000
10
-44.7020555163
20
-29.3907225739
30
0.0000000000
11
-46.1999998184
21
-27.8927782718
31
0.0000000000
11
-46.1627255659
21
-28.2252209358
31
0.0000000000
11
-46.0632788011
21
-28.5185270641
31
0.0000000000
11
-45.9171691986
21
-28.7693047579
31
0.0000000000
11
-45.7336233011
21
-28.9794041956
31
0.0000000000
11
-45.5106489897
21
-29.1540900219
31
0.0000000000
11
-45.2567589230
21
-29.2844285520
31
0.0000000000
11
-44.9835844215
21
-29.3640892799
31
0.0000000000
11
-44.7020555163
21
-29.3907225739
31
0.0000000000
0
SPLINE
5
4CE
100
AcDbEntity
8
0
100
AcDbSpline
62
7
6
CONTINUOUS
70
0
71
3
72
12
73
8
74
6
42
0.0000001000
43
0.0000001000
44
0.0000000001
12
-1.0002373320
22
0.0000000000
32
0.0000000000
13
-0.7072746003
23
0.7072746003
33
0.0000000000
40
0.0000000000
40
0.0000000000
40
0.0000000000
40
0.0000000000
40
0.3043100278
40
0.5820739579
40
0.8023229216
40
0.9470588590
40
1.0000000000
40
1.0000000000
40
1.0000000000
40
1.0000000000
10
45.5826974447
20
5.8592774261
30
0.0000000000
10
45.4812366946
20
5.8592774261
30
0.0000000000
10
45.2866496578
20
5.8588396010
30
0.0000000000
10
45.0211618554
20
5.8647216441
30
0.0000000000
10
44.8017015332
20
5.8586360707
30
0.0000000000
10
44.6725571738
20
5.8810802214
30
0.0000000000
10
44.5953310577
20
5.8639465500
30
0.0000000000
10
44.5828497496
20
5.8764278582
30
0.0000000000
11
45.5826974447
21
5.8592774261
31
0.0000000000
11
45.2783163212
21
5.8601056632
31
0.0000000000
11
45.0004971402
21
5.8625407310
31
0.0000000000
11
44.7802282749
21
5.8663171658
31
0.0000000000
11
44.6355381275
21
5.8711335432
31
0.0000000000
11
44.5828497496
21
5.8764278582
31
0.0000000000
0
SPLINE
5
4CF
100
AcDbEntity
8
0
100
AcDbSpline
62
7
6
CONTINUOUS
70
0
71
3
72
12
73
8
74
6
42
0.0000001000
43
0.0000001000
44
0.0000000001
12
0.7072746003
22
0.7072746003
32
0.0000000000
13
1.0002373320
23
-0.0000000000
33
0.0000000000
40
0.0000000000
40
0.0000000000
40
0.0000000000
40
0.0000000000
40
0.0529411410
40
0.1976770784
40
0.4179260421
40
0.6956899722
40
1.0000000000
40
1.0000000000
40
1.0000000000
40
1.0000000000
10
44.5828497496
20
21.3421269941
30
0.0000000000
10
44.5953310577
20
21.3546083022
30
0.0000000000
10
44.6725571738
20
21.3374746308
30
0.0000000000
10
44.8017015332
20
21.3599187815
30
0.0000000000
10
45.0211618554
20
21.3538332081
30
0.0000000000
10
45.2866496578
20
21.3597152513
30
0.0000000000
10
45.4812366946
20
21.3592774261
30
0.0000000000
10
45.5826974447
20
21.3592774261
30
0.0000000000
11
44.5828497496
21
21.3421269941
31
0.0000000000
11
44.6355381275
21
21.3474213090
31
0.0000000000
11
44.7802282749
21
21.3522376864
31
0.0000000000
11
45.0004971402
21
21.3560141212
31
0.0000000000
11
45.2783163212
21
21.3584491890
31
0.0000000000
11
45.5826974447
21
21.3592774261
31
0.0000000000
0
SPLINE
5
4D0
100
AcDbEntity
8
0
100
AcDbSpline
62
7
6
CONTINUOUS
70
0
71
3
72
12
73
8
74
6
42
0.0000001000
43
0.0000001000
44
0.0000000001
12
-1.0002373320
22
0.0000000000
32
0.0000000000
13
-0.7072746003
23
0.7072746003
33
0.0000000000
40
0.0000000000
40
0.0000000000
40
0.0000000000
40
0.0000000000
40
0.3043100278
40
0.5820739579
40
0.8023229216
40
0.9470588590
40
1.0000000000
40
1.0000000000
40
1.0000000000
40
1.0000000000
10
45.5826974447
20
-24.1407225739
30
0.0000000000
10
45.4812366946
20
-24.1407225739
30
0.0000000000
10
45.2866496578
20
-24.1411603990
30
0.0000000000
10
45.0211618554
20
-24.1352783559
30
0.0000000000
10
44.8017015332
20
-24.1413639293
30
0.0000000000
10
44.6725571738
20
-24.1189197786
30
0.0000000000
10
44.5953310577
20
-24.1360534500
30
0.0000000000
10
44.5828497496
20
-24.1235721418
30
0.0000000000
11
45.5826974447
21
-24.1407225739
31
0.0000000000
11
45.2783163212
21
-24.1398943368
31
0.0000000000
11
45.0004971402
21
-24.1374592690
31
0.0000000000
11
44.7802282749
21
-24.1336828342
31
0.0000000000
11
44.6355381275
21
-24.1288664568
31
0.0000000000
11
44.5828497496
21
-24.1235721418
31
0.0000000000
0
SPLINE
5
4D1
100
AcDbEntity
8
0
100
AcDbSpline
62
7
6
CONTINUOUS
70
0
71
3
72
12
73
8
74
6
42
0.0000001000
43
0.0000001000
44
0.0000000001
12
0.7072746003
22
0.7072746003
32
0.0000000000
13
1.0002373320
23
-0.0000000000
33
0.0000000000
40
0.0000000000
40
0.0000000000
40
0.0000000000
40
0.0000000000
40
0.0529411410
40
0.1976770784
40
0.4179260421
40
0.6956899722
40
1.0000000000
40
1.0000000000
40
1.0000000000
40
1.0000000000
10
44.5828497496
20
-8.6578730059
30
0.0000000000
10
44.5953310577
20
-8.6453916978
30
0.0000000000
10
44.6725571738
20
-8.6625253692
30
0.0000000000
10
44.8017015332
20
-8.6400812185
30
0.0000000000
10
45.0211618554
20
-8.6461667919
30
0.0000000000
10
45.2866496578
20
-8.6402847487
30
0.0000000000
10
45.4812366946
20
-8.6407225739
30
0.0000000000
10
45.5826974447
20
-8.6407225739
30
0.0000000000
11
44.5828497496
21
-8.6578730059
31
0.0000000000
11
44.6355381275
21
-8.6525786910
31
0.0000000000
11
44.7802282749
21
-8.6477623136
31
0.0000000000
11
45.0004971402
21
-8.6439858788
31
0.0000000000
11
45.2783163212
21
-8.6415508110
31
0.0000000000
11
45.5826974447
21
-8.6407225739
31
0.0000000000
0
SPLINE
5
4D2
100
AcDbEntity
8
0
100
AcDbSpline
62
7
6
CONTINUOUS
70
0
71
3
72
12
73
8
74
6
42
0.0000001000
43
0.0000001000
44
0.0000000001
12
1.0002373320
22
0.0000000000
32
0.0000000000
13
0.7072746003
23
-0.7072746003
33
0.0000000000
40
0.0000000000
40
0.0000000000
40
0.0000000000
40
0.0000000000
40
0.3043100278
40
0.5820739579
40
0.8023229216
40
0.9470588590
40
1.0000000000
40
1.0000000000
40
1.0000000000
40
1.0000000000
10
-45.5826970815
20
21.3592774261
30
0.0000000000
10
-45.4812363314
20
21.3592774261
30
0.0000000000
10
-45.2866492946
20
21.3597152513
30
0.0000000000
10
-45.0211614922
20
21.3538332081
30
0.0000000000
10
-44.8017011700
20
21.3599187815
30
0.0000000000
10
-44.6725568106
20
21.3374746308
30
0.0000000000
10
-44.5953306945
20
21.3546083022
30
0.0000000000
10
-44.5828493864
20
21.3421269941
30
0.0000000000
11
-45.5826970815
21
21.3592774261
31
0.0000000000
11
-45.2783159580
21
21.3584491890
31
0.0000000000
11
-45.0004967770
21
21.3560141212
31
0.0000000000
11
-44.7802279117
21
21.3522376864
31
0.0000000000
11
-44.6355377643
21
21.3474213090
31
0.0000000000
11
-44.5828493864
21
21.3421269941
31
0.0000000000
0
SPLINE
5
4D3
100
AcDbEntity
8
0
100
AcDbSpline
62
7
6
CONTINUOUS
70
0
71
3
72
12
73
8
74
6
42
0.0000001000
43
0.0000001000
44
0.0000000001
12
-0.7072746003
22
-0.7072746003
32
0.0000000000
13
-1.0002373320
23
0.0000000000
33
0.0000000000
40
0.0000000000
40
0.0000000000
40
0.0000000000
40
0.0000000000
40
0.0529411410
40
0.1976770784
40
0.4179260421
40
0.6956899722
40
1.0000000000
40
1.0000000000
40
1.0000000000
40
1.0000000000
10
-44.5828493864
20
5.8764278582
30
0.0000000000
10
-44.5953306945
20
5.8639465500
30
0.0000000000
10
-44.6725568106
20
5.8810802214
30
0.0000000000
10
-44.8017011700
20
5.8586360707
30
0.0000000000
10
-45.0211614922
20
5.8647216441
30
0.0000000000
10
-45.2866492946
20
5.8588396010
30
0.0000000000
10
-45.4812363314
20
5.8592774261
30
0.0000000000
10
-45.5826970815
20
5.8592774261
30
0.0000000000
11
-44.5828493864
21
5.8764278582
31
0.0000000000
11
-44.6355377643
21
5.8711335432
31
0.0000000000
11
-44.7802279117
21
5.8663171658
31
0.0000000000
11
-45.0004967770
21
5.8625407310
31
0.0000000000
11
-45.2783159580
21
5.8601056632
31
0.0000000000
11
-45.5826970815
21
5.8592774261
31
0.0000000000
0
SPLINE
5
4D4
100
AcDbEntity
8
0
100
AcDbSpline
62
7
6
CONTINUOUS
70
0
71
3
72
12
73
8
74
6
42
0.0000001000
43
0.0000001000
44
0.0000000001
12
1.0002373320
22
0.0000000000
32
0.0000000000
13
0.7072746003
23
-0.7072746003
33
0.0000000000
40
0.0000000000
40
0.0000000000
40
0.0000000000
40
0.0000000000
40
0.3043100278
40
0.5820739579
40
0.8023229216
40
0.9470588590
40
1.0000000000
40
1.0000000000
40
1.0000000000
40
1.0000000000
10
-45.5826970815
20
-8.6407225739
30
0.0000000000
10
-45.4812363314
20
-8.6407225739
30
0.0000000000
10
-45.2866492946
20
-8.6402847487
30
0.0000000000
10
-45.0211614922
20
-8.6461667919
30
0.0000000000
10
-44.8017011700
20
-8.6400812185
30
0.0000000000
10
-44.6725568106
20
-8.6625253692
30
0.0000000000
10
-44.5953306945
20
-8.6453916978
30
0.0000000000
10
-44.5828493864
20
-8.6578730059
30
0.0000000000
11
-45.5826970815
21
-8.6407225739
31
0.0000000000
11
-45.2783159580
21
-8.6415508110
31
0.0000000000
11
-45.0004967770
21
-8.6439858788
31
0.0000000000
11
-44.7802279117
21
-8.6477623136
31
0.0000000000
11
-44.6355377643
21
-8.6525786910
31
0.0000000000
11
-44.5828493864
21
-8.6578730059
31
0.0000000000
0
SPLINE
5
4D5
100
AcDbEntity
8
0
100
AcDbSpline
62
7
6
CONTINUOUS
70
0
71
3
72
12
73
8
74
6
42
0.0000001000
43
0.0000001000
44
0.0000000001
12
-0.7072746003
22
-0.7072746003
32
0.0000000000
13
-1.0002373320
23
0.0000000000
33
0.0000000000
40
0.0000000000
40
0.0000000000
40
0.0000000000
40
0.0000000000
40
0.0529411410
40
0.1976770784
40
0.4179260421
40
0.6956899722
40
1.0000000000
40
1.0000000000
40
1.0000000000
40
1.0000000000
10
-44.5828493864
20
-24.1235721418
30
0.0000000000
10
-44.5953306945
20
-24.1360534500
30
0.0000000000
10
-44.6725568106
20
-24.1189197786
30
0.0000000000
10
-44.8017011700
20
-24.1413639293
30
0.0000000000
10
-45.0211614922
20
-24.1352783559
30
0.0000000000
10
-45.2866492946
20
-24.1411603990
30
0.0000000000
10
-45.4812363314
20
-24.1407225739
30
0.0000000000
10
-45.5826970815
20
-24.1407225739
30
0.0000000000
11
-44.5828493864
21
-24.1235721418
31
0.0000000000
11
-44.6355377643
21
-24.1288664568
31
0.0000000000
11
-44.7802279117
21
-24.1336828342
31
0.0000000000
11
-45.0004967770
21
-24.1374592690
31
0.0000000000
11
-45.2783159580
21
-24.1398943368
31
0.0000000000
11
-45.5826970815
21
-24.1407225739
31
0.0000000000
0
SPLINE
5
4D6
100
AcDbEntity
8
0
100
AcDbSpline
62
7
6
CONTINUOUS
70
0
71
3
72
11
73
7
74
5
42
0.0000001000
43
0.0000001000
44
0.0000000001
12
0.0000000000
22
-0.7801178945
32
0.0000000000
13
-0.7801178945
23
0.0000000000
33
0.0000000000
40
0.0000000000
40
0.0000000000
40
0.0000000000
40
0.0000000000
40
0.2500016983
40
0.5000000000
40
0.7499983017
40
1.0000000000
40
1.0000000000
40
1.0000000000
40
1.0000000000
10
46.4500001816
20
22.6091060886
30
0.0000000000
10
46.4500001816
20
22.5440958224
30
0.0000000000
10
46.4240058519
20
22.4126519553
30
0.0000000000
10
46.3127788497
20
22.2464987580
30
0.0000000000
10
46.1466256525
20
22.1352717558
30
0.0000000000
10
46.0151817853
20
22.1092774261
30
0.0000000000
10
45.9501715191
20
22.1092774261
30
0.0000000000
11
46.4500001816
21
22.6091060886
31
0.0000000000
11
46.4119662185
21
22.4178198371
31
0.0000000000
11
46.3036245253
21
22.2556530824
31
0.0000000000
11
46.1414577706
21
22.1473113892
31
0.0000000000
11
45.9501715191
21
22.1092774261
31
0.0000000000
0
SPLINE
5
4D7
100
AcDbEntity
8
0
100
AcDbSpline
62
7
6
CONTINUOUS
70
0
71
3
72
11
73
7
74
5
42
0.0000001000
43
0.0000001000
44
0.0000000001
12
0.0000000000
22
0.7801178945
32
0.0000000000
13
0.7801178945
23
0.0000000000
33
0.0000000000
40
0.0000000000
40
0.0000000000
40
0.0000000000
40
0.0000000000
40
0.2500016983
40
0.5000000000
40
0.7499983017
40
1.0000000000
40
1.0000000000
40
1.0000000000
40
1.0000000000
10
32.7500001816
20
28.3094487636
30
0.0000000000
10
32.7500001816
20
28.3744590298
30
0.0000000000
10
32.7759945113
20
28.5059028970
30
0.0000000000
10
32.8872215135
20
28.6720560942
30
0.0000000000
10
33.0533747107
20
28.7832830964
30
0.0000000000
10
33.1848185779
20
28.8092774261
30
0.0000000000
10
33.2498288441
20
28.8092774261
30
0.0000000000
11
32.7500001816
21
28.3094487636
31
0.0000000000
11
32.7880341447
21
28.5007350151
31
0.0000000000
11
32.8963758379
21
28.6629017698
31
0.0000000000
11
33.0585425926
21
28.7712434630
31
0.0000000000
11
33.2498288441
21
28.8092774261
31
0.0000000000
0
SPLINE
5
4D8
100
AcDbEntity
8
0
100
AcDbSpline
62
7
6
CONTINUOUS
70
0
71
3
72
11
73
7
74
5
42
0.0000001000
43
0.0000001000
44
0.0000000001
12
-0.7801178945
22
0.0000000000
32
0.0000000000
13
0.0000000000
23
0.7801178945
33
0.0000000000
40
0.0000000000
40
0.0000000000
40
0.0000000000
40
0.0000000000
40
0.2500016983
40
0.5000000000
40
0.7499983017
40
1.0000000000
40
1.0000000000
40
1.0000000000
40
1.0000000000
10
-45.9501711559
20
22.1092774261
30
0.0000000000
10
-46.0151814221
20
22.1092774261
30
0.0000000000
10
-46.1466252893
20
22.1352717558
30
0.0000000000
10
-46.3127784865
20
22.2464987580
30
0.0000000000
10
-46.4240054887
20
22.4126519553
30
0.0000000000
10
-46.4499998184
20
22.5440958224
30
0.0000000000
10
-46.4499998184
20
22.6091060886
30
0.0000000000
11
-45.9501711559
21
22.1092774261
31
0.0000000000
11
-46.1414574074
21
22.1473113892
31
0.0000000000
11
-46.3036241621
21
22.2556530824
31
0.0000000000
11
-46.4119658553
21
22.4178198371
31
0.0000000000
11
-46.4499998184
21
22.6091060886
31
0.0000000000
0
SPLINE
5
4D9
100
AcDbEntity
8
0
100
AcDbSpline
62
7
6
CONTINUOUS
70
0
71
3
72
11
73
7
74
5
42
0.0000001000
43
0.0000001000
44
0.0000000001
12
0.7801178945
22
0.0000000000
32
0.0000000000
13
0.0000000000
23
-0.7801178945
33
0.0000000000
40
0.0000000000
40
0.0000000000
40
0.0000000000
40
0.0000000000
40
0.2500016983
40
0.5000000000
40
0.7499983017
40
1.0000000000
40
1.0000000000
40
1.0000000000
40
1.0000000000
10
-33.2498284809
20
28.8092774261
30
0.0000000000
10
-33.1848182147
20
28.8092774261
30
0.0000000000
10
-33.0533743475
20
28.7832830964
30
0.0000000000
10
-32.8872211503
20
28.6720560942
30
0.0000000000
10
-32.7759941481
20
28.5059028970
30
0.0000000000
10
-32.7499998184
20
28.3744590298
30
0.0000000000
10
-32.7499998184
20
28.3094487636
30
0.0000000000
11
-33.2498284809
21
28.8092774261
31
0.0000000000
11
-33.0585422294
21
28.7712434630
31
0.0000000000
11
-32.8963754747
21
28.6629017698
31
0.0000000000
11
-32.7880337815
21
28.5007350151
31
0.0000000000
11
-32.7499998184
21
28.3094487636
31
0.0000000000
0
SPLINE
5
4DA
100
AcDbEntity
8
0
100
AcDbSpline
62
7
6
CONTINUOUS
70
0
71
3
72
8
73
4
74
2
42
0.0000001000
43
0.0000001000
44
0.0000000001
12
0.2562075116
22
0.0000000000
32
0.0000000000
13
0.2559235150
23
-0.0220028677
33
0.0000000000
40
0.0000000000
40
0.0000000000
40
0.0000000000
40
0.0000000000
40
1.0000000000
40
1.0000000000
40
1.0000000000
40
1.0000000000
10
43.4510282067
20
28.8092774261
30
0.0000000000
10
43.5364307106
20
28.8092774261
30
0.0000000000
10
43.6219705150
20
28.8055900914
30
0.0000000000
10
43.7072783534
20
28.7982558021
30
0.0000000000
11
43.4510282067
21
28.8092774261
31
0.0000000000
11
43.7072783534
21
28.7982558021
31
0.0000000000
0
SPLINE
5
4DB
100
AcDbEntity
8
0
100
AcDbSpline
62
7
6
CONTINUOUS
70
0
71
3
72
8
73
4
74
2
42
0.0000001000
43
0.0000001000
44
0.0000000001
12
0.0220020500
22
-0.2559187725
32
0.0000000000
13
0.0000000000
23
-0.2562027379
33
0.0000000000
40
0.0000000000
40
0.0000000000
40
0.0000000000
40
0.0000000000
40
1.0000000000
40
1.0000000000
40
1.0000000000
40
1.0000000000
10
46.4389789676
20
26.0665508294
30
0.0000000000
10
46.4463129843
20
25.9812445719
30
0.0000000000
10
46.4500001816
20
25.8957063638
30
0.0000000000
10
46.4500001816
20
25.8103054512
30
0.0000000000
11
46.4389789676
21
26.0665508294
31
0.0000000000
11
46.4500001816
21
25.8103054512
31
0.0000000000
0
SPLINE
5
4DC
100
AcDbEntity
8
0
100
AcDbSpline
62
7
6
CONTINUOUS
70
0
71
3
72
8
73
4
74
2
42
0.0000001000
43
0.0000001000
44
0.0000000001
12
0.0000000000
22
0.2562075116
32
0.0000000000
13
0.0220028677
23
0.2559235150
33
0.0000000000
40
0.0000000000
40
0.0000000000
40
0.0000000000
40
0.0000000000
40
1.0000000000
40
1.0000000000
40
1.0000000000
40
1.0000000000
10
-46.4499998184
20
25.8103054512
30
0.0000000000
10
-46.4499998184
20
25.8957079551
30
0.0000000000
10
-46.4463124836
20
25.9812477595
30
0.0000000000
10
-46.4389781944
20
26.0665555979
30
0.0000000000
11
-46.4499998184
21
25.8103054512
31
0.0000000000
11
-46.4389781944
21
26.0665555979
31
0.0000000000
0
SPLINE
5
4DD
100
AcDbEntity
8
0
100
AcDbSpline
62
7
6
CONTINUOUS
70
0
71
3
72
8
73
4
74
2
42
0.0000001000
43
0.0000001000
44
0.0000000001
12
0.2559187725
22
0.0220020500
32
0.0000000000
13
0.2562027379
23
0.0000000000
33
0.0000000000
40
0.0000000000
40
0.0000000000
40
0.0000000000
40
0.0000000000
40
1.0000000000
40
1.0000000000
40
1.0000000000
40
1.0000000000
10
-43.7072732217
20
28.7982562121
30
0.0000000000
10
-43.6219669642
20
28.8055902288
30
0.0000000000
10
-43.5364287561
20
28.8092774261
30
0.0000000000
10
-43.4510278435
20
28.8092774261
30
0.0000000000
11
-43.7072732217
21
28.7982562121
31
0.0000000000
11
-43.4510278435
21
28.8092774261
31
0.0000000000
0
SPLINE
5
4DE
100
AcDbEntity
8
0
100
AcDbSpline
62
7
6
CONTINUOUS
70
0
71
3
72
8
73
4
74
2
42
0.0000001000
43
0.0000001000
44
0.0000000001
12
0.0000079797
22
-0.0261985716
32
0.0000000000
13
0.0034841138
23
-0.0261235634
33
0.0000000000
40
0.0000000000
40
0.0000000000
40
0.0000000000
40
0.0000000000
40
1.0000000000
40
1.0000000000
40
1.0000000000
40
1.0000000000
10
-45.1534299048
20
23.6058168787
30
0.0000000000
10
-45.1534272449
20
23.5970840215
30
0.0000000000
10
-45.1528378025
20
23.5883191484
30
0.0000000000
10
-45.1516764313
20
23.5796112939
30
0.0000000000
11
-45.1534299048
21
23.6058168787
31
0.0000000000
11
-45.1516764313
21
23.5796112939
31
0.0000000000
0
SPLINE
5
4DF
100
AcDbEntity
8
0
100
AcDbSpline
62
7
6
CONTINUOUS
70
0
71
3
72
8
73
4
74
2
42
0.0000001000
43
0.0000001000
44
0.0000000001
12
0.0254721261
22
-0.0033094364
32
0.0000000000
13
0.0255412131
23
-0.0000077795
33
0.0000000000
40
0.0000000000
40
0.0000000000
40
0.0000000000
40
0.0000000000
40
1.0000000000
40
1.0000000000
40
1.0000000000
40
1.0000000000
10
-44.9790081433
20
23.4075125447
30
0.0000000000
10
-44.9705174346
20
23.4064093992
30
0.0000000000
10
-44.9619741035
20
23.4058499329
30
0.0000000000
10
-44.9534603658
20
23.4058473397
30
0.0000000000
11
-44.9790081433
21
23.4075125447
31
0.0000000000
11
-44.9534603658
21
23.4058473397
31
0.0000000000
0
SPLINE
5
4E0
100
AcDbEntity
8
0
100
AcDbSpline
62
7
6
CONTINUOUS
70
0
71
3
72
8
73
4
74
2
42
0.0000001000
43
0.0000001000
44
0.0000000001
12
0.0261985716
22
-0.0000079797
32
0.0000000000
13
0.0261235634
23
-0.0034841138
33
0.0000000000
40
0.0000000000
40
0.0000000000
40
0.0000000000
40
0.0000000000
40
1.0000000000
40
1.0000000000
40
1.0000000000
40
1.0000000000
10
-34.2465392710
20
27.5127075125
30
0.0000000000
10
-34.2378064138
20
27.5127048526
30
0.0000000000
10
-34.2290415407
20
27.5121154102
30
0.0000000000
10
-34.2203336862
20
27.5109540390
30
0.0000000000
11
-34.2465392710
21
27.5127075125
31
0.0000000000
11
-34.2203336862
21
27.5109540390
31
0.0000000000
0
SPLINE
5
4E1
100
AcDbEntity
8
0
100
AcDbSpline
62
7
6
CONTINUOUS
70
0
71
3
72
8
73
4
74
2
42
0.0000001000
43
0.0000001000
44
0.0000000001
12
0.0033094364
22
-0.0254721261
32
0.0000000000
13
0.0000077795
23
-0.0255412131
33
0.0000000000
40
0.0000000000
40
0.0000000000
40
0.0000000000
40
0.0000000000
40
1.0000000000
40
1.0000000000
40
1.0000000000
40
1.0000000000
10
-34.0482349370
20
27.3382857510
30
0.0000000000
10
-34.0471317915
20
27.3297950424
30
0.0000000000
10
-34.0465723252
20
27.3212517112
30
0.0000000000
10
-34.0465697320
20
27.3127379735
30
0.0000000000
11
-34.0482349370
21
27.3382857510
31
0.0000000000
11
-34.0465697320
21
27.3127379735
31
0.0000000000
0
SPLINE
5
4E2
100
AcDbEntity
8
0
100
AcDbSpline
62
7
6
CONTINUOUS
70
0
71
3
72
8
73
4
74
2
42
0.0000001000
43
0.0000001000
44
0.0000000001
12
-0.0532162218
22
-0.0057362262
32
0.0000000000
13
-0.0533193776
23
0.0000000000
33
0.0000000000
40
0.0000000000
40
0.0000000000
40
0.0000000000
40
0.0000000000
40
1.0000000000
40
1.0000000000
40
1.0000000000
40
1.0000000000
10
-36.4466719604
20
-25.9307028260
30
0.0000000000
10
-36.4644107010
20
-25.9326149014
30
0.0000000000
10
-36.4822266925
20
-25.9335791112
30
0.0000000000
10
-36.4999998184
20
-25.9335791112
30
0.0000000000
11
-36.4466719604
21
-25.9307028260
31
0.0000000000
11
-36.4999998184
21
-25.9335791112
31
0.0000000000
0
SPLINE
5
4E3
100
AcDbEntity
8
0
100
AcDbSpline
62
7
6
CONTINUOUS
70
0
71
3
72
12
73
8
74
6
42
0.0000001000
43
0.0000001000
44
0.0000000001
12
-0.9997491357
22
0.0000000000
32
0.0000000000
13
-0.8942572968
23
0.4469924176
33
0.0000000000
40
0.0000000000
40
0.0000000000
40
0.0000000000
40
0.0000000000
40
0.3009722503
40
0.5770111337
40
0.7966902040
40
0.9428401746
40
1.0000000000
40
1.0000000000
40
1.0000000000
40
1.0000000000
10
-43.2771675809
20
23.3656397638
30
0.0000000000
10
-43.3774664966
20
23.3656397638
30
0.0000000000
10
-43.5699250555
20
23.3656470237
30
0.0000000000
10
-43.8347519621
20
23.3697237318
30
0.0000000000
10
-44.0503531230
20
23.3680999288
30
0.0000000000
10
-44.1878290626
20
23.3818621275
30
0.0000000000
10
-44.2595198776
20
23.3739689862
30
0.0000000000
10
-44.2765584079
20
23.3824856557
30
0.0000000000
11
-43.2771675809
21
23.3656397638
31
0.0000000000
11
-43.5780632407
21
23.3664486827
31
0.0000000000
11
-43.8540225434
21
23.3688367184
31
0.0000000000
11
-44.0736152860
21
23.3725396216
31
0.0000000000
11
-44.2196523081
21
23.3772604869
31
0.0000000000
11
-44.2765584079
21
23.3824856557
31
0.0000000000
0
SPLINE
5
4E4
100
AcDbEntity
8
0
100
AcDbSpline
62
7
6
CONTINUOUS
70
0
71
3
72
12
73
8
74
6
42
0.0000001000
43
0.0000001000
44
0.0000000001
12
0.4469924176
22
-0.8942572968
32
0.0000000000
13
-0.0000000000
23
-0.9997491357
33
0.0000000000
40
0.0000000000
40
0.0000000000
40
0.0000000000
40
0.0000000000
40
0.0571598254
40
0.2033097960
40
0.4229888663
40
0.6990277497
40
1.0000000000
40
1.0000000000
40
1.0000000000
40
1.0000000000
10
-34.0232080480
20
26.4858360156
30
0.0000000000
10
-34.0146913785
20
26.4687974853
30
0.0000000000
10
-34.0225845198
20
26.3971066703
30
0.0000000000
10
-34.0088223211
20
26.2596307307
30
0.0000000000
10
-34.0104461241
20
26.0440295699
30
0.0000000000
10
-34.0063694160
20
25.7792026632
30
0.0000000000
10
-34.0063621561
20
25.5867441043
30
0.0000000000
10
-34.0063621561
20
25.4864451886
30
0.0000000000
11
-34.0232080480
21
26.4858360156
31
0.0000000000
11
-34.0179828792
21
26.4289299159
31
0.0000000000
11
-34.0132620139
21
26.2828928937
31
0.0000000000
11
-34.0095591107
21
26.0633001511
31
0.0000000000
11
-34.0071710750
21
25.7873408484
31
0.0000000000
11
-34.0063621561
21
25.4864451886
31
0.0000000000
0
SPLINE
5
4E5
100
AcDbEntity
8
0
100
AcDbSpline
62
7
6
CONTINUOUS
70
0
71
3
72
12
73
8
74
6
42
0.0000001000
43
0.0000001000
44
0.0000000001
12
-0.8942572968
22
-0.4469924176
32
0.0000000000
13
-0.9997491357
23
0.0000000000
33
0.0000000000
40
0.0000000000
40
0.0000000000
40
0.0000000000
40
0.0000000000
40
0.0571598254
40
0.2033097960
40
0.4229888663
40
0.6990277497
40
1.0000000000
40
1.0000000000
40
1.0000000000
40
1.0000000000
10
44.2765587711
20
23.3824856557
30
0.0000000000
10
44.2595202408
20
23.3739689862
30
0.0000000000
10
44.1878294258
20
23.3818621275
30
0.0000000000
10
44.0503534862
20
23.3680999288
30
0.0000000000
10
43.8347523254
20
23.3697237318
30
0.0000000000
10
43.5699254187
20
23.3656470237
30
0.0000000000
10
43.3774668598
20
23.3656397638
30
0.0000000000
10
43.2771679441
20
23.3656397638
30
0.0000000000
11
44.2765587711
21
23.3824856557
31
0.0000000000
11
44.2196526714
21
23.3772604869
31
0.0000000000
11
44.0736156492
21
23.3725396216
31
0.0000000000
11
43.8540229066
21
23.3688367184
31
0.0000000000
11
43.5780636039
21
23.3664486827
31
0.0000000000
11
43.2771679441
21
23.3656397638
31
0.0000000000
0
SPLINE
5
4E6
100
AcDbEntity
8
0
100
AcDbSpline
62
7
6
CONTINUOUS
70
0
71
3
72
12
73
8
74
6
42
0.0000001000
43
0.0000001000
44
0.0000000001
12
0.0000000000
22
0.9997491357
32
0.0000000000
13
0.4469924176
23
0.8942572968
33
0.0000000000
40
0.0000000000
40
0.0000000000
40
0.0000000000
40
0.0000000000
40
0.3009722503
40
0.5770111337
40
0.7966902040
40
0.9428401746
40
1.0000000000
40
1.0000000000
40
1.0000000000
40
1.0000000000
10
34.0063625193
20
25.4864451886
30
0.0000000000
10
34.0063625193
20
25.5867441043
30
0.0000000000
10
34.0063697792
20
25.7792026632
30
0.0000000000
10
34.0104464873
20
26.0440295699
30
0.0000000000
10
34.0088226843
20
26.2596307307
30
0.0000000000
10
34.0225848830
20
26.3971066703
30
0.0000000000
10
34.0146917417
20
26.4687974853
30
0.0000000000
10
34.0232084112
20
26.4858360156
30
0.0000000000
11
34.0063625193
21
25.4864451886
31
0.0000000000
11
34.0071714382
21
25.7873408484
31
0.0000000000
11
34.0095594739
21
26.0633001511
31
0.0000000000
11
34.0132623771
21
26.2828928937
31
0.0000000000
11
34.0179832424
21
26.4289299159
31
0.0000000000
11
34.0232084112
21
26.4858360156
31
0.0000000000
0
SPLINE
5
4E7
100
AcDbEntity
8
0
100
AcDbSpline
62
7
6
CONTINUOUS
70
0
71
3
72
12
73
8
74
6
42
0.0000001000
43
0.0000001000
44
0.0000000001
12
0.6000491693
22
-0.8002078014
32
0.0000000000
13
0.0000000000
23
-1.0001957463
33
0.0000000000
40
0.0000000000
40
0.0000000000
40
0.0000000000
40
0.0000000000
40
0.0574393210
40
0.2036300544
40
0.4232564231
40
0.6991810115
40
1.0000000000
40
1.0000000000
40
1.0000000000
40
1.0000000000
10
32.8163788610
20
26.4858360156
30
0.0000000000
10
32.8278676666
20
26.4705148847
30
0.0000000000
10
32.8189013877
20
26.3953189695
30
0.0000000000
10
32.8370675748
20
26.2607016927
30
0.0000000000
10
32.8358831936
20
26.0436009986
30
0.0000000000
10
32.8415167766
20
25.7793385189
30
0.0000000000
10
32.8416509071
20
25.5867378128
30
0.0000000000
10
32.8416509071
20
25.4864451886
30
0.0000000000
11
32.8163788610
21
26.4858360156
31
0.0000000000
11
32.8242181341
21
26.4289228084
31
0.0000000000
11
32.8313004208
21
26.2828750783
31
0.0000000000
11
32.8368553135
21
26.0632759645
31
0.0000000000
11
32.8404375419
21
25.7873206147
31
0.0000000000
11
32.8416509071
21
25.4864451886
31
0.0000000000
0
SPLINE
5
4E8
100
AcDbEntity
8
0
100
AcDbSpline
62
7
6
CONTINUOUS
70
0
71
3
72
12
73
8
74
6
42
0.0000001000
43
0.0000001000
44
0.0000000001
12
0.0000000000
22
1.0001957463
32
0.0000000000
13
0.6000491693
23
0.8002078014
33
0.0000000000
40
0.0000000000
40
0.0000000000
40
0.0000000000
40
0.0000000000
40
0.3008189885
40
0.5767435769
40
0.7963699456
40
0.9425606790
40
1.0000000000
40
1.0000000000
40
1.0000000000
40
1.0000000000
10
-32.8416505439
20
25.4864451886
30
0.0000000000
10
-32.8416505439
20
25.5867378128
30
0.0000000000
10
-32.8415164134
20
25.7793385189
30
0.0000000000
10
-32.8358828304
20
26.0436009986
30
0.0000000000
10
-32.8370672116
20
26.2607016927
30
0.0000000000
10
-32.8189010245
20
26.3953189695
30
0.0000000000
10
-32.8278673034
20
26.4705148847
30
0.0000000000
10
-32.8163784978
20
26.4858360156
30
0.0000000000
11
-32.8416505439
21
25.4864451886
31
0.0000000000
11
-32.8404371787
21
25.7873206147
31
0.0000000000
11
-32.8368549503
21
26.0632759645
31
0.0000000000
11
-32.8313000576
21
26.2828750783
31
0.0000000000
11
-32.8242177709
21
26.4289228084
31
0.0000000000
11
-32.8163784978
21
26.4858360156
31
0.0000000000
0
SPLINE
5
4E9
100
AcDbEntity
8
0
100
AcDbSpline
62
7
6
CONTINUOUS
70
0
71
3
72
12
73
8
74
6
42
0.0000001000
43
0.0000001000
44
0.0000000001
12
1.0001957463
22
0.0000000000
32
0.0000000000
13
0.8002078014
23
-0.6000491693
33
0.0000000000
40
0.0000000000
40
0.0000000000
40
0.0000000000
40
0.0000000000
40
0.3008189885
40
0.5767435769
40
0.7963699456
40
0.9425606790
40
1.0000000000
40
1.0000000000
40
1.0000000000
40
1.0000000000
10
43.3120887136
20
22.2009281516
30
0.0000000000
10
43.4123813378
20
22.2009281516
30
0.0000000000
10
43.6049820438
20
22.2007940211
30
0.0000000000
10
43.8692445236
20
22.1951604381
30
0.0000000000
10
44.0863452177
20
22.1963448193
30
0.0000000000
10
44.2209624944
20
22.1781786322
30
0.0000000000
10
44.2961584097
20
22.1871449111
30
0.0000000000
10
44.3114795406
20
22.1756561055
30
0.0000000000
11
43.3120887136
21
22.2009281516
31
0.0000000000
11
43.6129641397
21
22.1997147864
31
0.0000000000
11
43.8889194895
21
22.1961325580
31
0.0000000000
11
44.1085186033
21
22.1905776653
31
0.0000000000
11
44.2545663334
21
22.1834953786
31
0.0000000000
11
44.3114795406
21
22.1756561055
31
0.0000000000
0
SPLINE
5
4EA
100
AcDbEntity
8
0
100
AcDbSpline
62
7
6
CONTINUOUS
70
0
71
3
72
12
73
8
74
6
42
0.0000001000
43
0.0000001000
44
0.0000000001
12
0.8002078014
22
0.6000491693
32
0.0000000000
13
1.0001957463
23
0.0000000000
33
0.0000000000
40
0.0000000000
40
0.0000000000
40
0.0000000000
40
0.0000000000
40
0.0574393210
40
0.2036300544
40
0.4232564231
40
0.6991810115
40
1.0000000000
40
1.0000000000
40
1.0000000000
40
1.0000000000
10
-44.3114791774
20
22.1756561055
30
0.0000000000
10
-44.2961580465
20
22.1871449111
30
0.0000000000
10
-44.2209621312
20
22.1781786322
30
0.0000000000
10
-44.0863448544
20
22.1963448193
30
0.0000000000
10
-43.8692441604
20
22.1951604381
30
0.0000000000
10
-43.6049816806
20
22.2007940211
30
0.0000000000
10
-43.4123809746
20
22.2009281516
30
0.0000000000
10
-43.3120883504
20
22.2009281516
30
0.0000000000
11
-44.3114791774
21
22.1756561055
31
0.0000000000
11
-44.2545659701
21
22.1834953786
31
0.0000000000
11
-44.1085182401
21
22.1905776653
31
0.0000000000
11
-43.8889191262
21
22.1961325580
31
0.0000000000
11
-43.6129637765
21
22.1997147864
31
0.0000000000
11
-43.3120883504
21
22.2009281516
31
0.0000000000
0
SPLINE
5
4EB
100
AcDbEntity
8
0
100
AcDbSpline
62
7
6
CONTINUOUS
70
0
71
3
72
10
73
6
74
4
42
0.0000001000
43
0.0000001000
44
0.0000000001
12
0.1808185195
22
-0.3617472560
32
0.0000000000
13
0.0052298223
23
-0.4043872688
33
0.0000000000
40
0.0000000000
40
0.0000000000
40
0.0000000000
40
0.0000000000
40
0.1348021728
40
0.4802812834
40
1.0000000000
40
1.0000000000
40
1.0000000000
40
1.0000000000
10
-33.9708428532
20
24.8429794783
30
0.0000000000
10
-33.9627179435
20
24.8267247063
30
0.0000000000
10
-33.9700478220
20
24.7582333381
30
0.0000000000
10
-33.9566622751
20
24.6268294888
30
0.0000000000
10
-33.9583330599
20
24.5089621301
30
0.0000000000
10
-33.9574270477
20
24.4389062527
30
0.0000000000
11
-33.9708428532
21
24.8429794783
31
0.0000000000
11
-33.9657486699
21
24.7887011654
31
0.0000000000
11
-33.9611075306
21
24.6490592337
31
0.0000000000
11
-33.9574270477
21
24.4389062527
31
0.0000000000
0
SPLINE
5
4EC
100
AcDbEntity
8
0
100
AcDbSpline
62
7
6
CONTINUOUS
70
0
71
3
72
10
73
6
74
4
42
0.0000001000
43
0.0000001000
44
0.0000000001
12
-0.4043872688
22
0.0052298223
32
0.0000000000
13
-0.3617472560
23
0.1808185195
33
0.0000000000
40
0.0000000000
40
0.0000000000
40
0.0000000000
40
0.0000000000
40
0.5197187166
40
0.8651978272
40
1.0000000000
40
1.0000000000
40
1.0000000000
40
1.0000000000
10
-42.2296286449
20
23.3167046554
30
0.0000000000
10
-42.2996845224
20
23.3176106676
30
0.0000000000
10
-42.4175518811
20
23.3159398828
30
0.0000000000
10
-42.5489557304
20
23.3293254297
30
0.0000000000
10
-42.6174470986
20
23.3219955512
30
0.0000000000
10
-42.6337018706
20
23.3301204610
30
0.0000000000
11
-42.2296286449
21
23.3167046554
31
0.0000000000
11
-42.4397816260
21
23.3203851383
31
0.0000000000
11
-42.5794235577
21
23.3250262777
31
0.0000000000
11
-42.6337018706
21
23.3301204610
31
0.0000000000
0
SPLINE
5
4ED
100
AcDbEntity
8
0
100
AcDbSpline
62
7
6
CONTINUOUS
70
0
71
3
72
10
73
6
74
4
42
0.0000001000
43
0.0000001000
44
0.0000000001
12
-0.3617472560
22
-0.1808185195
32
0.0000000000
13
-0.4043872688
23
-0.0052298223
33
0.0000000000
40
0.0000000000
40
0.0000000000
40
0.0000000000
40
0.0000000000
40
0.1348021728
40
0.4802812834
40
1.0000000000
40
1.0000000000
40
1.0000000000
40
1.0000000000
10
42.6337022338
20
23.3301204610
30
0.0000000000
10
42.6174474618
20
23.3219955512
30
0.0000000000
10
42.5489560936
20
23.3293254297
30
0.0000000000
10
42.4175522443
20
23.3159398828
30
0.0000000000
10
42.2996848856
20
23.3176106676
30
0.0000000000
10
42.2296290082
20
23.3167046554
30
0.0000000000
11
42.6337022338
21
23.3301204610
31
0.0000000000
11
42.5794239209
21
23.3250262777
31
0.0000000000
11
42.4397819892
21
23.3203851383
31
0.0000000000
11
42.2296290082
21
23.3167046554
31
0.0000000000
0
SPLINE
5
4EE
100
AcDbEntity
8
0
100
AcDbSpline
62
7
6
CONTINUOUS
70
0
71
3
72
10
73
6
74
4
42
0.0000001000
43
0.0000001000
44
0.0000000001
12
0.0052298223
22
0.4043872688
32
0.0000000000
13
0.1808185195
23
0.3617472560
33
0.0000000000
40
0.0000000000
40
0.0000000000
40
0.0000000000
40
0.0000000000
40
0.5197187166
40
0.8651978272
40
1.0000000000
40
1.0000000000
40
1.0000000000
40
1.0000000000
10
33.9574274109
20
24.4389062527
30
0.0000000000
10
33.9583334231
20
24.5089621301
30
0.0000000000
10
33.9566626383
20
24.6268294888
30
0.0000000000
10
33.9700481852
20
24.7582333381
30
0.0000000000
10
33.9627183067
20
24.8267247063
30
0.0000000000
10
33.9708432164
20
24.8429794783
30
0.0000000000
11
33.9574274109
21
24.4389062527
31
0.0000000000
11
33.9611078938
21
24.6490592337
31
0.0000000000
11
33.9657490332
21
24.7887011654
31
0.0000000000
11
33.9708432164
21
24.8429794783
31
0.0000000000
0
SPLINE
5
4EF
100
AcDbEntity
8
0
100
AcDbSpline
62
9
6
CONTINUOUS
70
0
71
3
72
11
73
7
74
5
42
0.0000001000
43
0.0000001000
44
0.0000000001
12
-0.0004245779
22
-0.6196113786
32
0.0000000000
13
-0.5926307293
23
-0.1978754029
33
0.0000000000
40
0.0000000000
40
0.0000000000
40
0.0000000000
40
0.0000000000
40
0.3159773871
40
0.6322265459
40
0.9484864104
40
1.0000000000
40
1.0000000000
40
1.0000000000
40
1.0000000000
10
46.2925419184
20
22.7665643518
30
0.0000000000
10
46.2924971994
20
22.7013032903
30
0.0000000000
10
46.2661763904
20
22.5693061815
30
0.0000000000
10
46.1539468056
20
22.4027161864
30
0.0000000000
10
46.0332071743
20
22.3226439769
30
0.0000000000
10
45.9613453639
20
22.2960511397
30
0.0000000000
10
45.9511691852
20
22.2926533822
30
0.0000000000
11
46.2925419184
21
22.7665643518
31
0.0000000000
11
46.2540762864
21
22.5745969888
31
0.0000000000
11
46.1447470906
21
22.4119803673
31
0.0000000000
11
45.9813403120
21
22.3038237074
31
0.0000000000
11
45.9511691852
21
22.2926533822
31
0.0000000000
0
SPLINE
5
4F0
100
AcDbEntity
8
0
100
AcDbSpline
62
9
6
CONTINUOUS
70
0
71
3
72
11
73
7
74
5
42
0.0000001000
43
0.0000001000
44
0.0000000001
12
0.0004245779
22
0.6196113786
32
0.0000000000
13
0.5926307293
23
0.1978754029
33
0.0000000000
40
0.0000000000
40
0.0000000000
40
0.0000000000
40
0.0000000000
40
0.3159773871
40
0.6322265459
40
0.9484864104
40
1.0000000000
40
1.0000000000
40
1.0000000000
40
1.0000000000
10
32.9074584448
20
28.1519905004
30
0.0000000000
10
32.9075031638
20
28.2172515619
30
0.0000000000
10
32.9338239728
20
28.3492486707
30
0.0000000000
10
33.0460535576
20
28.5158386658
30
0.0000000000
10
33.1667931890
20
28.5959108753
30
0.0000000000
10
33.2386549993
20
28.6225037125
30
0.0000000000
10
33.2488311780
20
28.6259014700
30
0.0000000000
11
32.9074584448
21
28.1519905004
31
0.0000000000
11
32.9459240768
21
28.3439578634
31
0.0000000000
11
33.0552532727
21
28.5065744849
31
0.0000000000
11
33.2186600512
21
28.6147311448
31
0.0000000000
11
33.2488311780
21
28.6259014700
31
0.0000000000
0
SPLINE
5
4F1
100
AcDbEntity
8
0
100
AcDbSpline
62
7
6
CONTINUOUS
70
0
71
3
72
12
73
8
74
6
42
0.0000001000
43
0.0000001000
44
0.0000000001
12
0.0000000000
22
-1.5634768652
32
0.0000000000
13
-1.5634768652
23
0.0000000000
33
0.0000000000
40
0.0000000000
40
0.0000000000
40
0.0000000000
40
0.0000000000
40
0.1991627327
40
0.4001122235
40
0.5995966163
40
0.8009897561
40
1.0000000000
40
1.0000000000
40
1.0000000000
40
1.0000000000
10
42.7047624901
20
-26.6960940553
30
0.0000000000
10
42.7047624901
20
-26.7998894970
30
0.0000000000
10
42.6717864767
20
-27.0098619198
30
0.0000000000
10
42.5277720590
20
-27.2928322512
30
0.0000000000
10
42.3023252676
20
-27.5183855763
30
0.0000000000
10
42.0192081458
20
-27.6625127667
30
0.0000000000
10
41.8090876338
20
-27.6954848824
30
0.0000000000
10
41.7053716631
20
-27.6954848824
30
0.0000000000
11
42.7047624901
21
-26.6960940553
31
0.0000000000
11
42.6562930822
21
-27.0036849523
31
0.0000000000
11
42.5138650888
21
-27.2837264915
31
0.0000000000
11
42.2933770017
21
-27.5043163760
31
0.0000000000
11
42.0127328964
21
-27.6470896808
31
0.0000000000
11
41.7053716631
21
-27.6954848824
31
0.0000000000
0
SPLINE
5
4F2
100
AcDbEntity
8
0
100
AcDbSpline
62
9
6
CONTINUOUS
70
0
71
3
72
12
73
8
74
6
42
0.0000001000
43
0.0000001000
44
0.0000000001
12
-0.0019034578
22
-1.5628054810
32
0.0000000000
13
-1.5628054810
23
-0.0019034578
33
0.0000000000
40
0.0000000000
40
0.0000000000
40
0.0000000000
40
0.0000000000
40
0.1999588935
40
0.3999785630
40
0.6000214370
40
0.8000411065
40
1.0000000000
40
1.0000000000
40
1.0000000000
40
1.0000000000
10
42.6337022338
20
-26.6250337991
30
0.0000000000
10
42.6335753627
20
-26.7291994173
30
0.0000000000
10
42.6002009494
20
-26.9389845021
30
0.0000000000
10
42.4557890538
20
-27.2217493476
30
0.0000000000
10
42.2310269553
20
-27.4465114461
30
0.0000000000
10
41.9482621098
20
-27.5909233417
30
0.0000000000
10
41.7384770250
20
-27.6242977550
30
0.0000000000
10
41.6343114068
20
-27.6244246261
30
0.0000000000
11
42.6337022338
21
-26.6250337991
31
0.0000000000
11
42.5844879022
21
-26.9336312369
31
0.0000000000
11
42.4424066704
21
-27.2120674493
31
0.0000000000
11
42.2213450570
21
-27.4331290627
31
0.0000000000
11
41.9429088446
21
-27.5752102945
31
0.0000000000
11
41.6343114068
21
-27.6244246261
31
0.0000000000
0
SPLINE
5
4F3
100
AcDbEntity
8
0
100
AcDbSpline
62
7
6
CONTINUOUS
70
0
71
3
72
12
73
8
74
6
42
0.0000001000
43
0.0000001000
44
0.0000000001
12
-1.5634768652
22
0.0000000000
32
0.0000000000
13
0.0000000000
23
1.5634768652
33
0.0000000000
40
0.0000000000
40
0.0000000000
40
0.0000000000
40
0.0000000000
40
0.1991627327
40
0.4001122235
40
0.5995966163
40
0.8009897561
40
1.0000000000
40
1.0000000000
40
1.0000000000
40
1.0000000000
10
-41.7053712999
20
-27.6954848824
30
0.0000000000
10
-41.8091667415
20
-27.6954848824
30
0.0000000000
10
-42.0191391643
20
-27.6625088690
30
0.0000000000
10
-42.3021094957
20
-27.5184944513
30
0.0000000000
10
-42.5276628208
20
-27.2930476599
30
0.0000000000
10
-42.6717900112
20
-27.0099305381
30
0.0000000000
10
-42.7047621269
20
-26.7998100261
30
0.0000000000
10
-42.7047621269
20
-26.6960940553
30
0.0000000000
11
-41.7053712999
21
-27.6954848824
31
0.0000000000
11
-42.0129621968
21
-27.6470154745
31
0.0000000000
11
-42.2930037360
21
-27.5045874811
31
0.0000000000
11
-42.5135936205
21
-27.2840993940
31
0.0000000000
11
-42.6563669253
21
-27.0034552887
31
0.0000000000
11
-42.7047621269
21
-26.6960940553
31
0.0000000000
0
SPLINE
5
4F4
100
AcDbEntity
8
0
100
AcDbSpline
62
9
6
CONTINUOUS
70
0
71
3
72
12
73
8
74
6
42
0.0000001000
43
0.0000001000
44
0.0000000001
12
-1.5628054810
22
0.0019034578
32
0.0000000000
13
-0.0019034578
23
1.5628054810
33
0.0000000000
40
0.0000000000
40
0.0000000000
40
0.0000000000
40
0.0000000000
40
0.1999588935
40
0.3999785630
40
0.6000214370
40
0.8000411065
40
1.0000000000
40
1.0000000000
40
1.0000000000
40
1.0000000000
10
-41.6343110436
20
-27.6244246261
30
0.0000000000
10
-41.7384766618
20
-27.6242977550
30
0.0000000000
10
-41.9482617466
20
-27.5909233417
30
0.0000000000
10
-42.2310265921
20
-27.4465114461
30
0.0000000000
10
-42.4557886906
20
-27.2217493476
30
0.0000000000
10
-42.6002005862
20
-26.9389845021
30
0.0000000000
10
-42.6335749995
20
-26.7291994173
30
0.0000000000
10
-42.6337018706
20
-26.6250337991
30
0.0000000000
11
-41.6343110436
21
-27.6244246261
31
0.0000000000
11
-41.9429084814
21
-27.5752102945
31
0.0000000000
11
-42.2213446938
21
-27.4331290627
31
0.0000000000
11
-42.4424063072
21
-27.2120674493
31
0.0000000000
11
-42.5844875390
21
-26.9336312369
31
0.0000000000
11
-42.6337018706
21
-26.6250337991
31
0.0000000000
0
SPLINE
5
4F5
100
AcDbEntity
8
0
100
AcDbSpline
62
7
6
CONTINUOUS
70
0
71
3
72
12
73
8
74
6
42
0.0000001000
43
0.0000001000
44
0.0000000001
12
1.5634768652
22
0.0000000000
32
0.0000000000
13
0.0000000000
23
-1.5634768652
33
0.0000000000
40
0.0000000000
40
0.0000000000
40
0.0000000000
40
0.0000000000
40
0.1991627327
40
0.4001122235
40
0.5995966163
40
0.8009897561
40
1.0000000000
40
1.0000000000
40
1.0000000000
40
1.0000000000
10
41.7053716631
20
24.9140397346
30
0.0000000000
10
41.8091671047
20
24.9140397346
30
0.0000000000
10
42.0191395276
20
24.8810637212
30
0.0000000000
10
42.3021098589
20
24.7370493035
30
0.0000000000
10
42.5276631840
20
24.5116025121
30
0.0000000000
10
42.6717903744
20
24.2284853903
30
0.0000000000
10
42.7047624901
20
24.0183648783
30
0.0000000000
10
42.7047624901
20
23.9146489076
30
0.0000000000
11
41.7053716631
21
24.9140397346
31
0.0000000000
11
42.0129625601
21
24.8655703267
31
0.0000000000
11
42.2930040992
21
24.7231423334
31
0.0000000000
11
42.5135939837
21
24.5026542462
31
0.0000000000
11
42.6563672885
21
24.2220101409
31
0.0000000000
11
42.7047624901
21
23.9146489076
31
0.0000000000
0
SPLINE
5
4F6
100
AcDbEntity
8
0
100
AcDbSpline
62
9
6
CONTINUOUS
70
0
71
3
72
12
73
8
74
6
42
0.0000001000
43
0.0000001000
44
0.0000000001
12
1.5628054810
22
-0.0019034578
32
0.0000000000
13
0.0019034578
23
-1.5628054810
33
0.0000000000
40
0.0000000000
40
0.0000000000
40
0.0000000000
40
0.0000000000
40
0.1999588935
40
0.3999785630
40
0.6000214370
40
0.8000411065
40
1.0000000000
40
1.0000000000
40
1.0000000000
40
1.0000000000
10
41.6343114068
20
24.8429794783
30
0.0000000000
10
41.7384770250
20
24.8428526072
30
0.0000000000
10
41.9482621098
20
24.8094781939
30
0.0000000000
10
42.2310269553
20
24.6650662983
30
0.0000000000
10
42.4557890538
20
24.4403041998
30
0.0000000000
10
42.6002009494
20
24.1575393543
30
0.0000000000
10
42.6335753627
20
23.9477542695
30
0.0000000000
10
42.6337022338
20
23.8435886513
30
0.0000000000
11
41.6343114068
21
24.8429794783
31
0.0000000000
11
41.9429088446
21
24.7937651467
31
0.0000000000
11
42.2213450570
21
24.6516839149
31
0.0000000000
11
42.4424066704
21
24.4306223015
31
0.0000000000
11
42.5844879022
21
24.1521860891
31
0.0000000000
11
42.6337022338
21
23.8435886513
31
0.0000000000
0
SPLINE
5
4F7
100
AcDbEntity
8
0
100
AcDbSpline
62
7
6
CONTINUOUS
70
0
71
3
72
12
73
8
74
6
42
0.0000001000
43
0.0000001000
44
0.0000000001
12
0.0000000000
22
1.5634768652
32
0.0000000000
13
1.5634768652
23
-0.0000000000
33
0.0000000000
40
0.0000000000
40
0.0000000000
40
0.0000000000
40
0.0000000000
40
0.1991627327
40
0.4001122235
40
0.5995966163
40
0.8009897561
40
1.0000000000
40
1.0000000000
40
1.0000000000
40
1.0000000000
10
-42.7047621269
20
23.9146489076
30
0.0000000000
10
-42.7047621269
20
24.0184443492
30
0.0000000000
10
-42.6717861135
20
24.2284167721
30
0.0000000000
10
-42.5277716958
20
24.5113871034
30
0.0000000000
10
-42.3023249044
20
24.7369404285
30
0.0000000000
10
-42.0192077826
20
24.8810676189
30
0.0000000000
10
-41.8090872706
20
24.9140397346
30
0.0000000000
10
-41.7053712999
20
24.9140397346
30
0.0000000000
11
-42.7047621269
21
23.9146489076
31
0.0000000000
11
-42.6562927190
21
24.2222398046
31
0.0000000000
11
-42.5138647256
21
24.5022813437
31
0.0000000000
11
-42.2933766385
21
24.7228712282
31
0.0000000000
11
-42.0127325332
21
24.8656445330
31
0.0000000000
11
-41.7053712999
21
24.9140397346
31
0.0000000000
0
SPLINE
5
4F8
100
AcDbEntity
8
0
100
AcDbSpline
62
9
6
CONTINUOUS
70
0
71
3
72
12
73
8
74
6
42
0.0000001000
43
0.0000001000
44
0.0000000001
12
0.0019034578
22
1.5628054810
32
0.0000000000
13
1.5628054810
23
0.0019034578
33
0.0000000000
40
0.0000000000
40
0.0000000000
40
0.0000000000
40
0.0000000000
40
0.1999588935
40
0.3999785630
40
0.6000214370
40
0.8000411065
40
1.0000000000
40
1.0000000000
40
1.0000000000
40
1.0000000000
10
-42.6337018706
20
23.8435886513
30
0.0000000000
10
-42.6335749995
20
23.9477542695
30
0.0000000000
10
-42.6002005862
20
24.1575393543
30
0.0000000000
10
-42.4557886906
20
24.4403041998
30
0.0000000000
10
-42.2310265921
20
24.6650662983
30
0.0000000000
10
-41.9482617466
20
24.8094781939
30
0.0000000000
10
-41.7384766618
20
24.8428526072
30
0.0000000000
10
-41.6343110436
20
24.8429794783
30
0.0000000000
11
-42.6337018706
21
23.8435886513
31
0.0000000000
11
-42.5844875390
21
24.1521860891
31
0.0000000000
11
-42.4424063072
21
24.4306223015
31
0.0000000000
11
-42.2213446938
21
24.6516839149
31
0.0000000000
11
-41.9429084814
21
24.7937651467
31
0.0000000000
11
-41.6343110436
21
24.8429794783
31
0.0000000000
0
SPLINE
5
4F9
100
AcDbEntity
8
0
100
AcDbSpline
62
9
6
CONTINUOUS
70
0
71
3
72
11
73
7
74
5
42
0.0000001000
43
0.0000001000
44
0.0000000001
12
-0.6164606618
22
0.0004224190
32
0.0000000000
13
-0.2006458790
23
0.5885082758
33
0.0000000000
40
0.0000000000
40
0.0000000000
40
0.0000000000
40
0.0000000000
40
0.3118424056
40
0.6297186673
40
0.9475841685
40
1.0000000000
40
1.0000000000
40
1.0000000000
40
1.0000000000
10
-45.7927128927
20
22.2667356893
30
0.0000000000
10
-45.8567924180
20
22.2667795987
30
0.0000000000
10
-45.9875350072
20
22.2923553118
30
0.0000000000
10
-46.1539464424
20
22.4027161864
30
0.0000000000
10
-46.2349585879
20
22.5229680162
30
0.0000000000
10
-46.2620859433
20
22.5947874849
30
0.0000000000
10
-46.2655916168
20
22.6050698685
30
0.0000000000
11
-45.7927128927
21
22.2667356893
31
0.0000000000
11
-45.9813399488
21
22.3038237074
31
0.0000000000
11
-46.1447467273
21
22.4119803673
31
0.0000000000
11
-46.2540759232
21
22.5745969888
31
0.0000000000
11
-46.2655916168
21
22.6050698685
31
0.0000000000
0
SPLINE
5
4FA
100
AcDbEntity
8
0
100
AcDbSpline
62
9
6
CONTINUOUS
70
0
71
3
72
11
73
7
74
5
42
0.0000001000
43
0.0000001000
44
0.0000000001
12
0.6164606618
22
-0.0004224190
32
0.0000000000
13
0.2006458790
23
-0.5885082758
33
0.0000000000
40
0.0000000000
40
0.0000000000
40
0.0000000000
40
0.0000000000
40
0.3118424056
40
0.6297186673
40
0.9475841685
40
1.0000000000
40
1.0000000000
40
1.0000000000
40
1.0000000000
10
-33.4072867441
20
28.6518191629
30
0.0000000000
10
-33.3432072188
20
28.6517752536
30
0.0000000000
10
-33.2124646296
20
28.6261995404
30
0.0000000000
10
-33.0460531944
20
28.5158386658
30
0.0000000000
10
-32.9650410489
20
28.3955868361
30
0.0000000000
10
-32.9379136935
20
28.3237673673
30
0.0000000000
10
-32.9344080200
20
28.3134849837
30
0.0000000000
11
-33.4072867441
21
28.6518191629
31
0.0000000000
11
-33.2186596880
21
28.6147311448
31
0.0000000000
11
-33.0552529094
21
28.5065744849
31
0.0000000000
11
-32.9459237136
21
28.3439578634
31
0.0000000000
11
-32.9344080200
21
28.3134849837
31
0.0000000000
0
SPLINE
5
4FB
100
AcDbEntity
8
0
100
AcDbSpline
62
7
6
CONTINUOUS
70
0
71
3
72
15
73
11
74
9
42
0.0000001000
43
0.0000001000
44
0.0000000001
12
-2.3510615012
22
0.0000000000
32
0.0000000000
13
0.0000000000
23
2.3510615012
33
0.0000000000
40
0.0000000000
40
0.0000000000
40
0.0000000000
40
0.0000000000
40
0.1428969159
40
0.2750789101
40
0.3987099751
40
0.5172839537
40
0.6375201338
40
0.7587461504
40
0.8797702697
40
1.0000000000
40
1.0000000000
40
1.0000000000
40
1.0000000000
10
-42.9358343474
20
-29.3907225739
30
0.0000000000
10
-43.0478208266
20
-29.3907225739
30
0.0000000000
10
-43.2642059151
20
-29.3663810821
30
0.0000000000
10
-43.5619836406
20
-29.2649236088
30
0.0000000000
10
-43.8168797128
20
-29.1158681233
30
0.0000000000
10
-44.0317408998
20
-28.9276041927
30
0.0000000000
10
-44.2065916428
20
-28.7040140325
30
0.0000000000
10
-44.3370261537
20
-28.4496926612
30
0.0000000000
10
-44.4170116850
20
-28.1754090570
30
0.0000000000
10
-44.4349205879
20
-27.9858588301
30
0.0000000000
10
-44.4349205879
20
-27.8916363334
30
0.0000000000
11
-42.9358343474
21
-29.3907225739
31
0.0000000000
11
-43.2696819377
21
-29.3531123332
31
0.0000000000
11
-43.5638609382
21
-29.2529351701
31
0.0000000000
11
-43.8147682073
21
-29.1061998942
31
0.0000000000
11
-44.0244460200
21
-28.9224866472
31
0.0000000000
11
-44.1985781929
21
-28.6998042066
31
0.0000000000
11
-44.3286562040
21
-28.4462094338
31
0.0000000000
11
-44.4082970564
21
-28.1730472385
31
0.0000000000
11
-44.4349205879
21
-27.8916363334
31
0.0000000000
0
SPLINE
5
4FC
100
AcDbEntity
8
0
100
AcDbSpline
62
7
6
CONTINUOUS
70
0
71
3
72
15
73
11
74
9
42
0.0000001000
43
0.0000001000
44
0.0000000001
12
0.0000000000
22
-2.3510615012
32
0.0000000000
13
-2.3510615012
23
-0.0000000000
33
0.0000000000
40
0.0000000000
40
0.0000000000
40
0.0000000000
40
0.0000000000
40
0.1428969159
40
0.2750789101
40
0.3987099751
40
0.5172839537
40
0.6375201338
40
0.7587461504
40
0.8797702697
40
1.0000000000
40
1.0000000000
40
1.0000000000
40
1.0000000000
10
44.4349209511
20
-27.8916363334
30
0.0000000000
10
44.4349209511
20
-28.0036228126
30
0.0000000000
10
44.4105794593
20
-28.2200079011
30
0.0000000000
10
44.3091219860
20
-28.5177856266
30
0.0000000000
10
44.1600665005
20
-28.7726816988
30
0.0000000000
10
43.9718025699
20
-28.9875428858
30
0.0000000000
10
43.7482124097
20
-29.1623936288
30
0.0000000000
10
43.4938910384
20
-29.2928281397
30
0.0000000000
10
43.2196074342
20
-29.3728136710
30
0.0000000000
10
43.0300572073
20
-29.3907225739
30
0.0000000000
10
42.9358347106
20
-29.3907225739
30
0.0000000000
11
44.4349209511
21
-27.8916363334
31
0.0000000000
11
44.3973107105
21
-28.2254839237
31
0.0000000000
11
44.2971335473
21
-28.5196629243
31
0.0000000000
11
44.1503982714
21
-28.7705701933
31
0.0000000000
11
43.9666850244
21
-28.9802480061
31
0.0000000000
11
43.7440025838
21
-29.1543801789
31
0.0000000000
11
43.4904078110
21
-29.2844581900
31
0.0000000000
11
43.2172456157
21
-29.3640990424
31
0.0000000000
11
42.9358347106
21
-29.3907225739
31
0.0000000000
0
SPLINE
5
4FD
100
AcDbEntity
8
0
100
AcDbSpline
62
7
6
CONTINUOUS
70
0
71
3
72
11
73
7
74
5
42
0.0000001000
43
0.0000001000
44
0.0000000001
12
0.0002851606
22
0.3118204825
32
0.0000000000
13
0.3118204831
23
0.0002844662
33
0.0000000000
40
0.0000000000
40
0.0000000000
40
0.0000000000
40
0.0000000000
40
0.2509574342
40
0.5020535228
40
0.7533052089
40
1.0000000000
40
1.0000000000
40
1.0000000000
40
1.0000000000
10
31.8862106146
20
17.1194845128
30
0.0000000000
10
31.8862344690
20
17.1455690688
30
0.0000000000
10
31.8967827786
20
17.1983181611
30
0.0000000000
10
31.9416919115
20
17.2648660940
30
0.0000000000
10
32.0082477978
20
17.3089574796
30
0.0000000000
10
32.0605386573
20
17.3191870276
30
0.0000000000
10
32.0861801537
20
17.3192104197
30
0.0000000000
11
31.8862106146
21
17.1194845128
31
0.0000000000
11
31.9016227326
21
17.1962054899
31
0.0000000000
11
31.9453523339
21
17.2611526391
31
0.0000000000
11
32.0107011881
21
17.3043676542
31
0.0000000000
11
32.0861801537
21
17.3192104197
31
0.0000000000
0
SPLINE
5
4FE
100
AcDbEntity
8
0
100
AcDbSpline
62
7
6
CONTINUOUS
70
0
71
3
72
11
73
7
74
5
42
0.0000001000
43
0.0000001000
44
0.0000000001
12
-0.0010724349
22
-0.7144474718
32
0.0000000000
13
-0.7123376532
23
-0.0948585055
33
0.0000000000
40
0.0000000000
40
0.0000000000
40
0.0000000000
40
0.0000000000
40
0.2725736705
40
0.5455823241
40
0.8184321365
40
1.0000000000
40
1.0000000000
40
1.0000000000
40
1.0000000000
10
46.4493070025
20
22.6091071291
30
0.0000000000
10
46.4492095633
20
22.5441939392
30
0.0000000000
10
46.4236070880
20
22.4128094721
30
0.0000000000
10
46.3124250053
20
22.2467163812
30
0.0000000000
10
46.1649639470
20
22.1478326161
30
0.0000000000
10
46.0584652050
20
22.1193663234
30
0.0000000000
10
46.0153526631
20
22.1136252380
30
0.0000000000
11
46.4493070025
21
22.6091071291
31
0.0000000000
11
46.4115184318
21
22.4180719072
31
0.0000000000
11
46.3032729327
21
22.2558331585
31
0.0000000000
11
46.1412749147
21
22.1474316281
31
0.0000000000
11
46.0153526631
21
22.1136252380
31
0.0000000000
0
SPLINE
5
4FF
100
AcDbEntity
8
0
100
AcDbSpline
62
7
6
CONTINUOUS
70
0
71
3
72
8
73
4
74
2
42
0.0000001000
43
0.0000001000
44
0.0000000001
12
-0.0649777258
22
-0.0086527645
32
0.0000000000
13
-0.0651649223
23
-0.0000023181
33
0.0000000000
40
0.0000000000
40
0.0000000000
40
0.0000000000
40
0.0000000000
40
1.0000000000
40
1.0000000000
40
1.0000000000
40
1.0000000000
10
46.0153526631
20
22.1136252380
30
0.0000000000
10
45.9936934211
20
22.1107409832
30
0.0000000000
10
45.9718929062
20
22.1092784525
30
0.0000000000
10
45.9501712654
20
22.1092776798
30
0.0000000000
11
46.0153526631
21
22.1136252380
31
0.0000000000
11
45.9501712654
21
22.1092776798
31
0.0000000000
0
SPLINE
5
500
100
AcDbEntity
8
0
100
AcDbSpline
62
7
6
CONTINUOUS
70
0
71
3
72
11
73
7
74
5
42
0.0000001000
43
0.0000001000
44
0.0000000001
12
-0.0004245779
22
-0.6196113786
32
0.0000000000
13
-0.5926307293
23
-0.1978754029
33
0.0000000000
40
0.0000000000
40
0.0000000000
40
0.0000000000
40
0.0000000000
40
0.3159773871
40
0.6322265459
40
0.9484864104
40
1.0000000000
40
1.0000000000
40
1.0000000000
40
1.0000000000
10
46.2925419184
20
22.7665643518
30
0.0000000000
10
46.2924971994
20
22.7013032903
30
0.0000000000
10
46.2661763904
20
22.5693061815
30
0.0000000000
10
46.1539468056
20
22.4027161864
30
0.0000000000
10
46.0332071743
20
22.3226439769
30
0.0000000000
10
45.9613453639
20
22.2960511397
30
0.0000000000
10
45.9511691852
20
22.2926533822
30
0.0000000000
11
46.2925419184
21
22.7665643518
31
0.0000000000
11
46.2540762864
21
22.5745969888
31
0.0000000000
11
46.1447470906
21
22.4119803673
31
0.0000000000
11
45.9813403120
21
22.3038237074
31
0.0000000000
11
45.9511691852
21
22.2926533822
31
0.0000000000
0
SPLINE
5
501
100
AcDbEntity
8
0
100
AcDbSpline
62
7
6
CONTINUOUS
70
0
71
3
72
8
73
4
74
2
42
0.0000001000
43
0.0000001000
44
0.0000000001
12
-0.1533391126
22
-0.0511988953
32
0.0000000000
13
-0.1603201695
23
-0.0001098566
33
0.0000000000
40
0.0000000000
40
0.0000000000
40
0.0000000000
40
0.0000000000
40
1.0000000000
40
1.0000000000
40
1.0000000000
40
1.0000000000
10
45.9511691852
20
22.2926533822
30
0.0000000000
10
45.9000561476
20
22.2755870838
30
0.0000000000
10
45.8461533124
20
22.2667723082
30
0.0000000000
10
45.7927132559
20
22.2667356893
30
0.0000000000
11
45.9511691852
21
22.2926533822
31
0.0000000000
11
45.7927132559
21
22.2667356893
31
0.0000000000
0
SPLINE
5
502
100
AcDbEntity
8
0
100
AcDbSpline
62
7
6
CONTINUOUS
70
0
71
3
72
11
73
7
74
5
42
0.0000001000
43
0.0000001000
44
0.0000000001
12
0.0004245779
22
0.6196113786
32
0.0000000000
13
0.5926307293
23
0.1978754029
33
0.0000000000
40
0.0000000000
40
0.0000000000
40
0.0000000000
40
0.0000000000
40
0.3159773871
40
0.6322265459
40
0.9484864104
40
1.0000000000
40
1.0000000000
40
1.0000000000
40
1.0000000000
10
32.9074584448
20
28.1519905004
30
0.0000000000
10
32.9075031638
20
28.2172515619
30
0.0000000000
10
32.9338239728
20
28.3492486707
30
0.0000000000
10
33.0460535576
20
28.5158386658
30
0.0000000000
10
33.1667931890
20
28.5959108753
30
0.0000000000
10
33.2386549993
20
28.6225037125
30
0.0000000000
10
33.2488311780
20
28.6259014700
30
0.0000000000
11
32.9074584448
21
28.1519905004
31
0.0000000000
11
32.9459240768
21
28.3439578634
31
0.0000000000
11
33.0552532727
21
28.5065744849
31
0.0000000000
11
33.2186600512
21
28.6147311448
31
0.0000000000
11
33.2488311780
21
28.6259014700
31
0.0000000000
0
SPLINE
5
503
100
AcDbEntity
8
0
100
AcDbSpline
62
7
6
CONTINUOUS
70
0
71
3
72
8
73
4
74
2
42
0.0000001000
43
0.0000001000
44
0.0000000001
12
0.1533391126
22
0.0511988953
32
0.0000000000
13
0.1603201695
23
0.0001098566
33
0.0000000000
40
0.0000000000
40
0.0000000000
40
0.0000000000
40
0.0000000000
40
1.0000000000
40
1.0000000000
40
1.0000000000
40
1.0000000000
10
33.2488311780
20
28.6259014700
30
0.0000000000
10
33.2999442156
20
28.6429677684
30
0.0000000000
10
33.3538470508
20
28.6517825441
30
0.0000000000
10
33.4072871073
20
28.6518191629
30
0.0000000000
11
33.2488311780
21
28.6259014700
31
0.0000000000
11
33.4072871073
21
28.6518191629
31
0.0000000000
0
SPLINE
5
504
100
AcDbEntity
8
0
100
AcDbSpline
62
7
6
CONTINUOUS
70
0
71
3
72
11
73
7
74
5
42
0.0000001000
43
0.0000001000
44
0.0000000001
12
0.0000177384
22
0.7148479258
32
0.0000000000
13
0.7130466271
23
0.0933631794
33
0.0000000000
40
0.0000000000
40
0.0000000000
40
0.0000000000
40
0.0000000000
40
0.2726062564
40
0.5452799075
40
0.8181216397
40
1.0000000000
40
1.0000000000
40
1.0000000000
40
1.0000000000
10
32.7500004394
20
28.3094487636
30
0.0000000000
10
32.7500020512
20
28.3744061026
30
0.0000000000
10
32.7761575979
20
28.5057464536
30
0.0000000000
10
32.8874419742
20
28.6717030052
30
0.0000000000
10
33.0351617061
20
28.7705604632
30
0.0000000000
10
33.1418694424
20
28.7986544542
30
0.0000000000
10
33.1850986929
20
28.8043147015
30
0.0000000000
11
32.7500004394
21
28.3094487636
31
0.0000000000
11
32.7881553330
21
28.5005490171
31
0.0000000000
11
32.8965585777
21
28.6625447466
31
0.0000000000
11
33.0588055982
21
28.7707881708
31
0.0000000000
11
33.1850986929
21
28.8043147015
31
0.0000000000
0
SPLINE
5
505
100
AcDbEntity
8
0
100
AcDbSpline
62
7
6
CONTINUOUS
70
0
71
3
72
8
73
4
74
2
42
0.0000001000
43
0.0000001000
44
0.0000000001
12
0.0652143529
22
0.0085388796
32
0.0000000000
13
0.0653790951
23
0.0000075267
33
0.0000000000
40
0.0000000000
40
0.0000000000
40
0.0000000000
40
0.0000000000
40
1.0000000000
40
1.0000000000
40
1.0000000000
40
1.0000000000
10
33.1850986929
20
28.8043147015
30
0.0000000000
10
33.2068368105
20
28.8071609948
30
0.0000000000
10
33.2287136060
20
28.8085971236
30
0.0000000000
10
33.2505066377
20
28.8085996325
30
0.0000000000
11
33.1850986929
21
28.8043147015
31
0.0000000000
11
33.2505066377
21
28.8085996325
31
0.0000000000
0
SPLINE
5
506
100
AcDbEntity
8
0
100
AcDbSpline
62
7
6
CONTINUOUS
70
0
71
3
72
11
73
7
74
5
42
0.0000001000
43
0.0000001000
44
0.0000000001
12
-0.6164606618
22
0.0004224190
32
0.0000000000
13
-0.2006458790
23
0.5885082758
33
0.0000000000
40
0.0000000000
40
0.0000000000
40
0.0000000000
40
0.0000000000
40
0.3118424056
40
0.6297186673
40
0.9475841685
40
1.0000000000
40
1.0000000000
40
1.0000000000
40
1.0000000000
10
-45.7927128927
20
22.2667356893
30
0.0000000000
10
-45.8567924180
20
22.2667795987
30
0.0000000000
10
-45.9875350072
20
22.2923553118
30
0.0000000000
10
-46.1539464424
20
22.4027161864
30
0.0000000000
10
-46.2349585879
20
22.5229680162
30
0.0000000000
10
-46.2620859433
20
22.5947874849
30
0.0000000000
10
-46.2655916168
20
22.6050698685
30
0.0000000000
11
-45.7927128927
21
22.2667356893
31
0.0000000000
11
-45.9813399488
21
22.3038237074
31
0.0000000000
11
-46.1447467273
21
22.4119803673
31
0.0000000000
11
-46.2540759232
21
22.5745969888
31
0.0000000000
11
-46.2655916168
21
22.6050698685
31
0.0000000000
0
SPLINE
5
507
100
AcDbEntity
8
0
100
AcDbSpline
62
7
6
CONTINUOUS
70
0
71
3
72
8
73
4
74
2
42
0.0000001000
43
0.0000001000
44
0.0000000001
12
-0.0532065737
22
0.1560585701
32
0.0000000000
13
-0.0001120156
23
0.1634708862
33
0.0000000000
40
0.0000000000
40
0.0000000000
40
0.0000000000
40
0.0000000000
40
1.0000000000
40
1.0000000000
40
1.0000000000
40
1.0000000000
10
-46.2655916168
20
22.6050698685
30
0.0000000000
10
-46.2833271414
20
22.6570893919
30
0.0000000000
10
-46.2925042167
20
22.7120740564
30
0.0000000000
10
-46.2925415552
20
22.7665643518
30
0.0000000000
11
-46.2655916168
21
22.6050698685
31
0.0000000000
11
-46.2925415552
21
22.7665643518
31
0.0000000000
0
SPLINE
5
508
100
AcDbEntity
8
0
100
AcDbSpline
62
7
6
CONTINUOUS
70
0
71
3
72
11
73
7
74
5
42
0.0000001000
43
0.0000001000
44
0.0000000001
12
-0.7155026933
22
-0.0005222413
32
0.0000000000
13
-0.0933422945
23
0.7136087512
33
0.0000000000
40
0.0000000000
40
0.0000000000
40
0.0000000000
40
0.0000000000
40
0.2715308633
40
0.5452706092
40
0.8190159487
40
1.0000000000
40
1.0000000000
40
1.0000000000
40
1.0000000000
10
-45.9508562087
20
22.1085923733
30
0.0000000000
10
-46.0156165634
20
22.1085451051
30
0.0000000000
10
-46.1470936623
20
22.1343341752
30
0.0000000000
10
-46.3136962352
20
22.2455715232
30
0.0000000000
10
-46.4126398533
20
22.3937526599
30
0.0000000000
10
-46.4408336301
20
22.5005505522
30
0.0000000000
10
-46.4464647856
20
22.5436011532
30
0.0000000000
11
-45.9508562087
21
22.1085923733
31
0.0000000000
11
-46.1414627961
21
22.1461992976
31
0.0000000000
11
-46.3044436168
21
22.2548225441
31
0.0000000000
11
-46.4130735353
21
22.4178037276
31
0.0000000000
11
-46.4464647856
21
22.5436011532
31
0.0000000000
0
SPLINE
5
509
100
AcDbEntity
8
0
100
AcDbSpline
62
7
6
CONTINUOUS
70
0
71
3
72
8
73
4
74
2
42
0.0000001000
43
0.0000001000
44
0.0000000001
12
-0.0084533307
22
0.0646263389
32
0.0000000000
13
0.0000472941
23
0.0647978594
33
0.0000000000
40
0.0000000000
40
0.0000000000
40
0.0000000000
40
0.0000000000
40
1.0000000000
40
1.0000000000
40
1.0000000000
40
1.0000000000
10
-46.4464647856
20
22.5436011532
30
0.0000000000
10
-46.4492825625
20
22.5651432661
30
0.0000000000
10
-46.4507006364
20
22.5868217488
30
0.0000000000
10
-46.4506848717
20
22.6084210353
30
0.0000000000
11
-46.4464647856
21
22.5436011532
31
0.0000000000
11
-46.4506848717
21
22.6084210353
31
0.0000000000
0
SPLINE
5
50A
100
AcDbEntity
8
0
100
AcDbSpline
62
7
6
CONTINUOUS
70
0
71
3
72
11
73
7
74
5
42
0.0000001000
43
0.0000001000
44
0.0000000001
12
0.6164606618
22
-0.0004224190
32
0.0000000000
13
0.2006458790
23
-0.5885082758
33
0.0000000000
40
0.0000000000
40
0.0000000000
40
0.0000000000
40
0.0000000000
40
0.3118424056
40
0.6297186673
40
0.9475841685
40
1.0000000000
40
1.0000000000
40
1.0000000000
40
1.0000000000
10
-33.4072867441
20
28.6518191629
30
0.0000000000
10
-33.3432072188
20
28.6517752536
30
0.0000000000
10
-33.2124646296
20
28.6261995404
30
0.0000000000
10
-33.0460531944
20
28.5158386658
30
0.0000000000
10
-32.9650410489
20
28.3955868361
30
0.0000000000
10
-32.9379136935
20
28.3237673673
30
0.0000000000
10
-32.9344080200
20
28.3134849837
30
0.0000000000
11
-33.4072867441
21
28.6518191629
31
0.0000000000
11
-33.2186596880
21
28.6147311448
31
0.0000000000
11
-33.0552529094
21
28.5065744849
31
0.0000000000
11
-32.9459237136
21
28.3439578634
31
0.0000000000
11
-32.9344080200
21
28.3134849837
31
0.0000000000
0
SPLINE
5
50B
100
AcDbEntity
8
0
100
AcDbSpline
62
7
6
CONTINUOUS
70
0
71
3
72
8
73
4
74
2
42
0.0000001000
43
0.0000001000
44
0.0000000001
12
0.0532065737
22
-0.1560585701
32
0.0000000000
13
0.0001120156
23
-0.1634708862
33
0.0000000000
40
0.0000000000
40
0.0000000000
40
0.0000000000
40
0.0000000000
40
1.0000000000
40
1.0000000000
40
1.0000000000
40
1.0000000000
10
-32.9344080200
20
28.3134849837
30
0.0000000000
10
-32.9166724954
20
28.2614654604
30
0.0000000000
10
-32.9074954201
20
28.2064807959
30
0.0000000000
10
-32.9074580816
20
28.1519905004
30
0.0000000000
11
-32.9344080200
21
28.3134849837
31
0.0000000000
11
-32.9074580816
21
28.1519905004
31
0.0000000000
0
SPLINE
5
50C
100
AcDbEntity
8
0
100
AcDbSpline
62
7
6
CONTINUOUS
70
0
71
3
72
11
73
7
74
5
42
0.0000001000
43
0.0000001000
44
0.0000000001
12
0.7155084801
22
0.0005222294
32
0.0000000000
13
0.0933344598
23
-0.7136149085
33
0.0000000000
40
0.0000000000
40
0.0000000000
40
0.0000000000
40
0.0000000000
40
0.2715477780
40
0.5452924043
40
0.8190289814
40
1.0000000000
40
1.0000000000
40
1.0000000000
40
1.0000000000
10
-33.2491434281
20
28.8099624789
30
0.0000000000
10
-33.1843785155
20
28.8100097490
30
0.0000000000
10
-33.0528948714
20
28.7842175054
30
0.0000000000
10
-32.8862918123
20
28.6729717802
30
0.0000000000
10
-32.7873548184
20
28.5247897019
30
0.0000000000
10
-32.7591643572
20
28.4179957803
30
0.0000000000
10
-32.7535340798
20
28.3749479080
30
0.0000000000
11
-33.2491434281
21
28.8099624789
31
0.0000000000
11
-33.0585239497
21
28.7723502501
31
0.0000000000
11
-32.8955425022
21
28.6637187915
31
0.0000000000
11
-32.7869206447
21
28.5007378661
31
0.0000000000
11
-32.7535340798
21
28.3749479080
31
0.0000000000
0
SPLINE
5
50D
100
AcDbEntity
8
0
100
AcDbSpline
62
7
6
CONTINUOUS
70
0
71
3
72
8
73
4
74
2
42
0.0000001000
43
0.0000001000
44
0.0000000001
12
0.0084517981
22
-0.0646206033
32
0.0000000000
13
-0.0000472921
23
-0.0647920735
33
0.0000000000
40
0.0000000000
40
0.0000000000
40
0.0000000000
40
0.0000000000
40
1.0000000000
40
1.0000000000
40
1.0000000000
40
1.0000000000
10
-32.7535340798
20
28.3749479080
30
0.0000000000
10
-32.7507168138
20
28.3534077070
30
0.0000000000
10
-32.7492990016
20
28.3317311743
30
0.0000000000
10
-32.7493147656
20
28.3101338164
30
0.0000000000
11
-32.7535340798
21
28.3749479080
31
0.0000000000
11
-32.7493147656
21
28.3101338164
31
0.0000000000
0
SPLINE
5
50E
100
AcDbEntity
8
0
100
AcDbSpline
62
7
6
CONTINUOUS
70
0
71
3
72
8
73
4
74
2
42
0.0000001000
43
0.0000001000
44
0.0000000001
12
0.2556484759
22
0.0000614364
32
0.0000000000
13
0.2552561602
23
-0.0217963751
33
0.0000000000
40
0.0000000000
40
0.0000000000
40
0.0000000000
40
0.0000000000
40
1.0000000000
40
1.0000000000
40
1.0000000000
40
1.0000000000
10
43.4517128967
20
28.8099621162
30
0.0000000000
10
43.5369290554
20
28.8099825950
30
0.0000000000
10
43.6222630480
20
28.8063430873
30
0.0000000000
10
43.7073484347
20
28.7990776289
30
0.0000000000
11
43.4517128967
21
28.8099621162
31
0.0000000000
11
43.7073484347
21
28.7990776289
31
0.0000000000
0
SPLINE
5
50F
100
AcDbEntity
8
0
100
AcDbSpline
62
7
6
CONTINUOUS
70
0
71
3
72
14
73
10
74
8
42
0.0000001000
43
0.0000001000
44
0.0000000001
12
4.1837011945
22
-0.3572470903
32
0.0000000000
13
0.3572401035
23
-4.1837009598
33
0.0000000000
40
0.0000000000
40
0.0000000000
40
0.0000000000
40
0.0000000000
40
0.0990550565
40
0.2594192881
40
0.4198386125
40
0.5801677498
40
0.7405814477
40
0.9009502864
40
1.0000000000
40
1.0000000000
40
1.0000000000
40
1.0000000000
10
43.7073484347
20
28.7990776289
30
0.0000000000
10
43.8454873541
20
28.7872819187
30
0.0000000000
10
44.2055487840
20
28.7313591488
30
0.0000000000
10
44.7635838892
20
28.5363814829
30
0.0000000000
10
45.3375597002
20
28.1760212835
30
0.0000000000
10
45.8167583156
20
27.6968175769
30
0.0000000000
10
46.1771137502
20
27.1228410713
30
0.0000000000
10
46.3720853034
20
26.5648128724
30
0.0000000000
10
46.4280059634
20
26.2047523709
30
0.0000000000
10
46.4398008067
20
26.0666209103
30
0.0000000000
11
43.7073484347
21
28.7990776289
31
0.0000000000
11
44.1182311792
21
28.7351636678
31
0.0000000000
11
44.7525958731
21
28.5135909070
31
0.0000000000
11
45.3218536673
21
28.1561431445
31
0.0000000000
11
45.7968856154
21
27.6811061940
31
0.0000000000
11
46.1543171016
21
27.1118660176
31
0.0000000000
11
46.3758924948
21
26.4774817952
31
0.0000000000
11
46.4398008067
21
26.0666209103
31
0.0000000000
0
SPLINE
5
510
100
AcDbEntity
8
0
100
AcDbSpline
62
7
6
CONTINUOUS
70
0
71
3
72
8
73
4
74
2
42
0.0000001000
43
0.0000001000
44
0.0000000001
12
0.0217955437
22
-0.2552514012
32
0.0000000000
13
-0.0000614435
23
-0.2556437239
33
0.0000000000
40
0.0000000000
40
0.0000000000
40
0.0000000000
40
0.0000000000
40
1.0000000000
40
1.0000000000
40
1.0000000000
40
1.0000000000
10
46.4398008067
20
26.0666209103
30
0.0000000000
10
46.4470659880
20
25.9815371099
30
0.0000000000
10
46.4507053529
20
25.8962047159
30
0.0000000000
10
46.4506848717
20
25.8109901413
30
0.0000000000
11
46.4398008067
21
26.0666209103
31
0.0000000000
11
46.4506848717
21
25.8109901413
31
0.0000000000
0
SPLINE
5
511
100
AcDbEntity
8
0
100
AcDbSpline
62
7
6
CONTINUOUS
70
0
71
3
72
8
73
4
74
2
42
0.0000001000
43
0.0000001000
44
0.0000000001
12
-0.0000614364
22
0.2556484759
32
0.0000000000
13
0.0217963751
23
0.2552561602
33
0.0000000000
40
0.0000000000
40
0.0000000000
40
0.0000000000
40
0.0000000000
40
1.0000000000
40
1.0000000000
40
1.0000000000
40
1.0000000000
10
-46.4506845084
20
25.8109901412
30
0.0000000000
10
-46.4507049872
20
25.8962062999
30
0.0000000000
10
-46.4470654796
20
25.9815402925
30
0.0000000000
10
-46.4398000212
20
26.0666256792
30
0.0000000000
11
-46.4506845084
21
25.8109901412
31
0.0000000000
11
-46.4398000212
21
26.0666256792
31
0.0000000000
0
SPLINE
5
512
100
AcDbEntity
8
0
100
AcDbSpline
62
7
6
CONTINUOUS
70
0
71
3
72
14
73
10
74
8
42
0.0000001000
43
0.0000001000
44
0.0000000001
12
0.3572470903
22
4.1837011945
32
0.0000000000
13
4.1837009598
23
0.3572401035
33
0.0000000000
40
0.0000000000
40
0.0000000000
40
0.0000000000
40
0.0000000000
40
0.0990550565
40
0.2594192881
40
0.4198386125
40
0.5801677498
40
0.7405814477
40
0.9009502864
40
1.0000000000
40
1.0000000000
40
1.0000000000
40
1.0000000000
10
-46.4398000212
20
26.0666256792
30
0.0000000000
10
-46.4280043110
20
26.2047645986
30
0.0000000000
10
-46.3720815411
20
26.5648260285
30
0.0000000000
10
-46.1771038752
20
27.1228611337
30
0.0000000000
10
-45.8167436758
20
27.6968369447
30
0.0000000000
10
-45.3375399691
20
28.1760355601
30
0.0000000000
10
-44.7635634635
20
28.5363909947
30
0.0000000000
10
-44.2055352647
20
28.7313625479
30
0.0000000000
10
-43.8454747632
20
28.7872832079
30
0.0000000000
10
-43.7073433026
20
28.7990780513
30
0.0000000000
11
-46.4398000212
21
26.0666256792
31
0.0000000000
11
-46.3758860601
21
26.4775084237
31
0.0000000000
11
-46.1543132993
21
27.1118731176
31
0.0000000000
11
-45.7968655368
21
27.6811309118
31
0.0000000000
11
-45.3218285862
21
28.1561628599
31
0.0000000000
11
-44.7525884099
21
28.5135943461
31
0.0000000000
11
-44.1182041875
21
28.7351697393
31
0.0000000000
11
-43.7073433026
21
28.7990780513
31
0.0000000000
0
SPLINE
5
513
100
AcDbEntity
8
0
100
AcDbSpline
62
7
6
CONTINUOUS
70
0
71
3
72
8
73
4
74
2
42
0.0000001000
43
0.0000001000
44
0.0000000001
12
0.2552514012
22
0.0217955437
32
0.0000000000
13
0.2556437239
23
-0.0000614435
33
0.0000000000
40
0.0000000000
40
0.0000000000
40
0.0000000000
40
0.0000000000
40
1.0000000000
40
1.0000000000
40
1.0000000000
40
1.0000000000
10
-43.7073433026
20
28.7990780513
30
0.0000000000
10
-43.6222595022
20
28.8063432325
30
0.0000000000
10
-43.5369271082
20
28.8099825974
30
0.0000000000
10
-43.4517125335
20
28.8099621162
30
0.0000000000
11
-43.7073433026
21
28.7990780513
31
0.0000000000
11
-43.4517125335
21
28.8099621162
31
0.0000000000
0
SPLINE
5
514
100
AcDbEntity
8
0
100
AcDbSpline
62
7
6
CONTINUOUS
70
0
71
3
72
11
73
7
74
5
42
0.0000001000
43
0.0000001000
44
0.0000000001
12
0.0000950517
22
-0.3120678669
32
0.0000000000
13
0.3120678669
23
-0.0000950517
33
0.0000000000
40
0.0000000000
40
0.0000000000
40
0.0000000000
40
0.0000000000
40
0.2510930827
40
0.5023175674
40
0.7535899705
40
1.0000000000
40
1.0000000000
40
1.0000000000
40
1.0000000000
10
-45.1534299048
20
23.6058168787
30
0.0000000000
10
-45.1534219492
20
23.5796975178
30
0.0000000000
10
-45.1429049744
20
23.5268721701
30
0.0000000000
10
-45.0979970840
20
23.4602054261
30
0.0000000000
10
-45.0314045936
20
23.4160657938
30
0.0000000000
10
-44.9790925832
20
23.4058551469
30
0.0000000000
10
-44.9534603658
20
23.4058473397
30
0.0000000000
11
-45.1534299048
21
23.6058168787
31
0.0000000000
11
-45.1380559886
21
23.5289817800
31
0.0000000000
11
-45.0943163802
21
23.4639182388
31
0.0000000000
11
-45.0289181021
21
23.4206536124
31
0.0000000000
11
-44.9534603658
21
23.4058473397
31
0.0000000000
0
SPLINE
5
515
100
AcDbEntity
8
0
100
AcDbSpline
62
7
6
CONTINUOUS
70
0
71
3
72
11
73
7
74
5
42
0.0000001000
43
0.0000001000
44
0.0000000001
12
0.3120678669
22
-0.0000950517
32
0.0000000000
13
0.0000950517
23
-0.3120678669
33
0.0000000000
40
0.0000000000
40
0.0000000000
40
0.0000000000
40
0.0000000000
40
0.2510930827
40
0.5023175674
40
0.7535899705
40
1.0000000000
40
1.0000000000
40
1.0000000000
40
1.0000000000
10
-34.2465392710
20
27.5127075125
30
0.0000000000
10
-34.2204199101
20
27.5126995569
30
0.0000000000
10
-34.1675945623
20
27.5021825821
30
0.0000000000
10
-34.1009278184
20
27.4572746917
30
0.0000000000
10
-34.0567881861
20
27.3906822013
30
0.0000000000
10
-34.0465775392
20
27.3383701909
30
0.0000000000
10
-34.0465697320
20
27.3127379735
30
0.0000000000
11
-34.2465392710
21
27.5127075125
31
0.0000000000
11
-34.1697041723
21
27.4973335964
31
0.0000000000
11
-34.1046406311
21
27.4535939880
31
0.0000000000
11
-34.0613760047
21
27.3881957098
31
0.0000000000
11
-34.0465697320
21
27.3127379735
31
0.0000000000
0
SPLINE
5
516
100
AcDbEntity
8
0
100
AcDbSpline
62
7
6
CONTINUOUS
70
0
71
3
72
12
73
8
74
6
42
0.0000001000
43
0.0000001000
44
0.0000000001
12
0.0000000000
22
-0.7824106927
32
0.0000000000
13
-0.7824106927
23
-0.0000000000
33
0.0000000000
40
0.0000000000
40
0.0000000000
40
0.0000000000
40
0.0000000000
40
0.2005581612
40
0.4006750265
40
0.6001161878
40
0.7997558196
40
1.0000000000
40
1.0000000000
40
1.0000000000
40
1.0000000000
10
-35.9999998184
20
-25.4332743390
30
0.0000000000
10
-35.9999998184
20
-25.4855806223
30
0.0000000000
10
-36.0166518959
20
-25.5908181641
30
0.0000000000
10
-36.0889605776
20
-25.7324169908
30
0.0000000000
10
-36.2013334154
20
-25.8447570379
30
0.0000000000
10
-36.3427451991
20
-25.9169539954
30
0.0000000000
10
-36.4477754224
20
-25.9335791112
30
0.0000000000
10
-36.4999998184
20
-25.9335791112
30
0.0000000000
11
-35.9999998184
21
-25.4332743390
31
0.0000000000
11
-36.0245940897
21
-25.5882538450
31
0.0000000000
11
-36.0957620280
21
-25.7277185681
31
0.0000000000
11
-36.2061215576
21
-25.8380398451
31
0.0000000000
11
-36.3452637234
21
-25.9090183964
31
0.0000000000
11
-36.4999998184
21
-25.9335791112
31
0.0000000000
0
SPLINE
5
517
100
AcDbEntity
8
0
100
AcDbSpline
62
7
6
CONTINUOUS
70
0
71
3
72
12
73
8
74
6
42
0.0000001000
43
0.0000001000
44
0.0000000001
12
0.0000000000
22
0.7821871808
32
0.0000000000
13
0.7821871808
23
0.0000000000
33
0.0000000000
40
0.0000000000
40
0.0000000000
40
0.0000000000
40
0.0000000000
40
0.2004526707
40
0.4005143086
40
0.5999564665
40
0.7996498866
40
1.0000000000
40
1.0000000000
40
1.0000000000
40
1.0000000000
10
-40.9607289133
20
-0.2907225739
30
0.0000000000
10
-40.9607289133
20
-0.2384587374
30
0.0000000000
10
-40.9440800934
20
-0.1332930556
30
0.0000000000
10
-40.8717813660
20
0.0082141920
30
0.0000000000
10
-40.7594114337
20
0.1204928104
30
0.0000000000
10
-40.6179887353
20
0.1926585375
30
0.0000000000
10
-40.5129469709
20
0.2092774261
30
0.0000000000
10
-40.4607098741
20
0.2092774261
30
0.0000000000
11
-40.9607289133
21
-0.2907225739
31
0.0000000000
11
-40.9361444458
21
-0.1358704465
31
0.0000000000
11
-40.8649915008
21
0.0035032118
31
0.0000000000
11
-40.7546378251
21
0.1137683886
31
0.0000000000
11
-40.6154852007
21
0.1847208218
31
0.0000000000
11
-40.4607098741
21
0.2092774261
31
0.0000000000
0
SPLINE
5
518
100
AcDbEntity
8
0
100
AcDbSpline
62
7
6
CONTINUOUS
70
0
71
3
72
12
73
8
74
6
42
0.0000001000
43
0.0000001000
44
0.0000000001
12
-0.7821980168
22
0.0000000000
32
0.0000000000
13
0.0000000000
23
0.7821980168
33
0.0000000000
40
0.0000000000
40
0.0000000000
40
0.0000000000
40
0.0000000000
40
0.2002653953
40
0.3998999486
40
0.5993252533
40
0.7994315263
40
1.0000000000
40
1.0000000000
40
1.0000000000
40
1.0000000000
10
-40.4608621558
20
-25.9335791112
30
0.0000000000
10
-40.5130778875
20
-25.9335791112
30
0.0000000000
10
-40.6180840208
20
-25.9169618998
30
0.0000000000
10
-40.7594608807
20
-25.8447908397
30
0.0000000000
10
-40.8717995908
20
-25.7324888022
30
0.0000000000
10
-40.9440843480
20
-25.5909306060
30
0.0000000000
10
-40.9607289133
20
-25.4857214618
30
0.0000000000
10
-40.9607289133
20
-25.4334267077
30
0.0000000000
11
-40.4608621558
21
-25.9335791112
31
0.0000000000
11
-40.6155731478
21
-25.9090260529
31
0.0000000000
11
-40.7546763894
21
-25.8380733761
31
0.0000000000
11
-40.8649988463
21
-25.7277925533
31
0.0000000000
11
-40.9361422716
21
-25.5883724040
31
0.0000000000
11
-40.9607289133
21
-25.4334267077
31
0.0000000000
0
SPLINE
5
519
100
AcDbEntity
8
0
100
AcDbSpline
62
7
6
CONTINUOUS
70
0
71
3
72
12
73
8
74
6
42
0.0000001000
43
0.0000001000
44
0.0000000001
12
0.7811965698
22
0.0000000000
32
0.0000000000
13
-0.0000000000
23
-0.7811965698
33
0.0000000000
40
0.0000000000
40
0.0000000000
40
0.0000000000
40
0.0000000000
40
0.2004786115
40
0.4000945666
40
0.5993934927
40
0.7993924508
40
1.0000000000
40
1.0000000000
40
1.0000000000
40
1.0000000000
10
34.5006854142
20
14.1092774261
30
0.0000000000
10
34.5528898154
20
14.1092774261
30
0.0000000000
10
34.6578141508
20
14.0927090814
30
0.0000000000
10
34.7990590833
20
14.0206848627
30
0.0000000000
10
34.9112373926
20
13.9085984044
30
0.0000000000
10
34.9834000635
20
13.7672595975
30
0.0000000000
10
35.0000001816
20
13.6622006352
30
0.0000000000
10
35.0000001816
20
13.6099626587
30
0.0000000000
11
34.5006854142
21
14.1092774261
31
0.0000000000
11
34.6553680243
21
14.0847624162
31
0.0000000000
11
34.7943048880
21
14.0139555451
31
0.0000000000
11
34.9044401883
21
13.9039096384
31
0.0000000000
11
34.9754536149
21
13.7647422495
31
0.0000000000
11
35.0000001816
21
13.6099626587
31
0.0000000000
0
SPLINE
5
51A
100
AcDbEntity
8
0
100
AcDbSpline
62
7
6
CONTINUOUS
70
0
71
3
72
12
73
8
74
6
42
0.0000001000
43
0.0000001000
44
0.0000000001
12
0.0000000000
22
0.7811965698
32
0.0000000000
13
0.7811965698
23
0.0000000000
33
0.0000000000
40
0.0000000000
40
0.0000000000
40
0.0000000000
40
0.0000000000
40
0.2004786115
40
0.4000945666
40
0.5993934927
40
0.7993924508
40
1.0000000000
40
1.0000000000
40
1.0000000000
40
1.0000000000
10
30.0000001816
20
13.6099626587
30
0.0000000000
10
30.0000001816
20
13.6621670600
30
0.0000000000
10
30.0165685263
20
13.7670913953
30
0.0000000000
10
30.0885927450
20
13.9083363279
30
0.0000000000
10
30.2006792033
20
14.0205146371
30
0.0000000000
10
30.3420180103
20
14.0926773080
30
0.0000000000
10
30.4470769725
20
14.1092774261
30
0.0000000000
10
30.4993149490
20
14.1092774261
30
0.0000000000
11
30.0000001816
21
13.6099626587
31
0.0000000000
11
30.0245151915
21
13.7646452688
31
0.0000000000
11
30.0953220627
21
13.9035821325
31
0.0000000000
11
30.2053679693
21
14.0137174328
31
0.0000000000
11
30.3445353582
21
14.0847308594
31
0.0000000000
11
30.4993149490
21
14.1092774261
31
0.0000000000
0
SPLINE
5
51B
100
AcDbEntity
8
0
100
AcDbSpline
62
7
6
CONTINUOUS
70
0
71
3
72
12
73
8
74
6
42
0.0000001000
43
0.0000001000
44
0.0000000001
12
-0.7811965698
22
0.0000000000
32
0.0000000000
13
-0.0000000000
23
0.7811965698
33
0.0000000000
40
0.0000000000
40
0.0000000000
40
0.0000000000
40
0.0000000000
40
0.2004786115
40
0.4000945666
40
0.5993934927
40
0.7993924508
40
1.0000000000
40
1.0000000000
40
1.0000000000
40
1.0000000000
10
30.4993149490
20
-16.8907225739
30
0.0000000000
10
30.4471105478
20
-16.8907225739
30
0.0000000000
10
30.3421862124
20
-16.8741542292
30
0.0000000000
10
30.2009412799
20
-16.8021300105
30
0.0000000000
10
30.0887629706
20
-16.6900435522
30
0.0000000000
10
30.0166002997
20
-16.5487047452
30
0.0000000000
10
30.0000001816
20
-16.4436457830
30
0.0000000000
10
30.0000001816
20
-16.3914078065
30
0.0000000000
11
30.4993149490
21
-16.8907225739
31
0.0000000000
11
30.3446323389
21
-16.8662075640
31
0.0000000000
11
30.2056954753
21
-16.7954006928
31
0.0000000000
11
30.0955601749
21
-16.6853547862
31
0.0000000000
11
30.0245467483
21
-16.5461873973
31
0.0000000000
11
30.0000001816
21
-16.3914078065
31
0.0000000000
0
SPLINE
5
51C
100
AcDbEntity
8
0
100
AcDbSpline
62
7
6
CONTINUOUS
70
0
71
3
72
12
73
8
74
6
42
0.0000001000
43
0.0000001000
44
0.0000000001
12
0.0000000000
22
-0.7811965698
32
0.0000000000
13
-0.7811965698
23
-0.0000000000
33
0.0000000000
40
0.0000000000
40
0.0000000000
40
0.0000000000
40
0.0000000000
40
0.2004786115
40
0.4000945666
40
0.5993934927
40
0.7993924508
40
1.0000000000
40
1.0000000000
40
1.0000000000
40
1.0000000000
10
35.0000001816
20
-16.3914078065
30
0.0000000000
10
35.0000001816
20
-16.4436122077
30
0.0000000000
10
34.9834318369
20
-16.5485365431
30
0.0000000000
10
34.9114076182
20
-16.6897814756
30
0.0000000000
10
34.7993211599
20
-16.8019597849
30
0.0000000000
10
34.6579823530
20
-16.8741224558
30
0.0000000000
10
34.5529233907
20
-16.8907225739
30
0.0000000000
10
34.5006854142
20
-16.8907225739
30
0.0000000000
11
35.0000001816
21
-16.3914078065
31
0.0000000000
11
34.9754851717
21
-16.5460904166
31
0.0000000000
11
34.9046783006
21
-16.6850272802
31
0.0000000000
11
34.7946323939
21
-16.7951625806
31
0.0000000000
11
34.6554650050
21
-16.8661760072
31
0.0000000000
11
34.5006854142
21
-16.8907225739
31
0.0000000000
0
SPLINE
5
51D
100
AcDbEntity
8
0
100
AcDbSpline
62
7
6
CONTINUOUS
70
0
71
3
72
12
73
8
74
6
42
0.0000001000
43
0.0000001000
44
0.0000000001
12
-0.2577380737
22
0.5763198532
32
0.0000000000
13
-0.0081640817
23
0.6312739782
33
0.0000000000
40
0.0000000000
40
0.0000000000
40
0.0000000000
40
0.0000000000
40
0.2481432339
40
0.4729087044
40
0.6734536919
40
0.8491135784
40
1.0000000000
40
1.0000000000
40
1.0000000000
40
1.0000000000
10
-33.7574575087
20
23.8435886513
30
0.0000000000
10
-33.7787761617
20
23.8912586087
30
0.0000000000
10
-33.8194147396
20
23.9821065453
30
0.0000000000
10
-33.8743534987
20
24.1127667819
30
0.0000000000
10
-33.9178785984
20
24.2316157514
30
0.0000000000
10
-33.9475869973
20
24.3386044331
30
0.0000000000
10
-33.9570164313
20
24.4071560288
30
0.0000000000
10
-33.9574270477
20
24.4389062527
30
0.0000000000
11
-33.7574575087
21
23.8435886513
31
0.0000000000
11
-33.8208565449
21
23.9868462879
31
0.0000000000
11
-33.8752421388
21
24.1179109557
31
0.0000000000
11
-33.9179638036
21
24.2370948652
31
0.0000000000
11
-33.9463860007
21
24.3442896411
31
0.0000000000
11
-33.9574270477
21
24.4389062527
31
0.0000000000
0
SPLINE
5
51E
100
AcDbEntity
8
0
100
AcDbSpline
62
9
6
CONTINUOUS
70
0
71
3
72
11
73
7
74
5
42
0.0000001000
43
0.0000001000
44
0.0000000001
12
0.3121341846
22
0.0001015633
32
0.0000000000
13
-0.0001014140
23
-0.3121341846
33
0.0000000000
40
0.0000000000
40
0.0000000000
40
0.0000000000
40
0.0000000000
40
0.2498181029
40
0.4998193505
40
0.7498383919
40
1.0000000000
40
1.0000000000
40
1.0000000000
40
1.0000000000
10
-34.1573965867
20
27.6018501968
30
0.0000000000
10
-34.1314043301
20
27.6018586543
30
0.0000000000
10
-34.0788284289
20
27.5914833322
30
0.0000000000
10
-34.0123429852
20
27.5470149251
30
0.0000000000
10
-33.9678168124
20
27.4805244695
30
0.0000000000
10
-33.9574185911
20
27.4279086543
30
0.0000000000
10
-33.9574270477
20
27.4018806578
30
0.0000000000
11
-34.1573965867
21
27.6018501968
31
0.0000000000
11
-34.0809108652
21
27.5866741733
31
0.0000000000
11
-34.0160085169
21
27.5433500354
31
0.0000000000
11
-33.9726448803
21
27.4784673906
31
0.0000000000
11
-33.9574270477
21
27.4018806578
31
0.0000000000
0
SPLINE
5
51F
100
AcDbEntity
8
0
100
AcDbSpline
62
9
6
CONTINUOUS
70
0
71
3
72
13
73
9
74
7
42
0.0000001000
43
0.0000001000
44
0.0000000001
12
0.0001623637
22
0.7827212197
32
0.0000000000
13
0.7827212073
23
0.0002139231
33
0.0000000000
40
0.0000000000
40
0.0000000000
40
0.0000000000
40
0.0000000000
40
0.1657263319
40
0.3327542275
40
0.4999465370
40
0.6671999044
40
0.8342754433
40
1.0000000000
40
1.0000000000
40
1.0000000000
40
1.0000000000
10
-43.2771675809
20
24.9867497751
30
0.0000000000
10
-43.2771586116
20
25.0299889473
30
0.0000000000
10
-43.2657933540
20
25.1172278816
30
0.0000000000
10
-43.2154557017
20
25.2391257921
30
0.0000000000
10
-43.1349627193
20
25.3442027610
30
0.0000000000
10
-43.0298855018
20
25.4247180182
30
0.0000000000
10
-42.9079617071
20
25.4750713443
30
0.0000000000
10
-42.8207108757
20
25.4864333712
30
0.0000000000
10
-42.7774721674
20
25.4864451886
30
0.0000000000
11
-43.2771675809
21
24.9867497751
31
0.0000000000
11
-43.2603464070
21
25.1153720241
31
0.0000000000
11
-43.2104783382
21
25.2362237965
31
0.0000000000
11
-43.1308767148
21
25.3400949775
31
0.0000000000
11
-43.0269779441
21
25.4197391667
31
0.0000000000
11
-42.9060931362
21
25.4696249406
31
0.0000000000
11
-42.7774721674
21
25.4864451886
31
0.0000000000
0
SPLINE
5
520
100
AcDbEntity
8
0
100
AcDbSpline
62
7
6
CONTINUOUS
70
0
71
3
72
11
73
7
74
5
42
0.0000001000
43
0.0000001000
44
0.0000000001
12
0.1791272387
22
0.0895363312
32
0.0000000000
13
0.0000000000
23
0.2002581390
33
0.0000000000
40
0.0000000000
40
0.0000000000
40
0.0000000000
40
0.0000000000
40
0.0814888752
40
0.3014516178
40
0.6249974447
40
1.0000000000
40
1.0000000000
40
1.0000000000
40
1.0000000000
10
44.3232963790
20
23.4058473397
30
0.0000000000
10
44.3281620047
20
23.4082794113
30
0.0000000000
10
44.3227652650
20
23.4348085261
30
0.0000000000
10
44.3308292286
20
23.4708356253
30
0.0000000000
10
44.3289967250
20
23.5349337715
30
0.0000000000
10
44.3301586426
20
23.5807844408
30
0.0000000000
10
44.3301586426
20
23.6058168787
30
0.0000000000
11
44.3232963790
21
23.4058473397
31
0.0000000000
11
44.3259228710
21
23.4219533981
31
0.0000000000
11
44.3281665725
21
23.4659455477
31
0.0000000000
11
44.3296476216
21
23.5307213036
31
0.0000000000
11
44.3301586426
21
23.6058168787
31
0.0000000000
0
SPLINE
5
521
100
AcDbEntity
8
0
100
AcDbSpline
62
7
6
CONTINUOUS
70
0
71
3
72
11
73
7
74
5
42
0.0000001000
43
0.0000001000
44
0.0000000001
12
0.0000000000
22
-0.2002581390
32
0.0000000000
13
0.1791272387
23
-0.0895363312
33
0.0000000000
40
0.0000000000
40
0.0000000000
40
0.0000000000
40
0.0000000000
40
0.3750025553
40
0.6985483822
40
0.9185111248
40
1.0000000000
40
1.0000000000
40
1.0000000000
40
1.0000000000
10
-44.3301582794
20
23.6058168787
30
0.0000000000
10
-44.3301582794
20
23.5807844408
30
0.0000000000
10
-44.3289963618
20
23.5349337715
30
0.0000000000
10
-44.3308288653
20
23.4708356253
30
0.0000000000
10
-44.3227649018
20
23.4348085261
30
0.0000000000
10
-44.3281616415
20
23.4082794113
30
0.0000000000
10
-44.3232960158
20
23.4058473397
30
0.0000000000
11
-44.3301582794
21
23.6058168787
31
0.0000000000
11
-44.3296472583
21
23.5307213036
31
0.0000000000
11
-44.3281662093
21
23.4659455477
31
0.0000000000
11
-44.3259225078
21
23.4219533981
31
0.0000000000
11
-44.3232960158
21
23.4058473397
31
0.0000000000
0
SPLINE
5
522
100
AcDbEntity
8
0
100
AcDbSpline
62
9
6
CONTINUOUS
70
0
71
3
72
11
73
7
74
5
42
0.0000001000
43
0.0000001000
44
0.0000000001
12
-0.3121341846
22
0.0001015634
32
0.0000000000
13
0.0001014138
23
-0.3121341846
33
0.0000000000
40
0.0000000000
40
0.0000000000
40
0.0000000000
40
0.0000000000
40
0.2498180899
40
0.4998192838
40
0.7498384228
40
1.0000000000
40
1.0000000000
40
1.0000000000
40
1.0000000000
10
34.1573969499
20
27.6018501968
30
0.0000000000
10
34.1314046947
20
27.6018586543
30
0.0000000000
10
34.0788288005
20
27.5914833340
30
0.0000000000
10
34.0123433521
20
27.5470149302
30
0.0000000000
10
33.9678171755
20
27.4805244730
30
0.0000000000
10
33.9574189543
20
27.4279086511
30
0.0000000000
10
33.9574274109
20
27.4018806578
30
0.0000000000
11
34.1573969499
21
27.6018501968
31
0.0000000000
11
34.0809112323
21
27.5866741749
31
0.0000000000
11
34.0160088951
21
27.5433500505
31
0.0000000000
11
33.9726452398
21
27.4784673815
31
0.0000000000
11
33.9574274109
21
27.4018806578
31
0.0000000000
0
SPLINE
5
523
100
AcDbEntity
8
0
100
AcDbSpline
62
9
6
CONTINUOUS
70
0
71
3
72
11
73
7
74
5
42
0.0000001000
43
0.0000001000
44
0.0000000001
12
-0.3120682848
22
-0.0000950518
32
0.0000000000
13
-0.0000950518
23
-0.3120682848
33
0.0000000000
40
0.0000000000
40
0.0000000000
40
0.0000000000
40
0.0000000000
40
0.2499897029
40
0.5000000000
40
0.7500102971
40
1.0000000000
40
1.0000000000
40
1.0000000000
40
1.0000000000
10
34.2465396342
20
27.5127075125
30
0.0000000000
10
34.2205350150
20
27.5126995919
30
0.0000000000
10
34.1679581997
20
27.5022799747
30
0.0000000000
10
34.1015029108
20
27.4577746969
30
0.0000000000
10
34.0569976330
20
27.3913194080
30
0.0000000000
10
34.0465780159
20
27.3387425928
30
0.0000000000
10
34.0465700952
20
27.3127379735
30
0.0000000000
11
34.2465396342
21
27.5127075125
31
0.0000000000
11
34.1700286693
21
27.4974682601
31
0.0000000000
11
34.1051613465
21
27.4541162612
31
0.0000000000
11
34.0618093476
21
27.3892489385
31
0.0000000000
11
34.0465700952
21
27.3127379735
31
0.0000000000
0
SPLINE
5
524
100
AcDbEntity
8
0
100
AcDbSpline
62
7
6
CONTINUOUS
70
0
71
3
72
12
73
8
74
6
42
0.0000001000
43
0.0000001000
44
0.0000000001
12
0.5763198327
22
0.2577380645
32
0.0000000000
13
0.6312739558
23
0.0081640814
33
0.0000000000
40
0.0000000000
40
0.0000000000
40
0.0000000000
40
0.0000000000
40
0.2480372190
40
0.4727117892
40
0.6732697292
40
0.8491903603
40
1.0000000000
40
1.0000000000
40
1.0000000000
40
1.0000000000
10
41.6343114068
20
23.1167351164
30
0.0000000000
10
41.6819609963
20
23.1380446606
30
0.0000000000
10
41.7727710932
20
23.1786662798
30
0.0000000000
10
41.9033945677
20
23.2335926553
30
0.0000000000
10
42.0222769339
20
23.2771374740
30
0.0000000000
10
42.1293046338
20
23.3068633807
30
0.0000000000
10
42.1978949422
20
23.3162942480
30
0.0000000000
10
42.2296290082
20
23.3167046554
30
0.0000000000
11
41.6343114068
21
23.1167351164
31
0.0000000000
11
41.7775076188
21
23.1801075503
31
0.0000000000
11
41.9085179208
21
23.2344744145
31
0.0000000000
11
42.0277068941
21
23.2772061721
31
0.0000000000
11
42.1350600857
21
23.3056731877
31
0.0000000000
11
42.2296290082
21
23.3167046554
31
0.0000000000
0
SPLINE
5
525
100
AcDbEntity
8
0
100
AcDbSpline
62
9
6
CONTINUOUS
70
0
71
3
72
11
73
7
74
5
42
0.0000001000
43
0.0000001000
44
0.0000000001
12
0.0001015633
22
-0.3121341846
32
0.0000000000
13
-0.3121341846
23
0.0001014140
33
0.0000000000
40
0.0000000000
40
0.0000000000
40
0.0000000000
40
0.0000000000
40
0.2498181029
40
0.4998193505
40
0.7498383919
40
1.0000000000
40
1.0000000000
40
1.0000000000
40
1.0000000000
10
45.2425729523
20
23.5166741944
30
0.0000000000
10
45.2425814098
20
23.4906819378
30
0.0000000000
10
45.2322060877
20
23.4381060366
30
0.0000000000
10
45.1877376806
20
23.3716205929
30
0.0000000000
10
45.1212472250
20
23.3270944201
30
0.0000000000
10
45.0686314098
20
23.3166961988
30
0.0000000000
10
45.0426034133
20
23.3167046554
30
0.0000000000
11
45.2425729523
21
23.5166741944
31
0.0000000000
11
45.2273969288
21
23.4401884730
31
0.0000000000
11
45.1840727909
21
23.3752861246
31
0.0000000000
11
45.1191901461
21
23.3319224880
31
0.0000000000
11
45.0426034133
21
23.3167046554
31
0.0000000000
0
SPLINE
5
526
100
AcDbEntity
8
0
100
AcDbSpline
62
9
6
CONTINUOUS
70
0
71
3
72
11
73
7
74
5
42
0.0000001000
43
0.0000001000
44
0.0000000001
12
-0.0000950518
22
-0.3120682848
32
0.0000000000
13
-0.3120682848
23
-0.0000950518
33
0.0000000000
40
0.0000000000
40
0.0000000000
40
0.0000000000
40
0.0000000000
40
0.2499897029
40
0.5000000000
40
0.7500102971
40
1.0000000000
40
1.0000000000
40
1.0000000000
40
1.0000000000
10
45.1534302680
20
23.6058168787
30
0.0000000000
10
45.1534223474
20
23.5798122595
30
0.0000000000
10
45.1430027302
20
23.5272354442
30
0.0000000000
10
45.0984974524
20
23.4607801553
30
0.0000000000
10
45.0320421635
20
23.4162748775
30
0.0000000000
10
44.9794653483
20
23.4058552604
30
0.0000000000
10
44.9534607290
20
23.4058473397
30
0.0000000000
11
45.1534302680
21
23.6058168787
31
0.0000000000
11
45.1381910156
21
23.5293059138
31
0.0000000000
11
45.0948390167
21
23.4644385910
31
0.0000000000
11
45.0299716940
21
23.4210865921
31
0.0000000000
11
44.9534607290
21
23.4058473397
31
0.0000000000
0
SPLINE
5
527
100
AcDbEntity
8
0
100
AcDbSpline
62
7
6
CONTINUOUS
70
0
71
3
72
12
73
8
74
6
42
0.0000001000
43
0.0000001000
44
0.0000000001
12
-0.0081640814
22
-0.6312739558
32
0.0000000000
13
-0.2577380645
23
-0.5763198327
33
0.0000000000
40
0.0000000000
40
0.0000000000
40
0.0000000000
40
0.0000000000
40
0.1508096397
40
0.3267302708
40
0.5272882108
40
0.7519627810
40
1.0000000000
40
1.0000000000
40
1.0000000000
40
1.0000000000
10
33.9574274109
20
24.4389062527
30
0.0000000000
10
33.9570170035
20
24.4071721867
30
0.0000000000
10
33.9475861362
20
24.3385818783
30
0.0000000000
10
33.9178602295
20
24.2315541784
30
0.0000000000
10
33.8743154108
20
24.1126718122
30
0.0000000000
10
33.8193890353
20
23.9820483377
30
0.0000000000
10
33.7787674161
20
23.8912382408
30
0.0000000000
10
33.7574578719
20
23.8435886513
30
0.0000000000
11
33.9574274109
21
24.4389062527
31
0.0000000000
11
33.9463959432
21
24.3443373302
31
0.0000000000
11
33.9179289276
21
24.2369841386
31
0.0000000000
11
33.8751971700
21
24.1177951653
31
0.0000000000
11
33.8208303058
21
23.9867848633
31
0.0000000000
11
33.7574578719
21
23.8435886513
31
0.0000000000
0
SPLINE
5
528
100
AcDbEntity
8
0
100
AcDbSpline
62
9
6
CONTINUOUS
70
0
71
3
72
13
73
9
74
7
42
0.0000001000
43
0.0000001000
44
0.0000000001
12
0.7827212197
22
-0.0001623637
32
0.0000000000
13
0.0002139231
23
-0.7827212073
33
0.0000000000
40
0.0000000000
40
0.0000000000
40
0.0000000000
40
0.0000000000
40
0.1657263319
40
0.3327542275
40
0.4999465370
40
0.6671999044
40
0.8342754433
40
1.0000000000
40
1.0000000000
40
1.0000000000
40
1.0000000000
10
42.7774725306
20
25.4864451886
30
0.0000000000
10
42.8207117028
20
25.4864362193
30
0.0000000000
10
42.9079506371
20
25.4750709617
30
0.0000000000
10
43.0298485476
20
25.4247333094
30
0.0000000000
10
43.1349255165
20
25.3442403270
30
0.0000000000
10
43.2154407737
20
25.2391631095
30
0.0000000000
10
43.2657940998
20
25.1172393148
30
0.0000000000
10
43.2771561266
20
25.0299884834
30
0.0000000000
10
43.2771679441
20
24.9867497751
30
0.0000000000
11
42.7774725306
21
25.4864451886
31
0.0000000000
11
42.9060947796
21
25.4696240147
31
0.0000000000
11
43.0269465520
21
25.4197559459
31
0.0000000000
11
43.1308177330
21
25.3401543225
31
0.0000000000
11
43.2104619222
21
25.2362555519
31
0.0000000000
11
43.2603476961
21
25.1153707439
31
0.0000000000
11
43.2771679441
21
24.9867497751
31
0.0000000000
0
SPLINE
5
529
100
AcDbEntity
8
0
100
AcDbSpline
62
7
6
CONTINUOUS
70
0
71
3
72
12
73
8
74
6
42
0.0000001000
43
0.0000001000
44
0.0000000001
12
-0.9997491357
22
0.0000000000
32
0.0000000000
13
-0.8942572968
23
0.4469924176
33
0.0000000000
40
0.0000000000
40
0.0000000000
40
0.0000000000
40
0.0000000000
40
0.3009722503
40
0.5770111337
40
0.7966902040
40
0.9428401746
40
1.0000000000
40
1.0000000000
40
1.0000000000
40
1.0000000000
10
-43.2771675809
20
23.3656397638
30
0.0000000000
10
-43.3774664966
20
23.3656397638
30
0.0000000000
10
-43.5699250555
20
23.3656470237
30
0.0000000000
10
-43.8347519621
20
23.3697237318
30
0.0000000000
10
-44.0503531230
20
23.3680999288
30
0.0000000000
10
-44.1878290626
20
23.3818621275
30
0.0000000000
10
-44.2595198776
20
23.3739689862
30
0.0000000000
10
-44.2765584079
20
23.3824856557
30
0.0000000000
11
-43.2771675809
21
23.3656397638
31
0.0000000000
11
-43.5780632407
21
23.3664486827
31
0.0000000000
11
-43.8540225434
21
23.3688367184
31
0.0000000000
11
-44.0736152860
21
23.3725396216
31
0.0000000000
11
-44.2196523081
21
23.3772604869
31
0.0000000000
11
-44.2765584079
21
23.3824856557
31
0.0000000000
0
SPLINE
5
52A
100
AcDbEntity
8
0
100
AcDbSpline
62
7
6
CONTINUOUS
70
0
71
3
72
12
73
8
74
6
42
0.0000001000
43
0.0000001000
44
0.0000000001
12
0.4469924176
22
-0.8942572968
32
0.0000000000
13
-0.0000000000
23
-0.9997491357
33
0.0000000000
40
0.0000000000
40
0.0000000000
40
0.0000000000
40
0.0000000000
40
0.0571598254
40
0.2033097960
40
0.4229888663
40
0.6990277497
40
1.0000000000
40
1.0000000000
40
1.0000000000
40
1.0000000000
10
-34.0232080480
20
26.4858360156
30
0.0000000000
10
-34.0146913785
20
26.4687974853
30
0.0000000000
10
-34.0225845198
20
26.3971066703
30
0.0000000000
10
-34.0088223211
20
26.2596307307
30
0.0000000000
10
-34.0104461241
20
26.0440295699
30
0.0000000000
10
-34.0063694160
20
25.7792026632
30
0.0000000000
10
-34.0063621561
20
25.5867441043
30
0.0000000000
10
-34.0063621561
20
25.4864451886
30
0.0000000000
11
-34.0232080480
21
26.4858360156
31
0.0000000000
11
-34.0179828792
21
26.4289299159
31
0.0000000000
11
-34.0132620139
21
26.2828928937
31
0.0000000000
11
-34.0095591107
21
26.0633001511
31
0.0000000000
11
-34.0071710750
21
25.7873408484
31
0.0000000000
11
-34.0063621561
21
25.4864451886
31
0.0000000000
0
SPLINE
5
52B
100
AcDbEntity
8
0
100
AcDbSpline
62
7
6
CONTINUOUS
70
0
71
3
72
12
73
8
74
6
42
0.0000001000
43
0.0000001000
44
0.0000000001
12
-0.8942572968
22
-0.4469924176
32
0.0000000000
13
-0.9997491357
23
0.0000000000
33
0.0000000000
40
0.0000000000
40
0.0000000000
40
0.0000000000
40
0.0000000000
40
0.0571598254
40
0.2033097960
40
0.4229888663
40
0.6990277497
40
1.0000000000
40
1.0000000000
40
1.0000000000
40
1.0000000000
10
44.2765587711
20
23.3824856557
30
0.0000000000
10
44.2595202408
20
23.3739689862
30
0.0000000000
10
44.1878294258
20
23.3818621275
30
0.0000000000
10
44.0503534862
20
23.3680999288
30
0.0000000000
10
43.8347523254
20
23.3697237318
30
0.0000000000
10
43.5699254187
20
23.3656470237
30
0.0000000000
10
43.3774668598
20
23.3656397638
30
0.0000000000
10
43.2771679441
20
23.3656397638
30
0.0000000000
11
44.2765587711
21
23.3824856557
31
0.0000000000
11
44.2196526714
21
23.3772604869
31
0.0000000000
11
44.0736156492
21
23.3725396216
31
0.0000000000
11
43.8540229066
21
23.3688367184
31
0.0000000000
11
43.5780636039
21
23.3664486827
31
0.0000000000
11
43.2771679441
21
23.3656397638
31
0.0000000000
0
SPLINE
5
52C
100
AcDbEntity
8
0
100
AcDbSpline
62
7
6
CONTINUOUS
70
0
71
3
72
12
73
8
74
6
42
0.0000001000
43
0.0000001000
44
0.0000000001
12
0.0000000000
22
0.9997491357
32
0.0000000000
13
0.4469924176
23
0.8942572968
33
0.0000000000
40
0.0000000000
40
0.0000000000
40
0.0000000000
40
0.0000000000
40
0.3009722503
40
0.5770111337
40
0.7966902040
40
0.9428401746
40
1.0000000000
40
1.0000000000
40
1.0000000000
40
1.0000000000
10
34.0063625193
20
25.4864451886
30
0.0000000000
10
34.0063625193
20
25.5867441043
30
0.0000000000
10
34.0063697792
20
25.7792026632
30
0.0000000000
10
34.0104464873
20
26.0440295699
30
0.0000000000
10
34.0088226843
20
26.2596307307
30
0.0000000000
10
34.0225848830
20
26.3971066703
30
0.0000000000
10
34.0146917417
20
26.4687974853
30
0.0000000000
10
34.0232084112
20
26.4858360156
30
0.0000000000
11
34.0063625193
21
25.4864451886
31
0.0000000000
11
34.0071714382
21
25.7873408484
31
0.0000000000
11
34.0095594739
21
26.0633001511
31
0.0000000000
11
34.0132623771
21
26.2828928937
31
0.0000000000
11
34.0179832424
21
26.4289299159
31
0.0000000000
11
34.0232084112
21
26.4858360156
31
0.0000000000
0
SPLINE
5
52D
100
AcDbEntity
8
0
100
AcDbSpline
62
7
6
CONTINUOUS
70
0
71
3
72
12
73
8
74
6
42
0.0000001000
43
0.0000001000
44
0.0000000001
12
0.6000491693
22
-0.8002078014
32
0.0000000000
13
0.0000000000
23
-1.0001957463
33
0.0000000000
40
0.0000000000
40
0.0000000000
40
0.0000000000
40
0.0000000000
40
0.0574393210
40
0.2036300544
40
0.4232564231
40
0.6991810115
40
1.0000000000
40
1.0000000000
40
1.0000000000
40
1.0000000000
10
32.8163788610
20
26.4858360156
30
0.0000000000
10
32.8278676666
20
26.4705148847
30
0.0000000000
10
32.8189013877
20
26.3953189695
30
0.0000000000
10
32.8370675748
20
26.2607016927
30
0.0000000000
10
32.8358831936
20
26.0436009986
30
0.0000000000
10
32.8415167766
20
25.7793385189
30
0.0000000000
10
32.8416509071
20
25.5867378128
30
0.0000000000
10
32.8416509071
20
25.4864451886
30
0.0000000000
11
32.8163788610
21
26.4858360156
31
0.0000000000
11
32.8242181341
21
26.4289228084
31
0.0000000000
11
32.8313004208
21
26.2828750783
31
0.0000000000
11
32.8368553135
21
26.0632759645
31
0.0000000000
11
32.8404375419
21
25.7873206147
31
0.0000000000
11
32.8416509071
21
25.4864451886
31
0.0000000000
0
SPLINE
5
52E
100
AcDbEntity
8
0
100
AcDbSpline
62
7
6
CONTINUOUS
70
0
71
3
72
12
73
8
74
6
42
0.0000001000
43
0.0000001000
44
0.0000000001
12
0.0000000000
22
1.0001957463
32
0.0000000000
13
0.6000491693
23
0.8002078014
33
0.0000000000
40
0.0000000000
40
0.0000000000
40
0.0000000000
40
0.0000000000
40
0.3008189885
40
0.5767435769
40
0.7963699456
40
0.9425606790
40
1.0000000000
40
1.0000000000
40
1.0000000000
40
1.0000000000
10
-32.8416505439
20
25.4864451886
30
0.0000000000
10
-32.8416505439
20
25.5867378128
30
0.0000000000
10
-32.8415164134
20
25.7793385189
30
0.0000000000
10
-32.8358828304
20
26.0436009986
30
0.0000000000
10
-32.8370672116
20
26.2607016927
30
0.0000000000
10
-32.8189010245
20
26.3953189695
30
0.0000000000
10
-32.8278673034
20
26.4705148847
30
0.0000000000
10
-32.8163784978
20
26.4858360156
30
0.0000000000
11
-32.8416505439
21
25.4864451886
31
0.0000000000
11
-32.8404371787
21
25.7873206147
31
0.0000000000
11
-32.8368549503
21
26.0632759645
31
0.0000000000
11
-32.8313000576
21
26.2828750783
31
0.0000000000
11
-32.8242177709
21
26.4289228084
31
0.0000000000
11
-32.8163784978
21
26.4858360156
31
0.0000000000
0
SPLINE
5
52F
100
AcDbEntity
8
0
100
AcDbSpline
62
7
6
CONTINUOUS
70
0
71
3
72
12
73
8
74
6
42
0.0000001000
43
0.0000001000
44
0.0000000001
12
1.0001957463
22
0.0000000000
32
0.0000000000
13
0.8002078014
23
-0.6000491693
33
0.0000000000
40
0.0000000000
40
0.0000000000
40
0.0000000000
40
0.0000000000
40
0.3008189885
40
0.5767435769
40
0.7963699456
40
0.9425606790
40
1.0000000000
40
1.0000000000
40
1.0000000000
40
1.0000000000
10
43.3120887136
20
22.2009281516
30
0.0000000000
10
43.4123813378
20
22.2009281516
30
0.0000000000
10
43.6049820438
20
22.2007940211
30
0.0000000000
10
43.8692445236
20
22.1951604381
30
0.0000000000
10
44.0863452177
20
22.1963448193
30
0.0000000000
10
44.2209624944
20
22.1781786322
30
0.0000000000
10
44.2961584097
20
22.1871449111
30
0.0000000000
10
44.3114795406
20
22.1756561055
30
0.0000000000
11
43.3120887136
21
22.2009281516
31
0.0000000000
11
43.6129641397
21
22.1997147864
31
0.0000000000
11
43.8889194895
21
22.1961325580
31
0.0000000000
11
44.1085186033
21
22.1905776653
31
0.0000000000
11
44.2545663334
21
22.1834953786
31
0.0000000000
11
44.3114795406
21
22.1756561055
31
0.0000000000
0
SPLINE
5
530
100
AcDbEntity
8
0
100
AcDbSpline
62
7
6
CONTINUOUS
70
0
71
3
72
12
73
8
74
6
42
0.0000001000
43
0.0000001000
44
0.0000000001
12
0.8002078014
22
0.6000491693
32
0.0000000000
13
1.0001957463
23
0.0000000000
33
0.0000000000
40
0.0000000000
40
0.0000000000
40
0.0000000000
40
0.0000000000
40
0.0574393210
40
0.2036300544
40
0.4232564231
40
0.6991810115
40
1.0000000000
40
1.0000000000
40
1.0000000000
40
1.0000000000
10
-44.3114791774
20
22.1756561055
30
0.0000000000
10
-44.2961580465
20
22.1871449111
30
0.0000000000
10
-44.2209621312
20
22.1781786322
30
0.0000000000
10
-44.0863448544
20
22.1963448193
30
0.0000000000
10
-43.8692441604
20
22.1951604381
30
0.0000000000
10
-43.6049816806
20
22.2007940211
30
0.0000000000
10
-43.4123809746
20
22.2009281516
30
0.0000000000
10
-43.3120883504
20
22.2009281516
30
0.0000000000
11
-44.3114791774
21
22.1756561055
31
0.0000000000
11
-44.2545659701
21
22.1834953786
31
0.0000000000
11
-44.1085182401
21
22.1905776653
31
0.0000000000
11
-43.8889191262
21
22.1961325580
31
0.0000000000
11
-43.6129637765
21
22.1997147864
31
0.0000000000
11
-43.3120883504
21
22.2009281516
31
0.0000000000
0
SPLINE
5
531
100
AcDbEntity
8
0
100
AcDbSpline
62
7
6
CONTINUOUS
70
0
71
3
72
10
73
6
74
4
42
0.0000001000
43
0.0000001000
44
0.0000000001
12
0.1808185195
22
-0.3617472560
32
0.0000000000
13
0.0052298223
23
-0.4043872688
33
0.0000000000
40
0.0000000000
40
0.0000000000
40
0.0000000000
40
0.0000000000
40
0.1348021728
40
0.4802812834
40
1.0000000000
40
1.0000000000
40
1.0000000000
40
1.0000000000
10
-33.9708428532
20
24.8429794783
30
0.0000000000
10
-33.9627179435
20
24.8267247063
30
0.0000000000
10
-33.9700478220
20
24.7582333381
30
0.0000000000
10
-33.9566622751
20
24.6268294888
30
0.0000000000
10
-33.9583330599
20
24.5089621301
30
0.0000000000
10
-33.9574270477
20
24.4389062527
30
0.0000000000
11
-33.9708428532
21
24.8429794783
31
0.0000000000
11
-33.9657486699
21
24.7887011654
31
0.0000000000
11
-33.9611075306
21
24.6490592337
31
0.0000000000
11
-33.9574270477
21
24.4389062527
31
0.0000000000
0
SPLINE
5
532
100
AcDbEntity
8
0
100
AcDbSpline
62
7
6
CONTINUOUS
70
0
71
3
72
10
73
6
74
4
42
0.0000001000
43
0.0000001000
44
0.0000000001
12
-0.4043872688
22
0.0052298223
32
0.0000000000
13
-0.3617472560
23
0.1808185195
33
0.0000000000
40
0.0000000000
40
0.0000000000
40
0.0000000000
40
0.0000000000
40
0.5197187166
40
0.8651978272
40
1.0000000000
40
1.0000000000
40
1.0000000000
40
1.0000000000
10
-42.2296286449
20
23.3167046554
30
0.0000000000
10
-42.2996845224
20
23.3176106676
30
0.0000000000
10
-42.4175518811
20
23.3159398828
30
0.0000000000
10
-42.5489557304
20
23.3293254297
30
0.0000000000
10
-42.6174470986
20
23.3219955512
30
0.0000000000
10
-42.6337018706
20
23.3301204610
30
0.0000000000
11
-42.2296286449
21
23.3167046554
31
0.0000000000
11
-42.4397816260
21
23.3203851383
31
0.0000000000
11
-42.5794235577
21
23.3250262777
31
0.0000000000
11
-42.6337018706
21
23.3301204610
31
0.0000000000
0
SPLINE
5
533
100
AcDbEntity
8
0
100
AcDbSpline
62
7
6
CONTINUOUS
70
0
71
3
72
9
73
5
74
3
42
0.0000001000
43
0.0000001000
44
0.0000000001
12
0.0062038119
22
0.1416204029
32
0.0000000000
13
0.0850440548
23
0.1134122328
33
0.0000000000
40
0.0000000000
40
0.0000000000
40
0.0000000000
40
0.0000000000
40
0.7138972174
40
1.0000000000
40
1.0000000000
40
1.0000000000
40
1.0000000000
10
-32.9074580816
20
24.7019243768
30
0.0000000000
10
-32.9059817869
20
24.7356251807
30
0.0000000000
10
-32.8984572068
20
24.7799758292
30
0.0000000000
10
-32.9030467094
20
24.8321636265
30
0.0000000000
10
-32.8949362625
20
24.8429794783
30
0.0000000000
11
-32.9074580816
21
24.7019243768
31
0.0000000000
11
-32.9014121663
21
24.8029429867
31
0.0000000000
11
-32.8949362625
21
24.8429794783
31
0.0000000000
0
SPLINE
5
534
100
AcDbEntity
8
0
100
AcDbSpline
62
7
6
CONTINUOUS
70
0
71
3
72
9
73
5
74
3
42
0.0000001000
43
0.0000001000
44
0.0000000001
12
0.0850440548
22
-0.1134122328
32
0.0000000000
13
0.0062038119
23
-0.1416204029
33
0.0000000000
40
0.0000000000
40
0.0000000000
40
0.0000000000
40
0.0000000000
40
0.2861027826
40
1.0000000000
40
1.0000000000
40
1.0000000000
40
1.0000000000
10
32.8949366257
20
24.8429794783
30
0.0000000000
10
32.9030470726
20
24.8321636265
30
0.0000000000
10
32.8984575700
20
24.7799758292
30
0.0000000000
10
32.9059821501
20
24.7356251807
30
0.0000000000
10
32.9074584448
20
24.7019243768
30
0.0000000000
11
32.8949366257
21
24.8429794783
31
0.0000000000
11
32.9014125295
21
24.8029429867
31
0.0000000000
11
32.9074584448
21
24.7019243768
31
0.0000000000
0
SPLINE
5
535
100
AcDbEntity
8
0
100
AcDbSpline
62
7
6
CONTINUOUS
70
0
71
3
72
10
73
6
74
4
42
0.0000001000
43
0.0000001000
44
0.0000000001
12
-0.3617472560
22
-0.1808185195
32
0.0000000000
13
-0.4043872688
23
-0.0052298223
33
0.0000000000
40
0.0000000000
40
0.0000000000
40
0.0000000000
40
0.0000000000
40
0.1348021728
40
0.4802812834
40
1.0000000000
40
1.0000000000
40
1.0000000000
40
1.0000000000
10
42.6337022338
20
23.3301204610
30
0.0000000000
10
42.6174474618
20
23.3219955512
30
0.0000000000
10
42.5489560936
20
23.3293254297
30
0.0000000000
10
42.4175522443
20
23.3159398828
30
0.0000000000
10
42.2996848856
20
23.3176106676
30
0.0000000000
10
42.2296290082
20
23.3167046554
30
0.0000000000
11
42.6337022338
21
23.3301204610
31
0.0000000000
11
42.5794239209
21
23.3250262777
31
0.0000000000
11
42.4397819892
21
23.3203851383
31
0.0000000000
11
42.2296290082
21
23.3167046554
31
0.0000000000
0
SPLINE
5
536
100
AcDbEntity
8
0
100
AcDbSpline
62
7
6
CONTINUOUS
70
0
71
3
72
10
73
6
74
4
42
0.0000001000
43
0.0000001000
44
0.0000000001
12
0.0052298223
22
0.4043872688
32
0.0000000000
13
0.1808185195
23
0.3617472560
33
0.0000000000
40
0.0000000000
40
0.0000000000
40
0.0000000000
40
0.0000000000
40
0.5197187166
40
0.8651978272
40
1.0000000000
40
1.0000000000
40
1.0000000000
40
1.0000000000
10
33.9574274109
20
24.4389062527
30
0.0000000000
10
33.9583334231
20
24.5089621301
30
0.0000000000
10
33.9566626383
20
24.6268294888
30
0.0000000000
10
33.9700481852
20
24.7582333381
30
0.0000000000
10
33.9627183067
20
24.8267247063
30
0.0000000000
10
33.9708432164
20
24.8429794783
30
0.0000000000
11
33.9574274109
21
24.4389062527
31
0.0000000000
11
33.9611078938
21
24.6490592337
31
0.0000000000
11
33.9657490332
21
24.7887011654
31
0.0000000000
11
33.9708432164
21
24.8429794783
31
0.0000000000
0
SPLINE
5
537
100
AcDbEntity
8
0
100
AcDbSpline
62
7
6
CONTINUOUS
70
0
71
3
72
9
73
5
74
3
42
0.0000001000
43
0.0000001000
44
0.0000000001
12
0.1134122328
22
0.0850440548
32
0.0000000000
13
0.1416204029
23
0.0062038119
33
0.0000000000
40
0.0000000000
40
0.0000000000
40
0.0000000000
40
0.0000000000
40
0.2861027826
40
1.0000000000
40
1.0000000000
40
1.0000000000
40
1.0000000000
10
-42.6337018706
20
22.2542138702
30
0.0000000000
10
-42.6228860188
20
22.2623243171
30
0.0000000000
10
-42.5706982214
20
22.2577348145
30
0.0000000000
10
-42.5263475730
20
22.2652593946
30
0.0000000000
10
-42.4926467691
20
22.2667356893
30
0.0000000000
11
-42.6337018706
21
22.2542138702
31
0.0000000000
11
-42.5936653790
21
22.2606897740
31
0.0000000000
11
-42.4926467691
21
22.2667356893
31
0.0000000000
0
SPLINE
5
538
100
AcDbEntity
8
0
100
AcDbSpline
62
7
6
CONTINUOUS
70
0
71
3
72
9
73
5
74
3
42
0.0000001000
43
0.0000001000
44
0.0000000001
12
0.1416204029
22
-0.0062038119
32
0.0000000000
13
0.1134122328
23
-0.0850440548
33
0.0000000000
40
0.0000000000
40
0.0000000000
40
0.0000000000
40
0.0000000000
40
0.7138972174
40
1.0000000000
40
1.0000000000
40
1.0000000000
40
1.0000000000
10
42.4926471323
20
22.2667356893
30
0.0000000000
10
42.5263479362
20
22.2652593946
30
0.0000000000
10
42.5706985847
20
22.2577348145
30
0.0000000000
10
42.6228863820
20
22.2623243171
30
0.0000000000
10
42.6337022338
20
22.2542138702
30
0.0000000000
11
42.4926471323
21
22.2667356893
31
0.0000000000
11
42.5936657422
21
22.2606897740
31
0.0000000000
11
42.6337022338
21
22.2542138702
31
0.0000000000
0
SPLINE
5
539
100
AcDbEntity
8
0
100
AcDbSpline
62
7
6
CONTINUOUS
70
0
71
3
72
13
73
9
74
7
42
0.0000001000
43
0.0000001000
44
0.0000000001
12
2.3481667360
22
0.0000000000
32
0.0000000000
13
0.0000000000
23
-2.3481667360
33
0.0000000000
40
0.0000000000
40
0.0000000000
40
0.0000000000
40
0.0000000000
40
0.1646823090
40
0.3333831124
40
0.4997946707
40
0.6663329094
40
0.8353484632
40
1.0000000000
40
1.0000000000
40
1.0000000000
40
1.0000000000
10
42.8310724021
20
26.5394358871
30
0.0000000000
10
42.9599729087
20
26.5394358871
30
0.0000000000
10
43.2221520043
20
26.5054554273
30
0.0000000000
10
43.5879095328
20
26.3546118516
30
0.0000000000
10
43.9030872947
20
26.1129200146
30
0.0000000000
10
44.1451086795
20
25.7976727705
30
0.0000000000
10
44.2961566480
20
25.4316264893
30
0.0000000000
10
44.3301586426
20
25.1692260672
30
0.0000000000
10
44.3301586426
20
25.0403496466
30
0.0000000000
11
42.8310724021
21
26.5394358871
31
0.0000000000
11
43.2145497981
21
26.4896046494
31
0.0000000000
11
43.5807920329
21
26.3386356614
31
0.0000000000
11
43.8908531493
21
26.1008182697
31
0.0000000000
11
44.1290219435
21
25.7906518644
31
0.0000000000
11
44.2803460287
21
25.4237565969
31
0.0000000000
11
44.3301586426
21
25.0403496466
31
0.0000000000
0
SPLINE
5
53A
100
AcDbEntity
8
0
100
AcDbSpline
62
9
6
CONTINUOUS
70
0
71
3
72
13
73
9
74
7
42
0.0000001000
43
0.0000001000
44
0.0000000001
12
2.3474898897
22
-0.0021511634
32
0.0000000000
13
0.0022186180
23
-2.3474898270
33
0.0000000000
40
0.0000000000
40
0.0000000000
40
0.0000000000
40
0.0000000000
40
0.1666651758
40
0.3333351974
40
0.4999996368
40
0.6666642129
40
0.8333347173
40
1.0000000000
40
1.0000000000
40
1.0000000000
40
1.0000000000
10
42.7774725306
20
26.4858360156
30
0.0000000000
10
42.9078874690
20
26.4857165076
30
0.0000000000
10
43.1699714705
20
26.4511109219
30
0.0000000000
10
43.5352916172
20
26.2994836537
30
0.0000000000
10
43.8492650601
20
26.0585432544
30
0.0000000000
10
44.0902054563
20
25.7445699264
30
0.0000000000
10
44.2418353421
20
25.3792492534
30
0.0000000000
10
44.2764355156
20
25.1171647936
30
0.0000000000
10
44.2765587711
20
24.9867497751
30
0.0000000000
11
42.7774725306
21
26.4858360156
31
0.0000000000
11
43.1653338707
21
26.4344919336
31
0.0000000000
11
43.5267376527
21
26.2845958311
31
0.0000000000
11
43.8370929052
21
26.0463713603
31
0.0000000000
11
44.0753179090
21
25.7360161123
31
0.0000000000
11
44.2252146329
21
25.3746113609
31
0.0000000000
11
44.2765587711
21
24.9867497751
31
0.0000000000
0
SPLINE
5
53B
100
AcDbEntity
8
0
100
AcDbSpline
62
7
6
CONTINUOUS
70
0
71
3
72
15
73
11
74
9
42
0.0000001000
43
0.0000001000
44
0.0000000001
12
0.0000000000
22
2.3510629792
32
0.0000000000
13
2.3510629792
23
0.0000000000
33
0.0000000000
40
0.0000000000
40
0.0000000000
40
0.0000000000
40
0.0000000000
40
0.1426797943
40
0.2746372828
40
0.3981824196
40
0.5168705318
40
0.6373531683
40
0.7587203360
40
0.8797293821
40
1.0000000000
40
1.0000000000
40
1.0000000000
40
1.0000000000
10
-44.3301582794
20
25.0403496466
30
0.0000000000
10
-44.3301582794
20
25.1521660407
30
0.0000000000
10
-44.3058933487
20
25.3682015462
30
0.0000000000
10
-44.2047272895
20
25.6656309088
30
0.0000000000
10
-44.0559461621
20
25.9205050472
30
0.0000000000
10
-43.8676971415
20
26.1356715612
30
0.0000000000
10
-43.6438696788
20
26.3108731455
30
0.0000000000
10
-43.3893028093
20
26.4414821920
30
0.0000000000
10
-43.1148977848
20
26.5215187951
30
0.0000000000
10
-42.9253266380
20
26.5394358871
30
0.0000000000
10
-42.8310720389
20
26.5394358871
30
0.0000000000
11
-44.3301582794
21
25.0403496466
31
0.0000000000
11
-44.2926622122
21
25.3736966112
31
0.0000000000
11
-44.1928076908
21
25.6674280519
31
0.0000000000
11
-44.0463659931
21
25.9182730906
31
0.0000000000
11
-43.8626316125
21
26.1282892799
31
0.0000000000
11
-43.6395724972
21
26.3028806388
31
0.0000000000
11
-43.3857021124
21
26.4331488307
31
0.0000000000
11
-43.1125779642
21
26.5127942088
31
0.0000000000
11
-42.8310720389
21
26.5394358871
31
0.0000000000
0
SPLINE
5
53C
100
AcDbEntity
8
0
100
AcDbSpline
62
9
6
CONTINUOUS
70
0
71
3
72
13
73
9
74
7
42
0.0000001000
43
0.0000001000
44
0.0000000001
12
0.0021511634
22
2.3474898897
32
0.0000000000
13
2.3474898270
23
0.0022186180
33
0.0000000000
40
0.0000000000
40
0.0000000000
40
0.0000000000
40
0.0000000000
40
0.1666651758
40
0.3333351974
40
0.4999996368
40
0.6666642129
40
0.8333347173
40
1.0000000000
40
1.0000000000
40
1.0000000000
40
1.0000000000
10
-44.2765584079
20
24.9867497751
30
0.0000000000
10
-44.2764388999
20
25.1171647135
30
0.0000000000
10
-44.2418333142
20
25.3792487150
30
0.0000000000
10
-44.0902060460
20
25.7445688617
30
0.0000000000
10
-43.8492656467
20
26.0585423046
30
0.0000000000
10
-43.5352923187
20
26.2994827008
30
0.0000000000
10
-43.1699716457
20
26.4511125866
30
0.0000000000
10
-42.9078871859
20
26.4857127601
30
0.0000000000
10
-42.7774721674
20
26.4858360156
30
0.0000000000
11
-44.2765584079
21
24.9867497751
31
0.0000000000
11
-44.2252143258
21
25.3746111152
31
0.0000000000
11
-44.0753182234
21
25.7360148972
31
0.0000000000
11
-43.8370937526
21
26.0463701497
31
0.0000000000
11
-43.5267385045
21
26.2845951535
31
0.0000000000
11
-43.1653337532
21
26.4344918774
31
0.0000000000
11
-42.7774721674
21
26.4858360156
31
0.0000000000
0
SPLINE
5
53D
100
AcDbEntity
8
0
100
AcDbSpline
62
9
6
CONTINUOUS
70
0
71
3
72
13
73
9
74
7
42
0.0000001000
43
0.0000001000
44
0.0000000001
12
-0.0022186096
22
-2.3474898270
32
0.0000000000
13
-2.3474898897
23
-0.0021511708
33
0.0000000000
40
0.0000000000
40
0.0000000000
40
0.0000000000
40
0.0000000000
40
0.1666652827
40
0.3333357871
40
0.5000003632
40
0.6666648026
40
0.8333348242
40
1.0000000000
40
1.0000000000
40
1.0000000000
40
1.0000000000
10
44.3114795406
20
-27.7681949229
30
0.0000000000
10
44.3113562855
20
-27.8986099414
30
0.0000000000
10
44.2767561113
20
-28.1606944012
30
0.0000000000
10
44.1251262258
20
-28.5260150742
30
0.0000000000
10
43.8841858296
20
-28.8399884022
30
0.0000000000
10
43.5702123867
20
-29.0809288014
30
0.0000000000
10
43.2048922400
20
-29.2325560699
30
0.0000000000
10
42.9428082384
20
-29.2671616550
30
0.0000000000
10
42.8123933001
20
-29.2672811634
30
0.0000000000
11
44.3114795406
21
-27.7681949229
31
0.0000000000
11
44.2601354024
21
-28.1560565087
31
0.0000000000
11
44.1102386785
21
-28.5174612600
31
0.0000000000
11
43.8720136747
21
-28.8278165081
31
0.0000000000
11
43.5616584222
21
-29.0660409789
31
0.0000000000
11
43.2002546402
21
-29.2159370813
31
0.0000000000
11
42.8123933001
21
-29.2672811634
31
0.0000000000
0
SPLINE
5
53E
100
AcDbEntity
8
0
100
AcDbSpline
62
9
6
CONTINUOUS
70
0
71
3
72
13
73
9
74
7
42
0.0000001000
43
0.0000001000
44
0.0000000001
12
-2.3474898270
22
0.0022186096
32
0.0000000000
13
-0.0021511708
23
2.3474898897
33
0.0000000000
40
0.0000000000
40
0.0000000000
40
0.0000000000
40
0.0000000000
40
0.1666652827
40
0.3333357871
40
0.5000003632
40
0.6666648026
40
0.8333348242
40
1.0000000000
40
1.0000000000
40
1.0000000000
40
1.0000000000
10
-42.8123929369
20
-29.2672811634
30
0.0000000000
10
-42.9428079554
20
-29.2671579083
30
0.0000000000
10
-43.2048924152
20
-29.2325577341
30
0.0000000000
10
-43.5702130882
20
-29.0809278486
30
0.0000000000
10
-43.8841864162
20
-28.8399874524
30
0.0000000000
10
-44.1251268154
20
-28.5260140094
30
0.0000000000
10
-44.2767540839
20
-28.1606938628
30
0.0000000000
10
-44.3113596690
20
-27.8986098612
30
0.0000000000
10
-44.3114791774
20
-27.7681949229
30
0.0000000000
11
-42.8123929369
21
-29.2672811634
31
0.0000000000
11
-43.2002545227
21
-29.2159370252
31
0.0000000000
11
-43.5616592740
21
-29.0660403013
31
0.0000000000
11
-43.8720145221
21
-28.8278152975
31
0.0000000000
11
-44.1102389929
21
-28.5174600450
31
0.0000000000
11
-44.2601350953
21
-28.1560562630
31
0.0000000000
11
-44.3114791774
21
-27.7681949229
31
0.0000000000
0
SPLINE
5
53F
100
AcDbEntity
8
0
100
AcDbSpline
62
9
6
CONTINUOUS
70
0
71
3
72
11
73
7
74
5
42
0.0000001000
43
0.0000001000
44
0.0000000001
12
-0.0001015634
22
-0.3121341846
32
0.0000000000
13
0.3121341846
23
0.0001014138
33
0.0000000000
40
0.0000000000
40
0.0000000000
40
0.0000000000
40
0.0000000000
40
0.2498180899
40
0.4998192838
40
0.7498384228
40
1.0000000000
40
1.0000000000
40
1.0000000000
40
1.0000000000
10
-45.2425725891
20
23.5166741944
30
0.0000000000
10
-45.2425810466
20
23.4906819392
30
0.0000000000
10
-45.2322057263
20
23.4381060450
30
0.0000000000
10
-45.1877373225
20
23.3716205966
30
0.0000000000
10
-45.1212468653
20
23.3270944200
30
0.0000000000
10
-45.0686310434
20
23.3166961988
30
0.0000000000
10
-45.0426030501
20
23.3167046554
30
0.0000000000
11
-45.2425725891
21
23.5166741944
31
0.0000000000
11
-45.2273965672
21
23.4401884768
31
0.0000000000
11
-45.1840724428
21
23.3752861396
31
0.0000000000
11
-45.1191897738
21
23.3319224843
31
0.0000000000
11
-45.0426030501
21
23.3167046554
31
0.0000000000
0
SPLINE
5
540
100
AcDbEntity
8
0
100
AcDbSpline
62
7
6
CONTINUOUS
70
0
71
3
72
11
73
7
74
5
42
0.0000001000
43
0.0000001000
44
0.0000000001
12
-0.0895363312
22
0.1791272387
32
0.0000000000
13
-0.2002581390
23
-0.0000000000
33
0.0000000000
40
0.0000000000
40
0.0000000000
40
0.0000000000
40
0.0000000000
40
0.0814888752
40
0.3014516178
40
0.6249974447
40
1.0000000000
40
1.0000000000
40
1.0000000000
40
1.0000000000
10
-34.0465697320
20
26.5325736235
30
0.0000000000
10
-34.0490018036
20
26.5374392493
30
0.0000000000
10
-34.0755309184
20
26.5320425095
30
0.0000000000
10
-34.1115580175
20
26.5401064731
30
0.0000000000
10
-34.1756561638
20
26.5382739695
30
0.0000000000
10
-34.2215068331
20
26.5394358871
30
0.0000000000
10
-34.2465392710
20
26.5394358871
30
0.0000000000
11
-34.0465697320
21
26.5325736235
31
0.0000000000
11
-34.0626757903
21
26.5352001155
31
0.0000000000
11
-34.1066679400
21
26.5374438170
31
0.0000000000
11
-34.1714436959
21
26.5389248661
31
0.0000000000
11
-34.2465392710
21
26.5394358871
31
0.0000000000
0
SPLINE
5
541
100
AcDbEntity
8
0
100
AcDbSpline
62
7
6
CONTINUOUS
70
0
71
3
72
15
73
11
74
9
42
0.0000001000
43
0.0000001000
44
0.0000000001
12
-3.1325954581
22
0.0000000000
32
0.0000000000
13
0.0000000000
23
3.1325954581
33
0.0000000000
40
0.0000000000
40
0.0000000000
40
0.0000000000
40
0.0000000000
40
0.1398914632
40
0.2703965567
40
0.3935620119
40
0.5126294479
40
0.6337941792
40
0.7562415273
40
0.8790113021
40
1.0000000000
40
1.0000000000
40
1.0000000000
40
1.0000000000
10
29.9731814583
20
-18.9148003667
30
0.0000000000
10
29.8271070042
20
-18.9148003667
30
0.0000000000
10
29.5437477496
20
-18.8836482343
30
0.0000000000
10
29.1513325287
20
-18.7527161203
30
0.0000000000
10
28.8116525063
20
-18.5576921184
30
0.0000000000
10
28.5226416145
20
-18.3084151168
30
0.0000000000
10
28.2859830639
20
-18.0098161076
30
0.0000000000
10
28.1086952217
20
-17.6680975821
30
0.0000000000
10
28.0001496137
20
-17.2990638461
30
0.0000000000
10
27.9759223888
20
-17.0438775124
30
0.0000000000
10
27.9759223888
20
-16.9175412972
30
0.0000000000
11
29.9731814583
21
-18.9148003667
31
0.0000000000
11
29.5375918583
21
-18.8668272947
31
0.0000000000
11
29.1497733026
21
-18.7374816929
31
0.0000000000
11
28.8151829114
21
-18.5453563040
31
0.0000000000
11
28.5327352625
21
-18.3017481200
31
0.0000000000
11
28.2969828192
21
-18.0042810715
31
0.0000000000
11
28.1203144936
21
-17.6638102359
31
0.0000000000
11
28.0118038460
21
-17.2948476376
31
0.0000000000
11
27.9759223888
21
-16.9175412972
31
0.0000000000
0
SPLINE
5
542
100
AcDbEntity
8
0
100
AcDbSpline
62
9
6
CONTINUOUS
70
0
71
3
72
15
73
11
74
9
42
0.0000001000
43
0.0000001000
44
0.0000000001
12
0.0020791203
22
-3.1317049848
32
0.0000000000
13
3.1317049674
23
-0.0021052006
33
0.0000000000
40
0.0000000000
40
0.0000000000
40
0.0000000000
40
0.0000000000
40
0.1081493845
40
0.2324588901
40
0.3671653957
40
0.5065006839
40
0.6450300731
40
0.7772994792
40
0.8974091594
40
1.0000000000
40
1.0000000000
40
1.0000000000
40
1.0000000000
10
28.4751676976
20
-16.4182959884
30
0.0000000000
10
28.4752426494
20
-16.5311933106
30
0.0000000000
10
28.4960317093
20
-16.7743081263
30
0.0000000000
10
28.5980236125
20
-17.1462341651
30
0.0000000000
10
28.7881049030
20
-17.5196208985
30
0.0000000000
10
29.0631721645
20
-17.8555073802
30
0.0000000000
10
29.4024046356
20
-18.1222444187
30
0.0000000000
10
29.7718822239
20
-18.3023660195
30
0.0000000000
10
30.1324710175
20
-18.3965925697
30
0.0000000000
10
30.3653320187
20
-18.4154830665
30
0.0000000000
10
30.4724267671
20
-18.4155550579
30
0.0000000000
11
28.4751676976
21
-16.4182959884
31
0.0000000000
11
28.5040634585
21
-16.7557531467
31
0.0000000000
11
28.6070309756
21
-17.1311899471
31
0.0000000000
11
28.7984470015
21
-17.5071244045
31
0.0000000000
11
29.0749173452
21
-17.8447213223
31
0.0000000000
11
29.4159482114
21
-18.1128803391
31
0.0000000000
11
29.7882730171
21
-18.2944286216
31
0.0000000000
11
30.1521972468
21
-18.3895422311
31
0.0000000000
11
30.4724267671
21
-18.4155550579
31
0.0000000000
0
SPLINE
5
543
100
AcDbEntity
8
0
100
AcDbSpline
62
7
6
CONTINUOUS
70
0
71
3
72
15
73
11
74
9
42
0.0000001000
43
0.0000001000
44
0.0000000001
12
0.0000000000
22
-3.1325954581
32
0.0000000000
13
-3.1325954581
23
0.0000000000
33
0.0000000000
40
0.0000000000
40
0.0000000000
40
0.0000000000
40
0.0000000000
40
0.1398914632
40
0.2703965567
40
0.3935620119
40
0.5126294479
40
0.6337941792
40
0.7562415273
40
0.8790113021
40
1.0000000000
40
1.0000000000
40
1.0000000000
40
1.0000000000
10
37.0240779744
20
-16.9175412972
30
0.0000000000
10
37.0240779744
20
-17.0636157513
30
0.0000000000
10
36.9929258420
20
-17.3469750059
30
0.0000000000
10
36.8619937280
20
-17.7393902268
30
0.0000000000
10
36.6669697261
20
-18.0790702492
30
0.0000000000
10
36.4176927245
20
-18.3680811410
30
0.0000000000
10
36.1190937153
20
-18.6047396916
30
0.0000000000
10
35.7773751898
20
-18.7820275338
30
0.0000000000
10
35.4083414538
20
-18.8905731418
30
0.0000000000
10
35.1531551201
20
-18.9148003667
30
0.0000000000
10
35.0268189049
20
-18.9148003667
30
0.0000000000
11
37.0240779744
21
-16.9175412972
31
0.0000000000
11
36.9761049025
21
-17.3531308972
31
0.0000000000
11
36.8467593006
21
-17.7409494529
31
0.0000000000
11
36.6546339117
21
-18.0755398441
31
0.0000000000
11
36.4110257278
21
-18.3579874930
31
0.0000000000
11
36.1135586792
21
-18.5937399363
31
0.0000000000
11
35.7730878436
21
-18.7704082619
31
0.0000000000
11
35.4041252453
21
-18.8789189095
31
0.0000000000
11
35.0268189049
21
-18.9148003667
31
0.0000000000
0
SPLINE
5
544
100
AcDbEntity
8
0
100
AcDbSpline
62
9
6
CONTINUOUS
70
0
71
3
72
15
73
11
74
9
42
0.0000001000
43
0.0000001000
44
0.0000000001
12
3.1317049848
22
0.0020791203
32
0.0000000000
13
0.0021052006
23
3.1317049674
33
0.0000000000
40
0.0000000000
40
0.0000000000
40
0.0000000000
40
0.0000000000
40
0.1081493845
40
0.2324588901
40
0.3671653957
40
0.5065006839
40
0.6450300731
40
0.7772994792
40
0.8974091594
40
1.0000000000
40
1.0000000000
40
1.0000000000
40
1.0000000000
10
34.5275735961
20
-18.4155550579
30
0.0000000000
10
34.6404709183
20
-18.4154801060
30
0.0000000000
10
34.8835857340
20
-18.3946910462
30
0.0000000000
10
35.2555117728
20
-18.2926991430
30
0.0000000000
10
35.6288985062
20
-18.1026178525
30
0.0000000000
10
35.9647849879
20
-17.8275505910
30
0.0000000000
10
36.2315220264
20
-17.4883181199
30
0.0000000000
10
36.4116436272
20
-17.1188405316
30
0.0000000000
10
36.5058701774
20
-16.7582517380
30
0.0000000000
10
36.5247606742
20
-16.5253907368
30
0.0000000000
10
36.5248326656
20
-16.4182959884
30
0.0000000000
11
34.5275735961
21
-18.4155550579
31
0.0000000000
11
34.8650307545
21
-18.3866592970
31
0.0000000000
11
35.2404675548
21
-18.2836917799
31
0.0000000000
11
35.6164020122
21
-18.0922757540
31
0.0000000000
11
35.9539989301
21
-17.8158054103
31
0.0000000000
11
36.2221579468
21
-17.4747745441
31
0.0000000000
11
36.4037062294
21
-17.1024497384
31
0.0000000000
11
36.4988198388
21
-16.7385255087
31
0.0000000000
11
36.5248326656
21
-16.4182959884
31
0.0000000000
0
SPLINE
5
545
100
AcDbEntity
8
0
100
AcDbSpline
62
7
6
CONTINUOUS
70
0
71
3
72
15
73
11
74
9
42
0.0000001000
43
0.0000001000
44
0.0000000001
12
0.0000000000
22
3.1325954581
32
0.0000000000
13
3.1325954581
23
0.0000000000
33
0.0000000000
40
0.0000000000
40
0.0000000000
40
0.0000000000
40
0.0000000000
40
0.1398914632
40
0.2703965567
40
0.3935620119
40
0.5126294479
40
0.6337941792
40
0.7562415273
40
0.8790113021
40
1.0000000000
40
1.0000000000
40
1.0000000000
40
1.0000000000
10
27.9759223888
20
14.1360961494
30
0.0000000000
10
27.9759223888
20
14.2821706035
30
0.0000000000
10
28.0070745212
20
14.5655298582
30
0.0000000000
10
28.1380066352
20
14.9579450790
30
0.0000000000
10
28.3330306371
20
15.2976251014
30
0.0000000000
10
28.5823076387
20
15.5866359932
30
0.0000000000
10
28.8809066479
20
15.8232945438
30
0.0000000000
10
29.2226251734
20
16.0005823860
30
0.0000000000
10
29.5916589094
20
16.1091279941
30
0.0000000000
10
29.8468452431
20
16.1333552189
30
0.0000000000
10
29.9731814583
20
16.1333552189
30
0.0000000000
11
27.9759223888
21
14.1360961494
31
0.0000000000
11
28.0238954607
21
14.5716857494
31
0.0000000000
11
28.1532410626
21
14.9595043051
31
0.0000000000
11
28.3453664515
21
15.2940946963
31
0.0000000000
11
28.5889746355
21
15.5765423452
31
0.0000000000
11
28.8864416840
21
15.8122947885
31
0.0000000000
11
29.2269125196
21
15.9889631141
31
0.0000000000
11
29.5958751179
21
16.0974737617
31
0.0000000000
11
29.9731814583
21
16.1333552189
31
0.0000000000
0
SPLINE
5
546
100
AcDbEntity
8
0
100
AcDbSpline
62
9
6
CONTINUOUS
70
0
71
3
72
15
73
11
74
9
42
0.0000001000
43
0.0000001000
44
0.0000000001
12
-3.1317049848
22
-0.0020791203
32
0.0000000000
13
-0.0021052006
23
-3.1317049674
33
0.0000000000
40
0.0000000000
40
0.0000000000
40
0.0000000000
40
0.0000000000
40
0.1081493845
40
0.2324588901
40
0.3671653957
40
0.5065006839
40
0.6450300731
40
0.7772994792
40
0.8974091594
40
1.0000000000
40
1.0000000000
40
1.0000000000
40
1.0000000000
10
30.4724267671
20
15.6341099101
30
0.0000000000
10
30.3595294449
20
15.6340349583
30
0.0000000000
10
30.1164146292
20
15.6132458984
30
0.0000000000
10
29.7444885904
20
15.5112539952
30
0.0000000000
10
29.3711018570
20
15.3211727047
30
0.0000000000
10
29.0352153753
20
15.0461054432
30
0.0000000000
10
28.7684783368
20
14.7068729721
30
0.0000000000
10
28.5883567360
20
14.3373953838
30
0.0000000000
10
28.4941301858
20
13.9768065903
30
0.0000000000
10
28.4752396890
20
13.7439455890
30
0.0000000000
10
28.4751676976
20
13.6368508406
30
0.0000000000
11
30.4724267671
21
15.6341099101
31
0.0000000000
11
30.1349696087
21
15.6052141492
31
0.0000000000
11
29.7595328084
21
15.5022466322
31
0.0000000000
11
29.3835983510
21
15.3108306063
31
0.0000000000
11
29.0460014331
21
15.0343602626
31
0.0000000000
11
28.7778424164
21
14.6933293964
31
0.0000000000
11
28.5962941338
21
14.3210045906
31
0.0000000000
11
28.5011805244
21
13.9570803609
31
0.0000000000
11
28.4751676976
21
13.6368508406
31
0.0000000000
0
SPLINE
5
547
100
AcDbEntity
8
0
100
AcDbSpline
62
7
6
CONTINUOUS
70
0
71
3
72
15
73
11
74
9
42
0.0000001000
43
0.0000001000
44
0.0000000001
12
3.1325954581
22
0.0000000000
32
0.0000000000
13
0.0000000000
23
-3.1325954581
33
0.0000000000
40
0.0000000000
40
0.0000000000
40
0.0000000000
40
0.0000000000
40
0.1398914632
40
0.2703965567
40
0.3935620119
40
0.5126294479
40
0.6337941792
40
0.7562415273
40
0.8790113021
40
1.0000000000
40
1.0000000000
40
1.0000000000
40
1.0000000000
10
35.0268189049
20
16.1333552189
30
0.0000000000
10
35.1728933590
20
16.1333552189
30
0.0000000000
10
35.4562526136
20
16.1022030865
30
0.0000000000
10
35.8486678345
20
15.9712709725
30
0.0000000000
10
36.1883478569
20
15.7762469706
30
0.0000000000
10
36.4773587487
20
15.5269699690
30
0.0000000000
10
36.7140172993
20
15.2283709598
30
0.0000000000
10
36.8913051415
20
14.8866524343
30
0.0000000000
10
36.9998507496
20
14.5176186983
30
0.0000000000
10
37.0240779744
20
14.2624323646
30
0.0000000000
10
37.0240779744
20
14.1360961494
30
0.0000000000
11
35.0268189049
21
16.1333552189
31
0.0000000000
11
35.4624085049
21
16.0853821470
31
0.0000000000
11
35.8502270606
21
15.9560365451
31
0.0000000000
11
36.1848174518
21
15.7639111562
31
0.0000000000
11
36.4672651007
21
15.5203029723
31
0.0000000000
11
36.7030175440
21
15.2228359237
31
0.0000000000
11
36.8796858696
21
14.8823650881
31
0.0000000000
11
36.9881965172
21
14.5134024898
31
0.0000000000
11
37.0240779744
21
14.1360961494
31
0.0000000000
0
SPLINE
5
548
100
AcDbEntity
8
0
100
AcDbSpline
62
9
6
CONTINUOUS
70
0
71
3
72
15
73
11
74
9
42
0.0000001000
43
0.0000001000
44
0.0000000001
12
-0.0020791203
22
3.1317049848
32
0.0000000000
13
-3.1317049674
23
0.0021052006
33
0.0000000000
40
0.0000000000
40
0.0000000000
40
0.0000000000
40
0.0000000000
40
0.1081493845
40
0.2324588901
40
0.3671653957
40
0.5065006839
40
0.6450300731
40
0.7772994792
40
0.8974091594
40
1.0000000000
40
1.0000000000
40
1.0000000000
40
1.0000000000
10
36.5248326656
20
13.6368508406
30
0.0000000000
10
36.5247577138
20
13.7497481628
30
0.0000000000
10
36.5039686539
20
13.9928629785
30
0.0000000000
10
36.4019767507
20
14.3647890173
30
0.0000000000
10
36.2118954602
20
14.7381757507
30
0.0000000000
10
35.9368281987
20
15.0740622324
30
0.0000000000
10
35.5975957276
20
15.3407992709
30
0.0000000000
10
35.2281181393
20
15.5209208717
30
0.0000000000
10
34.8675293458
20
15.6151474219
30
0.0000000000
10
34.6346683445
20
15.6340379187
30
0.0000000000
10
34.5275735961
20
15.6341099101
30
0.0000000000
11
36.5248326656
21
13.6368508406
31
0.0000000000
11
36.4959369047
21
13.9743079990
31
0.0000000000
11
36.3929693877
21
14.3497447993
31
0.0000000000
11
36.2015533617
21
14.7256792567
31
0.0000000000
11
35.9250830181
21
15.0632761746
31
0.0000000000
11
35.5840521519
21
15.3314351913
31
0.0000000000
11
35.2117273461
21
15.5129834739
31
0.0000000000
11
34.8478031164
21
15.6080970833
31
0.0000000000
11
34.5275735961
21
15.6341099101
31
0.0000000000
0
SPLINE
5
549
100
AcDbEntity
8
0
100
AcDbSpline
62
7
6
CONTINUOUS
70
0
71
3
72
12
73
8
74
6
42
0.0000001000
43
0.0000001000
44
0.0000000001
12
0.0000000000
22
-1.5634768652
32
0.0000000000
13
-1.5634768652
23
0.0000000000
33
0.0000000000
40
0.0000000000
40
0.0000000000
40
0.0000000000
40
0.0000000000
40
0.1991627327
40
0.4001122235
40
0.5995966163
40
0.8009897561
40
1.0000000000
40
1.0000000000
40
1.0000000000
40
1.0000000000
10
42.7047624901
20
-26.6960940553
30
0.0000000000
10
42.7047624901
20
-26.7998894970
30
0.0000000000
10
42.6717864767
20
-27.0098619198
30
0.0000000000
10
42.5277720590
20
-27.2928322512
30
0.0000000000
10
42.3023252676
20
-27.5183855763
30
0.0000000000
10
42.0192081458
20
-27.6625127667
30
0.0000000000
10
41.8090876338
20
-27.6954848824
30
0.0000000000
10
41.7053716631
20
-27.6954848824
30
0.0000000000
11
42.7047624901
21
-26.6960940553
31
0.0000000000
11
42.6562930822
21
-27.0036849523
31
0.0000000000
11
42.5138650888
21
-27.2837264915
31
0.0000000000
11
42.2933770017
21
-27.5043163760
31
0.0000000000
11
42.0127328964
21
-27.6470896808
31
0.0000000000
11
41.7053716631
21
-27.6954848824
31
0.0000000000
0
SPLINE
5
54A
100
AcDbEntity
8
0
100
AcDbSpline
62
9
6
CONTINUOUS
70
0
71
3
72
12
73
8
74
6
42
0.0000001000
43
0.0000001000
44
0.0000000001
12
-0.0019034578
22
-1.5628054810
32
0.0000000000
13
-1.5628054810
23
-0.0019034578
33
0.0000000000
40
0.0000000000
40
0.0000000000
40
0.0000000000
40
0.0000000000
40
0.1999588935
40
0.3999785630
40
0.6000214370
40
0.8000411065
40
1.0000000000
40
1.0000000000
40
1.0000000000
40
1.0000000000
10
42.6337022338
20
-26.6250337991
30
0.0000000000
10
42.6335753627
20
-26.7291994173
30
0.0000000000
10
42.6002009494
20
-26.9389845021
30
0.0000000000
10
42.4557890538
20
-27.2217493476
30
0.0000000000
10
42.2310269553
20
-27.4465114461
30
0.0000000000
10
41.9482621098
20
-27.5909233417
30
0.0000000000
10
41.7384770250
20
-27.6242977550
30
0.0000000000
10
41.6343114068
20
-27.6244246261
30
0.0000000000
11
42.6337022338
21
-26.6250337991
31
0.0000000000
11
42.5844879022
21
-26.9336312369
31
0.0000000000
11
42.4424066704
21
-27.2120674493
31
0.0000000000
11
42.2213450570
21
-27.4331290627
31
0.0000000000
11
41.9429088446
21
-27.5752102945
31
0.0000000000
11
41.6343114068
21
-27.6244246261
31
0.0000000000
0
SPLINE
5
54B
100
AcDbEntity
8
0
100
AcDbSpline
62
7
6
CONTINUOUS
70
0
71
3
72
12
73
8
74
6
42
0.0000001000
43
0.0000001000
44
0.0000000001
12
-1.5634768652
22
0.0000000000
32
0.0000000000
13
0.0000000000
23
1.5634768652
33
0.0000000000
40
0.0000000000
40
0.0000000000
40
0.0000000000
40
0.0000000000
40
0.1991627327
40
0.4001122235
40
0.5995966163
40
0.8009897561
40
1.0000000000
40
1.0000000000
40
1.0000000000
40
1.0000000000
10
-41.7053712999
20
-27.6954848824
30
0.0000000000
10
-41.8091667415
20
-27.6954848824
30
0.0000000000
10
-42.0191391643
20
-27.6625088690
30
0.0000000000
10
-42.3021094957
20
-27.5184944513
30
0.0000000000
10
-42.5276628208
20
-27.2930476599
30
0.0000000000
10
-42.6717900112
20
-27.0099305381
30
0.0000000000
10
-42.7047621269
20
-26.7998100261
30
0.0000000000
10
-42.7047621269
20
-26.6960940553
30
0.0000000000
11
-41.7053712999
21
-27.6954848824
31
0.0000000000
11
-42.0129621968
21
-27.6470154745
31
0.0000000000
11
-42.2930037360
21
-27.5045874811
31
0.0000000000
11
-42.5135936205
21
-27.2840993940
31
0.0000000000
11
-42.6563669253
21
-27.0034552887
31
0.0000000000
11
-42.7047621269
21
-26.6960940553
31
0.0000000000
0
SPLINE
5
54C
100
AcDbEntity
8
0
100
AcDbSpline
62
9
6
CONTINUOUS
70
0
71
3
72
12
73
8
74
6
42
0.0000001000
43
0.0000001000
44
0.0000000001
12
-1.5628054810
22
0.0019034578
32
0.0000000000
13
-0.0019034578
23
1.5628054810
33
0.0000000000
40
0.0000000000
40
0.0000000000
40
0.0000000000
40
0.0000000000
40
0.1999588935
40
0.3999785630
40
0.6000214370
40
0.8000411065
40
1.0000000000
40
1.0000000000
40
1.0000000000
40
1.0000000000
10
-41.6343110436
20
-27.6244246261
30
0.0000000000
10
-41.7384766618
20
-27.6242977550
30
0.0000000000
10
-41.9482617466
20
-27.5909233417
30
0.0000000000
10
-42.2310265921
20
-27.4465114461
30
0.0000000000
10
-42.4557886906
20
-27.2217493476
30
0.0000000000
10
-42.6002005862
20
-26.9389845021
30
0.0000000000
10
-42.6335749995
20
-26.7291994173
30
0.0000000000
10
-42.6337018706
20
-26.6250337991
30
0.0000000000
11
-41.6343110436
21
-27.6244246261
31
0.0000000000
11
-41.9429084814
21
-27.5752102945
31
0.0000000000
11
-42.2213446938
21
-27.4331290627
31
0.0000000000
11
-42.4424063072
21
-27.2120674493
31
0.0000000000
11
-42.5844875390
21
-26.9336312369
31
0.0000000000
11
-42.6337018706
21
-26.6250337991
31
0.0000000000
0
SPLINE
5
54D
100
AcDbEntity
8
0
100
AcDbSpline
62
7
6
CONTINUOUS
70
0
71
3
72
12
73
8
74
6
42
0.0000001000
43
0.0000001000
44
0.0000000001
12
1.5634768652
22
0.0000000000
32
0.0000000000
13
0.0000000000
23
-1.5634768652
33
0.0000000000
40
0.0000000000
40
0.0000000000
40
0.0000000000
40
0.0000000000
40
0.1991627327
40
0.4001122235
40
0.5995966163
40
0.8009897561
40
1.0000000000
40
1.0000000000
40
1.0000000000
40
1.0000000000
10
41.7053716631
20
24.9140397346
30
0.0000000000
10
41.8091671047
20
24.9140397346
30
0.0000000000
10
42.0191395276
20
24.8810637212
30
0.0000000000
10
42.3021098589
20
24.7370493035
30
0.0000000000
10
42.5276631840
20
24.5116025121
30
0.0000000000
10
42.6717903744
20
24.2284853903
30
0.0000000000
10
42.7047624901
20
24.0183648783
30
0.0000000000
10
42.7047624901
20
23.9146489076
30
0.0000000000
11
41.7053716631
21
24.9140397346
31
0.0000000000
11
42.0129625601
21
24.8655703267
31
0.0000000000
11
42.2930040992
21
24.7231423334
31
0.0000000000
11
42.5135939837
21
24.5026542462
31
0.0000000000
11
42.6563672885
21
24.2220101409
31
0.0000000000
11
42.7047624901
21
23.9146489076
31
0.0000000000
0
SPLINE
5
54E
100
AcDbEntity
8
0
100
AcDbSpline
62
9
6
CONTINUOUS
70
0
71
3
72
12
73
8
74
6
42
0.0000001000
43
0.0000001000
44
0.0000000001
12
1.5628054810
22
-0.0019034578
32
0.0000000000
13
0.0019034578
23
-1.5628054810
33
0.0000000000
40
0.0000000000
40
0.0000000000
40
0.0000000000
40
0.0000000000
40
0.1999588935
40
0.3999785630
40
0.6000214370
40
0.8000411065
40
1.0000000000
40
1.0000000000
40
1.0000000000
40
1.0000000000
10
41.6343114068
20
24.8429794783
30
0.0000000000
10
41.7384770250
20
24.8428526072
30
0.0000000000
10
41.9482621098
20
24.8094781939
30
0.0000000000
10
42.2310269553
20
24.6650662983
30
0.0000000000
10
42.4557890538
20
24.4403041998
30
0.0000000000
10
42.6002009494
20
24.1575393543
30
0.0000000000
10
42.6335753627
20
23.9477542695
30
0.0000000000
10
42.6337022338
20
23.8435886513
30
0.0000000000
11
41.6343114068
21
24.8429794783
31
0.0000000000
11
41.9429088446
21
24.7937651467
31
0.0000000000
11
42.2213450570
21
24.6516839149
31
0.0000000000
11
42.4424066704
21
24.4306223015
31
0.0000000000
11
42.5844879022
21
24.1521860891
31
0.0000000000
11
42.6337022338
21
23.8435886513
31
0.0000000000
0
SPLINE
5
54F
100
AcDbEntity
8
0
100
AcDbSpline
62
7
6
CONTINUOUS
70
0
71
3
72
12
73
8
74
6
42
0.0000001000
43
0.0000001000
44
0.0000000001
12
0.0000000000
22
1.5634768652
32
0.0000000000
13
1.5634768652
23
-0.0000000000
33
0.0000000000
40
0.0000000000
40
0.0000000000
40
0.0000000000
40
0.0000000000
40
0.1991627327
40
0.4001122235
40
0.5995966163
40
0.8009897561
40
1.0000000000
40
1.0000000000
40
1.0000000000
40
1.0000000000
10
-42.7047621269
20
23.9146489076
30
0.0000000000
10
-42.7047621269
20
24.0184443492
30
0.0000000000
10
-42.6717861135
20
24.2284167721
30
0.0000000000
10
-42.5277716958
20
24.5113871034
30
0.0000000000
10
-42.3023249044
20
24.7369404285
30
0.0000000000
10
-42.0192077826
20
24.8810676189
30
0.0000000000
10
-41.8090872706
20
24.9140397346
30
0.0000000000
10
-41.7053712999
20
24.9140397346
30
0.0000000000
11
-42.7047621269
21
23.9146489076
31
0.0000000000
11
-42.6562927190
21
24.2222398046
31
0.0000000000
11
-42.5138647256
21
24.5022813437
31
0.0000000000
11
-42.2933766385
21
24.7228712282
31
0.0000000000
11
-42.0127325332
21
24.8656445330
31
0.0000000000
11
-41.7053712999
21
24.9140397346
31
0.0000000000
0
SPLINE
5
550
100
AcDbEntity
8
0
100
AcDbSpline
62
9
6
CONTINUOUS
70
0
71
3
72
12
73
8
74
6
42
0.0000001000
43
0.0000001000
44
0.0000000001
12
0.0019034578
22
1.5628054810
32
0.0000000000
13
1.5628054810
23
0.0019034578
33
0.0000000000
40
0.0000000000
40
0.0000000000
40
0.0000000000
40
0.0000000000
40
0.1999588935
40
0.3999785630
40
0.6000214370
40
0.8000411065
40
1.0000000000
40
1.0000000000
40
1.0000000000
40
1.0000000000
10
-42.6337018706
20
23.8435886513
30
0.0000000000
10
-42.6335749995
20
23.9477542695
30
0.0000000000
10
-42.6002005862
20
24.1575393543
30
0.0000000000
10
-42.4557886906
20
24.4403041998
30
0.0000000000
10
-42.2310265921
20
24.6650662983
30
0.0000000000
10
-41.9482617466
20
24.8094781939
30
0.0000000000
10
-41.7384766618
20
24.8428526072
30
0.0000000000
10
-41.6343110436
20
24.8429794783
30
0.0000000000
11
-42.6337018706
21
23.8435886513
31
0.0000000000
11
-42.5844875390
21
24.1521860891
31
0.0000000000
11
-42.4424063072
21
24.4306223015
31
0.0000000000
11
-42.2213446938
21
24.6516839149
31
0.0000000000
11
-41.9429084814
21
24.7937651467
31
0.0000000000
11
-41.6343110436
21
24.8429794783
31
0.0000000000
0
SPLINE
5
551
100
AcDbEntity
8
0
100
AcDbSpline
62
9
6
CONTINUOUS
70
0
71
3
72
14
73
10
74
8
42
0.0000001000
43
0.0000001000
44
0.0000000001
12
2.6643510476
22
0.0000113290
32
0.0000000000
13
0.0002944461
23
-2.6643510313
33
0.0000000000
40
0.0000000000
40
0.0000000000
40
0.0000000000
40
0.0000000000
40
0.1427380922
40
0.2855639514
40
0.4285449634
40
0.5715074657
40
0.7144788568
40
0.8572613159
40
1.0000000000
40
1.0000000000
40
1.0000000000
40
1.0000000000
10
43.4536891862
20
27.5127075125
30
0.0000000000
10
43.5804573148
20
27.5127080515
30
0.0000000000
10
43.8349853789
20
27.4840882698
30
0.0000000000
10
44.1971254107
20
27.3574143337
30
0.0000000000
10
44.5223525247
20
27.1531543730
30
0.0000000000
10
44.7939599087
20
26.8815251630
30
0.0000000000
10
44.9981676553
20
26.5563229651
30
0.0000000000
10
45.1248218581
20
26.1942251912
30
0.0000000000
10
45.1534162584
20
25.9397350841
30
0.0000000000
10
45.1534302680
20
25.8129664308
30
0.0000000000
11
43.4536891862
21
27.5127075125
31
0.0000000000
11
43.8316058044
21
27.4701580664
31
0.0000000000
11
44.1908181032
21
27.3445560485
31
0.0000000000
11
44.5134103780
21
27.1419274401
31
0.0000000000
11
44.7827378348
21
26.8725777092
31
0.0000000000
11
44.9853285817
21
26.5499919251
31
0.0000000000
11
45.1108804713
21
26.1908845963
31
0.0000000000
11
45.1534302680
21
25.8129664308
31
0.0000000000
0
SPLINE
5
552
100
AcDbEntity
8
0
100
AcDbSpline
62
9
6
CONTINUOUS
70
0
71
3
72
14
73
10
74
8
42
0.0000001000
43
0.0000001000
44
0.0000000001
12
2.6644190192
22
0.0002031963
32
0.0000000000
13
0.0001129602
23
-2.6644190246
33
0.0000000000
40
0.0000000000
40
0.0000000000
40
0.0000000000
40
0.0000000000
40
0.1436912217
40
0.2866745465
40
0.4288753492
40
0.5707549259
40
0.7130550529
40
0.8562166689
40
1.0000000000
40
1.0000000000
40
1.0000000000
40
1.0000000000
10
43.5428318705
20
27.6018501968
30
0.0000000000
10
43.6704497452
20
27.6018599293
30
0.0000000000
10
43.9259910132
20
27.5729518478
30
0.0000000000
10
44.2882257778
20
27.4456060290
30
0.0000000000
10
44.6119129534
20
27.2418153360
30
0.0000000000
10
44.8819777418
20
26.9719088103
30
0.0000000000
10
45.0860646610
20
26.6481104571
30
0.0000000000
10
45.2136356576
20
26.2855919473
30
0.0000000000
10
45.2425675384
20
26.0298087960
30
0.0000000000
10
45.2425729523
20
25.9021091150
30
0.0000000000
11
43.5428318705
21
27.6018501968
31
0.0000000000
11
43.9232525762
21
27.5587574476
31
0.0000000000
11
44.2826728802
21
27.4324511761
31
0.0000000000
11
44.6032910417
21
27.2305701176
31
0.0000000000
11
44.8706742030
21
26.9633428950
31
0.0000000000
11
45.0728582703
21
26.6426028502
31
0.0000000000
11
45.1994249297
21
26.2827705460
31
0.0000000000
11
45.2425729523
21
25.9021091150
31
0.0000000000
0
SPLINE
5
553
100
AcDbEntity
8
0
100
AcDbSpline
62
9
6
CONTINUOUS
70
0
71
3
72
14
73
10
74
8
42
0.0000001000
43
0.0000001000
44
0.0000000001
12
-0.0000113290
22
2.6643510476
32
0.0000000000
13
2.6643510313
23
0.0002944461
33
0.0000000000
40
0.0000000000
40
0.0000000000
40
0.0000000000
40
0.0000000000
40
0.1427380922
40
0.2855639514
40
0.4285449634
40
0.5715074657
40
0.7144788568
40
0.8572613159
40
1.0000000000
40
1.0000000000
40
1.0000000000
40
1.0000000000
10
-45.1534299048
20
25.8129664308
30
0.0000000000
10
-45.1534304438
20
25.9397345593
30
0.0000000000
10
-45.1248106621
20
26.1942626234
30
0.0000000000
10
-44.9981367260
20
26.5564026552
30
0.0000000000
10
-44.7938767653
20
26.8816297692
30
0.0000000000
10
-44.5222475553
20
27.1532371532
30
0.0000000000
10
-44.1970453574
20
27.3574448998
30
0.0000000000
10
-43.8349475835
20
27.4840991026
30
0.0000000000
10
-43.5804574764
20
27.5126935029
30
0.0000000000
10
-43.4536888230
20
27.5127075125
30
0.0000000000
11
-45.1534299048
21
25.8129664308
31
0.0000000000
11
-45.1108804587
21
26.1908830489
31
0.0000000000
11
-44.9852784408
21
26.5500953477
31
0.0000000000
11
-44.7826498323
21
26.8726876225
31
0.0000000000
11
-44.5133001015
21
27.1420150793
31
0.0000000000
11
-44.1907143173
21
27.3446058262
31
0.0000000000
11
-43.8316069886
21
27.4701577158
31
0.0000000000
11
-43.4536888230
21
27.5127075125
31
0.0000000000
0
SPLINE
5
554
100
AcDbEntity
8
0
100
AcDbSpline
62
9
6
CONTINUOUS
70
0
71
3
72
14
73
10
74
8
42
0.0000001000
43
0.0000001000
44
0.0000000001
12
-0.0002031963
22
2.6644190192
32
0.0000000000
13
2.6644190246
23
0.0001129602
33
0.0000000000
40
0.0000000000
40
0.0000000000
40
0.0000000000
40
0.0000000000
40
0.1436912217
40
0.2866745465
40
0.4288753492
40
0.5707549259
40
0.7130550529
40
0.8562166689
40
1.0000000000
40
1.0000000000
40
1.0000000000
40
1.0000000000
10
-45.2425725891
20
25.9021091150
30
0.0000000000
10
-45.2425823216
20
26.0297269897
30
0.0000000000
10
-45.2136742401
20
26.2852682577
30
0.0000000000
10
-45.0863284213
20
26.6475030223
30
0.0000000000
10
-44.8825377283
20
26.9711901979
30
0.0000000000
10
-44.6126312026
20
27.2412549863
30
0.0000000000
10
-44.2888328493
20
27.4453419056
30
0.0000000000
10
-43.9263143396
20
27.5729129021
30
0.0000000000
10
-43.6705311883
20
27.6018447829
30
0.0000000000
10
-43.5428315073
20
27.6018501968
30
0.0000000000
11
-45.2425725891
21
25.9021091150
31
0.0000000000
11
-45.1994798399
21
26.2825298207
31
0.0000000000
11
-45.0731735684
21
26.6419501247
31
0.0000000000
11
-44.8712925098
21
26.9625682862
31
0.0000000000
11
-44.6040652873
21
27.2299514475
31
0.0000000000
11
-44.2833252425
21
27.4321355148
31
0.0000000000
11
-43.9234929383
21
27.5587021742
31
0.0000000000
11
-43.5428315073
21
27.6018501968
31
0.0000000000
0
SPLINE
5
555
100
AcDbEntity
8
0
100
AcDbSpline
62
7
6
CONTINUOUS
70
0
71
3
72
11
73
7
74
5
42
0.0000001000
43
0.0000001000
44
0.0000000001
12
-0.2002581390
22
0.0000000000
32
0.0000000000
13
-0.0895363312
23
-0.1791272387
33
0.0000000000
40
0.0000000000
40
0.0000000000
40
0.0000000000
40
0.0000000000
40
0.3750025553
40
0.6985483822
40
0.9185111248
40
1.0000000000
40
1.0000000000
40
1.0000000000
40
1.0000000000
10
34.2465396342
20
26.5394358871
30
0.0000000000
10
34.2215071963
20
26.5394358871
30
0.0000000000
10
34.1756565270
20
26.5382739695
30
0.0000000000
10
34.1115583808
20
26.5401064731
30
0.0000000000
10
34.0755312816
20
26.5320425095
30
0.0000000000
10
34.0490021668
20
26.5374392493
30
0.0000000000
10
34.0465700952
20
26.5325736235
30
0.0000000000
11
34.2465396342
21
26.5394358871
31
0.0000000000
11
34.1714440591
21
26.5389248661
31
0.0000000000
11
34.1066683032
21
26.5374438170
31
0.0000000000
11
34.0626761536
21
26.5352001155
31
0.0000000000
11
34.0465700952
21
26.5325736235
31
0.0000000000
0
SPLINE
5
556
100
AcDbEntity
8
0
100
AcDbSpline
62
9
6
CONTINUOUS
70
0
71
3
72
13
73
9
74
7
42
0.0000001000
43
0.0000001000
44
0.0000000001
12
-0.0002139176
22
-0.7827212073
32
0.0000000000
13
-0.7827212197
23
-0.0001623695
33
0.0000000000
40
0.0000000000
40
0.0000000000
40
0.0000000000
40
0.0000000000
40
0.1657245566
40
0.3328000955
40
0.5000534630
40
0.6672457725
40
0.8342736681
40
1.0000000000
40
1.0000000000
40
1.0000000000
40
1.0000000000
10
43.3120887136
20
-27.7681949229
30
0.0000000000
10
43.3120768964
20
-27.8114336312
30
0.0000000000
10
43.3007148687
20
-27.8986844625
30
0.0000000000
10
43.2503615434
20
-28.0206082574
30
0.0000000000
10
43.1698462860
20
-28.1256854748
30
0.0000000000
10
43.0647693170
20
-28.2061784569
30
0.0000000000
10
42.9428714067
20
-28.2565161101
30
0.0000000000
10
42.8556324723
20
-28.2678813667
30
0.0000000000
10
42.8123933001
20
-28.2678903364
30
0.0000000000
11
43.3120887136
21
-27.7681949229
31
0.0000000000
11
43.2952684654
21
-27.8968158916
31
0.0000000000
11
43.2453826917
21
-28.0177006997
31
0.0000000000
11
43.1657385025
21
-28.1215994703
31
0.0000000000
11
43.0618673214
21
-28.2012010936
31
0.0000000000
11
42.9410155492
21
-28.2510691627
31
0.0000000000
11
42.8123933001
21
-28.2678903364
31
0.0000000000
0
SPLINE
5
557
100
AcDbEntity
8
0
100
AcDbSpline
62
9
6
CONTINUOUS
70
0
71
3
72
13
73
9
74
7
42
0.0000001000
43
0.0000001000
44
0.0000000001
12
-0.7827212073
22
0.0002139176
32
0.0000000000
13
-0.0001623695
23
0.7827212197
33
0.0000000000
40
0.0000000000
40
0.0000000000
40
0.0000000000
40
0.0000000000
40
0.1657245566
40
0.3328000955
40
0.5000534630
40
0.6672457725
40
0.8342736681
40
1.0000000000
40
1.0000000000
40
1.0000000000
40
1.0000000000
10
-42.8123929369
20
-28.2678903364
30
0.0000000000
10
-42.8556316452
20
-28.2678785192
30
0.0000000000
10
-42.9428824764
20
-28.2565164915
30
0.0000000000
10
-43.0648062714
20
-28.2061631662
30
0.0000000000
10
-43.1698834888
20
-28.1256479088
30
0.0000000000
10
-43.2503764709
20
-28.0205709398
30
0.0000000000
10
-43.3007141241
20
-27.8986730295
30
0.0000000000
10
-43.3120793807
20
-27.8114340951
30
0.0000000000
10
-43.3120883504
20
-27.7681949229
30
0.0000000000
11
-42.8123929369
21
-28.2678903364
31
0.0000000000
11
-42.9410139056
21
-28.2510700882
31
0.0000000000
11
-43.0618987137
21
-28.2011843145
31
0.0000000000
11
-43.1657974843
21
-28.1215401253
31
0.0000000000
11
-43.2453991076
21
-28.0176689442
31
0.0000000000
11
-43.2952671767
21
-27.8968171720
31
0.0000000000
11
-43.3120883504
21
-27.7681949229
31
0.0000000000
0
SPLINE
5
558
100
AcDbEntity
8
0
100
AcDbSpline
62
9
6
CONTINUOUS
70
0
71
3
72
13
73
9
74
7
42
0.0000001000
43
0.0000001000
44
0.0000000001
12
0.0000565366
22
0.6263951544
32
0.0000000000
13
-0.6263951562
23
-0.0000301519
33
0.0000000000
40
0.0000000000
40
0.0000000000
40
0.0000000000
40
0.0000000000
40
0.1474106453
40
0.3138489778
40
0.4941678324
40
0.6765304206
40
0.8481095221
40
1.0000000000
40
1.0000000000
40
1.0000000000
40
1.0000000000
10
-33.7574575087
20
27.4018806578
30
0.0000000000
10
-33.7574547306
20
27.4326597624
30
0.0000000000
10
-33.7650868713
20
27.4984272849
30
0.0000000000
10
-33.8020454407
20
27.5959886651
30
0.0000000000
10
-33.8684109318
20
27.6861901077
30
0.0000000000
10
-33.9583732530
20
27.7547492537
30
0.0000000000
10
-34.0578837060
20
27.7937196670
30
0.0000000000
10
-34.1256821002
20
27.8018212624
30
0.0000000000
10
-34.1573965867
20
27.8018197358
30
0.0000000000
11
-33.7574575087
21
27.4018806578
31
0.0000000000
11
-33.7681186526
21
27.4936004464
31
0.0000000000
11
-33.8050525857
21
27.5910952289
31
0.0000000000
11
-33.8720060523
21
27.6820629675
31
0.0000000000
11
-33.9628518183
21
27.7513145216
31
0.0000000000
11
-34.0629284002
21
27.7905042747
31
0.0000000000
11
-34.1573965867
21
27.8018197358
31
0.0000000000
0
SPLINE
5
559
100
AcDbEntity
8
0
100
AcDbSpline
62
9
6
CONTINUOUS
70
0
71
3
72
14
73
10
74
8
42
0.0000001000
43
0.0000001000
44
0.0000000001
12
-0.0002387760
22
2.9778342936
32
0.0000000000
13
2.9778342673
23
0.0004624815
33
0.0000000000
40
0.0000000000
40
0.0000000000
40
0.0000000000
40
0.0000000000
40
0.1431466809
40
0.2862383775
40
0.4286368951
40
0.5708499741
40
0.7135251174
40
0.8569146058
40
1.0000000000
40
1.0000000000
40
1.0000000000
40
1.0000000000
10
-45.4425421281
20
25.9021091150
30
0.0000000000
10
-45.4425535215
20
26.0441981469
30
0.0000000000
10
-45.4104054779
20
26.3293555773
30
0.0000000000
10
-45.2684217066
20
26.7340732333
30
0.0000000000
10
-45.0405337333
20
27.0965200734
30
0.0000000000
10
-44.7382553411
20
27.3990426574
30
0.0000000000
10
-44.3754558253
20
27.6274729287
30
0.0000000000
10
-43.9702495027
20
27.7696902454
30
0.0000000000
10
-43.6848597040
20
27.8017976777
30
0.0000000000
10
-43.5428315073
20
27.8018197358
30
0.0000000000
11
-45.4425421281
21
25.9021091150
31
0.0000000000
11
-45.3947265455
21
26.3256859179
31
0.0000000000
11
-45.2537353642
21
26.7277873508
31
0.0000000000
11
-45.0279940873
21
27.0867443271
31
0.0000000000
11
-44.7286664613
21
27.3863176884
31
0.0000000000
11
-44.3691518082
21
27.6127193858
31
0.0000000000
11
-43.9662298883
21
27.7540505712
31
0.0000000000
11
-43.5428315073
21
27.8018197358
31
0.0000000000
0
SPLINE
5
55A
100
AcDbEntity
8
0
100
AcDbSpline
62
9
6
CONTINUOUS
70
0
71
3
72
13
73
9
74
7
42
0.0000001000
43
0.0000001000
44
0.0000000001
12
-0.0000301800
22
-0.6263951889
32
0.0000000000
13
0.6263951871
23
0.0000564314
33
0.0000000000
40
0.0000000000
40
0.0000000000
40
0.0000000000
40
0.0000000000
40
0.1517558204
40
0.3231222473
40
0.5054072098
40
0.6858515733
40
0.8524800500
40
1.0000000000
40
1.0000000000
40
1.0000000000
40
1.0000000000
10
-45.4425421281
20
23.5166741944
30
0.0000000000
10
-45.4425436548
20
23.4849878225
30
0.0000000000
10
-45.4344579782
20
23.4172626135
30
0.0000000000
10
-45.3955594935
20
23.3178240456
30
0.0000000000
10
-45.3270772993
20
23.2278486824
30
0.0000000000
10
-45.2368714781
20
23.1614004018
30
0.0000000000
10
-45.1392355479
20
23.1243774598
30
0.0000000000
10
-45.0734049790
20
23.1167323415
30
0.0000000000
10
-45.0426030501
20
23.1167351164
30
0.0000000000
11
-45.4425421281
21
23.5166741944
31
0.0000000000
11
-45.4312467210
21
23.4222885531
31
0.0000000000
11
-45.3921436318
21
23.3223211048
31
0.0000000000
11
-45.3229769109
21
23.2314718308
31
0.0000000000
11
-45.2319841455
21
23.1644197594
31
0.0000000000
11
-45.1343899326
21
23.1274120858
31
0.0000000000
11
-45.0426030501
21
23.1167351164
31
0.0000000000
0
SPLINE
5
55B
100
AcDbEntity
8
0
100
AcDbSpline
62
9
6
CONTINUOUS
70
0
71
3
72
13
73
9
74
7
42
0.0000001000
43
0.0000001000
44
0.0000000001
12
0.6263951544
22
-0.0000565366
32
0.0000000000
13
-0.0000301519
23
0.6263951562
33
0.0000000000
40
0.0000000000
40
0.0000000000
40
0.0000000000
40
0.0000000000
40
0.1474106453
40
0.3138489778
40
0.4941678324
40
0.6765304206
40
0.8481095221
40
1.0000000000
40
1.0000000000
40
1.0000000000
40
1.0000000000
10
45.0426034133
20
23.1167351164
30
0.0000000000
10
45.0733825179
20
23.1167323383
30
0.0000000000
10
45.1391500404
20
23.1243644790
30
0.0000000000
10
45.2367114206
20
23.1613230485
30
0.0000000000
10
45.3269128632
20
23.2276885395
30
0.0000000000
10
45.3954720092
20
23.3176508607
30
0.0000000000
10
45.4344424225
20
23.4171613137
30
0.0000000000
10
45.4425440179
20
23.4849597079
30
0.0000000000
10
45.4425424913
20
23.5166741944
30
0.0000000000
11
45.0426034133
21
23.1167351164
31
0.0000000000
11
45.1343232019
21
23.1273962603
31
0.0000000000
11
45.2318179844
21
23.1643301934
31
0.0000000000
11
45.3227857230
21
23.2312836600
31
0.0000000000
11
45.3920372771
21
23.3221294260
31
0.0000000000
11
45.4312270301
21
23.4222060079
31
0.0000000000
11
45.4425424913
21
23.5166741944
31
0.0000000000
0
SPLINE
5
55C
100
AcDbEntity
8
0
100
AcDbSpline
62
9
6
CONTINUOUS
70
0
71
3
72
14
73
10
74
8
42
0.0000001000
43
0.0000001000
44
0.0000000001
12
2.9778342936
22
0.0002387760
32
0.0000000000
13
0.0004624815
23
-2.9778342673
33
0.0000000000
40
0.0000000000
40
0.0000000000
40
0.0000000000
40
0.0000000000
40
0.1431466809
40
0.2862383775
40
0.4286368951
40
0.5708499741
40
0.7135251174
40
0.8569146058
40
1.0000000000
40
1.0000000000
40
1.0000000000
40
1.0000000000
10
43.5428318705
20
27.8018197358
30
0.0000000000
10
43.6849209024
20
27.8018311292
30
0.0000000000
10
43.9700783328
20
27.7696830856
30
0.0000000000
10
44.3747959888
20
27.6276993143
30
0.0000000000
10
44.7372428289
20
27.3998113410
30
0.0000000000
10
45.0397654129
20
27.0975329488
30
0.0000000000
10
45.2681956842
20
26.7347334331
30
0.0000000000
10
45.4104130009
20
26.3295271104
30
0.0000000000
10
45.4425204332
20
26.0441373117
30
0.0000000000
10
45.4425424913
20
25.9021091150
30
0.0000000000
11
43.5428318705
21
27.8018197358
31
0.0000000000
11
43.9664086734
21
27.7540041533
31
0.0000000000
11
44.3685101063
21
27.6130129719
31
0.0000000000
11
44.7274670826
21
27.3872716950
31
0.0000000000
11
45.0270404439
21
27.0879440690
31
0.0000000000
11
45.2534421413
21
26.7284294159
31
0.0000000000
11
45.3947733267
21
26.3255074961
31
0.0000000000
11
45.4425424913
21
25.9021091150
31
0.0000000000
0
SPLINE
5
55D
100
AcDbEntity
8
0
100
AcDbSpline
62
9
6
CONTINUOUS
70
0
71
3
72
13
73
9
74
7
42
0.0000001000
43
0.0000001000
44
0.0000000001
12
-0.6263951889
22
0.0000301800
32
0.0000000000
13
0.0000564314
23
-0.6263951871
33
0.0000000000
40
0.0000000000
40
0.0000000000
40
0.0000000000
40
0.0000000000
40
0.1517558204
40
0.3231222473
40
0.5054072098
40
0.6858515733
40
0.8524800500
40
1.0000000000
40
1.0000000000
40
1.0000000000
40
1.0000000000
10
34.1573969499
20
27.8018197358
30
0.0000000000
10
34.1257105780
20
27.8018212625
30
0.0000000000
10
34.0579853690
20
27.7937355859
30
0.0000000000
10
33.9585468011
20
27.7548371012
30
0.0000000000
10
33.8685714379
20
27.6863549070
30
0.0000000000
10
33.8021231573
20
27.5961490858
30
0.0000000000
10
33.7651002153
20
27.4985131556
30
0.0000000000
10
33.7574550970
20
27.4326825867
30
0.0000000000
10
33.7574578719
20
27.4018806578
30
0.0000000000
11
34.1573969499
21
27.8018197358
31
0.0000000000
11
34.0630113086
21
27.7905243287
31
0.0000000000
11
33.9630438603
21
27.7514212395
31
0.0000000000
11
33.8721945863
21
27.6822545187
31
0.0000000000
11
33.8051425149
21
27.5912617532
31
0.0000000000
11
33.7681348413
21
27.4936675403
31
0.0000000000
11
33.7574578719
21
27.4018806578
31
0.0000000000
0
SPLINE
5
55E
100
AcDbEntity
8
0
100
AcDbSpline
62
9
6
CONTINUOUS
70
0
71
3
72
17
73
13
74
11
42
0.0000001000
43
0.0000001000
44
0.0000000001
12
0.0000567131
22
3.9214973048
32
0.0000000000
13
-3.9214973051
23
-0.0000245136
33
0.0000000000
40
0.0000000000
40
0.0000000000
40
0.0000000000
40
0.0000000000
40
0.0793274059
40
0.1734176682
40
0.2784455558
40
0.3905324445
40
0.5058435327
40
0.6207064027
40
0.7314045255
40
0.8341239770
40
0.9248815659
40
1.0000000000
40
1.0000000000
40
1.0000000000
40
1.0000000000
10
45.7927132559
20
25.6528471880
30
0.0000000000
10
45.7927147556
20
25.7565412575
30
0.0000000000
10
45.7785823982
20
25.9834568724
30
0.0000000000
10
45.7066107639
20
26.3415637908
30
0.0000000000
10
45.5646903346
20
26.7247929008
30
0.0000000000
10
45.3456651841
20
27.1027020143
30
0.0000000000
10
45.0544988831
20
27.4456185618
30
0.0000000000
10
44.7078111511
20
27.7293810530
30
0.0000000000
10
44.3311248581
20
27.9394252906
30
0.0000000000
10
43.9547659598
20
28.0729769543
30
0.0000000000
10
43.6087846607
20
28.1391938532
30
0.0000000000
10
43.3917621891
20
28.1519911143
30
0.0000000000
10
43.2935699435
20
28.1519905004
30
0.0000000000
11
45.7927132559
21
25.6528471880
31
0.0000000000
11
45.7733632454
21
25.9633270064
31
0.0000000000
11
45.7006542437
21
26.3250668822
31
0.0000000000
11
45.5576041854
21
26.7112931875
31
0.0000000000
11
45.3371902748
21
27.0915832505
31
0.0000000000
11
45.0445081037
21
27.4362785676
31
0.0000000000
11
44.6959485011
21
27.7215808352
31
0.0000000000
11
44.3168102721
21
27.9330024248
31
0.0000000000
11
43.9371948766
21
28.0677292301
31
0.0000000000
11
43.5876351723
21
28.1346384070
31
0.0000000000
11
43.2935699435
21
28.1519905004
31
0.0000000000
0
SPLINE
5
55F
100
AcDbEntity
8
0
100
AcDbSpline
62
9
6
CONTINUOUS
70
0
71
3
72
17
73
13
74
11
42
0.0000001000
43
0.0000001000
44
0.0000000001
12
-3.9214973048
22
0.0000567131
32
0.0000000000
13
0.0000245136
23
-3.9214973051
33
0.0000000000
40
0.0000000000
40
0.0000000000
40
0.0000000000
40
0.0000000000
40
0.0793274059
40
0.1734176682
40
0.2784455558
40
0.3905324445
40
0.5058435327
40
0.6207064027
40
0.7314045255
40
0.8341239770
40
0.9248815659
40
1.0000000000
40
1.0000000000
40
1.0000000000
40
1.0000000000
10
-43.2935695803
20
28.1519905004
30
0.0000000000
10
-43.3972636498
20
28.1519920001
30
0.0000000000
10
-43.6241792646
20
28.1378596427
30
0.0000000000
10
-43.9822861830
20
28.0658880084
30
0.0000000000
10
-44.3655152930
20
27.9239675791
30
0.0000000000
10
-44.7434244066
20
27.7049424286
30
0.0000000000
10
-45.0863409541
20
27.4137761276
30
0.0000000000
10
-45.3701034453
20
27.0670883956
30
0.0000000000
10
-45.5801476829
20
26.6904021026
30
0.0000000000
10
-45.7136993466
20
26.3140432043
30
0.0000000000
10
-45.7799162455
20
25.9680619052
30
0.0000000000
10
-45.7927135065
20
25.7510394337
30
0.0000000000
10
-45.7927128927
20
25.6528471880
30
0.0000000000
11
-43.2935695803
21
28.1519905004
31
0.0000000000
11
-43.6040493986
21
28.1326404899
31
0.0000000000
11
-43.9657892745
21
28.0599314882
31
0.0000000000
11
-44.3520155798
21
27.9168814299
31
0.0000000000
11
-44.7323056427
21
27.6964675193
31
0.0000000000
11
-45.0770009599
21
27.4037853482
31
0.0000000000
11
-45.3623032274
21
27.0552257456
31
0.0000000000
11
-45.5737248171
21
26.6760875166
31
0.0000000000
11
-45.7084516224
21
26.2964721211
31
0.0000000000
11
-45.7753607993
21
25.9469124168
31
0.0000000000
11
-45.7927128927
21
25.6528471880
31
0.0000000000
0
SPLINE
5
560
100
AcDbEntity
8
0
100
AcDbSpline
62
9
6
CONTINUOUS
70
0
71
3
72
14
73
10
74
8
42
0.0000001000
43
0.0000001000
44
0.0000000001
12
2.3509214710
22
0.0001991490
32
0.0000000000
13
0.0003496794
23
-2.3509214534
33
0.0000000000
40
0.0000000000
40
0.0000000000
40
0.0000000000
40
0.0000000000
40
0.1422186365
40
0.2851408952
40
0.4283068424
40
0.5716030612
40
0.7149467604
40
0.8579444026
40
1.0000000000
40
1.0000000000
40
1.0000000000
40
1.0000000000
10
43.4536891862
20
27.3127379735
30
0.0000000000
10
43.5651374683
20
27.3127474144
30
0.0000000000
10
43.7893862327
20
27.2876312346
30
0.0000000000
10
44.1088280677
20
27.1761393942
30
0.0000000000
10
44.3963258770
20
26.9958286565
30
0.0000000000
10
44.6365191917
20
26.7556693524
30
0.0000000000
10
44.8169517991
20
26.4680045666
30
0.0000000000
10
44.9284058771
20
26.1484634934
30
0.0000000000
10
44.9534441710
20
25.9242869479
30
0.0000000000
10
44.9534607290
20
25.8129664308
30
0.0000000000
11
43.4536891862
21
27.3127379735
31
0.0000000000
11
43.7859512358
21
27.2754766351
31
0.0000000000
11
44.1032008599
21
27.1648059104
31
0.0000000000
11
44.3883168285
21
26.9859497428
31
0.0000000000
11
44.6265440520
21
26.7477593071
31
0.0000000000
11
44.8056301809
21
26.4622942983
31
0.0000000000
11
44.9162889832
21
26.1448528295
31
0.0000000000
11
44.9534607290
21
25.8129664308
31
0.0000000000
0
SPLINE
5
561
100
AcDbEntity
8
0
100
AcDbSpline
62
9
6
CONTINUOUS
70
0
71
3
72
14
73
10
74
8
42
0.0000001000
43
0.0000001000
44
0.0000000001
12
-0.0001991490
22
2.3509214710
32
0.0000000000
13
2.3509214534
23
0.0003496794
33
0.0000000000
40
0.0000000000
40
0.0000000000
40
0.0000000000
40
0.0000000000
40
0.1422186365
40
0.2851408952
40
0.4283068424
40
0.5716030612
40
0.7149467604
40
0.8579444026
40
1.0000000000
40
1.0000000000
40
1.0000000000
40
1.0000000000
10
-44.9534603658
20
25.8129664308
30
0.0000000000
10
-44.9534698067
20
25.9244147128
30
0.0000000000
10
-44.9283536269
20
26.1486634772
30
0.0000000000
10
-44.8168617865
20
26.4681053122
30
0.0000000000
10
-44.6365510488
20
26.7556031215
30
0.0000000000
10
-44.3963917447
20
26.9957964362
30
0.0000000000
10
-44.1087269589
20
27.1762290436
30
0.0000000000
10
-43.7891858857
20
27.2876831216
30
0.0000000000
10
-43.5650093402
20
27.3127214155
30
0.0000000000
10
-43.4536888230
20
27.3127379735
30
0.0000000000
11
-44.9534603658
21
25.8129664308
31
0.0000000000
11
-44.9161990274
21
26.1452284803
31
0.0000000000
11
-44.8055283027
21
26.4624781044
31
0.0000000000
11
-44.6266721351
21
26.7475940730
31
0.0000000000
11
-44.3884816994
21
26.9858212965
31
0.0000000000
11
-44.1030166905
21
27.1649074254
31
0.0000000000
11
-43.7855752218
21
27.2755662277
31
0.0000000000
11
-43.4536888230
21
27.3127379735
31
0.0000000000
0
SPLINE
5
562
100
AcDbEntity
8
0
100
AcDbSpline
62
9
6
CONTINUOUS
70
0
71
3
72
15
73
11
74
9
42
0.0000001000
43
0.0000001000
44
0.0000000001
12
0.0000968651
22
2.3493453099
32
0.0000000000
13
-2.3493453112
23
-0.0000557716
33
0.0000000000
40
0.0000000000
40
0.0000000000
40
0.0000000000
40
0.0000000000
40
0.1082529036
40
0.2326445304
40
0.3673661662
40
0.5066559867
40
0.6451150967
40
0.7773331788
40
0.8974456469
40
1.0000000000
40
1.0000000000
40
1.0000000000
40
1.0000000000
10
36.0255178982
20
13.6368508406
30
0.0000000000
10
36.0255213936
20
13.7216253244
30
0.0000000000
10
36.0100270862
20
13.9041628122
30
0.0000000000
10
35.9335919954
20
14.1833642305
30
0.0000000000
10
35.7910232658
20
14.4635384463
30
0.0000000000
10
35.5846867493
20
14.7154309489
30
0.0000000000
10
35.3302245722
20
14.9153572837
30
0.0000000000
10
35.0530501956
20
15.0502758669
30
0.0000000000
10
34.7825564654
20
15.1207541514
30
0.0000000000
10
34.6078854590
20
15.1347970493
30
0.0000000000
10
34.5275735961
20
15.1347951428
30
0.0000000000
11
36.0255178982
21
13.6368508406
31
0.0000000000
11
36.0039762806
21
13.8902603445
31
0.0000000000
11
35.9267964985
21
14.1721235157
31
0.0000000000
11
35.7832260621
21
14.4541955247
31
0.0000000000
11
35.5758577928
21
14.7073443830
31
0.0000000000
11
35.3200772237
21
14.9083139157
31
0.0000000000
11
35.0407967863
21
15.0442951885
31
0.0000000000
11
34.7677321060
21
15.1154599916
31
0.0000000000
11
34.5275735961
21
15.1347951428
31
0.0000000000
0
SPLINE
5
563
100
AcDbEntity
8
0
100
AcDbSpline
62
9
6
CONTINUOUS
70
0
71
3
72
15
73
11
74
9
42
0.0000001000
43
0.0000001000
44
0.0000000001
12
2.3493453099
22
-0.0000968651
32
0.0000000000
13
-0.0000557716
23
2.3493453112
33
0.0000000000
40
0.0000000000
40
0.0000000000
40
0.0000000000
40
0.0000000000
40
0.1082529036
40
0.2326445304
40
0.3673661662
40
0.5066559867
40
0.6451150967
40
0.7773331788
40
0.8974456469
40
1.0000000000
40
1.0000000000
40
1.0000000000
40
1.0000000000
10
34.5275735961
20
-17.9162402905
30
0.0000000000
10
34.6123480799
20
-17.9162437858
30
0.0000000000
10
34.7948855677
20
-17.9007494785
30
0.0000000000
10
35.0740869860
20
-17.8243143877
30
0.0000000000
10
35.3542612018
20
-17.6817456581
30
0.0000000000
10
35.6061537044
20
-17.4754091416
30
0.0000000000
10
35.8060800392
20
-17.2209469645
30
0.0000000000
10
35.9409986224
20
-16.9437725879
30
0.0000000000
10
36.0114769069
20
-16.6732788577
30
0.0000000000
10
36.0255198048
20
-16.4986078513
30
0.0000000000
10
36.0255178982
20
-16.4182959884
30
0.0000000000
11
34.5275735961
21
-17.9162402905
31
0.0000000000
11
34.7809831000
21
-17.8946986729
31
0.0000000000
11
35.0628462712
21
-17.8175188908
31
0.0000000000
11
35.3449182802
21
-17.6739484544
31
0.0000000000
11
35.5980671385
21
-17.4665801850
31
0.0000000000
11
35.7990366712
21
-17.2107996160
31
0.0000000000
11
35.9350179440
21
-16.9315191786
31
0.0000000000
11
36.0061827471
21
-16.6584544983
31
0.0000000000
11
36.0255178982
21
-16.4182959884
31
0.0000000000
0
SPLINE
5
564
100
AcDbEntity
8
0
100
AcDbSpline
62
9
6
CONTINUOUS
70
0
71
3
72
15
73
11
74
9
42
0.0000001000
43
0.0000001000
44
0.0000000001
12
-0.0000968651
22
-2.3493453099
32
0.0000000000
13
2.3493453112
23
0.0000557716
33
0.0000000000
40
0.0000000000
40
0.0000000000
40
0.0000000000
40
0.0000000000
40
0.1082529036
40
0.2326445304
40
0.3673661662
40
0.5066559867
40
0.6451150967
40
0.7773331788
40
0.8974456469
40
1.0000000000
40
1.0000000000
40
1.0000000000
40
1.0000000000
10
28.9744824650
20
-16.4182959884
30
0.0000000000
10
28.9744789697
20
-16.5030704722
30
0.0000000000
10
28.9899732770
20
-16.6856079600
30
0.0000000000
10
29.0664083678
20
-16.9648093783
30
0.0000000000
10
29.2089770974
20
-17.2449835941
30
0.0000000000
10
29.4153136139
20
-17.4968760967
30
0.0000000000
10
29.6697757910
20
-17.6968024315
30
0.0000000000
10
29.9469501676
20
-17.8317210146
30
0.0000000000
10
30.2174438978
20
-17.9021992992
30
0.0000000000
10
30.3921149042
20
-17.9162421971
30
0.0000000000
10
30.4724267671
20
-17.9162402905
30
0.0000000000
11
28.9744824650
21
-16.4182959884
31
0.0000000000
11
28.9960240826
21
-16.6717054923
31
0.0000000000
11
29.0732038647
21
-16.9535686635
31
0.0000000000
11
29.2167743011
21
-17.2356406725
31
0.0000000000
11
29.4241425705
21
-17.4887895308
31
0.0000000000
11
29.6799231395
21
-17.6897590635
31
0.0000000000
11
29.9592035769
21
-17.8257403362
31
0.0000000000
11
30.2322682572
21
-17.8969051394
31
0.0000000000
11
30.4724267671
21
-17.9162402905
31
0.0000000000
0
SPLINE
5
565
100
AcDbEntity
8
0
100
AcDbSpline
62
9
6
CONTINUOUS
70
0
71
3
72
15
73
11
74
9
42
0.0000001000
43
0.0000001000
44
0.0000000001
12
-2.3493453099
22
0.0000968651
32
0.0000000000
13
0.0000557716
23
-2.3493453112
33
0.0000000000
40
0.0000000000
40
0.0000000000
40
0.0000000000
40
0.0000000000
40
0.1082529036
40
0.2326445304
40
0.3673661662
40
0.5066559867
40
0.6451150967
40
0.7773331788
40
0.8974456469
40
1.0000000000
40
1.0000000000
40
1.0000000000
40
1.0000000000
10
30.4724267671
20
15.1347951428
30
0.0000000000
10
30.3876522833
20
15.1347986381
30
0.0000000000
10
30.2051147955
20
15.1193043307
30
0.0000000000
10
29.9259133772
20
15.0428692399
30
0.0000000000
10
29.6457391614
20
14.9003005103
30
0.0000000000
10
29.3938466588
20
14.6939639938
30
0.0000000000
10
29.1939203240
20
14.4395018167
30
0.0000000000
10
29.0590017409
20
14.1623274401
30
0.0000000000
10
28.9885234563
20
13.8918337099
30
0.0000000000
10
28.9744805584
20
13.7171627035
30
0.0000000000
10
28.9744824650
20
13.6368508406
30
0.0000000000
11
30.4724267671
21
15.1347951428
31
0.0000000000
11
30.2190172632
21
15.1132535251
31
0.0000000000
11
29.9371540920
21
15.0360737430
31
0.0000000000
11
29.6550820830
21
14.8925033066
31
0.0000000000
11
29.4019332247
21
14.6851350373
31
0.0000000000
11
29.2009636920
21
14.4293544682
31
0.0000000000
11
29.0649824192
21
14.1500740308
31
0.0000000000
11
28.9938176161
21
13.8770093505
31
0.0000000000
11
28.9744824650
21
13.6368508406
31
0.0000000000
0
SPLINE
5
566
100
AcDbEntity
8
0
100
AcDbSpline
62
7
6
CONTINUOUS
70
0
71
3
72
12
73
8
74
6
42
0.0000001000
43
0.0000001000
44
0.0000000001
12
0.6312739558
22
-0.0081640814
32
0.0000000000
13
0.5763198327
23
-0.2577380645
33
0.0000000000
40
0.0000000000
40
0.0000000000
40
0.0000000000
40
0.0000000000
40
0.1508096397
40
0.3267302708
40
0.5272882108
40
0.7519627810
40
1.0000000000
40
1.0000000000
40
1.0000000000
40
1.0000000000
10
-42.2296286449
20
23.3167046554
30
0.0000000000
10
-42.1978945790
20
23.3162942480
30
0.0000000000
10
-42.1293042706
20
23.3068633807
30
0.0000000000
10
-42.0222765707
20
23.2771374740
30
0.0000000000
10
-41.9033942044
20
23.2335926553
30
0.0000000000
10
-41.7727707299
20
23.1786662798
30
0.0000000000
10
-41.6819606331
20
23.1380446606
30
0.0000000000
10
-41.6343110436
20
23.1167351164
30
0.0000000000
11
-42.2296286449
21
23.3167046554
31
0.0000000000
11
-42.1350597225
21
23.3056731877
31
0.0000000000
11
-42.0277065309
21
23.2772061721
31
0.0000000000
11
-41.9085175575
21
23.2344744145
31
0.0000000000
11
-41.7775072556
21
23.1801075503
31
0.0000000000
11
-41.6343110436
21
23.1167351164
31
0.0000000000
0
SPLINE
5
567
100
AcDbEntity
8
0
100
AcDbSpline
62
7
6
CONTINUOUS
70
0
71
3
72
11
73
7
74
5
42
0.0000001000
43
0.0000001000
44
0.0000000001
12
-0.2006155389
22
0.0000000000
32
0.0000000000
13
-0.0633938039
23
0.1903360714
33
0.0000000000
40
0.0000000000
40
0.0000000000
40
0.0000000000
40
0.0000000000
40
0.3742615028
40
0.6973315418
40
0.9173084233
40
1.0000000000
40
1.0000000000
40
1.0000000000
40
1.0000000000
10
32.0861801537
20
15.7140929847
30
0.0000000000
10
32.0611525960
20
15.7140929847
30
0.0000000000
10
32.0154327213
20
15.7152594217
30
0.0000000000
10
31.9508376837
20
15.7145766680
30
0.0000000000
10
31.9157227549
20
15.7225162209
30
0.0000000000
10
31.8879579925
20
15.7191452155
30
0.0000000000
10
31.8862106146
20
15.7243916122
30
0.0000000000
11
32.0861801537
21
15.7140929847
31
0.0000000000
11
32.0111013938
21
15.7148595489
31
0.0000000000
11
31.9463266288
21
15.7170816957
31
0.0000000000
11
31.9023244966
21
15.7204489139
31
0.0000000000
11
31.8862106146
21
15.7243916122
31
0.0000000000
0
SPLINE
5
568
100
AcDbEntity
8
0
100
AcDbSpline
62
7
6
CONTINUOUS
70
0
71
3
72
11
73
7
74
5
42
0.0000001000
43
0.0000001000
44
0.0000000001
12
0.3121097150
22
0.0000000000
32
0.0000000000
13
0.0000000000
23
-0.3121097150
33
0.0000000000
40
0.0000000000
40
0.0000000000
40
0.0000000000
40
0.0000000000
40
0.2476602757
40
0.4983421865
40
0.7505917120
40
1.0000000000
40
1.0000000000
40
1.0000000000
40
1.0000000000
10
33.0501524215
20
17.7285396604
30
0.0000000000
10
33.0759181475
20
17.7285396604
30
0.0000000000
10
33.1283200747
20
17.7182600166
30
0.0000000000
10
33.1949667386
20
17.6738729390
30
0.0000000000
10
33.2396183404
20
17.6071507300
30
0.0000000000
10
33.2500001816
20
17.5543957028
30
0.0000000000
10
33.2500001816
20
17.5284481195
30
0.0000000000
11
33.0501524215
21
17.7285396604
31
0.0000000000
11
33.1259887235
21
17.7135827545
31
0.0000000000
11
33.1911487797
21
17.6702733408
31
0.0000000000
11
33.2348839715
21
17.6048090642
31
0.0000000000
11
33.2500001816
21
17.5284481195
31
0.0000000000
0
SPLINE
5
569
100
AcDbEntity
8
0
100
AcDbSpline
62
9
6
CONTINUOUS
70
0
71
3
72
11
73
7
74
5
42
0.0000001000
43
0.0000001000
44
0.0000000001
12
0.3118208881
22
-0.0002844666
32
0.0000000000
13
0.0002851610
23
-0.3118208875
33
0.0000000000
40
0.0000000000
40
0.0000000000
40
0.0000000000
40
0.0000000000
40
0.2501098177
40
0.5001989212
40
0.7501715417
40
1.0000000000
40
1.0000000000
40
1.0000000000
40
1.0000000000
10
32.9138202096
20
17.3192104197
30
0.0000000000
10
32.9398166981
20
17.3191867038
30
0.0000000000
10
32.9923641201
20
17.3087573746
30
0.0000000000
10
33.0587957632
20
17.2643108161
30
0.0000000000
10
33.1033150947
20
17.1979591873
30
0.0000000000
10
33.1137660015
20
17.1454517566
30
0.0000000000
10
33.1137897486
20
17.1194845128
30
0.0000000000
11
32.9138202096
21
17.3192104197
31
0.0000000000
11
32.9903030824
21
17.3039548650
31
0.0000000000
11
33.0551554944
21
17.2606476023
31
0.0000000000
11
33.0985155847
21
17.1958742030
31
0.0000000000
11
33.1137897486
21
17.1194845128
31
0.0000000000
0
SPLINE
5
56A
100
AcDbEntity
8
0
100
AcDbSpline
62
7
6
CONTINUOUS
70
0
71
3
72
11
73
7
74
5
42
0.0000001000
43
0.0000001000
44
0.0000000001
12
-0.0633938039
22
-0.1903360714
32
0.0000000000
13
-0.2006155389
23
0.0000000000
33
0.0000000000
40
0.0000000000
40
0.0000000000
40
0.0000000000
40
0.0000000000
40
0.0826915767
40
0.3026684582
40
0.6257384972
40
1.0000000000
40
1.0000000000
40
1.0000000000
40
1.0000000000
10
33.1137897486
20
15.7243916122
30
0.0000000000
10
33.1120423707
20
15.7191452155
30
0.0000000000
10
33.0842776083
20
15.7225162209
30
0.0000000000
10
33.0491626795
20
15.7145766680
30
0.0000000000
10
32.9845676419
20
15.7152594217
30
0.0000000000
10
32.9388477672
20
15.7140929847
30
0.0000000000
10
32.9138202096
20
15.7140929847
30
0.0000000000
11
33.1137897486
21
15.7243916122
31
0.0000000000
11
33.0976758666
21
15.7204489139
31
0.0000000000
11
33.0536737344
21
15.7170816957
31
0.0000000000
11
32.9888989694
21
15.7148595489
31
0.0000000000
11
32.9138202096
21
15.7140929847
31
0.0000000000
0
SPLINE
5
56B
100
AcDbEntity
8
0
100
AcDbSpline
62
7
6
CONTINUOUS
70
0
71
3
72
11
73
7
74
5
42
0.0000001000
43
0.0000001000
44
0.0000000001
12
0.0000000000
22
0.3121097029
32
0.0000000000
13
0.3121097029
23
0.0000000000
33
0.0000000000
40
0.0000000000
40
0.0000000000
40
0.0000000000
40
0.0000000000
40
0.2481229392
40
0.4989896472
40
0.7510722962
40
1.0000000000
40
1.0000000000
40
1.0000000000
40
1.0000000000
10
31.7500001816
20
17.5284481195
30
0.0000000000
10
31.7500001816
20
17.5542619785
30
0.0000000000
10
31.7602718868
20
17.6067310388
30
0.0000000000
10
31.8046212222
20
17.6734605467
30
0.0000000000
10
31.8712625726
20
17.7181503949
30
0.0000000000
10
31.9239503578
20
17.7285396604
30
0.0000000000
10
31.9498479417
20
17.7285396604
30
0.0000000000
11
31.7500001816
21
17.5284481195
31
0.0000000000
11
31.7649609465
21
17.6044308369
31
0.0000000000
11
31.8082514328
21
17.6696726964
31
0.0000000000
11
31.8736387584
21
17.7134292652
31
0.0000000000
11
31.9498479417
21
17.7285396604
31
0.0000000000
0
SPLINE
5
56C
100
AcDbEntity
8
0
100
AcDbSpline
62
7
6
CONTINUOUS
70
0
71
3
72
12
73
8
74
6
42
0.0000001000
43
0.0000001000
44
0.0000000001
12
-0.5772456046
22
0.8163485629
32
0.0000000000
13
-0.0437560145
23
0.9988607888
33
0.0000000000
40
0.0000000000
40
0.0000000000
40
0.0000000000
40
0.0000000000
40
0.2781254446
40
0.5212859193
40
0.7255817150
40
0.8862591411
40
1.0000000000
40
1.0000000000
40
1.0000000000
40
1.0000000000
10
33.4072871073
20
23.8435886513
30
0.0000000000
10
33.3537715438
20
23.9192710870
30
0.0000000000
10
33.2534369248
20
24.0611303465
30
0.0000000000
10
33.1174449523
20
24.2610062677
30
0.0000000000
10
33.0102053916
20
24.4334082499
30
0.0000000000
10
32.9373707760
20
24.5749413103
30
0.0000000000
10
32.9091173937
20
24.6640539488
30
0.0000000000
10
32.9074584448
20
24.7019243768
30
0.0000000000
11
33.4072871073
21
23.8435886513
31
0.0000000000
11
33.2474564744
21
24.0711405974
31
0.0000000000
11
33.1116252173
21
24.2727725652
31
0.0000000000
11
33.0052805538
21
24.4471642324
31
0.0000000000
11
32.9348572437
21
24.5915540969
31
0.0000000000
11
32.9074584448
21
24.7019243768
31
0.0000000000
0
SPLINE
5
56D
100
AcDbEntity
8
0
100
AcDbSpline
62
7
6
CONTINUOUS
70
0
71
3
72
12
73
8
74
6
42
0.0000001000
43
0.0000001000
44
0.0000000001
12
-0.9988567175
22
0.0437558362
32
0.0000000000
13
-0.8163452355
23
0.5772432518
33
0.0000000000
40
0.0000000000
40
0.0000000000
40
0.0000000000
40
0.0000000000
40
0.1141952374
40
0.2758946242
40
0.4804802117
40
0.7227438919
40
1.0000000000
40
1.0000000000
40
1.0000000000
40
1.0000000000
10
42.4926471323
20
22.2667356893
30
0.0000000000
10
42.4546255723
20
22.2684012586
30
0.0000000000
10
42.3650487669
20
22.2968819350
30
0.0000000000
10
42.2230588091
20
22.3700967178
30
0.0000000000
10
42.0505864991
20
22.4774833389
30
0.0000000000
10
41.8511351755
20
22.6132221167
30
0.0000000000
10
41.7097569744
20
22.7132162793
30
0.0000000000
10
41.6343114068
20
22.7665643518
30
0.0000000000
11
42.4926471323
21
22.2667356893
31
0.0000000000
11
42.3818506289
21
22.2943011230
31
0.0000000000
11
42.2365962085
21
22.3652810701
31
0.0000000000
11
42.0620116570
21
22.4718642859
31
0.0000000000
11
41.8611479158
21
22.6072293186
31
0.0000000000
11
41.6343114068
21
22.7665643518
31
0.0000000000
0
SPLINE
5
56E
100
AcDbEntity
8
0
100
AcDbSpline
62
7
6
CONTINUOUS
70
0
71
3
72
12
73
8
74
6
42
0.0000001000
43
0.0000001000
44
0.0000000001
12
-0.0437558362
22
-0.9988567175
32
0.0000000000
13
-0.5772432518
23
-0.8163452355
33
0.0000000000
40
0.0000000000
40
0.0000000000
40
0.0000000000
40
0.0000000000
40
0.1141952374
40
0.2758946242
40
0.4804802117
40
0.7227438919
40
1.0000000000
40
1.0000000000
40
1.0000000000
40
1.0000000000
10
-32.9074580816
20
24.7019243768
30
0.0000000000
10
-32.9091236509
20
24.6639028168
30
0.0000000000
10
-32.9376043273
20
24.5743260114
30
0.0000000000
10
-33.0108191100
20
24.4323360536
30
0.0000000000
10
-33.1182057312
20
24.2598637436
30
0.0000000000
10
-33.2539445089
20
24.0604124200
30
0.0000000000
10
-33.3539386716
20
23.9190342189
30
0.0000000000
10
-33.4072867441
20
23.8435886513
30
0.0000000000
11
-32.9074580816
21
24.7019243768
31
0.0000000000
11
-32.9350235153
21
24.5911278734
31
0.0000000000
11
-33.0060034624
21
24.4458734530
31
0.0000000000
11
-33.1125866781
21
24.2712889015
31
0.0000000000
11
-33.2479517109
21
24.0704251603
31
0.0000000000
11
-33.4072867441
21
23.8435886513
31
0.0000000000
0
SPLINE
5
56F
100
AcDbEntity
8
0
100
AcDbSpline
62
7
6
CONTINUOUS
70
0
71
3
72
12
73
8
74
6
42
0.0000001000
43
0.0000001000
44
0.0000000001
12
-0.8163485629
22
-0.5772456046
32
0.0000000000
13
-0.9988607888
23
-0.0437560145
33
0.0000000000
40
0.0000000000
40
0.0000000000
40
0.0000000000
40
0.0000000000
40
0.2781254446
40
0.5212859193
40
0.7255817150
40
0.8862591411
40
1.0000000000
40
1.0000000000
40
1.0000000000
40
1.0000000000
10
-41.6343110436
20
22.7665643518
30
0.0000000000
10
-41.7099934792
20
22.7130487883
30
0.0000000000
10
-41.8518527388
20
22.6127141693
30
0.0000000000
10
-42.0517286600
20
22.4767221968
30
0.0000000000
10
-42.2241306422
20
22.3694826362
30
0.0000000000
10
-42.3656637025
20
22.2966480205
30
0.0000000000
10
-42.4547763411
20
22.2683946382
30
0.0000000000
10
-42.4926467691
20
22.2667356893
30
0.0000000000
11
-41.6343110436
21
22.7665643518
31
0.0000000000
11
-41.8618629897
21
22.6067337189
31
0.0000000000
11
-42.0634949575
21
22.4709024618
31
0.0000000000
11
-42.2378866247
21
22.3645577983
31
0.0000000000
11
-42.3822764892
21
22.2941344882
31
0.0000000000
11
-42.4926467691
21
22.2667356893
31
0.0000000000
0
SPLINE
5
570
100
AcDbEntity
8
0
100
AcDbSpline
62
9
6
CONTINUOUS
70
0
71
3
72
17
73
13
74
11
42
0.0000001000
43
0.0000001000
44
0.0000000001
12
-0.0005041668
22
4.7056117526
32
0.0000000000
13
-4.7056117505
23
0.0005232451
33
0.0000000000
40
0.0000000000
40
0.0000000000
40
0.0000000000
40
0.0000000000
40
0.0793001986
40
0.1733574934
40
0.2783645719
40
0.3904482310
40
0.5057716119
40
0.6206551966
40
0.7313731844
40
0.8341030234
40
0.9248574007
40
1.0000000000
40
1.0000000000
40
1.0000000000
40
1.0000000000
10
46.2925419184
20
25.6528471880
30
0.0000000000
10
46.2925285916
20
25.7772325035
30
0.0000000000
10
46.2755515760
20
26.0494238595
30
0.0000000000
10
46.1891961520
20
26.4790054833
30
0.0000000000
10
46.0189362150
20
26.9387788586
30
0.0000000000
10
45.7561573275
20
27.3922527216
30
0.0000000000
10
45.4067836397
20
27.8038071609
30
0.0000000000
10
44.9907531177
20
28.1444134540
30
0.0000000000
10
44.5387103663
20
28.3965549291
30
0.0000000000
10
44.0870800649
20
28.5568887549
30
0.0000000000
10
43.6718819710
20
28.6364145922
30
0.0000000000
10
43.4114339095
20
28.6518060569
30
0.0000000000
10
43.2935699435
20
28.6518191629
30
0.0000000000
11
46.2925419184
21
25.6528471880
31
0.0000000000
11
46.2692958273
21
26.0252783647
31
0.0000000000
11
46.1820614515
21
26.4591935281
31
0.0000000000
11
46.0104499168
21
26.9225579326
31
0.0000000000
11
45.7460026402
21
27.3788931174
31
0.0000000000
11
45.3948031182
21
27.7925915982
31
0.0000000000
11
44.9765148808
21
28.1350542398
31
0.0000000000
11
44.5215184429
21
28.3888552163
31
0.0000000000
11
44.0659740204
21
28.5505999410
31
0.0000000000
11
43.6465451353
21
28.6309446346
31
0.0000000000
11
43.2935699435
21
28.6518191629
31
0.0000000000
0
SPLINE
5
571
100
AcDbEntity
8
0
100
AcDbSpline
62
9
6
CONTINUOUS
70
0
71
3
72
17
73
13
74
11
42
0.0000001000
43
0.0000001000
44
0.0000000001
12
-4.7056117526
22
-0.0005041668
32
0.0000000000
13
-0.0005232451
23
-4.7056117505
33
0.0000000000
40
0.0000000000
40
0.0000000000
40
0.0000000000
40
0.0000000000
40
0.0793001986
40
0.1733574934
40
0.2783645719
40
0.3904482310
40
0.5057716119
40
0.6206551966
40
0.7313731844
40
0.8341030234
40
0.9248574007
40
1.0000000000
40
1.0000000000
40
1.0000000000
40
1.0000000000
10
-43.2935695803
20
28.6518191629
30
0.0000000000
10
-43.4179548958
20
28.6518058361
30
0.0000000000
10
-43.6901462518
20
28.6348288205
30
0.0000000000
10
-44.1197278756
20
28.5484733965
30
0.0000000000
10
-44.5795012509
20
28.3782134595
30
0.0000000000
10
-45.0329751139
20
28.1154345720
30
0.0000000000
10
-45.4445295532
20
27.7660608842
30
0.0000000000
10
-45.7851358462
20
27.3500303623
30
0.0000000000
10
-46.0372773214
20
26.8979876109
30
0.0000000000
10
-46.1976111472
20
26.4463573094
30
0.0000000000
10
-46.2771369845
20
26.0311592156
30
0.0000000000
10
-46.2925284492
20
25.7707111540
30
0.0000000000
10
-46.2925415552
20
25.6528471880
30
0.0000000000
11
-43.2935695803
21
28.6518191629
31
0.0000000000
11
-43.6660007569
21
28.6285730718
31
0.0000000000
11
-44.0999159204
21
28.5413386960
31
0.0000000000
11
-44.5632803249
21
28.3697271613
31
0.0000000000
11
-45.0196155097
21
28.1052798847
31
0.0000000000
11
-45.4333139905
21
27.7540803627
31
0.0000000000
11
-45.7757766320
21
27.3357921253
31
0.0000000000
11
-46.0295776086
21
26.8807956874
31
0.0000000000
11
-46.1913223332
21
26.4252512649
31
0.0000000000
11
-46.2716670268
21
26.0058223798
31
0.0000000000
11
-46.2925415552
21
25.6528471880
31
0.0000000000
0
ENDSEC
0
SECTION
2
OBJECTS
0
DICTIONARY
5
C
100
AcDbDictionary
280
0
281
1
3
ACAD_GROUP
350
D
3
ACAD_MLINESTYLE
350
17
3
ACAD_LAYOUT
350
1A
3
ACAD_PLOTSETTINGS
350
19
3
ACAD_PLOTSTYLENAME
350
E
0
DICTIONARY
5
D
102
{ACAD_REACTORS
330
C
102
}
100
AcDbDictionary
280
0
281
1
0
ACDBDICTIONARYWDFLT
5
E
102
{ACAD_REACTORS
330
C
102
}
100
AcDbDictionary
281
1
3
Normal
350
F
100
AcDbDictionaryWithDefault
340
F
0
DICTIONARY
5
17
102
{ACAD_REACTORS
330
C
102
}
100
AcDbDictionary
280
0
281
1
3
Standard
350
18
0
DICTIONARY
5
19
102
{ACAD_REACTORS
330
C
102
}
100
AcDbDictionary
281
1
0
DICTIONARY
5
1A
102
{ACAD_REACTORS
330
C
102
}
100
AcDbDictionary
281
1
3
Layout1
350
1E
3
Model
350
22
0
ACDBPLACEHOLDER
5
F
102
{ACAD_REACTORS
330
E
102
}
0
MLINESTYLE
5
18
102
{ACAD_REACTORS
330
17
102
}
100
AcDbMlineStyle
2
STANDARD
70
0
3

62
256
51
90.0
52
90.0
71
2
49
0.5
62
256
6
BYLAYER
49
-0.5
62
256
6
BYLAYER
0
LAYOUT
5
1E
102
{ACAD_REACTORS
330
1A
102
}
100
AcDbPlotSettings
1

2

4

6

40
0.0
41
0.0
42
0.0
43
0.0
44
0.0
45
0.0
46
0.0
47
0.0
48
0.0
49
0.0
140
0.0
141
0.0
142
1.0
143
1.0
70
0
72
0
73
0
74
0
7

75
0
147
1.0
148
0.0
149
0.0
100
AcDbLayout
1
Layout1
70
0
71
0
10
0.0
20
0.0
11
0.0
21
0.0
12
0.0
22
0.0
32
0.0
14
0.0
24
0.0
34
0.0
15
0.0
25
0.0
35
0.0
146
0.0
13
0.0
23
0.0
33
0.0
16
0.0
26
0.0
36
0.0
17
0.0
27
0.0
37
0.0
76
0
330
1B
331
0
345
0
346
0
0
LAYOUT
5
22
102
{ACAD_REACTORS
330
1A
102
}
100
AcDbPlotSettings
1

2

4

6

40
0.0
41
0.0
42
0.0
43
0.0
44
0.0
45
0.0
46
0.0
47
0.0
48
0.0
49
0.0
140
0.0
141
0.0
142
1.0
143
1.0
70
0
72
0
73
0
74
0
7

75
0
147
1.0
148
0.0
149
0.0
100
AcDbLayout
1
Model
70
0
71
0
10
0.0
20
0.0
11
0.0
21
0.0
12
0.0
22
0.0
32
0.0
14
0.0
24
0.0
34
0.0
15
0.0
25
0.0
35
0.0
146
0.0
13
0.0
23
0.0
33
0.0
16
0.0
26
0.0
36
0.0
17
0.0
27
0.0
37
0.0
76
0
330
1F
331
0
345
0
346
0
0
ENDSEC
0
EOF
