0
SECTION
2
HEADER
9
$ACADVER
1
AC1015
9
$DWGCODEPAGE
3
ANSI_1252
9
$EXTMAX
10
297.0000000000
20
210.0000000000
30
0.0000000000
9
$EXTMIN
10
0.0000000000
20
0.0000000000
30
0.0000000000
9
$LIMMIN
10
0.0000000000
20
0.0000000000
9
$LIMMAX
10
297.0000000000
20
210.0000000000
9
$VIEWCTR
10
148.5000000000
20
105.0000000000
9
$VIEWSIZE
40
210.0000000000
9
$CLAYER
8
0
9
$LTSCALE
40
16.3350000000
9
$CELTYPE
6
BYLAYER
9
$DIMSCALE
40
1
9
$DIMASZ
40
3.0000000000
9
$DIMEXO
40
1.8562500000
9
$DIMDLI
40
11.2860000000
9
$DIMEXE
40
5.3460000000
9
$DIMCEN
40
2.6730000000
9
$DIMLFAC
40
1.0000000000
9
$DIMBLK
1
_FILLED
9
$DIMTXT
40
3.0000000000
9
$DIMTOL
70
1
9
$DIMLIM
70
0
9
$DIMTFAC
40
1.0000000000
9
$DIMTP
40
0.0100000000
9
$DIMTM
40
0.0100000000
9
$PDMODE
70
3
9
$PDSIZE
40
3.0000000000
9
$HANDSEED
5
5AA
9
$MEASUREMENT
70
1
9
$INSUNITS
70
4
0
ENDSEC
0
SECTION
2
CLASSES
0
CLASS
1
ACDBDICTIONARYWDFLT
2
AcDbDictionaryWithDefault
3
AutoCAD 2000
90
0
280
0
281
0
0
CLASS
1
ACDBPLACEHOLDER
2
AcDbPlaceHolder
3
AutoCAD 2000
90
0
280
0
281
0
0
CLASS
1
LAYOUT
2
AcDbLayout
3
AutoCAD 2000
90
0
280
0
281
0
0
ENDSEC
0
SECTION
2
TABLES
0
TABLE
2
VPORT
5
8
100
AcDbSymbolTable
70
2
0
VPORT
5
1F4
100
AcDbSymbolTableRecord
100
AcDbViewportTableRecord
2
*ACTIVE
70
0
10
0.0
20
0.0
11
1.0
21
1.0
12
148.5000000000
22
105.0000000000
13
0.0
23
0.0
14
1.0
24
1.0
15
0.0
25
0.0
16
0.0
26
0.0
36
1.0
17
0.0
27
0.0
37
0.0
40
210.0000000000
41
1.4142857143
42
50.0
43
0.0
44
0.0
50
0.0
51
0.0
71
0
72
100
73
1
74
1
75
0
76
0
77
0
78
0
0
ENDTAB
0
TABLE
2
LTYPE
5
5
100
AcDbSymbolTable
70
6
0
LTYPE
5
14
100
AcDbSymbolTableRecord
100
AcDbLinetypeTableRecord
2
BYBLOCK
70
0
3

72
65
73
0
40
0.0
0
LTYPE
5
15
100
AcDbSymbolTableRecord
100
AcDbLinetypeTableRecord
2
BYLAYER
70
0
3

72
65
73
0
40
0.0
0
LTYPE
5
16
100
AcDbSymbolTableRecord
100
AcDbLinetypeTableRecord
2
CONTINUOUS
70
64
3
Solid line
72
65
73
0
40
0
0
LTYPE
5
1F5
100
AcDbSymbolTableRecord
100
AcDbLinetypeTableRecord
2
CENTER
70
64
3
____ _ ____ _ ____ _ ____ _ ____ _ ____ _ ____
72
65
73
4
40
0.6
49
0.375
74
0
49
-0.075
74
0
49
0.075
74
0
49
-0.075
74
0
0
LTYPE
5
1F6
100
AcDbSymbolTableRecord
100
AcDbLinetypeTableRecord
2
HIDDEN
70
64
3
- - - - - - - - - - - - - - - - - - - -
72
65
73
2
40
0.2
49
0.1
74
0
49
-0.1
74
0
0
LTYPE
5
1F7
100
AcDbSymbolTableRecord
100
AcDbLinetypeTableRecord
2
PHANTOM
70
64
3
_____ _ _ _____ _ _ _____ _ _ _____
72
65
73
6
40
0.8
49
0.45
74
0
49
-0.05
74
0
49
0.1
74
0
49
-0.05
74
0
49
0.1
74
0
49
-0.05
74
0
0
LTYPE
5
1F8
100
AcDbSymbolTableRecord
100
AcDbLinetypeTableRecord
2
DOT
70
64
3
. . . . . . . . . . . . . . . . . . . .
72
65
73
2
40
0.2
49
0.1
74
0
49
-0.1
74
0
0
LTYPE
5
1F9
100
AcDbSymbolTableRecord
100
AcDbLinetypeTableRecord
2
DASHED
70
64
3
- - - - - - - - - - - - - - - - - - - -
72
65
73
2
40
0.2
49
0.1
74
0
49
-0.1
74
0
0
ENDTAB
0
TABLE
2
LAYER
5
2
100
AcDbSymbolTable
70
36
0
LAYER
5
10
100
AcDbSymbolTableRecord
100
AcDbLayerTableRecord
2
0
70
0
62
7
6
CONTINUOUS
370
-3
390
F
0
LAYER
5
1FA
100
AcDbSymbolTableRecord
100
AcDbLayerTableRecord
2
DEFAULT_1
70
0
62
7
6
CENTER
370
-3
390
F
0
LAYER
5
1FB
100
AcDbSymbolTableRecord
100
AcDbLayerTableRecord
2
DEFAULT_2
70
0
62
9
6
HIDDEN
370
-3
390
F
0
LAYER
5
1FC
100
AcDbSymbolTableRecord
100
AcDbLayerTableRecord
2
DEFAULT_3
70
0
62
7
6
PHANTOM
370
-3
390
F
0
LAYER
5
1FD
100
AcDbSymbolTableRecord
100
AcDbLayerTableRecord
2
_2D_DELETED_OBJS
70
0
62
7
6
CONTINUOUS
370
-3
390
F
0
LAYER
5
1FE
100
AcDbSymbolTableRecord
100
AcDbLayerTableRecord
2
1608-CC-RF-VIMAR_80000
70
0
62
7
6
CONTINUOUS
370
-3
390
F
0
LAYER
5
1FF
100
AcDbSymbolTableRecord
100
AcDbLayerTableRecord
2
1608-CC-RF-VIMAR_80000_1
70
0
62
7
6
CONTINUOUS
370
-3
390
F
0
LAYER
5
200
100
AcDbSymbolTableRecord
100
AcDbLayerTableRecord
2
1608-CC-RF-VIMAR_80000_10
70
0
62
7
6
CONTINUOUS
370
-3
390
F
0
LAYER
5
201
100
AcDbSymbolTableRecord
100
AcDbLayerTableRecord
2
1608-CC-RF-VIMAR_80000_11
70
0
62
7
6
CONTINUOUS
370
-3
390
F
0
LAYER
5
202
100
AcDbSymbolTableRecord
100
AcDbLayerTableRecord
2
1608-CC-RF-VIMAR_80000_12
70
0
62
7
6
CONTINUOUS
370
-3
390
F
0
LAYER
5
203
100
AcDbSymbolTableRecord
100
AcDbLayerTableRecord
2
1608-CC-RF-VIMAR_80000_13
70
0
62
7
6
CONTINUOUS
370
-3
390
F
0
LAYER
5
204
100
AcDbSymbolTableRecord
100
AcDbLayerTableRecord
2
1608-CC-RF-VIMAR_80000_14
70
0
62
7
6
CONTINUOUS
370
-3
390
F
0
LAYER
5
205
100
AcDbSymbolTableRecord
100
AcDbLayerTableRecord
2
1608-CC-RF-VIMAR_80000_15
70
0
62
7
6
CONTINUOUS
370
-3
390
F
0
LAYER
5
206
100
AcDbSymbolTableRecord
100
AcDbLayerTableRecord
2
1608-CC-RF-VIMAR_80000_16
70
0
62
7
6
CONTINUOUS
370
-3
390
F
0
LAYER
5
207
100
AcDbSymbolTableRecord
100
AcDbLayerTableRecord
2
1608-CC-RF-VIMAR_80000_17
70
0
62
7
6
CONTINUOUS
370
-3
390
F
0
LAYER
5
208
100
AcDbSymbolTableRecord
100
AcDbLayerTableRecord
2
1608-CC-RF-VIMAR_80000_18
70
0
62
7
6
CONTINUOUS
370
-3
390
F
0
LAYER
5
209
100
AcDbSymbolTableRecord
100
AcDbLayerTableRecord
2
1608-CC-RF-VIMAR_80000_19
70
0
62
7
6
CONTINUOUS
370
-3
390
F
0
LAYER
5
20A
100
AcDbSymbolTableRecord
100
AcDbLayerTableRecord
2
1608-CC-RF-VIMAR_80000_2
70
0
62
7
6
CONTINUOUS
370
-3
390
F
0
LAYER
5
20B
100
AcDbSymbolTableRecord
100
AcDbLayerTableRecord
2
1608-CC-RF-VIMAR_80000_20
70
0
62
7
6
CONTINUOUS
370
-3
390
F
0
LAYER
5
20C
100
AcDbSymbolTableRecord
100
AcDbLayerTableRecord
2
1608-CC-RF-VIMAR_80000_21
70
0
62
7
6
CONTINUOUS
370
-3
390
F
0
LAYER
5
20D
100
AcDbSymbolTableRecord
100
AcDbLayerTableRecord
2
1608-CC-RF-VIMAR_80000_22
70
0
62
7
6
CONTINUOUS
370
-3
390
F
0
LAYER
5
20E
100
AcDbSymbolTableRecord
100
AcDbLayerTableRecord
2
1608-CC-RF-VIMAR_80000_23
70
0
62
7
6
CONTINUOUS
370
-3
390
F
0
LAYER
5
20F
100
AcDbSymbolTableRecord
100
AcDbLayerTableRecord
2
1608-CC-RF-VIMAR_80000_24
70
0
62
7
6
CONTINUOUS
370
-3
390
F
0
LAYER
5
210
100
AcDbSymbolTableRecord
100
AcDbLayerTableRecord
2
1608-CC-RF-VIMAR_80000_25
70
0
62
7
6
CONTINUOUS
370
-3
390
F
0
LAYER
5
211
100
AcDbSymbolTableRecord
100
AcDbLayerTableRecord
2
1608-CC-RF-VIMAR_80000_26
70
0
62
7
6
CONTINUOUS
370
-3
390
F
0
LAYER
5
212
100
AcDbSymbolTableRecord
100
AcDbLayerTableRecord
2
1608-CC-RF-VIMAR_80000_27
70
0
62
7
6
CONTINUOUS
370
-3
390
F
0
LAYER
5
213
100
AcDbSymbolTableRecord
100
AcDbLayerTableRecord
2
1608-CC-RF-VIMAR_80000_28
70
0
62
7
6
CONTINUOUS
370
-3
390
F
0
LAYER
5
214
100
AcDbSymbolTableRecord
100
AcDbLayerTableRecord
2
1608-CC-RF-VIMAR_80000_29
70
0
62
7
6
CONTINUOUS
370
-3
390
F
0
LAYER
5
215
100
AcDbSymbolTableRecord
100
AcDbLayerTableRecord
2
1608-CC-RF-VIMAR_80000_3
70
0
62
7
6
CONTINUOUS
370
-3
390
F
0
LAYER
5
216
100
AcDbSymbolTableRecord
100
AcDbLayerTableRecord
2
1608-CC-RF-VIMAR_80000_30
70
0
62
7
6
CONTINUOUS
370
-3
390
F
0
LAYER
5
217
100
AcDbSymbolTableRecord
100
AcDbLayerTableRecord
2
1608-CC-RF-VIMAR_80000_31
70
0
62
7
6
CONTINUOUS
370
-3
390
F
0
LAYER
5
218
100
AcDbSymbolTableRecord
100
AcDbLayerTableRecord
2
1608-CC-RF-VIMAR_80000_32
70
0
62
7
6
CONTINUOUS
370
-3
390
F
0
LAYER
5
219
100
AcDbSymbolTableRecord
100
AcDbLayerTableRecord
2
1608-CC-RF-VIMAR_80000_33
70
0
62
7
6
CONTINUOUS
370
-3
390
F
0
LAYER
5
21A
100
AcDbSymbolTableRecord
100
AcDbLayerTableRecord
2
1608-CC-RF-VIMAR_80000_34
70
0
62
7
6
CONTINUOUS
370
-3
390
F
0
LAYER
5
21B
100
AcDbSymbolTableRecord
100
AcDbLayerTableRecord
2
1608-CC-RF-VIMAR_80000_35
70
0
62
7
6
CONTINUOUS
370
-3
390
F
0
LAYER
5
21C
100
AcDbSymbolTableRecord
100
AcDbLayerTableRecord
2
1608-CC-RF-VIMAR_80000_36
70
0
62
7
6
CONTINUOUS
370
-3
390
F
0
LAYER
5
21D
100
AcDbSymbolTableRecord
100
AcDbLayerTableRecord
2
1608-CC-RF-VIMAR_80000_37
70
0
62
7
6
CONTINUOUS
370
-3
390
F
0
LAYER
5
21E
100
AcDbSymbolTableRecord
100
AcDbLayerTableRecord
2
1608-CC-RF-VIMAR_80000_38
70
0
62
7
6
CONTINUOUS
370
-3
390
F
0
LAYER
5
21F
100
AcDbSymbolTableRecord
100
AcDbLayerTableRecord
2
1608-CC-RF-VIMAR_80000_39
70
0
62
7
6
CONTINUOUS
370
-3
390
F
0
LAYER
5
220
100
AcDbSymbolTableRecord
100
AcDbLayerTableRecord
2
1608-CC-RF-VIMAR_80000_4
70
0
62
7
6
CONTINUOUS
370
-3
390
F
0
LAYER
5
221
100
AcDbSymbolTableRecord
100
AcDbLayerTableRecord
2
1608-CC-RF-VIMAR_80000_40
70
0
62
7
6
CONTINUOUS
370
-3
390
F
0
LAYER
5
222
100
AcDbSymbolTableRecord
100
AcDbLayerTableRecord
2
1608-CC-RF-VIMAR_80000_41
70
0
62
7
6
CONTINUOUS
370
-3
390
F
0
LAYER
5
223
100
AcDbSymbolTableRecord
100
AcDbLayerTableRecord
2
1608-CC-RF-VIMAR_80000_42
70
0
62
7
6
CONTINUOUS
370
-3
390
F
0
LAYER
5
224
100
AcDbSymbolTableRecord
100
AcDbLayerTableRecord
2
1608-CC-RF-VIMAR_80000_43
70
0
62
7
6
CONTINUOUS
370
-3
390
F
0
LAYER
5
225
100
AcDbSymbolTableRecord
100
AcDbLayerTableRecord
2
1608-CC-RF-VIMAR_80000_44
70
0
62
7
6
CONTINUOUS
370
-3
390
F
0
LAYER
5
226
100
AcDbSymbolTableRecord
100
AcDbLayerTableRecord
2
1608-CC-RF-VIMAR_80000_45
70
0
62
7
6
CONTINUOUS
370
-3
390
F
0
LAYER
5
227
100
AcDbSymbolTableRecord
100
AcDbLayerTableRecord
2
1608-CC-RF-VIMAR_80000_46
70
0
62
7
6
CONTINUOUS
370
-3
390
F
0
LAYER
5
228
100
AcDbSymbolTableRecord
100
AcDbLayerTableRecord
2
1608-CC-RF-VIMAR_80000_47
70
0
62
7
6
CONTINUOUS
370
-3
390
F
0
LAYER
5
229
100
AcDbSymbolTableRecord
100
AcDbLayerTableRecord
2
1608-CC-RF-VIMAR_80000_48
70
0
62
7
6
CONTINUOUS
370
-3
390
F
0
LAYER
5
22A
100
AcDbSymbolTableRecord
100
AcDbLayerTableRecord
2
1608-CC-RF-VIMAR_80000_49
70
0
62
7
6
CONTINUOUS
370
-3
390
F
0
LAYER
5
22B
100
AcDbSymbolTableRecord
100
AcDbLayerTableRecord
2
1608-CC-RF-VIMAR_80000_5
70
0
62
7
6
CONTINUOUS
370
-3
390
F
0
LAYER
5
22C
100
AcDbSymbolTableRecord
100
AcDbLayerTableRecord
2
1608-CC-RF-VIMAR_80000_50
70
0
62
7
6
CONTINUOUS
370
-3
390
F
0
LAYER
5
22D
100
AcDbSymbolTableRecord
100
AcDbLayerTableRecord
2
1608-CC-RF-VIMAR_80000_51
70
0
62
7
6
CONTINUOUS
370
-3
390
F
0
LAYER
5
22E
100
AcDbSymbolTableRecord
100
AcDbLayerTableRecord
2
1608-CC-RF-VIMAR_80000_52
70
0
62
7
6
CONTINUOUS
370
-3
390
F
0
LAYER
5
22F
100
AcDbSymbolTableRecord
100
AcDbLayerTableRecord
2
1608-CC-RF-VIMAR_80000_53
70
0
62
7
6
CONTINUOUS
370
-3
390
F
0
LAYER
5
230
100
AcDbSymbolTableRecord
100
AcDbLayerTableRecord
2
1608-CC-RF-VIMAR_80000_54
70
0
62
7
6
CONTINUOUS
370
-3
390
F
0
LAYER
5
231
100
AcDbSymbolTableRecord
100
AcDbLayerTableRecord
2
1608-CC-RF-VIMAR_80000_55
70
0
62
7
6
CONTINUOUS
370
-3
390
F
0
LAYER
5
232
100
AcDbSymbolTableRecord
100
AcDbLayerTableRecord
2
1608-CC-RF-VIMAR_80000_56
70
0
62
7
6
CONTINUOUS
370
-3
390
F
0
LAYER
5
233
100
AcDbSymbolTableRecord
100
AcDbLayerTableRecord
2
1608-CC-RF-VIMAR_80000_57
70
0
62
7
6
CONTINUOUS
370
-3
390
F
0
LAYER
5
234
100
AcDbSymbolTableRecord
100
AcDbLayerTableRecord
2
1608-CC-RF-VIMAR_80000_6
70
0
62
7
6
CONTINUOUS
370
-3
390
F
0
LAYER
5
235
100
AcDbSymbolTableRecord
100
AcDbLayerTableRecord
2
1608-CC-RF-VIMAR_80000_7
70
0
62
7
6
CONTINUOUS
370
-3
390
F
0
LAYER
5
236
100
AcDbSymbolTableRecord
100
AcDbLayerTableRecord
2
1608-CC-RF-VIMAR_80000_8
70
0
62
7
6
CONTINUOUS
370
-3
390
F
0
LAYER
5
237
100
AcDbSymbolTableRecord
100
AcDbLayerTableRecord
2
1608-CC-RF-VIMAR_80000_9
70
0
62
7
6
CONTINUOUS
370
-3
390
F
0
LAYER
5
238
100
AcDbSymbolTableRecord
100
AcDbLayerTableRecord
2
1608-R-RF-VIMAR_45000
70
0
62
7
6
CONTINUOUS
370
-3
390
F
0
LAYER
5
239
100
AcDbSymbolTableRecord
100
AcDbLayerTableRecord
2
1608-R-RF-VIMAR_45000_1
70
0
62
7
6
CONTINUOUS
370
-3
390
F
0
LAYER
5
23A
100
AcDbSymbolTableRecord
100
AcDbLayerTableRecord
2
1608-R-RF-VIMAR_45000_10
70
0
62
7
6
CONTINUOUS
370
-3
390
F
0
LAYER
5
23B
100
AcDbSymbolTableRecord
100
AcDbLayerTableRecord
2
1608-R-RF-VIMAR_45000_11
70
0
62
7
6
CONTINUOUS
370
-3
390
F
0
LAYER
5
23C
100
AcDbSymbolTableRecord
100
AcDbLayerTableRecord
2
1608-R-RF-VIMAR_45000_12
70
0
62
7
6
CONTINUOUS
370
-3
390
F
0
LAYER
5
23D
100
AcDbSymbolTableRecord
100
AcDbLayerTableRecord
2
1608-R-RF-VIMAR_45000_13
70
0
62
7
6
CONTINUOUS
370
-3
390
F
0
LAYER
5
23E
100
AcDbSymbolTableRecord
100
AcDbLayerTableRecord
2
1608-R-RF-VIMAR_45000_14
70
0
62
7
6
CONTINUOUS
370
-3
390
F
0
LAYER
5
23F
100
AcDbSymbolTableRecord
100
AcDbLayerTableRecord
2
1608-R-RF-VIMAR_45000_15
70
0
62
7
6
CONTINUOUS
370
-3
390
F
0
LAYER
5
240
100
AcDbSymbolTableRecord
100
AcDbLayerTableRecord
2
1608-R-RF-VIMAR_45000_16
70
0
62
7
6
CONTINUOUS
370
-3
390
F
0
LAYER
5
241
100
AcDbSymbolTableRecord
100
AcDbLayerTableRecord
2
1608-R-RF-VIMAR_45000_17
70
0
62
7
6
CONTINUOUS
370
-3
390
F
0
LAYER
5
242
100
AcDbSymbolTableRecord
100
AcDbLayerTableRecord
2
1608-R-RF-VIMAR_45000_18
70
0
62
7
6
CONTINUOUS
370
-3
390
F
0
LAYER
5
243
100
AcDbSymbolTableRecord
100
AcDbLayerTableRecord
2
1608-R-RF-VIMAR_45000_19
70
0
62
7
6
CONTINUOUS
370
-3
390
F
0
LAYER
5
244
100
AcDbSymbolTableRecord
100
AcDbLayerTableRecord
2
1608-R-RF-VIMAR_45000_2
70
0
62
7
6
CONTINUOUS
370
-3
390
F
0
LAYER
5
245
100
AcDbSymbolTableRecord
100
AcDbLayerTableRecord
2
1608-R-RF-VIMAR_45000_20
70
0
62
7
6
CONTINUOUS
370
-3
390
F
0
LAYER
5
246
100
AcDbSymbolTableRecord
100
AcDbLayerTableRecord
2
1608-R-RF-VIMAR_45000_21
70
0
62
7
6
CONTINUOUS
370
-3
390
F
0
LAYER
5
247
100
AcDbSymbolTableRecord
100
AcDbLayerTableRecord
2
1608-R-RF-VIMAR_45000_22
70
0
62
7
6
CONTINUOUS
370
-3
390
F
0
LAYER
5
248
100
AcDbSymbolTableRecord
100
AcDbLayerTableRecord
2
1608-R-RF-VIMAR_45000_23
70
0
62
7
6
CONTINUOUS
370
-3
390
F
0
LAYER
5
249
100
AcDbSymbolTableRecord
100
AcDbLayerTableRecord
2
1608-R-RF-VIMAR_45000_24
70
0
62
7
6
CONTINUOUS
370
-3
390
F
0
LAYER
5
24A
100
AcDbSymbolTableRecord
100
AcDbLayerTableRecord
2
1608-R-RF-VIMAR_45000_25
70
0
62
7
6
CONTINUOUS
370
-3
390
F
0
LAYER
5
24B
100
AcDbSymbolTableRecord
100
AcDbLayerTableRecord
2
1608-R-RF-VIMAR_45000_26
70
0
62
7
6
CONTINUOUS
370
-3
390
F
0
LAYER
5
24C
100
AcDbSymbolTableRecord
100
AcDbLayerTableRecord
2
1608-R-RF-VIMAR_45000_27
70
0
62
7
6
CONTINUOUS
370
-3
390
F
0
LAYER
5
24D
100
AcDbSymbolTableRecord
100
AcDbLayerTableRecord
2
1608-R-RF-VIMAR_45000_28
70
0
62
7
6
CONTINUOUS
370
-3
390
F
0
LAYER
5
24E
100
AcDbSymbolTableRecord
100
AcDbLayerTableRecord
2
1608-R-RF-VIMAR_45000_29
70
0
62
7
6
CONTINUOUS
370
-3
390
F
0
LAYER
5
24F
100
AcDbSymbolTableRecord
100
AcDbLayerTableRecord
2
1608-R-RF-VIMAR_45000_3
70
0
62
7
6
CONTINUOUS
370
-3
390
F
0
LAYER
5
250
100
AcDbSymbolTableRecord
100
AcDbLayerTableRecord
2
1608-R-RF-VIMAR_45000_30
70
0
62
7
6
CONTINUOUS
370
-3
390
F
0
LAYER
5
251
100
AcDbSymbolTableRecord
100
AcDbLayerTableRecord
2
1608-R-RF-VIMAR_45000_31
70
0
62
7
6
CONTINUOUS
370
-3
390
F
0
LAYER
5
252
100
AcDbSymbolTableRecord
100
AcDbLayerTableRecord
2
1608-R-RF-VIMAR_45000_32
70
0
62
7
6
CONTINUOUS
370
-3
390
F
0
LAYER
5
253
100
AcDbSymbolTableRecord
100
AcDbLayerTableRecord
2
1608-R-RF-VIMAR_45000_33
70
0
62
7
6
CONTINUOUS
370
-3
390
F
0
LAYER
5
254
100
AcDbSymbolTableRecord
100
AcDbLayerTableRecord
2
1608-R-RF-VIMAR_45000_34
70
0
62
7
6
CONTINUOUS
370
-3
390
F
0
LAYER
5
255
100
AcDbSymbolTableRecord
100
AcDbLayerTableRecord
2
1608-R-RF-VIMAR_45000_35
70
0
62
7
6
CONTINUOUS
370
-3
390
F
0
LAYER
5
256
100
AcDbSymbolTableRecord
100
AcDbLayerTableRecord
2
1608-R-RF-VIMAR_45000_36
70
0
62
7
6
CONTINUOUS
370
-3
390
F
0
LAYER
5
257
100
AcDbSymbolTableRecord
100
AcDbLayerTableRecord
2
1608-R-RF-VIMAR_45000_37
70
0
62
7
6
CONTINUOUS
370
-3
390
F
0
LAYER
5
258
100
AcDbSymbolTableRecord
100
AcDbLayerTableRecord
2
1608-R-RF-VIMAR_45000_38
70
0
62
7
6
CONTINUOUS
370
-3
390
F
0
LAYER
5
259
100
AcDbSymbolTableRecord
100
AcDbLayerTableRecord
2
1608-R-RF-VIMAR_45000_39
70
0
62
7
6
CONTINUOUS
370
-3
390
F
0
LAYER
5
25A
100
AcDbSymbolTableRecord
100
AcDbLayerTableRecord
2
1608-R-RF-VIMAR_45000_4
70
0
62
7
6
CONTINUOUS
370
-3
390
F
0
LAYER
5
25B
100
AcDbSymbolTableRecord
100
AcDbLayerTableRecord
2
1608-R-RF-VIMAR_45000_40
70
0
62
7
6
CONTINUOUS
370
-3
390
F
0
LAYER
5
25C
100
AcDbSymbolTableRecord
100
AcDbLayerTableRecord
2
1608-R-RF-VIMAR_45000_41
70
0
62
7
6
CONTINUOUS
370
-3
390
F
0
LAYER
5
25D
100
AcDbSymbolTableRecord
100
AcDbLayerTableRecord
2
1608-R-RF-VIMAR_45000_42
70
0
62
7
6
CONTINUOUS
370
-3
390
F
0
LAYER
5
25E
100
AcDbSymbolTableRecord
100
AcDbLayerTableRecord
2
1608-R-RF-VIMAR_45000_43
70
0
62
7
6
CONTINUOUS
370
-3
390
F
0
LAYER
5
25F
100
AcDbSymbolTableRecord
100
AcDbLayerTableRecord
2
1608-R-RF-VIMAR_45000_44
70
0
62
7
6
CONTINUOUS
370
-3
390
F
0
LAYER
5
260
100
AcDbSymbolTableRecord
100
AcDbLayerTableRecord
2
1608-R-RF-VIMAR_45000_45
70
0
62
7
6
CONTINUOUS
370
-3
390
F
0
LAYER
5
261
100
AcDbSymbolTableRecord
100
AcDbLayerTableRecord
2
1608-R-RF-VIMAR_45000_46
70
0
62
7
6
CONTINUOUS
370
-3
390
F
0
LAYER
5
262
100
AcDbSymbolTableRecord
100
AcDbLayerTableRecord
2
1608-R-RF-VIMAR_45000_47
70
0
62
7
6
CONTINUOUS
370
-3
390
F
0
LAYER
5
263
100
AcDbSymbolTableRecord
100
AcDbLayerTableRecord
2
1608-R-RF-VIMAR_45000_48
70
0
62
7
6
CONTINUOUS
370
-3
390
F
0
LAYER
5
264
100
AcDbSymbolTableRecord
100
AcDbLayerTableRecord
2
1608-R-RF-VIMAR_45000_49
70
0
62
7
6
CONTINUOUS
370
-3
390
F
0
LAYER
5
265
100
AcDbSymbolTableRecord
100
AcDbLayerTableRecord
2
1608-R-RF-VIMAR_45000_5
70
0
62
7
6
CONTINUOUS
370
-3
390
F
0
LAYER
5
266
100
AcDbSymbolTableRecord
100
AcDbLayerTableRecord
2
1608-R-RF-VIMAR_45000_50
70
0
62
7
6
CONTINUOUS
370
-3
390
F
0
LAYER
5
267
100
AcDbSymbolTableRecord
100
AcDbLayerTableRecord
2
1608-R-RF-VIMAR_45000_51
70
0
62
7
6
CONTINUOUS
370
-3
390
F
0
LAYER
5
268
100
AcDbSymbolTableRecord
100
AcDbLayerTableRecord
2
1608-R-RF-VIMAR_45000_52
70
0
62
7
6
CONTINUOUS
370
-3
390
F
0
LAYER
5
269
100
AcDbSymbolTableRecord
100
AcDbLayerTableRecord
2
1608-R-RF-VIMAR_45000_53
70
0
62
7
6
CONTINUOUS
370
-3
390
F
0
LAYER
5
26A
100
AcDbSymbolTableRecord
100
AcDbLayerTableRecord
2
1608-R-RF-VIMAR_45000_54
70
0
62
7
6
CONTINUOUS
370
-3
390
F
0
LAYER
5
26B
100
AcDbSymbolTableRecord
100
AcDbLayerTableRecord
2
1608-R-RF-VIMAR_45000_55
70
0
62
7
6
CONTINUOUS
370
-3
390
F
0
LAYER
5
26C
100
AcDbSymbolTableRecord
100
AcDbLayerTableRecord
2
1608-R-RF-VIMAR_45000_56
70
0
62
7
6
CONTINUOUS
370
-3
390
F
0
LAYER
5
26D
100
AcDbSymbolTableRecord
100
AcDbLayerTableRecord
2
1608-R-RF-VIMAR_45000_57
70
0
62
7
6
CONTINUOUS
370
-3
390
F
0
LAYER
5
26E
100
AcDbSymbolTableRecord
100
AcDbLayerTableRecord
2
1608-R-RF-VIMAR_45000_58
70
0
62
7
6
CONTINUOUS
370
-3
390
F
0
LAYER
5
26F
100
AcDbSymbolTableRecord
100
AcDbLayerTableRecord
2
1608-R-RF-VIMAR_45000_59
70
0
62
7
6
CONTINUOUS
370
-3
390
F
0
LAYER
5
270
100
AcDbSymbolTableRecord
100
AcDbLayerTableRecord
2
1608-R-RF-VIMAR_45000_6
70
0
62
7
6
CONTINUOUS
370
-3
390
F
0
LAYER
5
271
100
AcDbSymbolTableRecord
100
AcDbLayerTableRecord
2
1608-R-RF-VIMAR_45000_60
70
0
62
7
6
CONTINUOUS
370
-3
390
F
0
LAYER
5
272
100
AcDbSymbolTableRecord
100
AcDbLayerTableRecord
2
1608-R-RF-VIMAR_45000_61
70
0
62
7
6
CONTINUOUS
370
-3
390
F
0
LAYER
5
273
100
AcDbSymbolTableRecord
100
AcDbLayerTableRecord
2
1608-R-RF-VIMAR_45000_62
70
0
62
7
6
CONTINUOUS
370
-3
390
F
0
LAYER
5
274
100
AcDbSymbolTableRecord
100
AcDbLayerTableRecord
2
1608-R-RF-VIMAR_45000_63
70
0
62
7
6
CONTINUOUS
370
-3
390
F
0
LAYER
5
275
100
AcDbSymbolTableRecord
100
AcDbLayerTableRecord
2
1608-R-RF-VIMAR_45000_64
70
0
62
7
6
CONTINUOUS
370
-3
390
F
0
LAYER
5
276
100
AcDbSymbolTableRecord
100
AcDbLayerTableRecord
2
1608-R-RF-VIMAR_45000_65
70
0
62
7
6
CONTINUOUS
370
-3
390
F
0
LAYER
5
277
100
AcDbSymbolTableRecord
100
AcDbLayerTableRecord
2
1608-R-RF-VIMAR_45000_66
70
0
62
7
6
CONTINUOUS
370
-3
390
F
0
LAYER
5
278
100
AcDbSymbolTableRecord
100
AcDbLayerTableRecord
2
1608-R-RF-VIMAR_45000_67
70
0
62
7
6
CONTINUOUS
370
-3
390
F
0
LAYER
5
279
100
AcDbSymbolTableRecord
100
AcDbLayerTableRecord
2
1608-R-RF-VIMAR_45000_68
70
0
62
7
6
CONTINUOUS
370
-3
390
F
0
LAYER
5
27A
100
AcDbSymbolTableRecord
100
AcDbLayerTableRecord
2
1608-R-RF-VIMAR_45000_69
70
0
62
7
6
CONTINUOUS
370
-3
390
F
0
LAYER
5
27B
100
AcDbSymbolTableRecord
100
AcDbLayerTableRecord
2
1608-R-RF-VIMAR_45000_7
70
0
62
7
6
CONTINUOUS
370
-3
390
F
0
LAYER
5
27C
100
AcDbSymbolTableRecord
100
AcDbLayerTableRecord
2
1608-R-RF-VIMAR_45000_70
70
0
62
7
6
CONTINUOUS
370
-3
390
F
0
LAYER
5
27D
100
AcDbSymbolTableRecord
100
AcDbLayerTableRecord
2
1608-R-RF-VIMAR_45000_71
70
0
62
7
6
CONTINUOUS
370
-3
390
F
0
LAYER
5
27E
100
AcDbSymbolTableRecord
100
AcDbLayerTableRecord
2
1608-R-RF-VIMAR_45000_72
70
0
62
7
6
CONTINUOUS
370
-3
390
F
0
LAYER
5
27F
100
AcDbSymbolTableRecord
100
AcDbLayerTableRecord
2
1608-R-RF-VIMAR_45000_73
70
0
62
7
6
CONTINUOUS
370
-3
390
F
0
LAYER
5
280
100
AcDbSymbolTableRecord
100
AcDbLayerTableRecord
2
1608-R-RF-VIMAR_45000_74
70
0
62
7
6
CONTINUOUS
370
-3
390
F
0
LAYER
5
281
100
AcDbSymbolTableRecord
100
AcDbLayerTableRecord
2
1608-R-RF-VIMAR_45000_75
70
0
62
7
6
CONTINUOUS
370
-3
390
F
0
LAYER
5
282
100
AcDbSymbolTableRecord
100
AcDbLayerTableRecord
2
1608-R-RF-VIMAR_45000_76
70
0
62
7
6
CONTINUOUS
370
-3
390
F
0
LAYER
5
283
100
AcDbSymbolTableRecord
100
AcDbLayerTableRecord
2
1608-R-RF-VIMAR_45000_77
70
0
62
7
6
CONTINUOUS
370
-3
390
F
0
LAYER
5
284
100
AcDbSymbolTableRecord
100
AcDbLayerTableRecord
2
1608-R-RF-VIMAR_45000_78
70
0
62
7
6
CONTINUOUS
370
-3
390
F
0
LAYER
5
285
100
AcDbSymbolTableRecord
100
AcDbLayerTableRecord
2
1608-R-RF-VIMAR_45000_79
70
0
62
7
6
CONTINUOUS
370
-3
390
F
0
LAYER
5
286
100
AcDbSymbolTableRecord
100
AcDbLayerTableRecord
2
1608-R-RF-VIMAR_45000_8
70
0
62
7
6
CONTINUOUS
370
-3
390
F
0
LAYER
5
287
100
AcDbSymbolTableRecord
100
AcDbLayerTableRecord
2
1608-R-RF-VIMAR_45000_80
70
0
62
7
6
CONTINUOUS
370
-3
390
F
0
LAYER
5
288
100
AcDbSymbolTableRecord
100
AcDbLayerTableRecord
2
1608-R-RF-VIMAR_45000_81
70
0
62
7
6
CONTINUOUS
370
-3
390
F
0
LAYER
5
289
100
AcDbSymbolTableRecord
100
AcDbLayerTableRecord
2
1608-R-RF-VIMAR_45000_82
70
0
62
7
6
CONTINUOUS
370
-3
390
F
0
LAYER
5
28A
100
AcDbSymbolTableRecord
100
AcDbLayerTableRecord
2
1608-R-RF-VIMAR_45000_83
70
0
62
7
6
CONTINUOUS
370
-3
390
F
0
LAYER
5
28B
100
AcDbSymbolTableRecord
100
AcDbLayerTableRecord
2
1608-R-RF-VIMAR_45000_84
70
0
62
7
6
CONTINUOUS
370
-3
390
F
0
LAYER
5
28C
100
AcDbSymbolTableRecord
100
AcDbLayerTableRecord
2
1608-R-RF-VIMAR_45000_85
70
0
62
7
6
CONTINUOUS
370
-3
390
F
0
LAYER
5
28D
100
AcDbSymbolTableRecord
100
AcDbLayerTableRecord
2
1608-R-RF-VIMAR_45000_86
70
0
62
7
6
CONTINUOUS
370
-3
390
F
0
LAYER
5
28E
100
AcDbSymbolTableRecord
100
AcDbLayerTableRecord
2
1608-R-RF-VIMAR_45000_9
70
0
62
7
6
CONTINUOUS
370
-3
390
F
0
LAYER
5
28F
100
AcDbSymbolTableRecord
100
AcDbLayerTableRecord
2
200A_170000
70
0
62
7
6
CONTINUOUS
370
-3
390
F
0
LAYER
5
290
100
AcDbSymbolTableRecord
100
AcDbLayerTableRecord
2
200A_170000_1
70
0
62
7
6
CONTINUOUS
370
-3
390
F
0
LAYER
5
291
100
AcDbSymbolTableRecord
100
AcDbLayerTableRecord
2
2125-CC-RF-VIMAR_65000
70
0
62
7
6
CONTINUOUS
370
-3
390
F
0
LAYER
5
292
100
AcDbSymbolTableRecord
100
AcDbLayerTableRecord
2
2125-CC-RF-VIMAR_65000_1
70
0
62
7
6
CONTINUOUS
370
-3
390
F
0
LAYER
5
293
100
AcDbSymbolTableRecord
100
AcDbLayerTableRecord
2
2125-CC-RF-VIMAR_65000_10
70
0
62
7
6
CONTINUOUS
370
-3
390
F
0
LAYER
5
294
100
AcDbSymbolTableRecord
100
AcDbLayerTableRecord
2
2125-CC-RF-VIMAR_65000_2
70
0
62
7
6
CONTINUOUS
370
-3
390
F
0
LAYER
5
295
100
AcDbSymbolTableRecord
100
AcDbLayerTableRecord
2
2125-CC-RF-VIMAR_65000_3
70
0
62
7
6
CONTINUOUS
370
-3
390
F
0
LAYER
5
296
100
AcDbSymbolTableRecord
100
AcDbLayerTableRecord
2
2125-CC-RF-VIMAR_65000_4
70
0
62
7
6
CONTINUOUS
370
-3
390
F
0
LAYER
5
297
100
AcDbSymbolTableRecord
100
AcDbLayerTableRecord
2
2125-CC-RF-VIMAR_65000_5
70
0
62
7
6
CONTINUOUS
370
-3
390
F
0
LAYER
5
298
100
AcDbSymbolTableRecord
100
AcDbLayerTableRecord
2
2125-CC-RF-VIMAR_65000_6
70
0
62
7
6
CONTINUOUS
370
-3
390
F
0
LAYER
5
299
100
AcDbSymbolTableRecord
100
AcDbLayerTableRecord
2
2125-CC-RF-VIMAR_65000_7
70
0
62
7
6
CONTINUOUS
370
-3
390
F
0
LAYER
5
29A
100
AcDbSymbolTableRecord
100
AcDbLayerTableRecord
2
2125-CC-RF-VIMAR_65000_8
70
0
62
7
6
CONTINUOUS
370
-3
390
F
0
LAYER
5
29B
100
AcDbSymbolTableRecord
100
AcDbLayerTableRecord
2
2125-CC-RF-VIMAR_65000_9
70
0
62
7
6
CONTINUOUS
370
-3
390
F
0
LAYER
5
29C
100
AcDbSymbolTableRecord
100
AcDbLayerTableRecord
2
3216-R1-RF-VIMAR_60000
70
0
62
7
6
CONTINUOUS
370
-3
390
F
0
LAYER
5
29D
100
AcDbSymbolTableRecord
100
AcDbLayerTableRecord
2
3216-R1-RF-VIMAR_60000_1
70
0
62
7
6
CONTINUOUS
370
-3
390
F
0
LAYER
5
29E
100
AcDbSymbolTableRecord
100
AcDbLayerTableRecord
2
3225-CF1-RF-VIMAR_200000
70
0
62
7
6
CONTINUOUS
370
-3
390
F
0
LAYER
5
29F
100
AcDbSymbolTableRecord
100
AcDbLayerTableRecord
2
3225-CF1-RF-VIMAR_200000_1
70
0
62
7
6
CONTINUOUS
370
-3
390
F
0
LAYER
5
2A0
100
AcDbSymbolTableRecord
100
AcDbLayerTableRecord
2
3225-CF1-RF-VIMAR_200000_2
70
0
62
7
6
CONTINUOUS
370
-3
390
F
0
LAYER
5
2A1
100
AcDbSymbolTableRecord
100
AcDbLayerTableRecord
2
3225-CF1-RF-VIMAR_200000_3
70
0
62
7
6
CONTINUOUS
370
-3
390
F
0
LAYER
5
2A2
100
AcDbSymbolTableRecord
100
AcDbLayerTableRecord
2
3225-CF1-RF-VIMAR_200000_4
70
0
62
7
6
CONTINUOUS
370
-3
390
F
0
LAYER
5
2A3
100
AcDbSymbolTableRecord
100
AcDbLayerTableRecord
2
3225-CF1-RF-VIMAR_200000_5
70
0
62
7
6
CONTINUOUS
370
-3
390
F
0
LAYER
5
2A4
100
AcDbSymbolTableRecord
100
AcDbLayerTableRecord
2
3225-CF1-RF-VIMAR_200000_6
70
0
62
7
6
CONTINUOUS
370
-3
390
F
0
LAYER
5
2A5
100
AcDbSymbolTableRecord
100
AcDbLayerTableRecord
2
43000164A0
70
0
62
7
6
CONTINUOUS
370
-3
390
F
0
LAYER
5
2A6
100
AcDbSymbolTableRecord
100
AcDbLayerTableRecord
2
43000164A0_1
70
0
62
7
6
CONTINUOUS
370
-3
390
F
0
LAYER
5
2A7
100
AcDbSymbolTableRecord
100
AcDbLayerTableRecord
2
43000165A0
70
0
62
7
6
CONTINUOUS
370
-3
390
F
0
LAYER
5
2A8
100
AcDbSymbolTableRecord
100
AcDbLayerTableRecord
2
43000165B0
70
0
62
7
6
CONTINUOUS
370
-3
390
F
0
LAYER
5
2A9
100
AcDbSymbolTableRecord
100
AcDbLayerTableRecord
2
43000165B0_1
70
0
62
7
6
CONTINUOUS
370
-3
390
F
0
LAYER
5
2AA
100
AcDbSymbolTableRecord
100
AcDbLayerTableRecord
2
ASSI
70
0
62
7
6
CONTINUOUS
370
-3
390
F
0
LAYER
5
2AB
100
AcDbSymbolTableRecord
100
AcDbLayerTableRecord
2
CN-CSF_CSM_2-VIMAR_1150000
70
0
62
7
6
CONTINUOUS
370
-3
390
F
0
LAYER
5
2AC
100
AcDbSymbolTableRecord
100
AcDbLayerTableRecord
2
CN-CSF_CSM_2-VIMAR_1150000_1
70
0
62
7
6
CONTINUOUS
370
-3
390
F
0
LAYER
5
2AD
100
AcDbSymbolTableRecord
100
AcDbLayerTableRecord
2
CN-CSF_CSM_2-VIMAR_1150000_2
70
0
62
7
6
CONTINUOUS
370
-3
390
F
0
LAYER
5
2AE
100
AcDbSymbolTableRecord
100
AcDbLayerTableRecord
2
CN-CSF_CSM_2-VIMAR_1150000_3
70
0
62
7
6
CONTINUOUS
370
-3
390
F
0
LAYER
5
2AF
100
AcDbSymbolTableRecord
100
AcDbLayerTableRecord
2
CN-CSF_CSM_2-VIMAR_1150000_4
70
0
62
7
6
CONTINUOUS
370
-3
390
F
0
LAYER
5
2B0
100
AcDbSymbolTableRecord
100
AcDbLayerTableRecord
2
CN-CSF_CSM_2-VIMAR_1150000_5
70
0
62
7
6
CONTINUOUS
370
-3
390
F
0
LAYER
5
2B1
100
AcDbSymbolTableRecord
100
AcDbLayerTableRecord
2
CN-CSF_CSM_2-VIMAR_1150000_6
70
0
62
7
6
CONTINUOUS
370
-3
390
F
0
LAYER
5
2B2
100
AcDbSymbolTableRecord
100
AcDbLayerTableRecord
2
CN-CSF_CSM_3-VIMAR_1150000
70
0
62
7
6
CONTINUOUS
370
-3
390
F
0
LAYER
5
2B3
100
AcDbSymbolTableRecord
100
AcDbLayerTableRecord
2
CN-CSF_CSM_3-VIMAR_1150000_1
70
0
62
7
6
CONTINUOUS
370
-3
390
F
0
LAYER
5
2B4
100
AcDbSymbolTableRecord
100
AcDbLayerTableRecord
2
CN-CSF_CSM_3-VIMAR_1150000_2
70
0
62
7
6
CONTINUOUS
370
-3
390
F
0
LAYER
5
2B5
100
AcDbSymbolTableRecord
100
AcDbLayerTableRecord
2
CN1-TP10_SMD-VIMAR_10000
70
0
62
7
6
CONTINUOUS
370
-3
390
F
0
LAYER
5
2B6
100
AcDbSymbolTableRecord
100
AcDbLayerTableRecord
2
CN1-TP10_SMD-VIMAR_10000_1
70
0
62
7
6
CONTINUOUS
370
-3
390
F
0
LAYER
5
2B7
100
AcDbSymbolTableRecord
100
AcDbLayerTableRecord
2
CN1-TP10_SMD-VIMAR_10000_10
70
0
62
7
6
CONTINUOUS
370
-3
390
F
0
LAYER
5
2B8
100
AcDbSymbolTableRecord
100
AcDbLayerTableRecord
2
CN1-TP10_SMD-VIMAR_10000_11
70
0
62
7
6
CONTINUOUS
370
-3
390
F
0
LAYER
5
2B9
100
AcDbSymbolTableRecord
100
AcDbLayerTableRecord
2
CN1-TP10_SMD-VIMAR_10000_12
70
0
62
7
6
CONTINUOUS
370
-3
390
F
0
LAYER
5
2BA
100
AcDbSymbolTableRecord
100
AcDbLayerTableRecord
2
CN1-TP10_SMD-VIMAR_10000_13
70
0
62
7
6
CONTINUOUS
370
-3
390
F
0
LAYER
5
2BB
100
AcDbSymbolTableRecord
100
AcDbLayerTableRecord
2
CN1-TP10_SMD-VIMAR_10000_14
70
0
62
7
6
CONTINUOUS
370
-3
390
F
0
LAYER
5
2BC
100
AcDbSymbolTableRecord
100
AcDbLayerTableRecord
2
CN1-TP10_SMD-VIMAR_10000_15
70
0
62
7
6
CONTINUOUS
370
-3
390
F
0
LAYER
5
2BD
100
AcDbSymbolTableRecord
100
AcDbLayerTableRecord
2
CN1-TP10_SMD-VIMAR_10000_16
70
0
62
7
6
CONTINUOUS
370
-3
390
F
0
LAYER
5
2BE
100
AcDbSymbolTableRecord
100
AcDbLayerTableRecord
2
CN1-TP10_SMD-VIMAR_10000_17
70
0
62
7
6
CONTINUOUS
370
-3
390
F
0
LAYER
5
2BF
100
AcDbSymbolTableRecord
100
AcDbLayerTableRecord
2
CN1-TP10_SMD-VIMAR_10000_18
70
0
62
7
6
CONTINUOUS
370
-3
390
F
0
LAYER
5
2C0
100
AcDbSymbolTableRecord
100
AcDbLayerTableRecord
2
CN1-TP10_SMD-VIMAR_10000_19
70
0
62
7
6
CONTINUOUS
370
-3
390
F
0
LAYER
5
2C1
100
AcDbSymbolTableRecord
100
AcDbLayerTableRecord
2
CN1-TP10_SMD-VIMAR_10000_2
70
0
62
7
6
CONTINUOUS
370
-3
390
F
0
LAYER
5
2C2
100
AcDbSymbolTableRecord
100
AcDbLayerTableRecord
2
CN1-TP10_SMD-VIMAR_10000_3
70
0
62
7
6
CONTINUOUS
370
-3
390
F
0
LAYER
5
2C3
100
AcDbSymbolTableRecord
100
AcDbLayerTableRecord
2
CN1-TP10_SMD-VIMAR_10000_4
70
0
62
7
6
CONTINUOUS
370
-3
390
F
0
LAYER
5
2C4
100
AcDbSymbolTableRecord
100
AcDbLayerTableRecord
2
CN1-TP10_SMD-VIMAR_10000_5
70
0
62
7
6
CONTINUOUS
370
-3
390
F
0
LAYER
5
2C5
100
AcDbSymbolTableRecord
100
AcDbLayerTableRecord
2
CN1-TP10_SMD-VIMAR_10000_6
70
0
62
7
6
CONTINUOUS
370
-3
390
F
0
LAYER
5
2C6
100
AcDbSymbolTableRecord
100
AcDbLayerTableRecord
2
CN1-TP10_SMD-VIMAR_10000_7
70
0
62
7
6
CONTINUOUS
370
-3
390
F
0
LAYER
5
2C7
100
AcDbSymbolTableRecord
100
AcDbLayerTableRecord
2
CN1-TP10_SMD-VIMAR_10000_8
70
0
62
7
6
CONTINUOUS
370
-3
390
F
0
LAYER
5
2C8
100
AcDbSymbolTableRecord
100
AcDbLayerTableRecord
2
CN1-TP10_SMD-VIMAR_10000_9
70
0
62
7
6
CONTINUOUS
370
-3
390
F
0
LAYER
5
2C9
100
AcDbSymbolTableRecord
100
AcDbLayerTableRecord
2
CN1-TP15_SMD-VIMAR_5000
70
0
62
7
6
CONTINUOUS
370
-3
390
F
0
LAYER
5
2CA
100
AcDbSymbolTableRecord
100
AcDbLayerTableRecord
2
CN1-TP15_SMD-VIMAR_5000_1
70
0
62
7
6
CONTINUOUS
370
-3
390
F
0
LAYER
5
2CB
100
AcDbSymbolTableRecord
100
AcDbLayerTableRecord
2
CN1-TP15_SMD-VIMAR_5000_2
70
0
62
7
6
CONTINUOUS
370
-3
390
F
0
LAYER
5
2CC
100
AcDbSymbolTableRecord
100
AcDbLayerTableRecord
2
CN1-TP15_SMD-VIMAR_5000_3
70
0
62
7
6
CONTINUOUS
370
-3
390
F
0
LAYER
5
2CD
100
AcDbSymbolTableRecord
100
AcDbLayerTableRecord
2
CN1-TP15_SMD-VIMAR_5000_4
70
0
62
7
6
CONTINUOUS
370
-3
390
F
0
LAYER
5
2CE
100
AcDbSymbolTableRecord
100
AcDbLayerTableRecord
2
CN1-TP15_SMD-VIMAR_5000_5
70
0
62
7
6
CONTINUOUS
370
-3
390
F
0
LAYER
5
2CF
100
AcDbSymbolTableRecord
100
AcDbLayerTableRecord
2
CN1-TP15_SMD-VIMAR_5000_6
70
0
62
7
6
CONTINUOUS
370
-3
390
F
0
LAYER
5
2D0
100
AcDbSymbolTableRecord
100
AcDbLayerTableRecord
2
CN1-TP15_SMD-VIMAR_5000_7
70
0
62
7
6
CONTINUOUS
370
-3
390
F
0
LAYER
5
2D1
100
AcDbSymbolTableRecord
100
AcDbLayerTableRecord
2
CN1-TP15_SMD-VIMAR_5000_8
70
0
62
7
6
CONTINUOUS
370
-3
390
F
0
LAYER
5
2D2
100
AcDbSymbolTableRecord
100
AcDbLayerTableRecord
2
CN10-HEADER-SMD2_0-2-VIMAR_6500
70
0
62
7
6
CONTINUOUS
370
-3
390
F
0
LAYER
5
2D3
100
AcDbSymbolTableRecord
100
AcDbLayerTableRecord
2
CN10-HEADER-SMD2_0-2-VIMAR_65_1
70
0
62
7
6
CONTINUOUS
370
-3
390
F
0
LAYER
5
2D4
100
AcDbSymbolTableRecord
100
AcDbLayerTableRecord
2
CN10-SOCKET-SMD2_0-2-VIMAR
70
0
62
7
6
CONTINUOUS
370
-3
390
F
0
LAYER
5
2D5
100
AcDbSymbolTableRecord
100
AcDbLayerTableRecord
2
CN10-SOCKET-SMD2_0-2-VIMAR_1
70
0
62
7
6
CONTINUOUS
370
-3
390
F
0
LAYER
5
2D6
100
AcDbSymbolTableRecord
100
AcDbLayerTableRecord
2
COLOR1
70
0
62
7
6
CONTINUOUS
370
-3
390
F
0
LAYER
5
2D7
100
AcDbSymbolTableRecord
100
AcDbLayerTableRecord
2
COLOR15
70
0
62
7
6
CONTINUOUS
370
-3
390
F
0
LAYER
5
2D8
100
AcDbSymbolTableRecord
100
AcDbLayerTableRecord
2
COLOR16
70
0
62
7
6
CONTINUOUS
370
-3
390
F
0
LAYER
5
2D9
100
AcDbSymbolTableRecord
100
AcDbLayerTableRecord
2
COLOR17
70
0
62
7
6
CONTINUOUS
370
-3
390
F
0
LAYER
5
2DA
100
AcDbSymbolTableRecord
100
AcDbLayerTableRecord
2
COLOR18
70
0
62
7
6
CONTINUOUS
370
-3
390
F
0
LAYER
5
2DB
100
AcDbSymbolTableRecord
100
AcDbLayerTableRecord
2
COLOR19
70
0
62
7
6
CONTINUOUS
370
-3
390
F
0
LAYER
5
2DC
100
AcDbSymbolTableRecord
100
AcDbLayerTableRecord
2
COLOR2
70
0
62
7
6
CONTINUOUS
370
-3
390
F
0
LAYER
5
2DD
100
AcDbSymbolTableRecord
100
AcDbLayerTableRecord
2
COLOR20
70
0
62
7
6
CONTINUOUS
370
-3
390
F
0
LAYER
5
2DE
100
AcDbSymbolTableRecord
100
AcDbLayerTableRecord
2
COLOR21
70
0
62
7
6
CONTINUOUS
370
-3
390
F
0
LAYER
5
2DF
100
AcDbSymbolTableRecord
100
AcDbLayerTableRecord
2
COLOR22
70
0
62
7
6
CONTINUOUS
370
-3
390
F
0
LAYER
5
2E0
100
AcDbSymbolTableRecord
100
AcDbLayerTableRecord
2
COLOR23
70
0
62
7
6
CONTINUOUS
370
-3
390
F
0
LAYER
5
2E1
100
AcDbSymbolTableRecord
100
AcDbLayerTableRecord
2
COLOR5
70
0
62
7
6
CONTINUOUS
370
-3
390
F
0
LAYER
5
2E2
100
AcDbSymbolTableRecord
100
AcDbLayerTableRecord
2
COLOR6
70
0
62
7
6
CONTINUOUS
370
-3
390
F
0
LAYER
5
2E3
100
AcDbSymbolTableRecord
100
AcDbLayerTableRecord
2
COORDINATE
70
0
62
7
6
CONTINUOUS
370
-3
390
F
0
LAYER
5
2E4
100
AcDbSymbolTableRecord
100
AcDbLayerTableRecord
2
COORD_ORIGINE
70
0
62
7
6
CONTINUOUS
370
-3
390
F
0
LAYER
5
2E5
100
AcDbSymbolTableRecord
100
AcDbLayerTableRecord
2
CP-CE10-RF-VIMAR_630000
70
0
62
7
6
CONTINUOUS
370
-3
390
F
0
LAYER
5
2E6
100
AcDbSymbolTableRecord
100
AcDbLayerTableRecord
2
CP-CE10-RF-VIMAR_630000_1
70
0
62
7
6
CONTINUOUS
370
-3
390
F
0
LAYER
5
2E7
100
AcDbSymbolTableRecord
100
AcDbLayerTableRecord
2
CP-CE5-RF_650000
70
0
62
7
6
CONTINUOUS
370
-3
390
F
0
LAYER
5
2E8
100
AcDbSymbolTableRecord
100
AcDbLayerTableRecord
2
CP-CE5-RF_650000_1
70
0
62
7
6
CONTINUOUS
370
-3
390
F
0
LAYER
5
2E9
100
AcDbSymbolTableRecord
100
AcDbLayerTableRecord
2
CP-DO-214AC-D-VIMAR_240000
70
0
62
7
6
CONTINUOUS
370
-3
390
F
0
LAYER
5
2EA
100
AcDbSymbolTableRecord
100
AcDbLayerTableRecord
2
CP-DO-214AC-D-VIMAR_240000_1
70
0
62
7
6
CONTINUOUS
370
-3
390
F
0
LAYER
5
2EB
100
AcDbSymbolTableRecord
100
AcDbLayerTableRecord
2
CP-DO-214AC-VIMAR_240000
70
0
62
7
6
CONTINUOUS
370
-3
390
F
0
LAYER
5
2EC
100
AcDbSymbolTableRecord
100
AcDbLayerTableRecord
2
CP-DO-214AC-VIMAR_240000_1
70
0
62
7
6
CONTINUOUS
370
-3
390
F
0
LAYER
5
2ED
100
AcDbSymbolTableRecord
100
AcDbLayerTableRecord
2
CP-DO-214AC-VIMAR_240000_2
70
0
62
7
6
CONTINUOUS
370
-3
390
F
0
LAYER
5
2EE
100
AcDbSymbolTableRecord
100
AcDbLayerTableRecord
2
CURVE
70
0
62
7
6
CONTINUOUS
370
-3
390
F
0
LAYER
5
2EF
100
AcDbSymbolTableRecord
100
AcDbLayerTableRecord
2
DIP8-300-F-VIMAR_500000
70
0
62
7
6
CONTINUOUS
370
-3
390
F
0
LAYER
5
2F0
100
AcDbSymbolTableRecord
100
AcDbLayerTableRecord
2
DIP8-300-F-VIMAR_500000_1
70
0
62
7
6
CONTINUOUS
370
-3
390
F
0
LAYER
5
2F1
100
AcDbSymbolTableRecord
100
AcDbLayerTableRecord
2
DRAFT
70
0
62
7
6
CONTINUOUS
370
-3
390
F
0
LAYER
5
2F2
100
AcDbSymbolTableRecord
100
AcDbLayerTableRecord
2
ECAD_1608-CC-RF-VIMAR_80000
70
0
62
7
6
CONTINUOUS
370
-3
390
F
0
LAYER
5
2F3
100
AcDbSymbolTableRecord
100
AcDbLayerTableRecord
2
ECAD_1608-CC-RF-VIMAR_80000_1
70
0
62
7
6
CONTINUOUS
370
-3
390
F
0
LAYER
5
2F4
100
AcDbSymbolTableRecord
100
AcDbLayerTableRecord
2
ECAD_1608-R-RF-VIMAR_45000
70
0
62
7
6
CONTINUOUS
370
-3
390
F
0
LAYER
5
2F5
100
AcDbSymbolTableRecord
100
AcDbLayerTableRecord
2
ECAD_1608-R-RF-VIMAR_45000_1
70
0
62
7
6
CONTINUOUS
370
-3
390
F
0
LAYER
5
2F6
100
AcDbSymbolTableRecord
100
AcDbLayerTableRecord
2
ECAD_200A_170000
70
0
62
7
6
CONTINUOUS
370
-3
390
F
0
LAYER
5
2F7
100
AcDbSymbolTableRecord
100
AcDbLayerTableRecord
2
ECAD_2125-CC-RF-VIMAR_65000
70
0
62
7
6
CONTINUOUS
370
-3
390
F
0
LAYER
5
2F8
100
AcDbSymbolTableRecord
100
AcDbLayerTableRecord
2
ECAD_2125-CC-RF-VIMAR_65000_1
70
0
62
7
6
CONTINUOUS
370
-3
390
F
0
LAYER
5
2F9
100
AcDbSymbolTableRecord
100
AcDbLayerTableRecord
2
ECAD_3216-R1-RF-VIMAR_60000
70
0
62
7
6
CONTINUOUS
370
-3
390
F
0
LAYER
5
2FA
100
AcDbSymbolTableRecord
100
AcDbLayerTableRecord
2
ECAD_3225-CF1-RF-VIMAR_200000
70
0
62
7
6
CONTINUOUS
370
-3
390
F
0
LAYER
5
2FB
100
AcDbSymbolTableRecord
100
AcDbLayerTableRecord
2
ECAD_3225-CF1-RF-VIMAR_200000_1
70
0
62
7
6
CONTINUOUS
370
-3
390
F
0
LAYER
5
2FC
100
AcDbSymbolTableRecord
100
AcDbLayerTableRecord
2
ECAD_6432-R-RF-VIMAR_110000
70
0
62
7
6
CONTINUOUS
370
-3
390
F
0
LAYER
5
2FD
100
AcDbSymbolTableRecord
100
AcDbLayerTableRecord
2
ECAD_CN-CSF_CSM_2-VIMAR_1150000
70
0
62
7
6
CONTINUOUS
370
-3
390
F
0
LAYER
5
2FE
100
AcDbSymbolTableRecord
100
AcDbLayerTableRecord
2
ECAD_CN1-TP10_SMD-VIMAR_10000
70
0
62
7
6
CONTINUOUS
370
-3
390
F
0
LAYER
5
2FF
100
AcDbSymbolTableRecord
100
AcDbLayerTableRecord
2
ECAD_CN1-TP10_SMD-VIMAR_10000_1
70
0
62
7
6
CONTINUOUS
370
-3
390
F
0
LAYER
5
300
100
AcDbSymbolTableRecord
100
AcDbLayerTableRecord
2
ECAD_CN1-TP15_SMD-VIMAR_5000
70
0
62
7
6
CONTINUOUS
370
-3
390
F
0
LAYER
5
301
100
AcDbSymbolTableRecord
100
AcDbLayerTableRecord
2
ECAD_CN10-HEADER-SMD2_0-2-VIMAR
70
0
62
7
6
CONTINUOUS
370
-3
390
F
0
LAYER
5
302
100
AcDbSymbolTableRecord
100
AcDbLayerTableRecord
2
ECAD_CN10-SOCKET-SMD2_0-2-VIMAR
70
0
62
7
6
CONTINUOUS
370
-3
390
F
0
LAYER
5
303
100
AcDbSymbolTableRecord
100
AcDbLayerTableRecord
2
ECAD_CN30D-H-PIH-P2_00_1000000
70
0
62
7
6
CONTINUOUS
370
-3
390
F
0
LAYER
5
304
100
AcDbSymbolTableRecord
100
AcDbLayerTableRecord
2
ECAD_CP-CE10-RF-VIMAR_630000
70
0
62
7
6
CONTINUOUS
370
-3
390
F
0
LAYER
5
305
100
AcDbSymbolTableRecord
100
AcDbLayerTableRecord
2
ECAD_CP-CE2-RF_570000
70
0
62
7
6
CONTINUOUS
370
-3
390
F
0
LAYER
5
306
100
AcDbSymbolTableRecord
100
AcDbLayerTableRecord
2
ECAD_CP-CE4-RF_550000
70
0
62
7
6
CONTINUOUS
370
-3
390
F
0
LAYER
5
307
100
AcDbSymbolTableRecord
100
AcDbLayerTableRecord
2
ECAD_CP-CE5-RF_650000
70
0
62
7
6
CONTINUOUS
370
-3
390
F
0
LAYER
5
308
100
AcDbSymbolTableRecord
100
AcDbLayerTableRecord
2
ECAD_CP-DO-214AC-D-VIMAR_240000
70
0
62
7
6
CONTINUOUS
370
-3
390
F
0
LAYER
5
309
100
AcDbSymbolTableRecord
100
AcDbLayerTableRecord
2
ECAD_CP-DO-214AC-VIMAR_240000
70
0
62
7
6
CONTINUOUS
370
-3
390
F
0
LAYER
5
30A
100
AcDbSymbolTableRecord
100
AcDbLayerTableRecord
2
ECAD_DIP8-300-F-VIMAR_500000
70
0
62
7
6
CONTINUOUS
370
-3
390
F
0
LAYER
5
30B
100
AcDbSymbolTableRecord
100
AcDbLayerTableRecord
2
ECAD_LOGO_RESIST-A_VIMAR_1_1000
70
0
62
7
6
CONTINUOUS
370
-3
390
F
0
LAYER
5
30C
100
AcDbSymbolTableRecord
100
AcDbLayerTableRecord
2
ECAD_LOGO_RESIST-A_VIMAR_1_100_
70
0
62
7
6
CONTINUOUS
370
-3
390
F
0
LAYER
5
30D
100
AcDbSymbolTableRecord
100
AcDbLayerTableRecord
2
ECAD_L_SRR1005-RF-VIMAR_520000
70
0
62
7
6
CONTINUOUS
370
-3
390
F
0
LAYER
5
30E
100
AcDbSymbolTableRecord
100
AcDbLayerTableRecord
2
ECAD_MM2-X-1-VIMAR_430000
70
0
62
7
6
CONTINUOUS
370
-3
390
F
0
LAYER
5
30F
100
AcDbSymbolTableRecord
100
AcDbLayerTableRecord
2
ECAD_MM2-X-2-VIMAR_250000
70
0
62
7
6
CONTINUOUS
370
-3
390
F
0
LAYER
5
310
100
AcDbSymbolTableRecord
100
AcDbLayerTableRecord
2
ECAD_MM2-X-3-VIMAR_120000
70
0
62
7
6
CONTINUOUS
370
-3
390
F
0
LAYER
5
311
100
AcDbSymbolTableRecord
100
AcDbLayerTableRecord
2
ECAD_MM3-MPAK-RF-VIMAR_120000
70
0
62
7
6
CONTINUOUS
370
-3
390
F
0
LAYER
5
312
100
AcDbSymbolTableRecord
100
AcDbLayerTableRecord
2
ECAD_MM3-MPAK-RF-VIMAR_120000_1
70
0
62
7
6
CONTINUOUS
370
-3
390
F
0
LAYER
5
313
100
AcDbSymbolTableRecord
100
AcDbLayerTableRecord
2
ECAD_MM3-SOT-223-RF-VIMAR_18000
70
0
62
7
6
CONTINUOUS
370
-3
390
F
0
LAYER
5
314
100
AcDbSymbolTableRecord
100
AcDbLayerTableRecord
2
ECAD_MM3-SOT-89-RF-VIMAR_150000
70
0
62
7
6
CONTINUOUS
370
-3
390
F
0
LAYER
5
315
100
AcDbSymbolTableRecord
100
AcDbLayerTableRecord
2
ECAD_MM4-X-1-VIMAR_160000
70
0
62
7
6
CONTINUOUS
370
-3
390
F
0
LAYER
5
316
100
AcDbSymbolTableRecord
100
AcDbLayerTableRecord
2
ECAD_MM5-FMT-RF_120000
70
0
62
7
6
CONTINUOUS
370
-3
390
F
0
LAYER
5
317
100
AcDbSymbolTableRecord
100
AcDbLayerTableRecord
2
ECAD_MM5-FMT-RF_120000_1
70
0
62
7
6
CONTINUOUS
370
-3
390
F
0
LAYER
5
318
100
AcDbSymbolTableRecord
100
AcDbLayerTableRecord
2
ECAD_MM6-SC70-1-VIMAR_110000
70
0
62
7
6
CONTINUOUS
370
-3
390
F
0
LAYER
5
319
100
AcDbSymbolTableRecord
100
AcDbLayerTableRecord
2
ECAD_MSOP8-T1-RF-VIMAR_86000
70
0
62
7
6
CONTINUOUS
370
-3
390
F
0
LAYER
5
31A
100
AcDbSymbolTableRecord
100
AcDbLayerTableRecord
2
ECAD_PSD25-VIMAR_0
70
0
62
7
6
CONTINUOUS
370
-3
390
F
0
LAYER
5
31B
100
AcDbSymbolTableRecord
100
AcDbLayerTableRecord
2
ECAD_QFP128-N1-RF-VIMAR_160000
70
0
62
7
6
CONTINUOUS
370
-3
390
F
0
LAYER
5
31C
100
AcDbSymbolTableRecord
100
AcDbLayerTableRecord
2
ECAD_QFP144-N-VIMAR-1_160000
70
0
62
7
6
CONTINUOUS
370
-3
390
F
0
LAYER
5
31D
100
AcDbSymbolTableRecord
100
AcDbLayerTableRecord
2
ECAD_RD-CE50_8-1-VIMAR_700000
70
0
62
7
6
CONTINUOUS
370
-3
390
F
0
LAYER
5
31E
100
AcDbSymbolTableRecord
100
AcDbLayerTableRecord
2
ECAD_RD-CLED2_54-2-VIMAR_150000
70
0
62
7
6
CONTINUOUS
370
-3
390
F
0
LAYER
5
31F
100
AcDbSymbolTableRecord
100
AcDbLayerTableRecord
2
ECAD_RD-CPHOTO2_54-1-VIMAR_1500
70
0
62
7
6
CONTINUOUS
370
-3
390
F
0
LAYER
5
320
100
AcDbSymbolTableRecord
100
AcDbLayerTableRecord
2
ECAD_SOP20-1-VIMAR_270000
70
0
62
7
6
CONTINUOUS
370
-3
390
F
0
LAYER
5
321
100
AcDbSymbolTableRecord
100
AcDbLayerTableRecord
2
ECAD_SOP8-T1-RF-VIMAR_150000
70
0
62
7
6
CONTINUOUS
370
-3
390
F
0
LAYER
5
322
100
AcDbSymbolTableRecord
100
AcDbLayerTableRecord
2
ECAD_SOP8-T1-RF-VIMAR_150000_1
70
0
62
7
6
CONTINUOUS
370
-3
390
F
0
LAYER
5
323
100
AcDbSymbolTableRecord
100
AcDbLayerTableRecord
2
ECAD_TSOP48-TI-RF_VIMAR_120000
70
0
62
7
6
CONTINUOUS
370
-3
390
F
0
LAYER
5
324
100
AcDbSymbolTableRecord
100
AcDbLayerTableRecord
2
ECAD_TSOP50_44-TI-RF_VIMAR_1200
70
0
62
7
6
CONTINUOUS
370
-3
390
F
0
LAYER
5
325
100
AcDbSymbolTableRecord
100
AcDbLayerTableRecord
2
ECAD_TSSOP14-RF-VIMAR_110000
70
0
62
7
6
CONTINUOUS
370
-3
390
F
0
LAYER
5
326
100
AcDbSymbolTableRecord
100
AcDbLayerTableRecord
2
ECAD_TSSOP8-RF-VIMAR_110000
70
0
62
7
6
CONTINUOUS
370
-3
390
F
0
LAYER
5
327
100
AcDbSymbolTableRecord
100
AcDbLayerTableRecord
2
IGES
70
0
62
7
6
CONTINUOUS
370
-3
390
F
0
LAYER
5
328
100
AcDbSymbolTableRecord
100
AcDbLayerTableRecord
2
MM3-MPAK-RF-VIMAR_120000
70
0
62
7
6
CONTINUOUS
370
-3
390
F
0
LAYER
5
329
100
AcDbSymbolTableRecord
100
AcDbLayerTableRecord
2
MM3-MPAK-RF-VIMAR_120000_1
70
0
62
7
6
CONTINUOUS
370
-3
390
F
0
LAYER
5
32A
100
AcDbSymbolTableRecord
100
AcDbLayerTableRecord
2
MM3-MPAK-RF-VIMAR_120000_10
70
0
62
7
6
CONTINUOUS
370
-3
390
F
0
LAYER
5
32B
100
AcDbSymbolTableRecord
100
AcDbLayerTableRecord
2
MM3-MPAK-RF-VIMAR_120000_11
70
0
62
7
6
CONTINUOUS
370
-3
390
F
0
LAYER
5
32C
100
AcDbSymbolTableRecord
100
AcDbLayerTableRecord
2
MM3-MPAK-RF-VIMAR_120000_12
70
0
62
7
6
CONTINUOUS
370
-3
390
F
0
LAYER
5
32D
100
AcDbSymbolTableRecord
100
AcDbLayerTableRecord
2
MM3-MPAK-RF-VIMAR_120000_13
70
0
62
7
6
CONTINUOUS
370
-3
390
F
0
LAYER
5
32E
100
AcDbSymbolTableRecord
100
AcDbLayerTableRecord
2
MM3-MPAK-RF-VIMAR_120000_2
70
0
62
7
6
CONTINUOUS
370
-3
390
F
0
LAYER
5
32F
100
AcDbSymbolTableRecord
100
AcDbLayerTableRecord
2
MM3-MPAK-RF-VIMAR_120000_3
70
0
62
7
6
CONTINUOUS
370
-3
390
F
0
LAYER
5
330
100
AcDbSymbolTableRecord
100
AcDbLayerTableRecord
2
MM3-MPAK-RF-VIMAR_120000_4
70
0
62
7
6
CONTINUOUS
370
-3
390
F
0
LAYER
5
331
100
AcDbSymbolTableRecord
100
AcDbLayerTableRecord
2
MM3-MPAK-RF-VIMAR_120000_5
70
0
62
7
6
CONTINUOUS
370
-3
390
F
0
LAYER
5
332
100
AcDbSymbolTableRecord
100
AcDbLayerTableRecord
2
MM3-MPAK-RF-VIMAR_120000_6
70
0
62
7
6
CONTINUOUS
370
-3
390
F
0
LAYER
5
333
100
AcDbSymbolTableRecord
100
AcDbLayerTableRecord
2
MM3-MPAK-RF-VIMAR_120000_7
70
0
62
7
6
CONTINUOUS
370
-3
390
F
0
LAYER
5
334
100
AcDbSymbolTableRecord
100
AcDbLayerTableRecord
2
MM3-MPAK-RF-VIMAR_120000_8
70
0
62
7
6
CONTINUOUS
370
-3
390
F
0
LAYER
5
335
100
AcDbSymbolTableRecord
100
AcDbLayerTableRecord
2
MM3-MPAK-RF-VIMAR_120000_9
70
0
62
7
6
CONTINUOUS
370
-3
390
F
0
LAYER
5
336
100
AcDbSymbolTableRecord
100
AcDbLayerTableRecord
2
NOTE
70
0
62
7
6
CONTINUOUS
370
-3
390
F
0
LAYER
5
337
100
AcDbSymbolTableRecord
100
AcDbLayerTableRecord
2
PIANI
70
0
62
7
6
CONTINUOUS
370
-3
390
F
0
LAYER
5
338
100
AcDbSymbolTableRecord
100
AcDbLayerTableRecord
2
PIANI_ORIGINE
70
0
62
7
6
CONTINUOUS
370
-3
390
F
0
LAYER
5
339
100
AcDbSymbolTableRecord
100
AcDbLayerTableRecord
2
PSD25-VIMAR_0
70
0
62
7
6
CONTINUOUS
370
-3
390
F
0
LAYER
5
33A
100
AcDbSymbolTableRecord
100
AcDbLayerTableRecord
2
PSD25-VIMAR_0_1
70
0
62
7
6
CONTINUOUS
370
-3
390
F
0
LAYER
5
33B
100
AcDbSymbolTableRecord
100
AcDbLayerTableRecord
2
RACCORDO
70
0
62
7
6
CONTINUOUS
370
-3
390
F
0
LAYER
5
33C
100
AcDbSymbolTableRecord
100
AcDbLayerTableRecord
2
SNAPLINE
70
0
62
7
6
CONTINUOUS
370
-3
390
F
0
LAYER
5
33D
100
AcDbSymbolTableRecord
100
AcDbLayerTableRecord
2
SOP8-T1-RF-VIMAR_150000
70
0
62
7
6
CONTINUOUS
370
-3
390
F
0
LAYER
5
33E
100
AcDbSymbolTableRecord
100
AcDbLayerTableRecord
2
SOP8-T1-RF-VIMAR_150000_1
70
0
62
7
6
CONTINUOUS
370
-3
390
F
0
LAYER
5
33F
100
AcDbSymbolTableRecord
100
AcDbLayerTableRecord
2
SUPERFICI
70
0
62
7
6
CONTINUOUS
370
-3
390
F
0
LAYER
5
340
100
AcDbSymbolTableRecord
100
AcDbLayerTableRecord
2
TRASH
70
0
62
7
6
CONTINUOUS
370
-3
390
F
0
LAYER
5
341
100
AcDbSymbolTableRecord
100
AcDbLayerTableRecord
2
TSSOP8-RF-VIMAR_110000
70
0
62
7
6
CONTINUOUS
370
-3
390
F
0
LAYER
5
342
100
AcDbSymbolTableRecord
100
AcDbLayerTableRecord
2
TSSOP8-RF-VIMAR_110000_1
70
0
62
7
6
CONTINUOUS
370
-3
390
F
0
LAYER
5
343
100
AcDbSymbolTableRecord
100
AcDbLayerTableRecord
2
XSEC_DATUMS
70
0
62
7
6
CONTINUOUS
370
-3
390
F
0
LAYER
5
344
100
AcDbSymbolTableRecord
100
AcDbLayerTableRecord
2
___SHELL
70
0
62
7
6
CONTINUOUS
370
-3
390
F
0
ENDTAB
0
TABLE
2
STYLE
5
3
100
AcDbSymbolTable
70
1
0
STYLE
5
11
100
AcDbSymbolTableRecord
100
AcDbTextStyleTableRecord
2
STANDARD
70
0
40
0.0
41
0.8000000000
50
0.0
71
0
42
0.2
3
txt
4

0
ENDTAB
0
TABLE
2
VIEW
5
6
100
AcDbSymbolTable
70
0
0
ENDTAB
0
TABLE
2
UCS
5
7
100
AcDbSymbolTable
70
0
0
ENDTAB
0
TABLE
2
APPID
5
9
100
AcDbSymbolTable
70
1
0
APPID
5
345
100
AcDbSymbolTableRecord
100
AcDbRegAppTableRecord
2
ACAD
70
0
0
ENDTAB
0
TABLE
2
BLOCK_RECORD
5
1
100
AcDbSymbolTable
70
0
0
BLOCK_RECORD
5
1F
100
AcDbSymbolTableRecord
100
AcDbBlockTableRecord
2
*MODEL_SPACE
0
BLOCK_RECORD
5
1B
100
AcDbSymbolTableRecord
100
AcDbBlockTableRecord
2
*PAPER_SPACE
0
ENDTAB
0
TABLE
2
DIMSTYLE
5
A
100
AcDbSymbolTable
70
1
100
AcDbDimStyleTable
71
0
0
DIMSTYLE
105
346
100
AcDbSymbolTableRecord
100
AcDbDimStyleTableRecord
2
STANDARD
70
0
3

4

40
1.0
41
3.0000000000
42
0.0625
43
0.38
44
0.18
45
0.0
46
0.0
47
0.0100000000
48
0.0100000000
140
3.0000000000
141
0.09
142
0.0
143
25.4
144
1.0000000000
145
0.0
146
1.0000000000
147
0.09
71
1
72
0
73
0
74
0
75
0
76
0
77
1
78
8
170
0
171
2
172
0
173
0
174
0
175
0
176
0
177
0
178
0
270
2
271
2
272
2
273
2
274
2
275
0
280
0
281
0
282
0
283
1
284
8
285
0
286
0
287
3
288
0
340
11
0
ENDTAB
0
ENDSEC
0
SECTION
2
BLOCKS
0
BLOCK
5
20
100
AcDbEntity
8
0
100
AcDbBlockBegin
2
*MODEL_SPACE
70
0
10
0.0
20
0.0
30
0.0
3
*MODEL_SPACE
1

0
ENDBLK
5
21
100
AcDbEntity
8
0
100
AcDbBlockEnd
0
BLOCK
5
1C
100
AcDbEntity
8
0
100
AcDbBlockBegin
2
*PAPER_SPACE
70
0
10
0.0
20
0.0
30
0.0
3
*PAPER_SPACE
1

0
ENDBLK
5
1D
100
AcDbEntity
8
0
100
AcDbBlockEnd
0
ENDSEC
0
SECTION
2
ENTITIES
0
LINE
5
347
100
AcDbEntity
8
0
100
AcDbLine
62
9
6
CONTINUOUS
10
-46.2704707825
20
23.0141289379
11
-46.4279290457
21
22.8566706747
0
LINE
5
348
100
AcDbEntity
8
0
100
AcDbLine
62
9
6
CONTINUOUS
10
-45.1313591321
20
23.8533814648
11
-45.2205018164
21
23.7642387805
0
LINE
5
349
100
AcDbEntity
8
0
100
AcDbLine
62
9
6
CONTINUOUS
10
-44.9313895930
20
23.6534119258
11
-45.0205322773
21
23.5642692415
0
LINE
5
34A
100
AcDbEntity
8
0
100
AcDbLine
62
9
6
CONTINUOUS
10
-45.7706421200
20
22.5143002754
11
-45.9281003832
21
22.3568420122
0
LINE
5
34B
100
AcDbEntity
8
0
100
AcDbLine
62
0
6
CONTINUOUS
10
-46.4279290457
20
26.0578700373
11
-46.4279290457
21
22.8566706747
0
LINE
5
34C
100
AcDbEntity
8
0
100
AcDbLine
62
9
6
CONTINUOUS
10
-46.2704707825
20
25.9004117741
11
-46.2704707825
21
23.0141289379
0
LINE
5
34D
100
AcDbEntity
8
0
100
AcDbLine
62
0
6
CONTINUOUS
10
-46.1779290457
20
-27.6452136857
11
-46.1779290457
21
22.4237392982
0
LINE
5
34E
100
AcDbEntity
8
0
100
AcDbLine
62
9
6
CONTINUOUS
10
-45.7706421200
20
22.5143002754
11
-45.7706421200
21
25.9004117741
0
LINE
5
34F
100
AcDbEntity
8
0
100
AcDbLine
62
9
6
CONTINUOUS
10
-45.5606263088
20
-23.8931579878
11
-45.5606263088
21
-8.3931579878
0
LINE
5
350
100
AcDbEntity
8
0
100
AcDbLine
62
9
6
CONTINUOUS
10
-45.5606263088
20
6.1068420122
11
-45.5606263088
21
21.6068420122
0
LINE
5
351
100
AcDbEntity
8
0
100
AcDbLine
62
9
6
CONTINUOUS
10
-45.4204713554
20
23.7642387805
11
-45.4204713554
21
26.1496737011
0
LINE
5
352
100
AcDbEntity
8
0
100
AcDbLine
62
9
6
CONTINUOUS
10
-45.2205018164
20
23.7642387805
11
-45.2205018164
21
26.1496737011
0
LINE
5
353
100
AcDbEntity
8
0
100
AcDbLine
62
9
6
CONTINUOUS
10
-45.1313591321
20
23.8533814648
11
-45.1313591321
21
26.0605310168
0
LINE
5
354
100
AcDbEntity
8
0
100
AcDbLine
62
9
6
CONTINUOUS
10
-45.0205322775
20
23.5642692415
11
-45.0205322776
21
23.3642997025
0
LINE
5
355
100
AcDbEntity
8
0
100
AcDbLine
62
9
6
CONTINUOUS
10
-44.9313895930
20
23.6534119258
11
-44.9313895930
21
26.0605310168
0
LINE
5
356
100
AcDbEntity
8
0
100
AcDbLine
62
0
6
CONTINUOUS
10
-44.6779290457
20
4.3568420122
11
-44.6779290457
21
1.8568420122
0
LINE
5
357
100
AcDbEntity
8
0
100
AcDbLine
62
0
6
CONTINUOUS
10
-44.6779290457
20
-6.6431579878
11
-44.6779290457
21
-4.1431579878
0
LINE
5
358
100
AcDbEntity
8
0
100
AcDbLine
62
0
6
CONTINUOUS
10
-44.6779290457
20
-2.3931579878
11
-44.6779290457
21
0.1068420122
0
LINE
5
359
100
AcDbEntity
8
0
100
AcDbLine
62
0
6
CONTINUOUS
10
-44.6006034026
20
0.0681909704
11
-44.6006034026
21
-2.3545069460
0
LINE
5
35A
100
AcDbEntity
8
0
100
AcDbLine
62
0
6
CONTINUOUS
10
-44.6006034026
20
-4.1818090296
11
-44.6006034026
21
-6.6045069460
0
LINE
5
35B
100
AcDbEntity
8
0
100
AcDbLine
62
0
6
CONTINUOUS
10
-44.6006034026
20
1.8954930540
11
-44.6006034026
21
4.3181909704
0
LINE
5
35C
100
AcDbEntity
8
0
100
AcDbLine
62
9
6
CONTINUOUS
10
-44.5607786136
20
-23.8760075558
11
-44.5607786136
21
-8.4103084198
0
LINE
5
35D
100
AcDbEntity
8
0
100
AcDbLine
62
9
6
CONTINUOUS
10
-44.5607786136
20
6.1239924442
11
-44.5607786136
21
21.5896915802
0
LINE
5
35E
100
AcDbEntity
8
0
100
AcDbLine
62
0
6
CONTINUOUS
10
-44.5255638509
20
-23.8407927930
11
-44.5255638509
21
-23.5820652606
0
LINE
5
35F
100
AcDbEntity
8
0
100
AcDbLine
62
0
6
CONTINUOUS
10
-44.5255638509
20
-8.6431579878
11
-44.5255638509
21
-8.4455231826
0
LINE
5
360
100
AcDbEntity
8
0
100
AcDbLine
62
0
6
CONTINUOUS
10
-44.5255638509
20
6.1592072070
11
-44.5255638509
21
6.3568420122
0
LINE
5
361
100
AcDbEntity
8
0
100
AcDbLine
62
0
6
CONTINUOUS
10
-44.5255638509
20
21.2957492849
11
-44.5255638509
21
21.5544768174
0
LINE
5
362
100
AcDbEntity
8
0
100
AcDbLine
62
0
6
CONTINUOUS
10
-44.4303101999
20
-8.6431579878
11
-44.4303101999
21
6.3568420122
0
LINE
5
363
100
AcDbEntity
8
0
100
AcDbLine
62
0
6
CONTINUOUS
10
-44.4128498151
20
-27.6440717473
11
-44.4128498151
21
-23.6431579878
0
LINE
5
364
100
AcDbEntity
8
0
100
AcDbLine
62
0
6
CONTINUOUS
10
-44.3779290457
20
21.3742970771
11
-44.3779290457
21
22.3568420122
0
LINE
5
365
100
AcDbEntity
8
0
100
AcDbLine
62
0
6
CONTINUOUS
10
-44.3080875067
20
25.2879142327
11
-44.3080875067
21
23.8533814648
0
LINE
5
366
100
AcDbEntity
8
0
100
AcDbLine
62
9
6
CONTINUOUS
10
-44.2894084046
20
-27.5206303368
11
-44.2894084046
21
22.4232206916
0
LINE
5
367
100
AcDbEntity
8
0
100
AcDbLine
62
9
6
CONTINUOUS
10
-44.2544876352
20
23.6300502418
11
-44.2544876352
21
25.2343143612
0
LINE
5
368
100
AcDbEntity
8
0
100
AcDbLine
62
9
6
CONTINUOUS
10
-43.5207607346
20
28.0493843219
11
-43.5207607346
21
27.8494147829
0
LINE
5
369
100
AcDbEntity
8
0
100
AcDbLine
62
9
6
CONTINUOUS
10
-43.4316180503
20
27.5603025596
11
-43.4316180503
21
27.7602720986
0
LINE
5
36A
100
AcDbEntity
8
0
100
AcDbLine
62
9
6
CONTINUOUS
10
-33.3852159713
20
28.8993837490
11
-33.2277577081
21
29.0568420122
0
LINE
5
36B
100
AcDbEntity
8
0
100
AcDbLine
62
9
6
CONTINUOUS
10
-34.1353258140
20
27.8494147829
11
-34.2244684983
21
27.7602720986
0
LINE
5
36C
100
AcDbEntity
8
0
100
AcDbLine
62
9
6
CONTINUOUS
10
-33.9353562750
20
27.6494452439
11
-34.0244989592
21
27.5603025596
0
LINE
5
36D
100
AcDbEntity
8
0
100
AcDbLine
62
9
6
CONTINUOUS
10
-32.8853873088
20
28.3995550865
11
-32.7279290457
21
28.5570133497
0
LINE
5
36E
100
AcDbEntity
8
0
100
AcDbLine
62
0
6
CONTINUOUS
10
-44.2894084046
20
22.4232206916
11
-44.3779290457
21
22.3568420122
0
LINE
5
36F
100
AcDbEntity
8
0
100
AcDbLine
62
0
6
CONTINUOUS
10
-42.6826913541
20
22.4484927377
11
-42.6116310979
21
22.5017784563
0
LINE
5
370
100
AcDbEntity
8
0
100
AcDbLine
62
9
6
CONTINUOUS
10
-43.2900175776
20
-27.5206303368
11
-43.2900175776
21
22.4484927377
0
LINE
5
371
100
AcDbEntity
8
0
100
AcDbLine
62
9
6
CONTINUOUS
10
-43.2714988076
20
28.3995550865
11
-43.2714988076
21
28.8993837490
0
LINE
5
372
100
AcDbEntity
8
0
100
AcDbLine
62
9
6
CONTINUOUS
10
-43.2550968081
20
23.6132043499
11
-43.2550968081
21
25.2343143612
0
LINE
5
373
100
AcDbEntity
8
0
100
AcDbLine
62
9
6
CONTINUOUS
10
-42.7903221641
20
-29.0197165773
11
-42.7903221641
21
-28.0203257503
0
LINE
5
374
100
AcDbEntity
8
0
100
AcDbLine
62
9
6
CONTINUOUS
10
-42.7554013946
20
26.7334006017
11
-42.7554013946
21
25.7340097747
0
LINE
5
375
100
AcDbEntity
8
0
100
AcDbLine
62
0
6
CONTINUOUS
10
-42.6826913541
20
24.1622134937
11
-42.6826913541
21
23.6132043499
0
LINE
5
376
100
AcDbEntity
8
0
100
AcDbLine
62
0
6
CONTINUOUS
10
-42.6826913541
20
22.4484927377
11
-42.6826913541
21
-26.4485294693
0
LINE
5
377
100
AcDbEntity
8
0
100
AcDbLine
62
9
6
CONTINUOUS
10
-42.6116310979
20
24.0911532374
11
-42.6116310979
21
23.5776850470
0
LINE
5
378
100
AcDbEntity
8
0
100
AcDbLine
62
9
6
CONTINUOUS
10
-42.6116310979
20
22.5017784563
11
-42.6116310979
21
-26.3774692130
0
LINE
5
379
100
AcDbEntity
8
0
100
AcDbLine
62
9
6
CONTINUOUS
10
-41.6122402708
20
23.0141289379
11
-41.6122402708
21
-27.3768600400
0
LINE
5
37A
100
AcDbEntity
8
0
100
AcDbLine
62
9
6
CONTINUOUS
10
-41.6122402708
20
23.3642997025
11
-41.6122402708
21
25.0905440644
0
LINE
5
37B
100
AcDbEntity
8
0
100
AcDbLine
62
0
6
CONTINUOUS
10
-40.9386581406
20
-25.1858621216
11
-40.9386581406
21
-0.0431579878
0
LINE
5
37C
100
AcDbEntity
8
0
100
AcDbLine
62
0
6
CONTINUOUS
10
-32.7279290457
20
26.8219212427
11
-32.7943077251
21
26.7334006017
0
LINE
5
37D
100
AcDbEntity
8
0
100
AcDbLine
62
0
6
CONTINUOUS
10
-32.8195797711
20
25.1616043207
11
-32.8728654898
21
25.0905440644
0
LINE
5
37E
100
AcDbEntity
8
0
100
AcDbLine
62
0
6
CONTINUOUS
10
-30.7279290457
20
26.8219212427
11
-30.6930133138
21
26.8568420122
0
LINE
5
37F
100
AcDbEntity
8
0
100
AcDbLine
62
0
6
CONTINUOUS
10
-44.4128498151
20
-23.6431579878
11
-44.5255638509
21
-23.5868181408
0
LINE
5
380
100
AcDbEntity
8
0
100
AcDbLine
62
0
6
CONTINUOUS
10
-44.3779290457
20
21.3742970771
11
-44.5255638509
21
21.3005021652
0
LINE
5
381
100
AcDbEntity
8
0
100
AcDbLine
62
0
6
CONTINUOUS
10
-44.5255638509
20
-8.4455231826
11
-44.5607786136
21
-8.4103084198
0
LINE
5
382
100
AcDbEntity
8
0
100
AcDbLine
62
0
6
CONTINUOUS
10
-35.9779290457
20
-0.0431579878
11
-35.9779290457
21
-25.1857097529
0
LINE
5
383
100
AcDbEntity
8
0
100
AcDbLine
62
9
6
CONTINUOUS
10
-34.2244684983
20
26.7870004732
11
-34.2244684983
21
27.7602720986
0
LINE
5
384
100
AcDbEntity
8
0
100
AcDbLine
62
9
6
CONTINUOUS
10
-34.1353258140
20
28.0493843219
11
-34.1353258140
21
27.8494147829
0
LINE
5
385
100
AcDbEntity
8
0
100
AcDbLine
62
9
6
CONTINUOUS
10
-34.0244989592
20
27.5603025596
11
-34.0244989592
21
26.7801382096
0
LINE
5
386
100
AcDbEntity
8
0
100
AcDbLine
62
0
6
CONTINUOUS
10
-33.9842913833
20
25.7340097747
11
-33.9842913833
21
25.1616043207
0
LINE
5
387
100
AcDbEntity
8
0
100
AcDbLine
62
0
6
CONTINUOUS
10
-33.9779290457
20
12.8568420122
11
-33.9779290457
21
-7.1431579878
0
LINE
5
388
100
AcDbEntity
8
0
100
AcDbLine
62
9
6
CONTINUOUS
10
-33.9353562750
20
24.6864708387
11
-33.9353562750
21
27.6494452439
0
LINE
5
389
100
AcDbEntity
8
0
100
AcDbLine
62
9
6
CONTINUOUS
10
-33.7353867359
20
24.0911532374
11
-33.7353867359
21
27.6494452439
0
LINE
5
38A
100
AcDbEntity
8
0
100
AcDbLine
62
9
6
CONTINUOUS
10
-33.3852159713
20
24.0911532374
11
-33.3852159713
21
28.8993837490
0
LINE
5
38B
100
AcDbEntity
8
0
100
AcDbLine
62
9
6
CONTINUOUS
10
-32.8853873088
20
28.3995550865
11
-32.8853873088
21
24.9494889629
0
LINE
5
38C
100
AcDbEntity
8
0
100
AcDbLine
62
0
6
CONTINUOUS
10
-32.8195797711
20
25.7340097747
11
-32.8195797711
21
25.1616043207
0
LINE
5
38D
100
AcDbEntity
8
0
100
AcDbLine
62
0
6
CONTINUOUS
10
-32.7279290457
20
26.8219212427
11
-32.7279290457
21
28.5570133497
0
LINE
5
38E
100
AcDbEntity
8
0
100
AcDbLine
62
0
6
CONTINUOUS
10
-44.5255638509
20
6.1592072070
11
-44.5607786136
21
6.1239924442
0
LINE
5
38F
100
AcDbEntity
8
0
100
AcDbLine
62
0
6
CONTINUOUS
10
-30.7279290457
20
26.8219212427
11
-30.7279290457
21
26.8742970771
0
LINE
5
390
100
AcDbEntity
8
0
100
AcDbLine
62
0
6
CONTINUOUS
10
44.7241266522
20
-29.1431579878
11
-44.6799847435
21
-29.1431579878
0
LINE
5
391
100
AcDbEntity
8
0
100
AcDbLine
62
9
6
CONTINUOUS
10
42.8344640728
20
-29.0197165773
11
-42.7903221641
21
-29.0197165773
0
LINE
5
392
100
AcDbEntity
8
0
100
AcDbLine
62
9
6
CONTINUOUS
10
42.8344640728
20
-28.0203257503
11
-42.7903221641
21
-28.0203257503
0
LINE
5
393
100
AcDbEntity
8
0
100
AcDbLine
62
9
6
CONTINUOUS
10
-44.2894084046
20
-27.5206303368
11
-43.2900175776
21
-27.5206303368
0
LINE
5
394
100
AcDbEntity
8
0
100
AcDbLine
62
9
6
CONTINUOUS
10
44.3335503133
20
-27.5206303368
11
43.3341594863
21
-27.5206303368
0
LINE
5
395
100
AcDbEntity
8
0
100
AcDbLine
62
0
6
CONTINUOUS
10
-41.6833005271
20
-27.4479202963
11
41.7274424358
21
-27.4479202963
0
LINE
5
396
100
AcDbEntity
8
0
100
AcDbLine
62
9
6
CONTINUOUS
10
-41.6122402708
20
-27.3768600400
11
41.6563821795
21
-27.3768600400
0
LINE
5
397
100
AcDbEntity
8
0
100
AcDbLine
62
9
6
CONTINUOUS
10
42.6557730066
20
-26.3774692130
11
-42.6116310979
21
-26.3774692130
0
LINE
5
398
100
AcDbEntity
8
0
100
AcDbLine
62
0
6
CONTINUOUS
10
-36.4779290457
20
-25.6860145251
11
-40.4387913831
21
-25.6860145251
0
LINE
5
399
100
AcDbEntity
8
0
100
AcDbLine
62
0
6
CONTINUOUS
10
-44.6006034026
20
1.8954930540
11
-44.6779290457
21
1.8568420122
0
LINE
5
39A
100
AcDbEntity
8
0
100
AcDbLine
62
0
6
CONTINUOUS
10
-44.5267998494
20
-23.7999104440
11
-44.4128498151
21
-23.7964653859
0
LINE
5
39B
100
AcDbEntity
8
0
100
AcDbLine
62
0
6
CONTINUOUS
10
45.6047682175
20
-23.8931579878
11
44.4569917238
21
-23.8931579878
0
LINE
5
39C
100
AcDbEntity
8
0
100
AcDbLine
62
0
6
CONTINUOUS
10
-44.4128498151
20
-23.8931579878
11
-45.5606263088
21
-23.8931579878
0
LINE
5
39D
100
AcDbEntity
8
0
100
AcDbLine
62
0
6
CONTINUOUS
10
44.4569917238
20
-23.7964653859
11
44.5709417580
21
-23.7999104440
0
LINE
5
39E
100
AcDbEntity
8
0
100
AcDbLine
62
0
6
CONTINUOUS
10
-44.6006034026
20
-4.1818090296
11
-44.6779290457
21
-4.1431579878
0
LINE
5
39F
100
AcDbEntity
8
0
100
AcDbLine
62
0
6
CONTINUOUS
10
-44.6006034026
20
-2.3545069460
11
-44.6779290457
21
-2.3931579878
0
LINE
5
3A0
100
AcDbEntity
8
0
100
AcDbLine
62
0
6
CONTINUOUS
10
29.9952522310
20
-18.6672357806
11
35.0488896777
21
-18.6672357806
0
LINE
5
3A1
100
AcDbEntity
8
0
100
AcDbLine
62
9
6
CONTINUOUS
10
30.4944975398
20
-18.1679904718
11
34.5496443689
21
-18.1679904718
0
LINE
5
3A2
100
AcDbEntity
8
0
100
AcDbLine
62
0
6
CONTINUOUS
10
-44.6006034026
20
0.0681909704
11
-44.6779290457
21
0.1068420122
0
LINE
5
3A3
100
AcDbEntity
8
0
100
AcDbLine
62
0
6
CONTINUOUS
10
-33.9842913833
20
25.1616043207
11
-33.9487720805
21
25.0905440644
0
LINE
5
3A4
100
AcDbEntity
8
0
100
AcDbLine
62
0
6
CONTINUOUS
10
-34.0011372753
20
26.7334006017
11
-34.0244989592
21
26.7801382096
0
LINE
5
3A5
100
AcDbEntity
8
0
100
AcDbLine
62
0
6
CONTINUOUS
10
-15.9779290457
20
-7.1431579878
11
-15.9779290457
21
12.8568420122
0
LINE
5
3A6
100
AcDbEntity
8
0
100
AcDbLine
62
0
6
CONTINUOUS
10
-44.5255638509
20
-23.8407927930
11
-44.5607786136
21
-23.8760075558
0
LINE
5
3A7
100
AcDbEntity
8
0
100
AcDbLine
62
9
6
CONTINUOUS
10
30.4944975398
20
-17.6686757044
11
34.5496443689
21
-17.6686757044
0
LINE
5
3A8
100
AcDbEntity
8
0
100
AcDbLine
62
0
6
CONTINUOUS
10
30.5213857217
20
-16.6431579878
11
34.5227561870
21
-16.6431579878
0
LINE
5
3A9
100
AcDbEntity
8
0
100
AcDbLine
62
9
6
CONTINUOUS
10
28.9965532377
20
-16.1707314023
11
28.4972384703
21
-16.1707314024
0
LINE
5
3AA
100
AcDbEntity
8
0
100
AcDbLine
62
9
6
CONTINUOUS
10
36.0475886710
20
-16.1707314023
11
36.5469034384
21
-16.1707314023
0
LINE
5
3AB
100
AcDbEntity
8
0
100
AcDbLine
62
0
6
CONTINUOUS
10
30.5220709543
20
-16.1431579878
11
34.5220709543
21
-16.1431579878
0
LINE
5
3AC
100
AcDbEntity
8
0
100
AcDbLine
62
0
6
CONTINUOUS
10
31.2720709543
20
-15.3563528529
11
31.7352658195
21
-15.3563528529
0
LINE
5
3AD
100
AcDbEntity
8
0
100
AcDbLine
62
0
6
CONTINUOUS
10
33.3088760892
20
-15.3563528529
11
33.7720709543
21
-15.3563528529
0
LINE
5
3AE
100
AcDbEntity
8
0
100
AcDbLine
62
0
6
CONTINUOUS
10
33.7720709543
20
-14.8931579878
11
33.3088760892
21
-14.8931579878
0
LINE
5
3AF
100
AcDbEntity
8
0
100
AcDbLine
62
0
6
CONTINUOUS
10
31.7352658195
20
-14.8931579878
11
31.2720709543
21
-14.8931579878
0
LINE
5
3B0
100
AcDbEntity
8
0
100
AcDbLine
62
0
6
CONTINUOUS
10
-44.6006034026
20
4.3181909704
11
-44.6779290457
21
4.3568420122
0
LINE
5
3B1
100
AcDbEntity
8
0
100
AcDbLine
62
0
6
CONTINUOUS
10
-44.5255638509
20
21.5544768174
11
-44.5607786136
21
21.5896915802
0
LINE
5
3B2
100
AcDbEntity
8
0
100
AcDbLine
62
9
6
CONTINUOUS
10
-46.2704707825
20
25.9004117741
11
-46.4279290457
21
26.0578700373
0
LINE
5
3B3
100
AcDbEntity
8
0
100
AcDbLine
62
9
6
CONTINUOUS
10
-44.4128498151
20
-27.6440717473
11
-44.2894084046
21
-27.5206303368
0
LINE
5
3B4
100
AcDbEntity
8
0
100
AcDbLine
62
9
6
CONTINUOUS
10
-42.6116310979
20
-26.3774692130
11
-42.6826913541
21
-26.4485294693
0
LINE
5
3B5
100
AcDbEntity
8
0
100
AcDbLine
62
0
6
CONTINUOUS
10
-44.6006034026
20
-6.6045069460
11
-44.6779290457
21
-6.6431579878
0
LINE
5
3B6
100
AcDbEntity
8
0
100
AcDbLine
62
0
6
CONTINUOUS
10
31.2720709543
20
-13.3563528529
11
31.7352658195
21
-13.3563528529
0
LINE
5
3B7
100
AcDbEntity
8
0
100
AcDbLine
62
0
6
CONTINUOUS
10
33.3088760892
20
-13.3563528529
11
33.7720709543
21
-13.3563528529
0
LINE
5
3B8
100
AcDbEntity
8
0
100
AcDbLine
62
0
6
CONTINUOUS
10
33.7720709543
20
-12.8931579878
11
33.3088760892
21
-12.8931579878
0
LINE
5
3B9
100
AcDbEntity
8
0
100
AcDbLine
62
0
6
CONTINUOUS
10
31.7352658195
20
-12.8931579878
11
31.2720709543
21
-12.8931579878
0
LINE
5
3BA
100
AcDbEntity
8
0
100
AcDbLine
62
0
6
CONTINUOUS
10
31.2720709543
20
-11.3563528529
11
31.7352658195
21
-11.3563528529
0
LINE
5
3BB
100
AcDbEntity
8
0
100
AcDbLine
62
0
6
CONTINUOUS
10
33.3088760892
20
-11.3563528529
11
33.7720709543
21
-11.3563528529
0
LINE
5
3BC
100
AcDbEntity
8
0
100
AcDbLine
62
0
6
CONTINUOUS
10
33.7720709543
20
-10.8931579878
11
33.3088760892
21
-10.8931579878
0
LINE
5
3BD
100
AcDbEntity
8
0
100
AcDbLine
62
0
6
CONTINUOUS
10
31.7352658195
20
-10.8931579878
11
31.2720709543
21
-10.8931579878
0
LINE
5
3BE
100
AcDbEntity
8
0
100
AcDbLine
62
9
6
CONTINUOUS
10
-45.1313591321
20
26.0605310168
11
-45.2205018164
21
26.1496737011
0
LINE
5
3BF
100
AcDbEntity
8
0
100
AcDbLine
62
9
6
CONTINUOUS
10
-44.2544876352
20
25.2343143612
11
-44.3080875067
21
25.2879142327
0
LINE
5
3C0
100
AcDbEntity
8
0
100
AcDbLine
62
9
6
CONTINUOUS
10
-42.6116310979
20
24.0911532374
11
-42.6826913541
21
24.1622134937
0
LINE
5
3C1
100
AcDbEntity
8
0
100
AcDbLine
62
9
6
CONTINUOUS
10
-41.6122402708
20
25.0905440644
11
-41.6833005271
21
25.1616043207
0
LINE
5
3C2
100
AcDbEntity
8
0
100
AcDbLine
62
9
6
CONTINUOUS
10
-42.7554013946
20
26.7334006017
11
-42.8090012661
21
26.7870004732
0
LINE
5
3C3
100
AcDbEntity
8
0
100
AcDbLine
62
9
6
CONTINUOUS
10
-43.4316180503
20
27.7602720986
11
-43.5207607346
21
27.8494147829
0
LINE
5
3C4
100
AcDbEntity
8
0
100
AcDbLine
62
9
6
CONTINUOUS
10
-41.6122402708
20
-27.3768600400
11
-41.6833005271
21
-27.4479202963
0
LINE
5
3C5
100
AcDbEntity
8
0
100
AcDbLine
62
9
6
CONTINUOUS
10
-42.9137635746
20
-29.1431579878
11
-42.7903221641
21
-29.0197165773
0
LINE
5
3C6
100
AcDbEntity
8
0
100
AcDbLine
62
0
6
CONTINUOUS
10
30.7371552225
20
26.8568420122
11
30.7511226376
21
26.8638245993
0
LINE
5
3C7
100
AcDbEntity
8
0
100
AcDbLine
62
0
6
CONTINUOUS
10
44.4744521086
20
-8.4893227089
11
44.5709417580
21
-8.4864055316
0
LINE
5
3C8
100
AcDbEntity
8
0
100
AcDbLine
62
0
6
CONTINUOUS
10
31.2720709543
20
-9.3563528529
11
31.7352658195
21
-9.3563528529
0
LINE
5
3C9
100
AcDbEntity
8
0
100
AcDbLine
62
0
6
CONTINUOUS
10
33.3088760892
20
-9.3563528529
11
33.7720709543
21
-9.3563528529
0
LINE
5
3CA
100
AcDbEntity
8
0
100
AcDbLine
62
0
6
CONTINUOUS
10
33.7720709543
20
-8.8931579878
11
33.3088760892
21
-8.8931579878
0
LINE
5
3CB
100
AcDbEntity
8
0
100
AcDbLine
62
0
6
CONTINUOUS
10
31.7352658195
20
-8.8931579878
11
31.2720709543
21
-8.8931579878
0
LINE
5
3CC
100
AcDbEntity
8
0
100
AcDbLine
62
0
6
CONTINUOUS
10
-44.5255638509
20
-8.6431579878
11
-44.4303101999
21
-8.6431579878
0
LINE
5
3CD
100
AcDbEntity
8
0
100
AcDbLine
62
0
6
CONTINUOUS
10
44.5697057596
20
-8.6431579878
11
44.4744521086
21
-8.6431579878
0
LINE
5
3CE
100
AcDbEntity
8
0
100
AcDbLine
62
0
6
CONTINUOUS
10
-45.5606263088
20
-8.3931579878
11
-44.4303101999
21
-8.3931579878
0
LINE
5
3CF
100
AcDbEntity
8
0
100
AcDbLine
62
0
6
CONTINUOUS
10
44.4744521086
20
-8.3931579878
11
45.6047682175
21
-8.3931579878
0
LINE
5
3D0
100
AcDbEntity
8
0
100
AcDbLine
62
0
6
CONTINUOUS
10
31.2720709543
20
-7.3563528529
11
31.7352658195
21
-7.3563528529
0
LINE
5
3D1
100
AcDbEntity
8
0
100
AcDbLine
62
0
6
CONTINUOUS
10
33.3088760892
20
-7.3563528529
11
33.7720709543
21
-7.3563528529
0
LINE
5
3D2
100
AcDbEntity
8
0
100
AcDbLine
62
0
6
CONTINUOUS
10
-33.9779290457
20
-7.1431579878
11
-15.9779290457
21
-7.1431579878
0
LINE
5
3D3
100
AcDbEntity
8
0
100
AcDbLine
62
0
6
CONTINUOUS
10
33.7720709543
20
-6.8931579878
11
33.3088760892
21
-6.8931579878
0
LINE
5
3D4
100
AcDbEntity
8
0
100
AcDbLine
62
0
6
CONTINUOUS
10
31.7352658195
20
-6.8931579878
11
31.2720709543
21
-6.8931579878
0
LINE
5
3D5
100
AcDbEntity
8
0
100
AcDbLine
62
0
6
CONTINUOUS
10
-44.5267998494
20
-8.4864055316
11
-44.4303101999
21
-8.4893227089
0
LINE
5
3D6
100
AcDbEntity
8
0
100
AcDbLine
62
9
6
CONTINUOUS
10
-43.2714988076
20
28.8993837490
11
-43.4289570707
21
29.0568420122
0
LINE
5
3D7
100
AcDbEntity
8
0
100
AcDbLine
62
0
6
CONTINUOUS
10
44.6447453113
20
-4.1818090296
11
44.4744521086
21
-4.1869575141
0
LINE
5
3D8
100
AcDbEntity
8
0
100
AcDbLine
62
0
6
CONTINUOUS
10
-44.4303101999
20
-6.5993584615
11
-44.6006034026
21
-6.6045069460
0
LINE
5
3D9
100
AcDbEntity
8
0
100
AcDbLine
62
0
6
CONTINUOUS
10
-44.6779290457
20
-6.6431579878
11
-44.4303101999
21
-6.6431579878
0
LINE
5
3DA
100
AcDbEntity
8
0
100
AcDbLine
62
0
6
CONTINUOUS
10
44.4744521086
20
-6.6431579878
11
44.7220709543
21
-6.6431579878
0
LINE
5
3DB
100
AcDbEntity
8
0
100
AcDbLine
62
0
6
CONTINUOUS
10
31.2720709543
20
-5.3563528529
11
31.7352658195
21
-5.3563528529
0
LINE
5
3DC
100
AcDbEntity
8
0
100
AcDbLine
62
0
6
CONTINUOUS
10
33.3088760892
20
-5.3563528529
11
33.7720709543
21
-5.3563528529
0
LINE
5
3DD
100
AcDbEntity
8
0
100
AcDbLine
62
0
6
CONTINUOUS
10
33.7720709543
20
-4.8931579878
11
33.3088760892
21
-4.8931579878
0
LINE
5
3DE
100
AcDbEntity
8
0
100
AcDbLine
62
0
6
CONTINUOUS
10
31.7352658195
20
-4.8931579878
11
31.2720709543
21
-4.8931579878
0
LINE
5
3DF
100
AcDbEntity
8
0
100
AcDbLine
62
0
6
CONTINUOUS
10
44.7220709543
20
-4.1431579878
11
44.4744521086
21
-4.1431579878
0
LINE
5
3E0
100
AcDbEntity
8
0
100
AcDbLine
62
0
6
CONTINUOUS
10
-44.4303101999
20
-4.1431579878
11
-44.6779290457
21
-4.1431579878
0
LINE
5
3E1
100
AcDbEntity
8
0
100
AcDbLine
62
0
6
CONTINUOUS
10
31.2720709543
20
-3.3563528529
11
31.7352658195
21
-3.3563528529
0
LINE
5
3E2
100
AcDbEntity
8
0
100
AcDbLine
62
0
6
CONTINUOUS
10
33.3088760892
20
-3.3563528529
11
33.7720709543
21
-3.3563528529
0
LINE
5
3E3
100
AcDbEntity
8
0
100
AcDbLine
62
0
6
CONTINUOUS
10
-44.4303101999
20
-4.1869575141
11
-44.6006034026
21
-4.1818090296
0
LINE
5
3E4
100
AcDbEntity
8
0
100
AcDbLine
62
0
6
CONTINUOUS
10
44.6447453113
20
-6.6045069460
11
44.4744521086
21
-6.5993584615
0
LINE
5
3E5
100
AcDbEntity
8
0
100
AcDbLine
62
0
6
CONTINUOUS
10
42.7268332628
20
23.6132043499
11
42.6557730066
21
23.5776850470
0
LINE
5
3E6
100
AcDbEntity
8
0
100
AcDbLine
62
0
6
CONTINUOUS
10
44.2986295438
20
23.6300502418
11
44.3453671518
21
23.6534119258
0
LINE
5
3E7
100
AcDbEntity
8
0
100
AcDbLine
62
0
6
CONTINUOUS
10
44.6447453113
20
0.0681909704
11
44.4744521086
21
0.0630424859
0
LINE
5
3E8
100
AcDbEntity
8
0
100
AcDbLine
62
0
6
CONTINUOUS
10
-44.4303101999
20
-2.3493584615
11
-44.6006034026
21
-2.3545069460
0
LINE
5
3E9
100
AcDbEntity
8
0
100
AcDbLine
62
0
6
CONTINUOUS
10
33.7720709543
20
-2.8931579878
11
33.3088760892
21
-2.8931579878
0
LINE
5
3EA
100
AcDbEntity
8
0
100
AcDbLine
62
0
6
CONTINUOUS
10
31.7352658195
20
-2.8931579878
11
31.2720709543
21
-2.8931579878
0
LINE
5
3EB
100
AcDbEntity
8
0
100
AcDbLine
62
0
6
CONTINUOUS
10
-44.6779290457
20
-2.3931579878
11
-44.4303101999
21
-2.3931579878
0
LINE
5
3EC
100
AcDbEntity
8
0
100
AcDbLine
62
0
6
CONTINUOUS
10
44.4744521086
20
-2.3931579878
11
44.7220709543
21
-2.3931579878
0
LINE
5
3ED
100
AcDbEntity
8
0
100
AcDbLine
62
0
6
CONTINUOUS
10
31.2720709543
20
-1.3563528529
11
31.7352658195
21
-1.3563528529
0
LINE
5
3EE
100
AcDbEntity
8
0
100
AcDbLine
62
0
6
CONTINUOUS
10
33.3088760892
20
-1.3563528529
11
33.7720709543
21
-1.3563528529
0
LINE
5
3EF
100
AcDbEntity
8
0
100
AcDbLine
62
0
6
CONTINUOUS
10
33.7720709543
20
-0.8931579878
11
33.3088760892
21
-0.8931579878
0
LINE
5
3F0
100
AcDbEntity
8
0
100
AcDbLine
62
0
6
CONTINUOUS
10
31.7352658195
20
-0.8931579878
11
31.2720709543
21
-0.8931579878
0
LINE
5
3F1
100
AcDbEntity
8
0
100
AcDbLine
62
0
6
CONTINUOUS
10
44.7220709543
20
0.1068420122
11
44.4744521086
21
0.1068420122
0
LINE
5
3F2
100
AcDbEntity
8
0
100
AcDbLine
62
0
6
CONTINUOUS
10
-44.4303101999
20
0.1068420122
11
-44.6779290457
21
0.1068420122
0
LINE
5
3F3
100
AcDbEntity
8
0
100
AcDbLine
62
0
6
CONTINUOUS
10
-44.4303101999
20
0.0630424859
11
-44.6006034026
21
0.0681909704
0
LINE
5
3F4
100
AcDbEntity
8
0
100
AcDbLine
62
0
6
CONTINUOUS
10
44.6447453113
20
-2.3545069460
11
44.4744521086
21
-2.3493584615
0
LINE
5
3F5
100
AcDbEntity
8
0
100
AcDbLine
62
0
6
CONTINUOUS
10
44.6447453113
20
4.3181909704
11
44.4744521086
21
4.3130424859
0
LINE
5
3F6
100
AcDbEntity
8
0
100
AcDbLine
62
0
6
CONTINUOUS
10
-44.4303101999
20
1.9006415385
11
-44.6006034026
21
1.8954930540
0
LINE
5
3F7
100
AcDbEntity
8
0
100
AcDbLine
62
0
6
CONTINUOUS
10
-40.4386391014
20
0.4568420122
11
-36.4779290457
21
0.4568420122
0
LINE
5
3F8
100
AcDbEntity
8
0
100
AcDbLine
62
0
6
CONTINUOUS
10
31.2720709543
20
0.6436471471
11
31.7352658195
21
0.6436471471
0
LINE
5
3F9
100
AcDbEntity
8
0
100
AcDbLine
62
0
6
CONTINUOUS
10
33.3088760892
20
0.6436471471
11
33.7720709543
21
0.6436471471
0
LINE
5
3FA
100
AcDbEntity
8
0
100
AcDbLine
62
0
6
CONTINUOUS
10
33.7720709543
20
1.1068420122
11
33.3088760892
21
1.1068420122
0
LINE
5
3FB
100
AcDbEntity
8
0
100
AcDbLine
62
0
6
CONTINUOUS
10
31.7352658195
20
1.1068420122
11
31.2720709543
21
1.1068420122
0
LINE
5
3FC
100
AcDbEntity
8
0
100
AcDbLine
62
0
6
CONTINUOUS
10
-44.6779290457
20
1.8568420122
11
-44.4303101999
21
1.8568420122
0
LINE
5
3FD
100
AcDbEntity
8
0
100
AcDbLine
62
0
6
CONTINUOUS
10
44.4744521086
20
1.8568420122
11
44.7220709543
21
1.8568420122
0
LINE
5
3FE
100
AcDbEntity
8
0
100
AcDbLine
62
0
6
CONTINUOUS
10
31.2720709543
20
2.6436471471
11
31.7352658195
21
2.6436471471
0
LINE
5
3FF
100
AcDbEntity
8
0
100
AcDbLine
62
0
6
CONTINUOUS
10
33.3088760892
20
2.6436471471
11
33.7720709543
21
2.6436471471
0
LINE
5
400
100
AcDbEntity
8
0
100
AcDbLine
62
0
6
CONTINUOUS
10
33.7720709543
20
3.1068420122
11
33.3088760892
21
3.1068420122
0
LINE
5
401
100
AcDbEntity
8
0
100
AcDbLine
62
0
6
CONTINUOUS
10
31.7352658195
20
3.1068420122
11
31.2720709543
21
3.1068420122
0
LINE
5
402
100
AcDbEntity
8
0
100
AcDbLine
62
0
6
CONTINUOUS
10
-44.4303101999
20
4.3130424859
11
-44.6006034026
21
4.3181909704
0
LINE
5
403
100
AcDbEntity
8
0
100
AcDbLine
62
0
6
CONTINUOUS
10
44.6447453113
20
1.8954930540
11
44.4744521086
21
1.9006415385
0
LINE
5
404
100
AcDbEntity
8
0
100
AcDbLine
62
0
6
CONTINUOUS
10
-44.2544876352
20
23.6300502418
11
-44.3012252431
21
23.6534119258
0
LINE
5
405
100
AcDbEntity
8
0
100
AcDbLine
62
0
6
CONTINUOUS
10
-42.6826913541
20
23.6132043499
11
-42.6116310979
21
23.5776850470
0
LINE
5
406
100
AcDbEntity
8
0
100
AcDbLine
62
0
6
CONTINUOUS
10
-44.5267998494
20
6.2000895560
11
-44.4303101999
21
6.2030067333
0
LINE
5
407
100
AcDbEntity
8
0
100
AcDbLine
62
0
6
CONTINUOUS
10
44.7220709543
20
4.3568420122
11
44.4744521086
21
4.3568420122
0
LINE
5
408
100
AcDbEntity
8
0
100
AcDbLine
62
0
6
CONTINUOUS
10
-44.4303101999
20
4.3568420122
11
-44.6779290457
21
4.3568420122
0
LINE
5
409
100
AcDbEntity
8
0
100
AcDbLine
62
0
6
CONTINUOUS
10
31.2720709543
20
4.6436471471
11
31.7352658195
21
4.6436471471
0
LINE
5
40A
100
AcDbEntity
8
0
100
AcDbLine
62
0
6
CONTINUOUS
10
33.3088760892
20
4.6436471471
11
33.7720709543
21
4.6436471471
0
LINE
5
40B
100
AcDbEntity
8
0
100
AcDbLine
62
0
6
CONTINUOUS
10
33.7720709543
20
5.1068420122
11
33.3088760892
21
5.1068420122
0
LINE
5
40C
100
AcDbEntity
8
0
100
AcDbLine
62
0
6
CONTINUOUS
10
31.7352658195
20
5.1068420122
11
31.2720709543
21
5.1068420122
0
LINE
5
40D
100
AcDbEntity
8
0
100
AcDbLine
62
0
6
CONTINUOUS
10
45.6047682175
20
6.1068420122
11
44.4744521086
21
6.1068420122
0
LINE
5
40E
100
AcDbEntity
8
0
100
AcDbLine
62
0
6
CONTINUOUS
10
-44.4303101999
20
6.1068420122
11
-45.5606263088
21
6.1068420122
0
LINE
5
40F
100
AcDbEntity
8
0
100
AcDbLine
62
0
6
CONTINUOUS
10
-44.5255638509
20
6.3568420122
11
-44.4303101999
21
6.3568420122
0
LINE
5
410
100
AcDbEntity
8
0
100
AcDbLine
62
0
6
CONTINUOUS
10
44.5697057596
20
6.3568420122
11
44.4744521086
21
6.3568420122
0
LINE
5
411
100
AcDbEntity
8
0
100
AcDbLine
62
0
6
CONTINUOUS
10
31.2720709543
20
6.6436471471
11
31.7352658195
21
6.6436471471
0
LINE
5
412
100
AcDbEntity
8
0
100
AcDbLine
62
0
6
CONTINUOUS
10
33.3088760892
20
6.6436471471
11
33.7720709543
21
6.6436471471
0
LINE
5
413
100
AcDbEntity
8
0
100
AcDbLine
62
0
6
CONTINUOUS
10
33.7720709543
20
7.1068420122
11
33.3088760892
21
7.1068420122
0
LINE
5
414
100
AcDbEntity
8
0
100
AcDbLine
62
0
6
CONTINUOUS
10
31.7352658195
20
7.1068420122
11
31.2720709543
21
7.1068420122
0
LINE
5
415
100
AcDbEntity
8
0
100
AcDbLine
62
0
6
CONTINUOUS
10
44.4744521086
20
6.2030067333
11
44.5709417580
21
6.2000895560
0
LINE
5
416
100
AcDbEntity
8
0
100
AcDbLine
62
9
6
CONTINUOUS
10
43.3156407162
20
28.8993837490
11
43.4730989794
21
29.0568420122
0
LINE
5
417
100
AcDbEntity
8
0
100
AcDbLine
62
9
6
CONTINUOUS
10
43.4757599590
20
27.7602720986
11
43.5649026433
21
27.8494147829
0
LINE
5
418
100
AcDbEntity
8
0
100
AcDbLine
62
9
6
CONTINUOUS
10
42.7995433033
20
26.7334006017
11
42.8531431748
21
26.7870004732
0
LINE
5
419
100
AcDbEntity
8
0
100
AcDbLine
62
0
6
CONTINUOUS
10
31.2720709543
20
8.6436471471
11
31.7352658195
21
8.6436471471
0
LINE
5
41A
100
AcDbEntity
8
0
100
AcDbLine
62
0
6
CONTINUOUS
10
33.3088760892
20
8.6436471471
11
33.7720709543
21
8.6436471471
0
LINE
5
41B
100
AcDbEntity
8
0
100
AcDbLine
62
0
6
CONTINUOUS
10
33.7720709543
20
9.1068420122
11
33.3088760892
21
9.1068420122
0
LINE
5
41C
100
AcDbEntity
8
0
100
AcDbLine
62
0
6
CONTINUOUS
10
31.7352658195
20
9.1068420122
11
31.2720709543
21
9.1068420122
0
LINE
5
41D
100
AcDbEntity
8
0
100
AcDbLine
62
0
6
CONTINUOUS
10
31.2720709543
20
10.6436471471
11
31.7352658195
21
10.6436471471
0
LINE
5
41E
100
AcDbEntity
8
0
100
AcDbLine
62
0
6
CONTINUOUS
10
33.3088760892
20
10.6436471471
11
33.7720709543
21
10.6436471471
0
LINE
5
41F
100
AcDbEntity
8
0
100
AcDbLine
62
0
6
CONTINUOUS
10
33.7720709543
20
11.1068420122
11
33.3088760892
21
11.1068420122
0
LINE
5
420
100
AcDbEntity
8
0
100
AcDbLine
62
0
6
CONTINUOUS
10
31.7352658195
20
11.1068420122
11
31.2720709543
21
11.1068420122
0
LINE
5
421
100
AcDbEntity
8
0
100
AcDbLine
62
0
6
CONTINUOUS
10
-30.7279290457
20
26.8742970771
11
-30.6930133138
21
26.8568420122
0
LINE
5
422
100
AcDbEntity
8
0
100
AcDbLine
62
9
6
CONTINUOUS
10
42.9579054833
20
-29.1431579878
11
42.8344640728
21
-29.0197165773
0
LINE
5
423
100
AcDbEntity
8
0
100
AcDbLine
62
9
6
CONTINUOUS
10
41.6563821795
20
-27.3768600400
11
41.7274424358
21
-27.4479202963
0
LINE
5
424
100
AcDbEntity
8
0
100
AcDbLine
62
9
6
CONTINUOUS
10
41.6563821795
20
25.0905440644
11
41.7274424358
21
25.1616043207
0
LINE
5
425
100
AcDbEntity
8
0
100
AcDbLine
62
9
6
CONTINUOUS
10
42.6557730066
20
24.0911532374
11
42.7268332628
21
24.1622134937
0
LINE
5
426
100
AcDbEntity
8
0
100
AcDbLine
62
9
6
CONTINUOUS
10
34.5496443689
20
15.8816744962
11
35.0488896777
21
16.3809198050
0
LINE
5
427
100
AcDbEntity
8
0
100
AcDbLine
62
9
6
CONTINUOUS
10
44.2986295438
20
25.2343143612
11
44.3522294154
21
25.2879142327
0
LINE
5
428
100
AcDbEntity
8
0
100
AcDbLine
62
9
6
CONTINUOUS
10
45.1755010408
20
26.0605310168
11
45.2646437250
21
26.1496737011
0
LINE
5
429
100
AcDbEntity
8
0
100
AcDbLine
62
9
6
CONTINUOUS
10
46.3146126912
20
25.9004117741
11
46.4720709543
21
26.0578700373
0
LINE
5
42A
100
AcDbEntity
8
0
100
AcDbLine
62
0
6
CONTINUOUS
10
31.2720709543
20
12.6436471471
11
31.7352658195
21
12.6436471471
0
LINE
5
42B
100
AcDbEntity
8
0
100
AcDbLine
62
0
6
CONTINUOUS
10
33.3088760892
20
12.6436471471
11
33.7720709543
21
12.6436471471
0
LINE
5
42C
100
AcDbEntity
8
0
100
AcDbLine
62
0
6
CONTINUOUS
10
-15.9779290457
20
12.8568420122
11
-33.9779290457
21
12.8568420122
0
LINE
5
42D
100
AcDbEntity
8
0
100
AcDbLine
62
0
6
CONTINUOUS
10
33.7720709543
20
13.1068420122
11
33.3088760892
21
13.1068420122
0
LINE
5
42E
100
AcDbEntity
8
0
100
AcDbLine
62
0
6
CONTINUOUS
10
31.7352658195
20
13.1068420122
11
31.2720709543
21
13.1068420122
0
LINE
5
42F
100
AcDbEntity
8
0
100
AcDbLine
62
0
6
CONTINUOUS
10
34.5220709543
20
13.8568420122
11
30.5220709543
21
13.8568420122
0
LINE
5
430
100
AcDbEntity
8
0
100
AcDbLine
62
9
6
CONTINUOUS
10
28.9965532377
20
13.8844154267
11
28.4972384703
21
13.8844154267
0
LINE
5
431
100
AcDbEntity
8
0
100
AcDbLine
62
9
6
CONTINUOUS
10
36.0475886710
20
13.8844154267
11
36.5469034384
21
13.8844154268
0
LINE
5
432
100
AcDbEntity
8
0
100
AcDbLine
62
0
6
CONTINUOUS
10
34.5227561870
20
14.3568420122
11
30.5213857217
21
14.3568420122
0
LINE
5
433
100
AcDbEntity
8
0
100
AcDbLine
62
0
6
CONTINUOUS
10
44.7220709543
20
-6.6431579878
11
44.6447453113
21
-6.6045069460
0
LINE
5
434
100
AcDbEntity
8
0
100
AcDbLine
62
9
6
CONTINUOUS
10
42.6557730066
20
-26.3774692130
11
42.7268332628
21
-26.4485294693
0
LINE
5
435
100
AcDbEntity
8
0
100
AcDbLine
62
9
6
CONTINUOUS
10
34.5496443689
20
-18.1679904718
11
35.0488896777
21
-18.6672357806
0
LINE
5
436
100
AcDbEntity
8
0
100
AcDbLine
62
9
6
CONTINUOUS
10
44.4569917238
20
-27.6440717473
11
44.3335503133
21
-27.5206303368
0
LINE
5
437
100
AcDbEntity
8
0
100
AcDbLine
62
9
6
CONTINUOUS
10
36.5469034384
20
-16.1707314023
11
37.0461487472
21
-16.6699767111
0
LINE
5
438
100
AcDbEntity
8
0
100
AcDbLine
62
0
6
CONTINUOUS
10
44.5697057596
20
-23.8407927930
11
44.6049205223
21
-23.8760075558
0
LINE
5
439
100
AcDbEntity
8
0
100
AcDbLine
62
0
6
CONTINUOUS
10
34.0452791840
20
26.7334006017
11
34.0686408679
21
26.7801382096
0
LINE
5
43A
100
AcDbEntity
8
0
100
AcDbLine
62
9
6
CONTINUOUS
10
36.5469034384
20
13.8844154267
11
37.0461487472
21
14.3836607355
0
LINE
5
43B
100
AcDbEntity
8
0
100
AcDbLine
62
0
6
CONTINUOUS
10
44.5697057596
20
21.5544768174
11
44.6049205223
21
21.5896915802
0
LINE
5
43C
100
AcDbEntity
8
0
100
AcDbLine
62
0
6
CONTINUOUS
10
44.7220709543
20
4.3568420122
11
44.6447453113
21
4.3181909704
0
LINE
5
43D
100
AcDbEntity
8
0
100
AcDbLine
62
9
6
CONTINUOUS
10
34.5496443689
20
15.3823597288
11
30.4944975398
21
15.3823597288
0
LINE
5
43E
100
AcDbEntity
8
0
100
AcDbLine
62
9
6
CONTINUOUS
10
34.5496443689
20
15.8816744962
11
30.4944975398
21
15.8816744962
0
LINE
5
43F
100
AcDbEntity
8
0
100
AcDbLine
62
0
6
CONTINUOUS
10
32.1082509264
20
15.9616575708
11
32.9358909823
21
15.9616575708
0
LINE
5
440
100
AcDbEntity
8
0
100
AcDbLine
62
0
6
CONTINUOUS
10
35.0488896777
20
16.3809198050
11
33.2720709543
21
16.3809198050
0
LINE
5
441
100
AcDbEntity
8
0
100
AcDbLine
62
0
6
CONTINUOUS
10
31.7720709543
20
16.3809198050
11
29.9952522310
21
16.3809198050
0
LINE
5
442
100
AcDbEntity
8
0
100
AcDbLine
62
9
6
CONTINUOUS
10
31.9082813874
20
17.3670490989
11
33.1358605213
21
17.3670490989
0
LINE
5
443
100
AcDbEntity
8
0
100
AcDbLine
62
9
6
CONTINUOUS
10
32.9358909823
20
17.5667750058
11
32.1082509264
21
17.5667750058
0
LINE
5
444
100
AcDbEntity
8
0
100
AcDbLine
62
0
6
CONTINUOUS
10
33.0722231942
20
17.9761042465
11
31.9719187145
21
17.9761042465
0
LINE
5
445
100
AcDbEntity
8
0
100
AcDbLine
62
0
6
CONTINUOUS
10
44.7220709543
20
-2.3931579878
11
44.6447453113
21
-2.3545069460
0
LINE
5
446
100
AcDbEntity
8
0
100
AcDbLine
62
0
6
CONTINUOUS
10
34.0284332920
20
25.1616043207
11
33.9929139892
21
25.0905440644
0
LINE
5
447
100
AcDbEntity
8
0
100
AcDbLine
62
0
6
CONTINUOUS
10
44.7220709543
20
0.1068420122
11
44.6447453113
21
0.0681909704
0
LINE
5
448
100
AcDbEntity
8
0
100
AcDbLine
62
0
6
CONTINUOUS
10
44.4220709543
20
21.5090936486
11
44.5709417580
21
21.5135944684
0
LINE
5
449
100
AcDbEntity
8
0
100
AcDbLine
62
0
6
CONTINUOUS
10
-45.5606263088
20
21.6068420122
11
-44.3779290457
21
21.6068420122
0
LINE
5
44A
100
AcDbEntity
8
0
100
AcDbLine
62
0
6
CONTINUOUS
10
44.4220709543
20
21.6068420122
11
45.6047682175
21
21.6068420122
0
LINE
5
44B
100
AcDbEntity
8
0
100
AcDbLine
62
0
6
CONTINUOUS
10
-45.9281003832
20
22.3568420122
11
-44.3779290457
21
22.3568420122
0
LINE
5
44C
100
AcDbEntity
8
0
100
AcDbLine
62
0
6
CONTINUOUS
10
44.4220709543
20
22.3568420122
11
45.9722422919
21
22.3568420122
0
LINE
5
44D
100
AcDbEntity
8
0
100
AcDbLine
62
0
6
CONTINUOUS
10
-44.5267998494
20
21.5135944684
11
-44.3779290457
21
21.5090936486
0
LINE
5
44E
100
AcDbEntity
8
0
100
AcDbLine
62
0
6
CONTINUOUS
10
44.7220709543
20
1.8568420122
11
44.6447453113
21
1.8954930540
0
LINE
5
44F
100
AcDbEntity
8
0
100
AcDbLine
62
9
6
CONTINUOUS
10
32.9358909823
20
17.5667750058
11
33.0722231942
21
17.9761042465
0
LINE
5
450
100
AcDbEntity
8
0
100
AcDbLine
62
9
6
CONTINUOUS
10
33.1358605213
20
17.3670490989
11
33.2720709543
21
17.7760127056
0
LINE
5
451
100
AcDbEntity
8
0
100
AcDbLine
62
0
6
CONTINUOUS
10
44.7220709543
20
-4.1431579878
11
44.6447453113
21
-4.1818090296
0
LINE
5
452
100
AcDbEntity
8
0
100
AcDbLine
62
0
6
CONTINUOUS
10
-43.2900175776
20
22.4484927377
11
-42.6826913541
21
22.4484927377
0
LINE
5
453
100
AcDbEntity
8
0
100
AcDbLine
62
0
6
CONTINUOUS
10
43.3341594863
20
22.4484927377
11
42.7268332628
21
22.4484927377
0
LINE
5
454
100
AcDbEntity
8
0
100
AcDbLine
62
9
6
CONTINUOUS
10
45.8147840287
20
22.5143002754
11
42.5147179050
21
22.5143002754
0
LINE
5
455
100
AcDbEntity
8
0
100
AcDbLine
62
9
6
CONTINUOUS
10
-42.4705759964
20
22.5143002754
11
-45.7706421200
21
22.5143002754
0
LINE
5
456
100
AcDbEntity
8
0
100
AcDbLine
62
9
6
CONTINUOUS
10
41.6563821795
20
23.0141289379
11
46.3146126912
21
23.0141289379
0
LINE
5
457
100
AcDbEntity
8
0
100
AcDbLine
62
9
6
CONTINUOUS
10
-41.6122402708
20
23.0141289379
11
-46.2704707825
21
23.0141289379
0
LINE
5
458
100
AcDbEntity
8
0
100
AcDbLine
62
9
6
CONTINUOUS
10
-45.0205322773
20
23.3642997025
11
-41.6122402708
21
23.3642997025
0
LINE
5
459
100
AcDbEntity
8
0
100
AcDbLine
62
9
6
CONTINUOUS
10
41.6563821795
20
23.3642997025
11
45.0646741860
21
23.3642997025
0
LINE
5
45A
100
AcDbEntity
8
0
100
AcDbLine
62
9
6
CONTINUOUS
10
-45.0205322773
20
23.5642692415
11
-42.2075578722
21
23.5642692415
0
LINE
5
45B
100
AcDbEntity
8
0
100
AcDbLine
62
9
6
CONTINUOUS
10
42.2516997809
20
23.5642692415
11
45.0646741860
21
23.5642692415
0
LINE
5
45C
100
AcDbEntity
8
0
100
AcDbLine
62
0
6
CONTINUOUS
10
-43.2550968081
20
23.6132043499
11
-42.6826913541
21
23.6132043499
0
LINE
5
45D
100
AcDbEntity
8
0
100
AcDbLine
62
0
6
CONTINUOUS
10
43.2992387168
20
23.6132043499
11
42.7268332628
21
23.6132043499
0
LINE
5
45E
100
AcDbEntity
8
0
100
AcDbLine
62
9
6
CONTINUOUS
10
44.9755315017
20
23.6534119258
11
44.3453671518
21
23.6534119258
0
LINE
5
45F
100
AcDbEntity
8
0
100
AcDbLine
62
9
6
CONTINUOUS
10
-44.3012252431
20
23.6534119258
11
-44.9313895930
21
23.6534119258
0
LINE
5
460
100
AcDbEntity
8
0
100
AcDbLine
62
9
6
CONTINUOUS
10
45.4646132641
20
23.7642387805
11
45.2646437250
21
23.7642387805
0
LINE
5
461
100
AcDbEntity
8
0
100
AcDbLine
62
9
6
CONTINUOUS
10
-45.4204713554
20
23.7642387805
11
-45.2205018164
21
23.7642387805
0
LINE
5
462
100
AcDbEntity
8
0
100
AcDbLine
62
9
6
CONTINUOUS
10
44.3522294154
20
23.8533814648
11
45.1755010408
21
23.8533814648
0
LINE
5
463
100
AcDbEntity
8
0
100
AcDbLine
62
9
6
CONTINUOUS
10
-44.3080875067
20
23.8533814648
11
-45.1313591321
21
23.8533814648
0
LINE
5
464
100
AcDbEntity
8
0
100
AcDbLine
62
9
6
CONTINUOUS
10
33.4293578800
20
24.0911532374
11
-33.3852159713
21
24.0911532374
0
LINE
5
465
100
AcDbEntity
8
0
100
AcDbLine
62
9
6
CONTINUOUS
10
33.7795286446
20
24.0911532374
11
42.6557730066
21
24.0911532374
0
LINE
5
466
100
AcDbEntity
8
0
100
AcDbLine
62
9
6
CONTINUOUS
10
-33.7353867359
20
24.0911532374
11
-42.6116310979
21
24.0911532374
0
LINE
5
467
100
AcDbEntity
8
0
100
AcDbLine
62
9
6
CONTINUOUS
10
41.6563821795
20
25.0905440644
11
33.9929139892
21
25.0905440644
0
LINE
5
468
100
AcDbEntity
8
0
100
AcDbLine
62
9
6
CONTINUOUS
10
32.9170073985
20
25.0905440644
11
-32.8728654898
21
25.0905440644
0
LINE
5
469
100
AcDbEntity
8
0
100
AcDbLine
62
9
6
CONTINUOUS
10
-33.9487720805
20
25.0905440644
11
-41.6122402708
21
25.0905440644
0
LINE
5
46A
100
AcDbEntity
8
0
100
AcDbLine
62
0
6
CONTINUOUS
10
41.7274424358
20
25.1616043207
11
34.0284332920
21
25.1616043207
0
LINE
5
46B
100
AcDbEntity
8
0
100
AcDbLine
62
0
6
CONTINUOUS
10
32.8637216798
20
25.1616043207
11
-32.8195797711
21
25.1616043207
0
LINE
5
46C
100
AcDbEntity
8
0
100
AcDbLine
62
0
6
CONTINUOUS
10
-33.9842913833
20
25.1616043207
11
-41.6833005271
21
25.1616043207
0
LINE
5
46D
100
AcDbEntity
8
0
100
AcDbLine
62
9
6
CONTINUOUS
10
-44.2544876352
20
25.2343143612
11
-43.2550968081
21
25.2343143612
0
LINE
5
46E
100
AcDbEntity
8
0
100
AcDbLine
62
9
6
CONTINUOUS
10
44.2986295438
20
25.2343143612
11
43.2992387168
21
25.2343143612
0
LINE
5
46F
100
AcDbEntity
8
0
100
AcDbLine
62
9
6
CONTINUOUS
10
-42.7554013946
20
25.7340097747
11
-33.9842913833
21
25.7340097747
0
LINE
5
470
100
AcDbEntity
8
0
100
AcDbLine
62
9
6
CONTINUOUS
10
-32.8195797711
20
25.7340097747
11
32.8637216798
21
25.7340097747
0
LINE
5
471
100
AcDbEntity
8
0
100
AcDbLine
62
9
6
CONTINUOUS
10
34.0284332920
20
25.7340097747
11
42.7995433033
21
25.7340097747
0
LINE
5
472
100
AcDbEntity
8
0
100
AcDbLine
62
9
6
CONTINUOUS
10
45.8147840287
20
25.9004117741
11
46.3146126912
21
25.9004117741
0
LINE
5
473
100
AcDbEntity
8
0
100
AcDbLine
62
9
6
CONTINUOUS
10
-45.7706421200
20
25.9004117741
11
-46.2704707825
21
25.9004117741
0
LINE
5
474
100
AcDbEntity
8
0
100
AcDbLine
62
0
6
CONTINUOUS
10
27.9979931615
20
14.3836607355
11
27.9979931615
21
-16.6699767111
0
LINE
5
475
100
AcDbEntity
8
0
100
AcDbLine
62
9
6
CONTINUOUS
10
28.4972384703
20
13.8844154267
11
28.4972384703
21
-16.1707314023
0
LINE
5
476
100
AcDbEntity
8
0
100
AcDbLine
62
9
6
CONTINUOUS
10
28.9965532377
20
13.8844154267
11
28.9965532377
21
-16.1707314023
0
LINE
5
477
100
AcDbEntity
8
0
100
AcDbLine
62
0
6
CONTINUOUS
10
33.2720709543
20
16.3809198050
11
33.1358605213
21
15.9719561982
0
LINE
5
478
100
AcDbEntity
8
0
100
AcDbLine
62
9
6
CONTINUOUS
10
44.9755315017
20
26.0605310168
11
45.1755010408
21
26.0605310168
0
LINE
5
479
100
AcDbEntity
8
0
100
AcDbLine
62
9
6
CONTINUOUS
10
-44.9313895930
20
26.0605310168
11
-45.1313591321
21
26.0605310168
0
LINE
5
47A
100
AcDbEntity
8
0
100
AcDbLine
62
9
6
CONTINUOUS
10
45.4646132641
20
26.1496737011
11
45.2646437250
21
26.1496737011
0
LINE
5
47B
100
AcDbEntity
8
0
100
AcDbLine
62
9
6
CONTINUOUS
10
-45.4204713554
20
26.1496737011
11
-45.2205018164
21
26.1496737050
0
LINE
5
47C
100
AcDbEntity
8
0
100
AcDbLine
62
9
6
CONTINUOUS
10
-42.7554013946
20
26.7334006017
11
-34.0011372753
21
26.7334006017
0
LINE
5
47D
100
AcDbEntity
8
0
100
AcDbLine
62
9
6
CONTINUOUS
10
-32.7943077251
20
26.7334006017
11
32.8384496338
21
26.7334006017
0
LINE
5
47E
100
AcDbEntity
8
0
100
AcDbLine
62
9
6
CONTINUOUS
10
34.0452791840
20
26.7334006017
11
42.7995433033
21
26.7334006017
0
LINE
5
47F
100
AcDbEntity
8
0
100
AcDbLine
62
0
6
CONTINUOUS
10
42.8531431748
20
26.7870004732
11
34.2686104070
21
26.7870004732
0
LINE
5
480
100
AcDbEntity
8
0
100
AcDbLine
62
0
6
CONTINUOUS
10
-34.2244684983
20
26.7870004732
11
-42.8090012661
21
26.7870004732
0
LINE
5
481
100
AcDbEntity
8
0
100
AcDbLine
62
0
6
CONTINUOUS
10
-32.7279290457
20
26.8219212427
11
-30.7279290457
21
26.8219212427
0
LINE
5
482
100
AcDbEntity
8
0
100
AcDbLine
62
0
6
CONTINUOUS
10
30.7720709543
20
26.8219212427
11
32.7720709543
21
26.8219212427
0
LINE
5
483
100
AcDbEntity
8
0
100
AcDbLine
62
0
6
CONTINUOUS
10
-30.6930133138
20
26.8568420122
11
30.7371552225
21
26.8568420122
0
LINE
5
484
100
AcDbEntity
8
0
100
AcDbLine
62
0
6
CONTINUOUS
10
-32.7279290457
20
26.8742970771
11
-30.7279290457
21
26.8742970771
0
LINE
5
485
100
AcDbEntity
8
0
100
AcDbLine
62
0
6
CONTINUOUS
10
30.7720709543
20
26.8742970771
11
32.7720709543
21
26.8742970771
0
LINE
5
486
100
AcDbEntity
8
0
100
AcDbLine
62
9
6
CONTINUOUS
10
-43.4316180503
20
27.5603025596
11
-34.0244989592
21
27.5603025596
0
LINE
5
487
100
AcDbEntity
8
0
100
AcDbLine
62
9
6
CONTINUOUS
10
34.0686408679
20
27.5603025596
11
43.4757599590
21
27.5603025596
0
LINE
5
488
100
AcDbEntity
8
0
100
AcDbLine
62
9
6
CONTINUOUS
10
-33.9353562750
20
27.6494452440
11
-33.7353867359
21
27.6494452441
0
LINE
5
489
100
AcDbEntity
8
0
100
AcDbLine
62
9
6
CONTINUOUS
10
33.9794981836
20
27.6494452440
11
33.7795286446
21
27.6494452441
0
LINE
5
48A
100
AcDbEntity
8
0
100
AcDbLine
62
9
6
CONTINUOUS
10
-43.4316180503
20
27.7602720986
11
-34.2244684983
21
27.7602720986
0
LINE
5
48B
100
AcDbEntity
8
0
100
AcDbLine
62
9
6
CONTINUOUS
10
34.2686104070
20
27.7602720986
11
43.4757599590
21
27.7602720986
0
LINE
5
48C
100
AcDbEntity
8
0
100
AcDbLine
62
9
6
CONTINUOUS
10
-43.5207607346
20
27.8494147829
11
-34.1353258140
21
27.8494147829
0
LINE
5
48D
100
AcDbEntity
8
0
100
AcDbLine
62
9
6
CONTINUOUS
10
34.1794677227
20
27.8494147829
11
43.5649026433
21
27.8494147829
0
LINE
5
48E
100
AcDbEntity
8
0
100
AcDbLine
62
9
6
CONTINUOUS
10
-43.5207607346
20
28.0493843219
11
-34.1353258140
21
28.0493843219
0
LINE
5
48F
100
AcDbEntity
8
0
100
AcDbLine
62
9
6
CONTINUOUS
10
34.1794677227
20
28.0493843219
11
43.5649026433
21
28.0493843219
0
LINE
5
490
100
AcDbEntity
8
0
100
AcDbLine
62
9
6
CONTINUOUS
10
32.9295292175
20
28.3995550865
11
43.3156407162
21
28.3995550865
0
LINE
5
491
100
AcDbEntity
8
0
100
AcDbLine
62
9
6
CONTINUOUS
10
-32.8853873088
20
28.3995550865
11
-43.2714988076
21
28.3995550865
0
LINE
5
492
100
AcDbEntity
8
0
100
AcDbLine
62
9
6
CONTINUOUS
10
43.3156407162
20
28.8993837490
11
33.4293578800
21
28.8993837490
0
LINE
5
493
100
AcDbEntity
8
0
100
AcDbLine
62
9
6
CONTINUOUS
10
-33.3852159713
20
28.8993837490
11
-43.2714988076
21
28.8993837490
0
LINE
5
494
100
AcDbEntity
8
0
100
AcDbLine
62
0
6
CONTINUOUS
10
43.4730989794
20
29.0568420122
11
33.2718996168
21
29.0568420122
0
LINE
5
495
100
AcDbEntity
8
0
100
AcDbLine
62
0
6
CONTINUOUS
10
-33.2277577081
20
29.0568420122
11
-43.4289570707
21
29.0568420122
0
LINE
5
496
100
AcDbEntity
8
0
100
AcDbLine
62
0
6
CONTINUOUS
10
30.0220709543
20
13.8575272448
11
30.0220709543
21
-16.1438432204
0
LINE
5
497
100
AcDbEntity
8
0
100
AcDbLine
62
9
6
CONTINUOUS
10
30.4944975398
20
-17.6686757044
11
30.4944975398
21
-18.1679904718
0
LINE
5
498
100
AcDbEntity
8
0
100
AcDbLine
62
9
6
CONTINUOUS
10
30.4944975398
20
15.3823597288
11
30.4944975398
21
15.8816744962
0
LINE
5
499
100
AcDbEntity
8
0
100
AcDbLine
62
0
6
CONTINUOUS
10
30.5220709543
20
13.8568420122
11
30.5220709543
21
-16.1431579878
0
LINE
5
49A
100
AcDbEntity
8
0
100
AcDbLine
62
0
6
CONTINUOUS
10
30.7720709543
20
26.8219212427
11
30.7720709543
21
26.8742970771
0
LINE
5
49B
100
AcDbEntity
8
0
100
AcDbLine
62
0
6
CONTINUOUS
10
31.2720709543
20
13.1068420122
11
31.2720709543
21
12.6436471471
0
LINE
5
49C
100
AcDbEntity
8
0
100
AcDbLine
62
0
6
CONTINUOUS
10
31.2720709543
20
11.1068420122
11
31.2720709543
21
10.6436471471
0
LINE
5
49D
100
AcDbEntity
8
0
100
AcDbLine
62
0
6
CONTINUOUS
10
31.2720709543
20
9.1068420122
11
31.2720709543
21
8.6436471471
0
LINE
5
49E
100
AcDbEntity
8
0
100
AcDbLine
62
0
6
CONTINUOUS
10
31.2720709543
20
7.1068420122
11
31.2720709543
21
6.6436471471
0
LINE
5
49F
100
AcDbEntity
8
0
100
AcDbLine
62
0
6
CONTINUOUS
10
31.2720709543
20
5.1068420122
11
31.2720709543
21
4.6436471471
0
LINE
5
4A0
100
AcDbEntity
8
0
100
AcDbLine
62
0
6
CONTINUOUS
10
31.2720709543
20
3.1068420122
11
31.2720709543
21
2.6436471471
0
LINE
5
4A1
100
AcDbEntity
8
0
100
AcDbLine
62
0
6
CONTINUOUS
10
31.2720709543
20
1.1068420122
11
31.2720709543
21
0.6436471471
0
LINE
5
4A2
100
AcDbEntity
8
0
100
AcDbLine
62
0
6
CONTINUOUS
10
31.2720709543
20
-0.8931579878
11
31.2720709543
21
-1.3563528529
0
LINE
5
4A3
100
AcDbEntity
8
0
100
AcDbLine
62
0
6
CONTINUOUS
10
31.2720709543
20
-2.8931579878
11
31.2720709543
21
-3.3563528529
0
LINE
5
4A4
100
AcDbEntity
8
0
100
AcDbLine
62
0
6
CONTINUOUS
10
31.2720709543
20
-4.8931579878
11
31.2720709543
21
-5.3563528529
0
LINE
5
4A5
100
AcDbEntity
8
0
100
AcDbLine
62
0
6
CONTINUOUS
10
31.2720709543
20
-6.8931579878
11
31.2720709543
21
-7.3563528529
0
LINE
5
4A6
100
AcDbEntity
8
0
100
AcDbLine
62
0
6
CONTINUOUS
10
31.2720709543
20
-8.8931579878
11
31.2720709543
21
-9.3563528529
0
LINE
5
4A7
100
AcDbEntity
8
0
100
AcDbLine
62
0
6
CONTINUOUS
10
31.2720709543
20
-10.8931579878
11
31.2720709543
21
-11.3563528529
0
LINE
5
4A8
100
AcDbEntity
8
0
100
AcDbLine
62
0
6
CONTINUOUS
10
31.2720709543
20
-12.8931579878
11
31.2720709543
21
-13.3563528529
0
LINE
5
4A9
100
AcDbEntity
8
0
100
AcDbLine
62
0
6
CONTINUOUS
10
31.2720709543
20
-14.8931579878
11
31.2720709543
21
-15.3563528529
0
LINE
5
4AA
100
AcDbEntity
8
0
100
AcDbLine
62
0
6
CONTINUOUS
10
31.7352658195
20
-15.3563528529
11
31.7352658195
21
-14.8931579878
0
LINE
5
4AB
100
AcDbEntity
8
0
100
AcDbLine
62
0
6
CONTINUOUS
10
31.7352658195
20
-13.3563528529
11
31.7352658195
21
-12.8931579878
0
LINE
5
4AC
100
AcDbEntity
8
0
100
AcDbLine
62
0
6
CONTINUOUS
10
31.7352658195
20
-11.3563528529
11
31.7352658195
21
-10.8931579878
0
LINE
5
4AD
100
AcDbEntity
8
0
100
AcDbLine
62
0
6
CONTINUOUS
10
31.7352658195
20
-9.3563528529
11
31.7352658195
21
-8.8931579878
0
LINE
5
4AE
100
AcDbEntity
8
0
100
AcDbLine
62
0
6
CONTINUOUS
10
31.7352658195
20
-7.3563528529
11
31.7352658195
21
-6.8931579878
0
LINE
5
4AF
100
AcDbEntity
8
0
100
AcDbLine
62
0
6
CONTINUOUS
10
31.7352658195
20
-5.3563528529
11
31.7352658195
21
-4.8931579878
0
LINE
5
4B0
100
AcDbEntity
8
0
100
AcDbLine
62
0
6
CONTINUOUS
10
31.7352658195
20
-3.3563528529
11
31.7352658195
21
-2.8931579878
0
LINE
5
4B1
100
AcDbEntity
8
0
100
AcDbLine
62
0
6
CONTINUOUS
10
31.7352658195
20
-1.3563528529
11
31.7352658195
21
-0.8931579878
0
LINE
5
4B2
100
AcDbEntity
8
0
100
AcDbLine
62
0
6
CONTINUOUS
10
31.7352658195
20
0.6436471471
11
31.7352658195
21
1.1068420122
0
LINE
5
4B3
100
AcDbEntity
8
0
100
AcDbLine
62
0
6
CONTINUOUS
10
31.7352658195
20
2.6436471471
11
31.7352658195
21
3.1068420122
0
LINE
5
4B4
100
AcDbEntity
8
0
100
AcDbLine
62
0
6
CONTINUOUS
10
31.7352658195
20
4.6436471471
11
31.7352658195
21
5.1068420122
0
LINE
5
4B5
100
AcDbEntity
8
0
100
AcDbLine
62
0
6
CONTINUOUS
10
31.7352658195
20
6.6436471471
11
31.7352658195
21
7.1068420122
0
LINE
5
4B6
100
AcDbEntity
8
0
100
AcDbLine
62
0
6
CONTINUOUS
10
31.7352658195
20
8.6436471471
11
31.7352658195
21
9.1068420122
0
LINE
5
4B7
100
AcDbEntity
8
0
100
AcDbLine
62
0
6
CONTINUOUS
10
31.7352658195
20
10.6436471471
11
31.7352658195
21
11.1068420122
0
LINE
5
4B8
100
AcDbEntity
8
0
100
AcDbLine
62
0
6
CONTINUOUS
10
31.7352658195
20
12.6436471471
11
31.7352658195
21
13.1068420122
0
LINE
5
4B9
100
AcDbEntity
8
0
100
AcDbLine
62
0
6
CONTINUOUS
10
31.7720709543
20
17.7760127056
11
31.7720709543
21
16.3809198050
0
LINE
5
4BA
100
AcDbEntity
8
0
100
AcDbLine
62
9
6
CONTINUOUS
10
31.9082813874
20
17.3670490989
11
31.9082813874
21
15.9719561982
0
LINE
5
4BB
100
AcDbEntity
8
0
100
AcDbLine
62
9
6
CONTINUOUS
10
32.1082509264
20
15.9616575708
11
32.1082509264
21
17.5667750058
0
LINE
5
4BC
100
AcDbEntity
8
0
100
AcDbLine
62
0
6
CONTINUOUS
10
32.7720709543
20
26.8219212427
11
32.7720709543
21
28.5570133497
0
LINE
5
4BD
100
AcDbEntity
8
0
100
AcDbLine
62
0
6
CONTINUOUS
10
32.8637216798
20
25.7340097747
11
32.8637216798
21
25.1616043207
0
LINE
5
4BE
100
AcDbEntity
8
0
100
AcDbLine
62
9
6
CONTINUOUS
10
32.9295292175
20
24.9494889629
11
32.9295292175
21
28.3995550865
0
LINE
5
4BF
100
AcDbEntity
8
0
100
AcDbLine
62
9
6
CONTINUOUS
10
32.9358909823
20
15.9616575708
11
32.9358909823
21
17.5667750058
0
LINE
5
4C0
100
AcDbEntity
8
0
100
AcDbLine
62
9
6
CONTINUOUS
10
33.1358605213
20
15.9719561982
11
33.1358605213
21
17.3670490989
0
LINE
5
4C1
100
AcDbEntity
8
0
100
AcDbLine
62
0
6
CONTINUOUS
10
33.2720709543
20
16.3809198050
11
33.2720709543
21
17.7760127056
0
LINE
5
4C2
100
AcDbEntity
8
0
100
AcDbLine
62
0
6
CONTINUOUS
10
33.3088760892
20
13.1068420122
11
33.3088760892
21
12.6436471471
0
LINE
5
4C3
100
AcDbEntity
8
0
100
AcDbLine
62
0
6
CONTINUOUS
10
33.3088760892
20
11.1068420122
11
33.3088760892
21
10.6436471471
0
LINE
5
4C4
100
AcDbEntity
8
0
100
AcDbLine
62
0
6
CONTINUOUS
10
33.3088760892
20
9.1068420122
11
33.3088760892
21
8.6436471471
0
LINE
5
4C5
100
AcDbEntity
8
0
100
AcDbLine
62
0
6
CONTINUOUS
10
33.3088760892
20
7.1068420122
11
33.3088760892
21
6.6436471471
0
LINE
5
4C6
100
AcDbEntity
8
0
100
AcDbLine
62
0
6
CONTINUOUS
10
33.3088760892
20
5.1068420122
11
33.3088760892
21
4.6436471471
0
LINE
5
4C7
100
AcDbEntity
8
0
100
AcDbLine
62
0
6
CONTINUOUS
10
33.3088760892
20
3.1068420122
11
33.3088760892
21
2.6436471471
0
LINE
5
4C8
100
AcDbEntity
8
0
100
AcDbLine
62
0
6
CONTINUOUS
10
33.3088760892
20
1.1068420122
11
33.3088760892
21
0.6436471471
0
LINE
5
4C9
100
AcDbEntity
8
0
100
AcDbLine
62
0
6
CONTINUOUS
10
33.3088760892
20
-0.8931579878
11
33.3088760892
21
-1.3563528529
0
LINE
5
4CA
100
AcDbEntity
8
0
100
AcDbLine
62
0
6
CONTINUOUS
10
33.3088760892
20
-2.8931579878
11
33.3088760892
21
-3.3563528529
0
LINE
5
4CB
100
AcDbEntity
8
0
100
AcDbLine
62
0
6
CONTINUOUS
10
33.3088760892
20
-4.8931579878
11
33.3088760892
21
-5.3563528529
0
LINE
5
4CC
100
AcDbEntity
8
0
100
AcDbLine
62
0
6
CONTINUOUS
10
33.3088760892
20
-6.8931579878
11
33.3088760892
21
-7.3563528529
0
LINE
5
4CD
100
AcDbEntity
8
0
100
AcDbLine
62
0
6
CONTINUOUS
10
33.3088760892
20
-8.8931579878
11
33.3088760892
21
-9.3563528529
0
LINE
5
4CE
100
AcDbEntity
8
0
100
AcDbLine
62
0
6
CONTINUOUS
10
33.3088760892
20
-10.8931579878
11
33.3088760892
21
-11.3563528529
0
LINE
5
4CF
100
AcDbEntity
8
0
100
AcDbLine
62
0
6
CONTINUOUS
10
33.3088760892
20
-12.8931579878
11
33.3088760892
21
-13.3563528529
0
LINE
5
4D0
100
AcDbEntity
8
0
100
AcDbLine
62
0
6
CONTINUOUS
10
33.3088760892
20
-14.8931579878
11
33.3088760892
21
-15.3563528529
0
LINE
5
4D1
100
AcDbEntity
8
0
100
AcDbLine
62
9
6
CONTINUOUS
10
28.4972384703
20
-16.1707314023
11
27.9979931615
21
-16.6699767111
0
LINE
5
4D2
100
AcDbEntity
8
0
100
AcDbLine
62
9
6
CONTINUOUS
10
28.4972384703
20
13.8844154267
11
27.9979931615
21
14.3836607355
0
LINE
5
4D3
100
AcDbEntity
8
0
100
AcDbLine
62
9
6
CONTINUOUS
10
30.4944975398
20
15.8816744962
11
29.9952522310
21
16.3809198050
0
LINE
5
4D4
100
AcDbEntity
8
0
100
AcDbLine
62
9
6
CONTINUOUS
10
33.4293578800
20
24.0911532374
11
33.4293578800
21
28.8993837490
0
LINE
5
4D5
100
AcDbEntity
8
0
100
AcDbLine
62
0
6
CONTINUOUS
10
33.7720709543
20
-15.3563528529
11
33.7720709543
21
-14.8931579878
0
LINE
5
4D6
100
AcDbEntity
8
0
100
AcDbLine
62
0
6
CONTINUOUS
10
33.7720709543
20
-13.3563528529
11
33.7720709543
21
-12.8931579878
0
LINE
5
4D7
100
AcDbEntity
8
0
100
AcDbLine
62
0
6
CONTINUOUS
10
33.7720709543
20
-11.3563528529
11
33.7720709543
21
-10.8931579878
0
LINE
5
4D8
100
AcDbEntity
8
0
100
AcDbLine
62
0
6
CONTINUOUS
10
33.7720709543
20
-9.3563528529
11
33.7720709543
21
-8.8931579878
0
LINE
5
4D9
100
AcDbEntity
8
0
100
AcDbLine
62
0
6
CONTINUOUS
10
33.7720709543
20
-7.3563528529
11
33.7720709543
21
-6.8931579878
0
LINE
5
4DA
100
AcDbEntity
8
0
100
AcDbLine
62
0
6
CONTINUOUS
10
33.7720709543
20
-5.3563528529
11
33.7720709543
21
-4.8931579878
0
LINE
5
4DB
100
AcDbEntity
8
0
100
AcDbLine
62
0
6
CONTINUOUS
10
33.7720709543
20
-3.3563528529
11
33.7720709543
21
-2.8931579878
0
LINE
5
4DC
100
AcDbEntity
8
0
100
AcDbLine
62
0
6
CONTINUOUS
10
33.7720709543
20
-1.3563528529
11
33.7720709543
21
-0.8931579878
0
LINE
5
4DD
100
AcDbEntity
8
0
100
AcDbLine
62
0
6
CONTINUOUS
10
33.7720709543
20
0.6436471471
11
33.7720709543
21
1.1068420122
0
LINE
5
4DE
100
AcDbEntity
8
0
100
AcDbLine
62
0
6
CONTINUOUS
10
33.7720709543
20
2.6436471471
11
33.7720709543
21
3.1068420122
0
LINE
5
4DF
100
AcDbEntity
8
0
100
AcDbLine
62
0
6
CONTINUOUS
10
33.7720709543
20
4.6436471471
11
33.7720709543
21
5.1068420122
0
LINE
5
4E0
100
AcDbEntity
8
0
100
AcDbLine
62
0
6
CONTINUOUS
10
33.7720709543
20
6.6436471471
11
33.7720709543
21
7.1068420122
0
LINE
5
4E1
100
AcDbEntity
8
0
100
AcDbLine
62
0
6
CONTINUOUS
10
33.7720709543
20
8.6436471471
11
33.7720709543
21
9.1068420122
0
LINE
5
4E2
100
AcDbEntity
8
0
100
AcDbLine
62
0
6
CONTINUOUS
10
33.7720709543
20
10.6436471471
11
33.7720709543
21
11.1068420122
0
LINE
5
4E3
100
AcDbEntity
8
0
100
AcDbLine
62
0
6
CONTINUOUS
10
33.7720709543
20
12.6436471471
11
33.7720709543
21
13.1068420122
0
LINE
5
4E4
100
AcDbEntity
8
0
100
AcDbLine
62
9
6
CONTINUOUS
10
33.7795286446
20
27.6494452439
11
33.7795286446
21
24.0911532374
0
LINE
5
4E5
100
AcDbEntity
8
0
100
AcDbLine
62
9
6
CONTINUOUS
10
33.9794981836
20
27.6494452439
11
33.9794981836
21
24.6864708387
0
LINE
5
4E6
100
AcDbEntity
8
0
100
AcDbLine
62
0
6
CONTINUOUS
10
34.0284332920
20
25.7340097747
11
34.0284332920
21
25.1616043207
0
LINE
5
4E7
100
AcDbEntity
8
0
100
AcDbLine
62
9
6
CONTINUOUS
10
34.0686408679
20
26.7801382096
11
34.0686408679
21
27.5603025596
0
LINE
5
4E8
100
AcDbEntity
8
0
100
AcDbLine
62
9
6
CONTINUOUS
10
34.1794677227
20
28.0493843219
11
34.1794677227
21
27.8494147829
0
LINE
5
4E9
100
AcDbEntity
8
0
100
AcDbLine
62
9
6
CONTINUOUS
10
34.2686104070
20
26.7870004732
11
34.2686104070
21
27.7602720986
0
LINE
5
4EA
100
AcDbEntity
8
0
100
AcDbLine
62
0
6
CONTINUOUS
10
34.5220709543
20
-16.1431579878
11
34.5220709543
21
13.8568420122
0
LINE
5
4EB
100
AcDbEntity
8
0
100
AcDbLine
62
9
6
CONTINUOUS
10
34.5496443689
20
-17.6686757044
11
34.5496443689
21
-18.1679904718
0
LINE
5
4EC
100
AcDbEntity
8
0
100
AcDbLine
62
9
6
CONTINUOUS
10
34.5496443689
20
15.3823597288
11
34.5496443689
21
15.8816744962
0
LINE
5
4ED
100
AcDbEntity
8
0
100
AcDbLine
62
0
6
CONTINUOUS
10
35.0220709543
20
-16.1438432204
11
35.0220709543
21
13.8575272448
0
LINE
5
4EE
100
AcDbEntity
8
0
100
AcDbLine
62
9
6
CONTINUOUS
10
36.0475886710
20
-16.1707314023
11
36.0475886710
21
13.8844154267
0
LINE
5
4EF
100
AcDbEntity
8
0
100
AcDbLine
62
9
6
CONTINUOUS
10
36.5469034384
20
-16.1707314023
11
36.5469034384
21
13.8844154267
0
LINE
5
4F0
100
AcDbEntity
8
0
100
AcDbLine
62
0
6
CONTINUOUS
10
37.0461487472
20
-16.6699767111
11
37.0461487472
21
14.3836607355
0
LINE
5
4F1
100
AcDbEntity
8
0
100
AcDbLine
62
9
6
CONTINUOUS
10
30.4944975398
20
-18.1679904718
11
29.9952522310
21
-18.6672357806
0
LINE
5
4F2
100
AcDbEntity
8
0
100
AcDbLine
62
0
6
CONTINUOUS
10
44.5697057596
20
6.1592072070
11
44.6049205223
21
6.1239924442
0
LINE
5
4F3
100
AcDbEntity
8
0
100
AcDbLine
62
0
6
CONTINUOUS
10
31.7720709543
20
16.3809198050
11
31.9082813874
21
15.9719561982
0
LINE
5
4F4
100
AcDbEntity
8
0
100
AcDbLine
62
9
6
CONTINUOUS
10
31.9082813874
20
17.3670490989
11
31.7720709543
21
17.7760127056
0
LINE
5
4F5
100
AcDbEntity
8
0
100
AcDbLine
62
9
6
CONTINUOUS
10
32.1082509264
20
17.5667750058
11
31.9719187145
21
17.9761042465
0
LINE
5
4F6
100
AcDbEntity
8
0
100
AcDbLine
62
0
6
CONTINUOUS
10
44.5697057596
20
-8.4455231826
11
44.6049205223
21
-8.4103084198
0
LINE
5
4F7
100
AcDbEntity
8
0
100
AcDbLine
62
0
6
CONTINUOUS
10
44.5697057596
20
21.3005021652
11
44.4220709543
21
21.3742970771
0
LINE
5
4F8
100
AcDbEntity
8
0
100
AcDbLine
62
9
6
CONTINUOUS
10
41.6563821795
20
-27.3768600400
11
41.6563821795
21
23.0141289379
0
LINE
5
4F9
100
AcDbEntity
8
0
100
AcDbLine
62
9
6
CONTINUOUS
10
41.6563821795
20
23.3642997025
11
41.6563821795
21
25.0905440644
0
LINE
5
4FA
100
AcDbEntity
8
0
100
AcDbLine
62
9
6
CONTINUOUS
10
42.6557730066
20
-26.3774692130
11
42.6557730066
21
22.5017784563
0
LINE
5
4FB
100
AcDbEntity
8
0
100
AcDbLine
62
9
6
CONTINUOUS
10
42.6557730066
20
23.5776850470
11
42.6557730066
21
24.0911532374
0
LINE
5
4FC
100
AcDbEntity
8
0
100
AcDbLine
62
0
6
CONTINUOUS
10
42.7268332628
20
-26.4485294693
11
42.7268332628
21
22.4484927377
0
LINE
5
4FD
100
AcDbEntity
8
0
100
AcDbLine
62
0
6
CONTINUOUS
10
42.7268332628
20
23.6132043499
11
42.7268332628
21
24.1622134937
0
LINE
5
4FE
100
AcDbEntity
8
0
100
AcDbLine
62
9
6
CONTINUOUS
10
42.7995433033
20
26.7334006017
11
42.7995433033
21
25.7340097747
0
LINE
5
4FF
100
AcDbEntity
8
0
100
AcDbLine
62
9
6
CONTINUOUS
10
42.8344640728
20
-29.0197165773
11
42.8344640728
21
-28.0203257503
0
LINE
5
500
100
AcDbEntity
8
0
100
AcDbLine
62
9
6
CONTINUOUS
10
43.2992387168
20
25.2343143612
11
43.2992387168
21
23.6132043499
0
LINE
5
501
100
AcDbEntity
8
0
100
AcDbLine
62
9
6
CONTINUOUS
10
43.3156407162
20
28.3995550865
11
43.3156407162
21
28.8993837490
0
LINE
5
502
100
AcDbEntity
8
0
100
AcDbLine
62
9
6
CONTINUOUS
10
43.3341594863
20
22.4484927377
11
43.3341594863
21
-27.5206303368
0
LINE
5
503
100
AcDbEntity
8
0
100
AcDbLine
62
9
6
CONTINUOUS
10
43.4757599590
20
27.5603025596
11
43.4757599590
21
27.7602720986
0
LINE
5
504
100
AcDbEntity
8
0
100
AcDbLine
62
9
6
CONTINUOUS
10
43.5649026433
20
28.0493843219
11
43.5649026471
21
27.8494147829
0
LINE
5
505
100
AcDbEntity
8
0
100
AcDbLine
62
9
6
CONTINUOUS
10
44.2986295438
20
25.2343143612
11
44.2986295438
21
23.6300502418
0
LINE
5
506
100
AcDbEntity
8
0
100
AcDbLine
62
9
6
CONTINUOUS
10
44.3335503133
20
22.4232206916
11
44.3335503133
21
-27.5206303368
0
LINE
5
507
100
AcDbEntity
8
0
100
AcDbLine
62
0
6
CONTINUOUS
10
44.3522294154
20
23.8533814648
11
44.3522294154
21
25.2879142327
0
LINE
5
508
100
AcDbEntity
8
0
100
AcDbLine
62
0
6
CONTINUOUS
10
44.4569917238
20
-23.6431579878
11
44.5697057596
21
-23.5868181408
0
LINE
5
509
100
AcDbEntity
8
0
100
AcDbLine
62
0
6
CONTINUOUS
10
42.7268332628
20
22.4484927377
11
42.6557730066
21
22.5017784563
0
LINE
5
50A
100
AcDbEntity
8
0
100
AcDbLine
62
9
6
CONTINUOUS
10
32.9295292175
20
28.3995550865
11
32.7720709543
21
28.5570133497
0
LINE
5
50B
100
AcDbEntity
8
0
100
AcDbLine
62
9
6
CONTINUOUS
10
34.0686408679
20
27.5603025596
11
33.9794981836
21
27.6494452439
0
LINE
5
50C
100
AcDbEntity
8
0
100
AcDbLine
62
9
6
CONTINUOUS
10
34.2686104070
20
27.7602720986
11
34.1794677227
21
27.8494147829
0
LINE
5
50D
100
AcDbEntity
8
0
100
AcDbLine
62
9
6
CONTINUOUS
10
33.4293578800
20
28.8993837490
11
33.2718996168
21
29.0568420122
0
LINE
5
50E
100
AcDbEntity
8
0
100
AcDbLine
62
0
6
CONTINUOUS
10
30.7371552225
20
26.8568420122
11
30.7458830374
21
26.8481129380
0
LINE
5
50F
100
AcDbEntity
8
0
100
AcDbLine
62
0
6
CONTINUOUS
10
32.8637216798
20
25.1616043207
11
32.9170073985
21
25.0905440644
0
LINE
5
510
100
AcDbEntity
8
0
100
AcDbLine
62
0
6
CONTINUOUS
10
32.8384496338
20
26.7334006017
11
32.7720709543
21
26.8219212427
0
LINE
5
511
100
AcDbEntity
8
0
100
AcDbLine
62
0
6
CONTINUOUS
10
44.4220709543
20
21.3742970771
11
44.4220709543
21
22.3568420122
0
LINE
5
512
100
AcDbEntity
8
0
100
AcDbLine
62
0
6
CONTINUOUS
10
44.4569917238
20
-23.6431579878
11
44.4569917238
21
-27.6440717473
0
LINE
5
513
100
AcDbEntity
8
0
100
AcDbLine
62
0
6
CONTINUOUS
10
44.4744521086
20
-8.6431579878
11
44.4744521086
21
6.3568420122
0
LINE
5
514
100
AcDbEntity
8
0
100
AcDbLine
62
0
6
CONTINUOUS
10
44.5697057596
20
21.5544768174
11
44.5697057596
21
21.2957492849
0
LINE
5
515
100
AcDbEntity
8
0
100
AcDbLine
62
0
6
CONTINUOUS
10
44.5697057596
20
6.3568420122
11
44.5697057596
21
6.1592072070
0
LINE
5
516
100
AcDbEntity
8
0
100
AcDbLine
62
0
6
CONTINUOUS
10
44.5697057596
20
-8.4455231826
11
44.5697057596
21
-8.6431579878
0
LINE
5
517
100
AcDbEntity
8
0
100
AcDbLine
62
0
6
CONTINUOUS
10
44.5697057596
20
-23.5820652606
11
44.5697057596
21
-23.8407927930
0
LINE
5
518
100
AcDbEntity
8
0
100
AcDbLine
62
9
6
CONTINUOUS
10
44.6049205223
20
21.5896915802
11
44.6049205223
21
6.1239924442
0
LINE
5
519
100
AcDbEntity
8
0
100
AcDbLine
62
9
6
CONTINUOUS
10
44.6049205223
20
-8.4103084198
11
44.6049205223
21
-23.8760075558
0
LINE
5
51A
100
AcDbEntity
8
0
100
AcDbLine
62
0
6
CONTINUOUS
10
44.6447453113
20
0.0681909704
11
44.6447453113
21
-2.3545069460
0
LINE
5
51B
100
AcDbEntity
8
0
100
AcDbLine
62
0
6
CONTINUOUS
10
44.6447453113
20
-4.1818090296
11
44.6447453113
21
-6.6045069460
0
LINE
5
51C
100
AcDbEntity
8
0
100
AcDbLine
62
0
6
CONTINUOUS
10
44.6447453113
20
1.8954930540
11
44.6447453113
21
4.3181909704
0
LINE
5
51D
100
AcDbEntity
8
0
100
AcDbLine
62
0
6
CONTINUOUS
10
44.7220709543
20
4.3568420122
11
44.7220709543
21
1.8568420122
0
LINE
5
51E
100
AcDbEntity
8
0
100
AcDbLine
62
0
6
CONTINUOUS
10
44.7220709543
20
-6.6431579878
11
44.7220709543
21
-4.1431579878
0
LINE
5
51F
100
AcDbEntity
8
0
100
AcDbLine
62
0
6
CONTINUOUS
10
44.7220709543
20
-2.3931579878
11
44.7220709543
21
0.1068420122
0
LINE
5
520
100
AcDbEntity
8
0
100
AcDbLine
62
9
6
CONTINUOUS
10
44.9755315017
20
26.0605310168
11
44.9755315017
21
23.6534119258
0
LINE
5
521
100
AcDbEntity
8
0
100
AcDbLine
62
9
6
CONTINUOUS
10
45.0646741862
20
23.5642692415
11
45.0646741863
21
23.3642997025
0
LINE
5
522
100
AcDbEntity
8
0
100
AcDbLine
62
9
6
CONTINUOUS
10
45.1755010408
20
26.0605310168
11
45.1755010408
21
23.8533814648
0
LINE
5
523
100
AcDbEntity
8
0
100
AcDbLine
62
9
6
CONTINUOUS
10
45.2646437250
20
26.1496737011
11
45.2646437250
21
23.7642387805
0
LINE
5
524
100
AcDbEntity
8
0
100
AcDbLine
62
9
6
CONTINUOUS
10
45.4646132641
20
26.1496737011
11
45.4646132641
21
23.7642387805
0
LINE
5
525
100
AcDbEntity
8
0
100
AcDbLine
62
9
6
CONTINUOUS
10
45.6047682175
20
21.6068420122
11
45.6047682175
21
6.1068420122
0
LINE
5
526
100
AcDbEntity
8
0
100
AcDbLine
62
9
6
CONTINUOUS
10
45.6047682175
20
-8.3931579878
11
45.6047682175
21
-23.8931579878
0
LINE
5
527
100
AcDbEntity
8
0
100
AcDbLine
62
9
6
CONTINUOUS
10
45.8147840287
20
22.5143002754
11
45.8147840287
21
25.9004117741
0
LINE
5
528
100
AcDbEntity
8
0
100
AcDbLine
62
0
6
CONTINUOUS
10
46.2220709543
20
22.4237392982
11
46.2220709543
21
-27.6452136857
0
LINE
5
529
100
AcDbEntity
8
0
100
AcDbLine
62
9
6
CONTINUOUS
10
46.3146126912
20
23.0141289379
11
46.3146126912
21
25.9004117741
0
LINE
5
52A
100
AcDbEntity
8
0
100
AcDbLine
62
0
6
CONTINUOUS
10
46.4720709543
20
22.8566706747
11
46.4720709543
21
26.0578700373
0
LINE
5
52B
100
AcDbEntity
8
0
100
AcDbLine
62
0
6
CONTINUOUS
10
44.4220709543
20
22.3568420122
11
44.3335503133
21
22.4232206916
0
LINE
5
52C
100
AcDbEntity
8
0
100
AcDbLine
62
9
6
CONTINUOUS
10
45.8147840287
20
22.5143002754
11
45.9722422919
21
22.3568420122
0
LINE
5
52D
100
AcDbEntity
8
0
100
AcDbLine
62
9
6
CONTINUOUS
10
45.0646741860
20
23.5642692415
11
44.9755315017
21
23.6534119258
0
LINE
5
52E
100
AcDbEntity
8
0
100
AcDbLine
62
9
6
CONTINUOUS
10
45.2646437250
20
23.7642387805
11
45.1755010408
21
23.8533814648
0
LINE
5
52F
100
AcDbEntity
8
0
100
AcDbLine
62
9
6
CONTINUOUS
10
46.3146126912
20
23.0141289379
11
46.4720709543
21
22.8566706747
0
ARC
5
530
100
AcDbEntity
8
0
100
AcDbCircle
62
0
6
CONTINUOUS
10
-36.4779290457
20
-0.0431579878
40
0.5000000000
100
AcDbArc
50
0.0000000000
51
90.0000000000
0
SPLINE
5
531
100
AcDbEntity
8
0
100
AcDbSpline
62
0
6
CONTINUOUS
70
0
71
3
72
12
73
8
74
6
42
0.0000001000
43
0.0000001000
44
0.0000000001
12
-1.0002373320
22
0.0000000000
32
0.0000000000
13
-0.7072746003
23
0.7072746003
33
0.0000000000
40
0.0000000000
40
0.0000000000
40
0.0000000000
40
0.0000000000
40
0.3043100278
40
0.5820739579
40
0.8023229216
40
0.9470588590
40
1.0000000000
40
1.0000000000
40
1.0000000000
40
1.0000000000
10
45.6047682175
20
6.1068420122
30
0.0000000000
10
45.5033074674
20
6.1068420122
30
0.0000000000
10
45.3087204305
20
6.1064041870
30
0.0000000000
10
45.0432326281
20
6.1122862302
30
0.0000000000
10
44.8237723059
20
6.1062006568
30
0.0000000000
10
44.6946279465
20
6.1286448075
30
0.0000000000
10
44.6174018304
20
6.1115111361
30
0.0000000000
10
44.6049205223
20
6.1239924442
30
0.0000000000
11
45.6047682175
21
6.1068420122
31
0.0000000000
11
45.3003870940
21
6.1076702493
31
0.0000000000
11
45.0225679130
21
6.1101053171
31
0.0000000000
11
44.8022990476
21
6.1138817519
31
0.0000000000
11
44.6576089003
21
6.1186981293
31
0.0000000000
11
44.6049205223
21
6.1239924442
31
0.0000000000
0
SPLINE
5
532
100
AcDbEntity
8
0
100
AcDbSpline
62
0
6
CONTINUOUS
70
0
71
3
72
12
73
8
74
6
42
0.0000001000
43
0.0000001000
44
0.0000000001
12
0.7072746003
22
0.7072746003
32
0.0000000000
13
1.0002373320
23
0.0000000000
33
0.0000000000
40
0.0000000000
40
0.0000000000
40
0.0000000000
40
0.0000000000
40
0.0529411410
40
0.1976770784
40
0.4179260421
40
0.6956899722
40
1.0000000000
40
1.0000000000
40
1.0000000000
40
1.0000000000
10
44.6049205223
20
21.5896915802
30
0.0000000000
10
44.6174018304
20
21.6021728883
30
0.0000000000
10
44.6946279465
20
21.5850392169
30
0.0000000000
10
44.8237723059
20
21.6074833676
30
0.0000000000
10
45.0432326281
20
21.6013977942
30
0.0000000000
10
45.3087204305
20
21.6072798374
30
0.0000000000
10
45.5033074674
20
21.6068420122
30
0.0000000000
10
45.6047682175
20
21.6068420122
30
0.0000000000
11
44.6049205223
21
21.5896915802
31
0.0000000000
11
44.6576089003
21
21.5949858951
31
0.0000000000
11
44.8022990476
21
21.5998022725
31
0.0000000000
11
45.0225679130
21
21.6035787073
31
0.0000000000
11
45.3003870940
21
21.6060137751
31
0.0000000000
11
45.6047682175
21
21.6068420122
31
0.0000000000
0
SPLINE
5
533
100
AcDbEntity
8
0
100
AcDbSpline
62
0
6
CONTINUOUS
70
0
71
3
72
12
73
8
74
6
42
0.0000001000
43
0.0000001000
44
0.0000000001
12
1.0002373320
22
0.0000000000
32
0.0000000000
13
0.7072746003
23
-0.7072746003
33
0.0000000000
40
0.0000000000
40
0.0000000000
40
0.0000000000
40
0.0000000000
40
0.3043100278
40
0.5820739579
40
0.8023229216
40
0.9470588590
40
1.0000000000
40
1.0000000000
40
1.0000000000
40
1.0000000000
10
-45.5606263088
20
21.6068420122
30
0.0000000000
10
-45.4591655587
20
21.6068420122
30
0.0000000000
10
-45.2645785219
20
21.6072798374
30
0.0000000000
10
-44.9990907194
20
21.6013977942
30
0.0000000000
10
-44.7796303972
20
21.6074833676
30
0.0000000000
10
-44.6504860378
20
21.5850392169
30
0.0000000000
10
-44.5732599217
20
21.6021728883
30
0.0000000000
10
-44.5607786136
20
21.5896915802
30
0.0000000000
11
-45.5606263088
21
21.6068420122
31
0.0000000000
11
-45.2562451853
21
21.6060137751
31
0.0000000000
11
-44.9784260043
21
21.6035787073
31
0.0000000000
11
-44.7581571389
21
21.5998022725
31
0.0000000000
11
-44.6134669916
21
21.5949858951
31
0.0000000000
11
-44.5607786136
21
21.5896915802
31
0.0000000000
0
SPLINE
5
534
100
AcDbEntity
8
0
100
AcDbSpline
62
0
6
CONTINUOUS
70
0
71
3
72
12
73
8
74
6
42
0.0000001000
43
0.0000001000
44
0.0000000001
12
-0.7072746003
22
-0.7072746003
32
0.0000000000
13
-1.0002373320
23
0.0000000000
33
0.0000000000
40
0.0000000000
40
0.0000000000
40
0.0000000000
40
0.0000000000
40
0.0529411410
40
0.1976770784
40
0.4179260421
40
0.6956899722
40
1.0000000000
40
1.0000000000
40
1.0000000000
40
1.0000000000
10
-44.5607786136
20
6.1239924442
30
0.0000000000
10
-44.5732599217
20
6.1115111361
30
0.0000000000
10
-44.6504860378
20
6.1286448075
30
0.0000000000
10
-44.7796303972
20
6.1062006568
30
0.0000000000
10
-44.9990907194
20
6.1122862302
30
0.0000000000
10
-45.2645785219
20
6.1064041870
30
0.0000000000
10
-45.4591655587
20
6.1068420122
30
0.0000000000
10
-45.5606263088
20
6.1068420122
30
0.0000000000
11
-44.5607786136
21
6.1239924442
31
0.0000000000
11
-44.6134669916
21
6.1186981293
31
0.0000000000
11
-44.7581571389
21
6.1138817519
31
0.0000000000
11
-44.9784260043
21
6.1101053171
31
0.0000000000
11
-45.2562451853
21
6.1076702493
31
0.0000000000
11
-45.5606263088
21
6.1068420122
31
0.0000000000
0
SPLINE
5
535
100
AcDbEntity
8
0
100
AcDbSpline
62
0
6
CONTINUOUS
70
0
71
3
72
15
73
11
74
9
42
0.0000001000
43
0.0000001000
44
0.0000000001
12
2.3494347167
22
0.0000000000
32
0.0000000000
13
-0.0000000000
23
2.3494347167
33
0.0000000000
40
0.0000000000
40
0.0000000000
40
0.0000000000
40
0.0000000000
40
0.1423856443
40
0.2742073726
40
0.3977421592
40
0.5164864017
40
0.6370489091
40
0.7585213129
40
0.8796366278
40
1.0000000000
40
1.0000000000
40
1.0000000000
40
1.0000000000
10
44.7241266522
20
-29.1431579878
30
0.0000000000
10
44.8356352442
20
-29.1431579878
30
0.0000000000
10
45.0511791536
20
-29.1190340377
30
0.0000000000
10
45.3481543990
20
-29.0182984485
30
0.0000000000
10
45.6029237858
20
-28.8698807401
30
0.0000000000
10
45.8181524802
20
-28.6818465088
30
0.0000000000
10
45.9934515446
20
-28.4580976952
30
0.0000000000
10
46.1241206753
20
-28.2035211936
30
0.0000000000
10
46.2041636953
20
-27.9290720626
30
0.0000000000
10
46.2220709543
20
-27.7394756474
30
0.0000000000
10
46.2220709543
20
-27.6452136857
30
0.0000000000
11
44.7241266522
21
-29.1431579878
31
0.0000000000
11
45.0565693163
21
-29.1058837353
31
0.0000000000
11
45.3498754445
21
-29.0064369705
31
0.0000000000
11
45.6006531384
21
-28.8603273680
31
0.0000000000
11
45.8107525760
21
-28.6767814705
31
0.0000000000
11
45.9854384023
21
-28.4538071592
31
0.0000000000
11
46.1157769324
21
-28.1999170924
31
0.0000000000
11
46.1954376604
21
-27.9267425909
31
0.0000000000
11
46.2220709543
21
-27.6452136857
31
0.0000000000
0
SPLINE
5
536
100
AcDbEntity
8
0
100
AcDbSpline
62
0
6
CONTINUOUS
70
0
71
3
72
15
73
11
74
9
42
0.0000001000
43
0.0000001000
44
0.0000000001
12
0.0000000000
22
-2.3494347167
32
0.0000000000
13
2.3494347167
23
0.0000000000
33
0.0000000000
40
0.0000000000
40
0.0000000000
40
0.0000000000
40
0.0000000000
40
0.1423856443
40
0.2742073726
40
0.3977421592
40
0.5164864017
40
0.6370489091
40
0.7585213129
40
0.8796366278
40
1.0000000000
40
1.0000000000
40
1.0000000000
40
1.0000000000
10
-46.1779290457
20
-27.6452136857
30
0.0000000000
10
-46.1779290457
20
-27.7567222777
30
0.0000000000
10
-46.1538050956
20
-27.9722661871
30
0.0000000000
10
-46.0530695064
20
-28.2692414325
30
0.0000000000
10
-45.9046517979
20
-28.5240108192
30
0.0000000000
10
-45.7166175666
20
-28.7392395137
30
0.0000000000
10
-45.4928687530
20
-28.9145385781
30
0.0000000000
10
-45.2382922515
20
-29.0452077088
30
0.0000000000
10
-44.9638431205
20
-29.1252507288
30
0.0000000000
10
-44.7742467052
20
-29.1431579878
30
0.0000000000
10
-44.6799847435
20
-29.1431579878
30
0.0000000000
11
-46.1779290457
21
-27.6452136857
31
0.0000000000
11
-46.1406547931
21
-27.9776563497
31
0.0000000000
11
-46.0412080284
21
-28.2709624780
31
0.0000000000
11
-45.8950984259
21
-28.5217401718
31
0.0000000000
11
-45.7115525283
21
-28.7318396095
31
0.0000000000
11
-45.4885782170
21
-28.9065254358
31
0.0000000000
11
-45.2346881503
21
-29.0368639659
31
0.0000000000
11
-44.9615136488
21
-29.1165246938
31
0.0000000000
11
-44.6799847435
21
-29.1431579878
31
0.0000000000
0
SPLINE
5
537
100
AcDbEntity
8
0
100
AcDbSpline
62
0
6
CONTINUOUS
70
0
71
3
72
12
73
8
74
6
42
0.0000001000
43
0.0000001000
44
0.0000000001
12
-1.0002373320
22
0.0000000000
32
0.0000000000
13
-0.7072746003
23
0.7072746003
33
0.0000000000
40
0.0000000000
40
0.0000000000
40
0.0000000000
40
0.0000000000
40
0.3043100278
40
0.5820739579
40
0.8023229216
40
0.9470588590
40
1.0000000000
40
1.0000000000
40
1.0000000000
40
1.0000000000
10
45.6047682175
20
-23.8931579878
30
0.0000000000
10
45.5033074674
20
-23.8931579878
30
0.0000000000
10
45.3087204305
20
-23.8935958130
30
0.0000000000
10
45.0432326281
20
-23.8877137698
30
0.0000000000
10
44.8237723059
20
-23.8937993432
30
0.0000000000
10
44.6946279465
20
-23.8713551925
30
0.0000000000
10
44.6174018304
20
-23.8884888639
30
0.0000000000
10
44.6049205223
20
-23.8760075558
30
0.0000000000
11
45.6047682175
21
-23.8931579878
31
0.0000000000
11
45.3003870940
21
-23.8923297507
31
0.0000000000
11
45.0225679130
21
-23.8898946829
31
0.0000000000
11
44.8022990476
21
-23.8861182481
31
0.0000000000
11
44.6576089003
21
-23.8813018707
31
0.0000000000
11
44.6049205223
21
-23.8760075558
31
0.0000000000
0
SPLINE
5
538
100
AcDbEntity
8
0
100
AcDbSpline
62
0
6
CONTINUOUS
70
0
71
3
72
12
73
8
74
6
42
0.0000001000
43
0.0000001000
44
0.0000000001
12
0.7072746003
22
0.7072746003
32
0.0000000000
13
1.0002373320
23
-0.0000000000
33
0.0000000000
40
0.0000000000
40
0.0000000000
40
0.0000000000
40
0.0000000000
40
0.0529411410
40
0.1976770784
40
0.4179260421
40
0.6956899722
40
1.0000000000
40
1.0000000000
40
1.0000000000
40
1.0000000000
10
44.6049205223
20
-8.4103084198
30
0.0000000000
10
44.6174018304
20
-8.3978271117
30
0.0000000000
10
44.6946279465
20
-8.4149607831
30
0.0000000000
10
44.8237723059
20
-8.3925166324
30
0.0000000000
10
45.0432326281
20
-8.3986022058
30
0.0000000000
10
45.3087204305
20
-8.3927201626
30
0.0000000000
10
45.5033074674
20
-8.3931579878
30
0.0000000000
10
45.6047682175
20
-8.3931579878
30
0.0000000000
11
44.6049205223
21
-8.4103084198
31
0.0000000000
11
44.6576089003
21
-8.4050141049
31
0.0000000000
11
44.8022990476
21
-8.4001977275
31
0.0000000000
11
45.0225679130
21
-8.3964212927
31
0.0000000000
11
45.3003870940
21
-8.3939862249
31
0.0000000000
11
45.6047682175
21
-8.3931579878
31
0.0000000000
0
SPLINE
5
539
100
AcDbEntity
8
0
100
AcDbSpline
62
0
6
CONTINUOUS
70
0
71
3
72
12
73
8
74
6
42
0.0000001000
43
0.0000001000
44
0.0000000001
12
1.0002373320
22
0.0000000000
32
0.0000000000
13
0.7072746003
23
-0.7072746003
33
0.0000000000
40
0.0000000000
40
0.0000000000
40
0.0000000000
40
0.0000000000
40
0.3043100278
40
0.5820739579
40
0.8023229216
40
0.9470588590
40
1.0000000000
40
1.0000000000
40
1.0000000000
40
1.0000000000
10
-45.5606263088
20
-8.3931579878
30
0.0000000000
10
-45.4591655587
20
-8.3931579878
30
0.0000000000
10
-45.2645785219
20
-8.3927201626
30
0.0000000000
10
-44.9990907194
20
-8.3986022058
30
0.0000000000
10
-44.7796303972
20
-8.3925166324
30
0.0000000000
10
-44.6504860378
20
-8.4149607831
30
0.0000000000
10
-44.5732599217
20
-8.3978271117
30
0.0000000000
10
-44.5607786136
20
-8.4103084198
30
0.0000000000
11
-45.5606263088
21
-8.3931579878
31
0.0000000000
11
-45.2562451853
21
-8.3939862249
31
0.0000000000
11
-44.9784260043
21
-8.3964212927
31
0.0000000000
11
-44.7581571389
21
-8.4001977275
31
0.0000000000
11
-44.6134669916
21
-8.4050141049
31
0.0000000000
11
-44.5607786136
21
-8.4103084198
31
0.0000000000
0
SPLINE
5
53A
100
AcDbEntity
8
0
100
AcDbSpline
62
0
6
CONTINUOUS
70
0
71
3
72
12
73
8
74
6
42
0.0000001000
43
0.0000001000
44
0.0000000001
12
-0.7072746003
22
-0.7072746003
32
0.0000000000
13
-1.0002373320
23
0.0000000000
33
0.0000000000
40
0.0000000000
40
0.0000000000
40
0.0000000000
40
0.0000000000
40
0.0529411410
40
0.1976770784
40
0.4179260421
40
0.6956899722
40
1.0000000000
40
1.0000000000
40
1.0000000000
40
1.0000000000
10
-44.5607786136
20
-23.8760075558
30
0.0000000000
10
-44.5732599217
20
-23.8884888639
30
0.0000000000
10
-44.6504860378
20
-23.8713551925
30
0.0000000000
10
-44.7796303972
20
-23.8937993432
30
0.0000000000
10
-44.9990907194
20
-23.8877137698
30
0.0000000000
10
-45.2645785219
20
-23.8935958130
30
0.0000000000
10
-45.4591655587
20
-23.8931579878
30
0.0000000000
10
-45.5606263088
20
-23.8931579878
30
0.0000000000
11
-44.5607786136
21
-23.8760075558
31
0.0000000000
11
-44.6134669916
21
-23.8813018707
31
0.0000000000
11
-44.7581571389
21
-23.8861182481
31
0.0000000000
11
-44.9784260043
21
-23.8898946829
31
0.0000000000
11
-45.2562451853
21
-23.8923297507
31
0.0000000000
11
-45.5606263088
21
-23.8931579878
31
0.0000000000
0
SPLINE
5
53B
100
AcDbEntity
8
0
100
AcDbSpline
62
0
6
CONTINUOUS
70
0
71
3
72
11
73
7
74
5
42
0.0000001000
43
0.0000001000
44
0.0000000001
12
0.0002851606
22
0.3118204825
32
0.0000000000
13
0.3118204831
23
0.0002844662
33
0.0000000000
40
0.0000000000
40
0.0000000000
40
0.0000000000
40
0.0000000000
40
0.2509574342
40
0.5020535228
40
0.7533052089
40
1.0000000000
40
1.0000000000
40
1.0000000000
40
1.0000000000
10
31.9082813874
20
17.3670490989
30
0.0000000000
10
31.9083052418
20
17.3931336549
30
0.0000000000
10
31.9188535514
20
17.4458827472
30
0.0000000000
10
31.9637626842
20
17.5124306801
30
0.0000000000
10
32.0303185705
20
17.5565220657
30
0.0000000000
10
32.0826094301
20
17.5667516137
30
0.0000000000
10
32.1082509264
20
17.5667750058
30
0.0000000000
11
31.9082813874
21
17.3670490989
31
0.0000000000
11
31.9236935054
21
17.4437700760
31
0.0000000000
11
31.9674231067
21
17.5087172252
31
0.0000000000
11
32.0327719609
21
17.5519322403
31
0.0000000000
11
32.1082509264
21
17.5667750058
31
0.0000000000
0
SPLINE
5
53C
100
AcDbEntity
8
0
100
AcDbSpline
62
0
6
CONTINUOUS
70
0
71
3
72
15
73
11
74
9
42
0.0000001000
43
0.0000001000
44
0.0000000001
12
-2.3510615012
22
0.0000000000
32
0.0000000000
13
0.0000000000
23
2.3510615012
33
0.0000000000
40
0.0000000000
40
0.0000000000
40
0.0000000000
40
0.0000000000
40
0.1428969159
40
0.2750789101
40
0.3987099751
40
0.5172839537
40
0.6375201338
40
0.7587461504
40
0.8797702697
40
1.0000000000
40
1.0000000000
40
1.0000000000
40
1.0000000000
10
-42.9137635746
20
-29.1431579878
30
0.0000000000
10
-43.0257500538
20
-29.1431579878
30
0.0000000000
10
-43.2421351424
20
-29.1188164961
30
0.0000000000
10
-43.5399128679
20
-29.0173590227
30
0.0000000000
10
-43.7948089401
20
-28.8683035372
30
0.0000000000
10
-44.0096701271
20
-28.6800396066
30
0.0000000000
10
-44.1845208700
20
-28.4564494464
30
0.0000000000
10
-44.3149553810
20
-28.2021280751
30
0.0000000000
10
-44.3949409123
20
-27.9278444709
30
0.0000000000
10
-44.4128498151
20
-27.7382942440
30
0.0000000000
10
-44.4128498151
20
-27.6440717473
30
0.0000000000
11
-42.9137635746
21
-29.1431579878
31
0.0000000000
11
-43.2476111649
21
-29.1055477472
31
0.0000000000
11
-43.5417901655
21
-29.0053705840
31
0.0000000000
11
-43.7926974346
21
-28.8586353082
31
0.0000000000
11
-44.0023752473
21
-28.6749220611
31
0.0000000000
11
-44.1765074202
21
-28.4522396205
31
0.0000000000
11
-44.3065854313
21
-28.1986448477
31
0.0000000000
11
-44.3862262837
21
-27.9254826524
31
0.0000000000
11
-44.4128498151
21
-27.6440717473
31
0.0000000000
0
SPLINE
5
53D
100
AcDbEntity
8
0
100
AcDbSpline
62
0
6
CONTINUOUS
70
0
71
3
72
15
73
11
74
9
42
0.0000001000
43
0.0000001000
44
0.0000000001
12
0.0000000000
22
-2.3510615012
32
0.0000000000
13
-2.3510615012
23
0.0000000000
33
0.0000000000
40
0.0000000000
40
0.0000000000
40
0.0000000000
40
0.0000000000
40
0.1428969159
40
0.2750789101
40
0.3987099751
40
0.5172839537
40
0.6375201338
40
0.7587461504
40
0.8797702697
40
1.0000000000
40
1.0000000000
40
1.0000000000
40
1.0000000000
10
44.4569917238
20
-27.6440717473
30
0.0000000000
10
44.4569917238
20
-27.7560582265
30
0.0000000000
10
44.4326502321
20
-27.9724433151
30
0.0000000000
10
44.3311927588
20
-28.2702210406
30
0.0000000000
10
44.1821372733
20
-28.5251171127
30
0.0000000000
10
43.9938733426
20
-28.7399782998
30
0.0000000000
10
43.7702831825
20
-28.9148290427
30
0.0000000000
10
43.5159618111
20
-29.0452635536
30
0.0000000000
10
43.2416782069
20
-29.1252490850
30
0.0000000000
10
43.0521279800
20
-29.1431579878
30
0.0000000000
10
42.9579054833
20
-29.1431579878
30
0.0000000000
11
44.4569917238
21
-27.6440717473
31
0.0000000000
11
44.4193814832
21
-27.9779193376
31
0.0000000000
11
44.3192043201
21
-28.2720983382
31
0.0000000000
11
44.1724690442
21
-28.5230056072
31
0.0000000000
11
43.9887557972
21
-28.7326834200
31
0.0000000000
11
43.7660733566
21
-28.9068155928
31
0.0000000000
11
43.5124785838
21
-29.0368936040
31
0.0000000000
11
43.2393163885
21
-29.1165344563
31
0.0000000000
11
42.9579054833
21
-29.1431579878
31
0.0000000000
0
SPLINE
5
53E
100
AcDbEntity
8
0
100
AcDbSpline
62
0
6
CONTINUOUS
70
0
71
3
72
11
73
7
74
5
42
0.0000001000
43
0.0000001000
44
0.0000000001
12
0.0000000000
22
-0.7801178945
32
0.0000000000
13
-0.7801178945
23
0.0000000000
33
0.0000000000
40
0.0000000000
40
0.0000000000
40
0.0000000000
40
0.0000000000
40
0.2500016983
40
0.5000000000
40
0.7499983017
40
1.0000000000
40
1.0000000000
40
1.0000000000
40
1.0000000000
10
46.4720709543
20
22.8566706747
30
0.0000000000
10
46.4720709543
20
22.7916604085
30
0.0000000000
10
46.4460766246
20
22.6602165413
30
0.0000000000
10
46.3348496225
20
22.4940633441
30
0.0000000000
10
46.1686964252
20
22.3828363419
30
0.0000000000
10
46.0372525580
20
22.3568420122
30
0.0000000000
10
45.9722422919
20
22.3568420122
30
0.0000000000
11
46.4720709543
21
22.8566706747
31
0.0000000000
11
46.4340369912
21
22.6653844232
31
0.0000000000
11
46.3256952981
21
22.5032176685
31
0.0000000000
11
46.1635285433
21
22.3948759753
31
0.0000000000
11
45.9722422919
21
22.3568420122
31
0.0000000000
0
SPLINE
5
53F
100
AcDbEntity
8
0
100
AcDbSpline
62
0
6
CONTINUOUS
70
0
71
3
72
11
73
7
74
5
42
0.0000001000
43
0.0000001000
44
0.0000000001
12
0.0000000000
22
0.7801178945
32
0.0000000000
13
0.7801178945
23
0.0000000000
33
0.0000000000
40
0.0000000000
40
0.0000000000
40
0.0000000000
40
0.0000000000
40
0.2500016983
40
0.5000000000
40
0.7499983017
40
1.0000000000
40
1.0000000000
40
1.0000000000
40
1.0000000000
10
32.7720709543
20
28.5570133497
30
0.0000000000
10
32.7720709543
20
28.6220236159
30
0.0000000000
10
32.7980652841
20
28.7534674831
30
0.0000000000
10
32.9092922862
20
28.9196206803
30
0.0000000000
10
33.0754454835
20
29.0308476825
30
0.0000000000
10
33.2068893507
20
29.0568420122
30
0.0000000000
10
33.2718996168
20
29.0568420122
30
0.0000000000
11
32.7720709543
21
28.5570133497
31
0.0000000000
11
32.8101049175
21
28.7482996012
31
0.0000000000
11
32.9184466106
21
28.9104663559
31
0.0000000000
11
33.0806133653
21
29.0188080491
31
0.0000000000
11
33.2718996168
21
29.0568420122
31
0.0000000000
0
SPLINE
5
540
100
AcDbEntity
8
0
100
AcDbSpline
62
0
6
CONTINUOUS
70
0
71
3
72
11
73
7
74
5
42
0.0000001000
43
0.0000001000
44
0.0000000001
12
-0.7801178945
22
0.0000000000
32
0.0000000000
13
0.0000000000
23
0.7801178945
33
0.0000000000
40
0.0000000000
40
0.0000000000
40
0.0000000000
40
0.0000000000
40
0.2500016983
40
0.5000000000
40
0.7499983017
40
1.0000000000
40
1.0000000000
40
1.0000000000
40
1.0000000000
10
-45.9281003832
20
22.3568420122
30
0.0000000000
10
-45.9931106493
20
22.3568420122
30
0.0000000000
10
-46.1245545165
20
22.3828363419
30
0.0000000000
10
-46.2907077138
20
22.4940633441
30
0.0000000000
10
-46.4019347159
20
22.6602165413
30
0.0000000000
10
-46.4279290457
20
22.7916604085
30
0.0000000000
10
-46.4279290457
20
22.8566706747
30
0.0000000000
11
-45.9281003832
21
22.3568420122
31
0.0000000000
11
-46.1193866347
21
22.3948759753
31
0.0000000000
11
-46.2815533894
21
22.5032176685
31
0.0000000000
11
-46.3898950825
21
22.6653844232
31
0.0000000000
11
-46.4279290457
21
22.8566706747
31
0.0000000000
0
SPLINE
5
541
100
AcDbEntity
8
0
100
AcDbSpline
62
0
6
CONTINUOUS
70
0
71
3
72
11
73
7
74
5
42
0.0000001000
43
0.0000001000
44
0.0000000001
12
0.7801178945
22
0.0000000000
32
0.0000000000
13
-0.0000000000
23
-0.7801178945
33
0.0000000000
40
0.0000000000
40
0.0000000000
40
0.0000000000
40
0.0000000000
40
0.2500016983
40
0.5000000000
40
0.7499983017
40
1.0000000000
40
1.0000000000
40
1.0000000000
40
1.0000000000
10
-33.2277577081
20
29.0568420122
30
0.0000000000
10
-33.1627474420
20
29.0568420122
30
0.0000000000
10
-33.0313035748
20
29.0308476825
30
0.0000000000
10
-32.8651503775
20
28.9196206803
30
0.0000000000
10
-32.7539233754
20
28.7534674831
30
0.0000000000
10
-32.7279290457
20
28.6220236159
30
0.0000000000
10
-32.7279290457
20
28.5570133497
30
0.0000000000
11
-33.2277577081
21
29.0568420122
31
0.0000000000
11
-33.0364714567
21
29.0188080491
31
0.0000000000
11
-32.8743047019
21
28.9104663559
31
0.0000000000
11
-32.7659630088
21
28.7482996012
31
0.0000000000
11
-32.7279290457
21
28.5570133497
31
0.0000000000
0
SPLINE
5
542
100
AcDbEntity
8
0
100
AcDbSpline
62
0
6
CONTINUOUS
70
0
71
3
72
13
73
9
74
7
42
0.0000001000
43
0.0000001000
44
0.0000000001
12
4.6974776616
22
0.0000000000
32
0.0000000000
13
-0.0000000000
23
-4.6974776616
33
0.0000000000
40
0.0000000000
40
0.0000000000
40
0.0000000000
40
0.0000000000
40
0.1667129228
40
0.3333687515
40
0.5000000000
40
0.6666312485
40
0.8332870772
40
1.0000000000
40
1.0000000000
40
1.0000000000
40
1.0000000000
10
43.4730989794
20
29.0568420122
30
0.0000000000
10
43.7341423897
20
29.0568420122
30
0.0000000000
10
44.2587049579
20
28.9879526046
30
0.0000000000
10
44.9899139950
20
28.6849345441
30
0.0000000000
10
45.6182043560
20
28.2029754139
30
0.0000000000
10
46.1001634862
20
27.5746850529
30
0.0000000000
10
46.4031815467
20
26.8434760158
30
0.0000000000
10
46.4720709543
20
26.3189134476
30
0.0000000000
10
46.4720709543
20
26.0578700373
30
0.0000000000
11
43.4730989794
21
29.0568420122
31
0.0000000000
11
44.2495321047
21
28.9546433795
31
0.0000000000
11
44.9728137872
21
28.6550827525
31
0.0000000000
11
45.5938170167
21
28.1785880746
31
0.0000000000
11
46.0703116947
21
27.5575848451
31
0.0000000000
11
46.3698723217
21
26.8343031626
31
0.0000000000
11
46.4720709543
21
26.0578700373
31
0.0000000000
0
SPLINE
5
543
100
AcDbEntity
8
0
100
AcDbSpline
62
0
6
CONTINUOUS
70
0
71
3
72
13
73
9
74
7
42
0.0000001000
43
0.0000001000
44
0.0000000001
12
0.0000000000
22
4.6974776616
32
0.0000000000
13
4.6974776616
23
0.0000000000
33
0.0000000000
40
0.0000000000
40
0.0000000000
40
0.0000000000
40
0.0000000000
40
0.1667129228
40
0.3333687515
40
0.5000000000
40
0.6666312485
40
0.8332870772
40
1.0000000000
40
1.0000000000
40
1.0000000000
40
1.0000000000
10
-46.4279290457
20
26.0578700373
30
0.0000000000
10
-46.4279290457
20
26.3189134476
30
0.0000000000
10
-46.3590396380
20
26.8434760158
30
0.0000000000
10
-46.0560215775
20
27.5746850529
30
0.0000000000
10
-45.5740624473
20
28.2029754139
30
0.0000000000
10
-44.9457720863
20
28.6849345441
30
0.0000000000
10
-44.2145630492
20
28.9879526046
30
0.0000000000
10
-43.6900004810
20
29.0568420122
30
0.0000000000
10
-43.4289570707
20
29.0568420122
30
0.0000000000
11
-46.4279290457
21
26.0578700373
31
0.0000000000
11
-46.3257304130
21
26.8343031626
31
0.0000000000
11
-46.0261697860
21
27.5575848451
31
0.0000000000
11
-45.5496751080
21
28.1785880746
31
0.0000000000
11
-44.9286718785
21
28.6550827525
31
0.0000000000
11
-44.2053901961
21
28.9546433795
31
0.0000000000
11
-43.4289570707
21
29.0568420122
31
0.0000000000
0
SPLINE
5
544
100
AcDbEntity
8
0
100
AcDbSpline
62
0
6
CONTINUOUS
70
0
71
3
72
8
73
4
74
2
42
0.0000001000
43
0.0000001000
44
0.0000000001
12
0.0000079797
22
-0.0261985716
32
0.0000000000
13
0.0034841138
23
-0.0261235634
33
0.0000000000
40
0.0000000000
40
0.0000000000
40
0.0000000000
40
0.0000000000
40
1.0000000000
40
1.0000000000
40
1.0000000000
40
1.0000000000
10
-45.1313591321
20
23.8533814648
30
0.0000000000
10
-45.1313564722
20
23.8446486076
30
0.0000000000
10
-45.1307670298
20
23.8358837345
30
0.0000000000
10
-45.1296056585
20
23.8271758800
30
0.0000000000
11
-45.1313591321
21
23.8533814648
31
0.0000000000
11
-45.1296056585
21
23.8271758800
31
0.0000000000
0
SPLINE
5
545
100
AcDbEntity
8
0
100
AcDbSpline
62
0
6
CONTINUOUS
70
0
71
3
72
11
73
7
74
5
42
0.0000001000
43
0.0000001000
44
0.0000000001
12
0.0346206917
22
-0.2595827467
32
0.0000000000
13
0.2596239148
23
-0.0337313361
33
0.0000000000
40
0.0000000000
40
0.0000000000
40
0.0000000000
40
0.0000000000
40
0.2003606783
40
0.5015156224
40
0.8027280086
40
1.0000000000
40
1.0000000000
40
1.0000000000
40
1.0000000000
10
-45.1296056585
20
23.8271758800
30
0.0000000000
10
-45.1272934501
20
23.8098391550
30
0.0000000000
10
-45.1158313675
20
23.7670099396
30
0.0000000000
10
-45.0759263112
20
23.7077700122
30
0.0000000000
10
-45.0166114494
20
23.6684542248
30
0.0000000000
10
-44.9740095462
20
23.6572952134
30
0.0000000000
10
-44.9569373706
20
23.6550771308
30
0.0000000000
11
-45.1296056585
21
23.8271758800
31
0.0000000000
11
-45.1159852159
21
23.7765463661
31
0.0000000000
11
-45.0722456075
21
23.7114828249
31
0.0000000000
11
-45.0068473293
21
23.6682181985
31
0.0000000000
11
-44.9569373706
21
23.6550771308
31
0.0000000000
0
SPLINE
5
546
100
AcDbEntity
8
0
100
AcDbSpline
62
0
6
CONTINUOUS
70
0
71
3
72
8
73
4
74
2
42
0.0000001000
43
0.0000001000
44
0.0000000001
12
0.0254721261
22
-0.0033094364
32
0.0000000000
13
0.0255412131
23
-0.0000077795
33
0.0000000000
40
0.0000000000
40
0.0000000000
40
0.0000000000
40
0.0000000000
40
1.0000000000
40
1.0000000000
40
1.0000000000
40
1.0000000000
10
-44.9569373706
20
23.6550771308
30
0.0000000000
10
-44.9484466619
20
23.6539739853
30
0.0000000000
10
-44.9399033307
20
23.6534145190
30
0.0000000000
10
-44.9313895930
20
23.6534119258
30
0.0000000000
11
-44.9569373706
21
23.6550771308
31
0.0000000000
11
-44.9313895930
21
23.6534119258
31
0.0000000000
0
SPLINE
5
547
100
AcDbEntity
8
0
100
AcDbSpline
62
0
6
CONTINUOUS
70
0
71
3
72
8
73
4
74
2
42
0.0000001000
43
0.0000001000
44
0.0000000001
12
0.0261985716
22
-0.0000079797
32
0.0000000000
13
0.0261235634
23
-0.0034841138
33
0.0000000000
40
0.0000000000
40
0.0000000000
40
0.0000000000
40
0.0000000000
40
1.0000000000
40
1.0000000000
40
1.0000000000
40
1.0000000000
10
-34.2244684983
20
27.7602720986
30
0.0000000000
10
-34.2157356411
20
27.7602694387
30
0.0000000000
10
-34.2069707680
20
27.7596799963
30
0.0000000000
10
-34.1982629135
20
27.7585186251
30
0.0000000000
11
-34.2244684983
21
27.7602720986
31
0.0000000000
11
-34.1982629135
21
27.7585186251
31
0.0000000000
0
SPLINE
5
548
100
AcDbEntity
8
0
100
AcDbSpline
62
0
6
CONTINUOUS
70
0
71
3
72
11
73
7
74
5
42
0.0000001000
43
0.0000001000
44
0.0000000001
12
0.2595827467
22
-0.0346206917
32
0.0000000000
13
0.0337313361
23
-0.2596239148
33
0.0000000000
40
0.0000000000
40
0.0000000000
40
0.0000000000
40
0.0000000000
40
0.2003606783
40
0.5015156224
40
0.8027280086
40
1.0000000000
40
1.0000000000
40
1.0000000000
40
1.0000000000
10
-34.1982629135
20
27.7585186251
30
0.0000000000
10
-34.1809261884
20
27.7562064166
30
0.0000000000
10
-34.1380969731
20
27.7447443340
30
0.0000000000
10
-34.0788570457
20
27.7048392778
30
0.0000000000
10
-34.0395412583
20
27.6455244159
30
0.0000000000
10
-34.0283822468
20
27.6029225127
30
0.0000000000
10
-34.0261641642
20
27.5858503371
30
0.0000000000
11
-34.1982629135
21
27.7585186251
31
0.0000000000
11
-34.1476333995
21
27.7448981824
31
0.0000000000
11
-34.0825698583
21
27.7011585741
31
0.0000000000
11
-34.0393052319
21
27.6357602959
31
0.0000000000
11
-34.0261641642
21
27.5858503371
31
0.0000000000
0
SPLINE
5
549
100
AcDbEntity
8
0
100
AcDbSpline
62
0
6
CONTINUOUS
70
0
71
3
72
8
73
4
74
2
42
0.0000001000
43
0.0000001000
44
0.0000000001
12
0.0033094364
22
-0.0254721261
32
0.0000000000
13
0.0000077795
23
-0.0255412131
33
0.0000000000
40
0.0000000000
40
0.0000000000
40
0.0000000000
40
0.0000000000
40
1.0000000000
40
1.0000000000
40
1.0000000000
40
1.0000000000
10
-34.0261641642
20
27.5858503371
30
0.0000000000
10
-34.0250610188
20
27.5773596284
30
0.0000000000
10
-34.0245015524
20
27.5688162973
30
0.0000000000
10
-34.0244989592
20
27.5603025596
30
0.0000000000
11
-34.0261641642
21
27.5858503371
31
0.0000000000
11
-34.0244989592
21
27.5603025596
31
0.0000000000
0
SPLINE
5
54A
100
AcDbEntity
8
0
100
AcDbSpline
62
0
6
CONTINUOUS
70
0
71
3
72
12
73
8
74
6
42
0.0000001000
43
0.0000001000
44
0.0000000001
12
0.0000000000
22
-0.7824106927
32
0.0000000000
13
-0.7824106927
23
-0.0000000000
33
0.0000000000
40
0.0000000000
40
0.0000000000
40
0.0000000000
40
0.0000000000
40
0.2005581612
40
0.4006750265
40
0.6001161878
40
0.7997558196
40
1.0000000000
40
1.0000000000
40
1.0000000000
40
1.0000000000
10
-35.9779290457
20
-25.1857097529
30
0.0000000000
10
-35.9779290457
20
-25.2380160362
30
0.0000000000
10
-35.9945811231
20
-25.3432535780
30
0.0000000000
10
-36.0668898049
20
-25.4848524047
30
0.0000000000
10
-36.1792626427
20
-25.5971924518
30
0.0000000000
10
-36.3206744263
20
-25.6693894093
30
0.0000000000
10
-36.4257046497
20
-25.6860145251
30
0.0000000000
10
-36.4779290457
20
-25.6860145251
30
0.0000000000
11
-35.9779290457
21
-25.1857097529
31
0.0000000000
11
-36.0025233170
21
-25.3406892589
31
0.0000000000
11
-36.0736912552
21
-25.4801539821
31
0.0000000000
11
-36.1840507849
21
-25.5904752590
31
0.0000000000
11
-36.3231929507
21
-25.6614538103
31
0.0000000000
11
-36.4779290457
21
-25.6860145251
31
0.0000000000
0
SPLINE
5
54B
100
AcDbEntity
8
0
100
AcDbSpline
62
0
6
CONTINUOUS
70
0
71
3
72
12
73
8
74
6
42
0.0000001000
43
0.0000001000
44
0.0000000001
12
0.0000000000
22
0.7821871808
32
0.0000000000
13
0.7821871808
23
0.0000000000
33
0.0000000000
40
0.0000000000
40
0.0000000000
40
0.0000000000
40
0.0000000000
40
0.2004526707
40
0.4005143086
40
0.5999564665
40
0.7996498866
40
1.0000000000
40
1.0000000000
40
1.0000000000
40
1.0000000000
10
-40.9386581406
20
-0.0431579878
30
0.0000000000
10
-40.9386581406
20
0.0091058487
30
0.0000000000
10
-40.9220093207
20
0.1142715305
30
0.0000000000
10
-40.8497105933
20
0.2557787781
30
0.0000000000
10
-40.7373406609
20
0.3680573965
30
0.0000000000
10
-40.5959179625
20
0.4402231236
30
0.0000000000
10
-40.4908761982
20
0.4568420122
30
0.0000000000
10
-40.4386391014
20
0.4568420122
30
0.0000000000
11
-40.9386581406
21
-0.0431579878
31
0.0000000000
11
-40.9140736731
21
0.1116941396
31
0.0000000000
11
-40.8429207281
21
0.2510677979
31
0.0000000000
11
-40.7325670524
21
0.3613329747
31
0.0000000000
11
-40.5934144280
21
0.4322854079
31
0.0000000000
11
-40.4386391014
21
0.4568420122
31
0.0000000000
0
SPLINE
5
54C
100
AcDbEntity
8
0
100
AcDbSpline
62
0
6
CONTINUOUS
70
0
71
3
72
12
73
8
74
6
42
0.0000001000
43
0.0000001000
44
0.0000000001
12
-0.7821980168
22
0.0000000000
32
0.0000000000
13
0.0000000000
23
0.7821980168
33
0.0000000000
40
0.0000000000
40
0.0000000000
40
0.0000000000
40
0.0000000000
40
0.2002653953
40
0.3998999486
40
0.5993252533
40
0.7994315263
40
1.0000000000
40
1.0000000000
40
1.0000000000
40
1.0000000000
10
-40.4387913831
20
-25.6860145251
30
0.0000000000
10
-40.4910071147
20
-25.6860145251
30
0.0000000000
10
-40.5960132481
20
-25.6693973137
30
0.0000000000
10
-40.7373901079
20
-25.5972262536
30
0.0000000000
10
-40.8497288181
20
-25.4849242161
30
0.0000000000
10
-40.9220135753
20
-25.3433660199
30
0.0000000000
10
-40.9386581406
20
-25.2381568757
30
0.0000000000
10
-40.9386581406
20
-25.1858621216
30
0.0000000000
11
-40.4387913831
21
-25.6860145251
31
0.0000000000
11
-40.5935023751
21
-25.6614614668
31
0.0000000000
11
-40.7326056167
21
-25.5905087900
31
0.0000000000
11
-40.8429280735
21
-25.4802279672
31
0.0000000000
11
-40.9140714988
21
-25.3408078179
31
0.0000000000
11
-40.9386581406
21
-25.1858621216
31
0.0000000000
0
SPLINE
5
54D
100
AcDbEntity
8
0
100
AcDbSpline
62
0
6
CONTINUOUS
70
0
71
3
72
12
73
8
74
6
42
0.0000001000
43
0.0000001000
44
0.0000000001
12
0.7811965698
22
0.0000000000
32
0.0000000000
13
0.0000000000
23
-0.7811965698
33
0.0000000000
40
0.0000000000
40
0.0000000000
40
0.0000000000
40
0.0000000000
40
0.2004786115
40
0.4000945666
40
0.5993934927
40
0.7993924508
40
1.0000000000
40
1.0000000000
40
1.0000000000
40
1.0000000000
10
34.5227561870
20
14.3568420122
30
0.0000000000
10
34.5749605882
20
14.3568420122
30
0.0000000000
10
34.6798849236
20
14.3402736675
30
0.0000000000
10
34.8211298561
20
14.2682494488
30
0.0000000000
10
34.9333081654
20
14.1561629905
30
0.0000000000
10
35.0054708363
20
14.0148241836
30
0.0000000000
10
35.0220709543
20
13.9097652213
30
0.0000000000
10
35.0220709543
20
13.8575272448
30
0.0000000000
11
34.5227561870
21
14.3568420122
31
0.0000000000
11
34.6774387970
21
14.3323270023
31
0.0000000000
11
34.8163756607
21
14.2615201311
31
0.0000000000
11
34.9265109610
21
14.1514742245
31
0.0000000000
11
34.9975243877
21
14.0123068356
31
0.0000000000
11
35.0220709543
21
13.8575272448
31
0.0000000000
0
SPLINE
5
54E
100
AcDbEntity
8
0
100
AcDbSpline
62
0
6
CONTINUOUS
70
0
71
3
72
12
73
8
74
6
42
0.0000001000
43
0.0000001000
44
0.0000000001
12
0.0000000000
22
0.7811965698
32
0.0000000000
13
0.7811965698
23
0.0000000000
33
0.0000000000
40
0.0000000000
40
0.0000000000
40
0.0000000000
40
0.0000000000
40
0.2004786115
40
0.4000945666
40
0.5993934927
40
0.7993924508
40
1.0000000000
40
1.0000000000
40
1.0000000000
40
1.0000000000
10
30.0220709543
20
13.8575272448
30
0.0000000000
10
30.0220709543
20
13.9097316460
30
0.0000000000
10
30.0386392990
20
14.0146559814
30
0.0000000000
10
30.1106635178
20
14.1559009139
30
0.0000000000
10
30.2227499760
20
14.2680792232
30
0.0000000000
10
30.3640887830
20
14.3402418941
30
0.0000000000
10
30.4691477453
20
14.3568420122
30
0.0000000000
10
30.5213857217
20
14.3568420122
30
0.0000000000
11
30.0220709543
21
13.8575272448
31
0.0000000000
11
30.0465859642
21
14.0122098549
31
0.0000000000
11
30.1173928354
21
14.1511467186
31
0.0000000000
11
30.2274387421
21
14.2612820189
31
0.0000000000
11
30.3666061310
21
14.3322954455
31
0.0000000000
11
30.5213857217
21
14.3568420122
31
0.0000000000
0
SPLINE
5
54F
100
AcDbEntity
8
0
100
AcDbSpline
62
0
6
CONTINUOUS
70
0
71
3
72
12
73
8
74
6
42
0.0000001000
43
0.0000001000
44
0.0000000001
12
-0.7811965698
22
0.0000000000
32
0.0000000000
13
0.0000000000
23
0.7811965698
33
0.0000000000
40
0.0000000000
40
0.0000000000
40
0.0000000000
40
0.0000000000
40
0.2004786115
40
0.4000945666
40
0.5993934927
40
0.7993924508
40
1.0000000000
40
1.0000000000
40
1.0000000000
40
1.0000000000
10
30.5213857217
20
-16.6431579878
30
0.0000000000
10
30.4691813205
20
-16.6431579878
30
0.0000000000
10
30.3642569851
20
-16.6265896431
30
0.0000000000
10
30.2230120526
20
-16.5545654244
30
0.0000000000
10
30.1108337433
20
-16.4424789661
30
0.0000000000
10
30.0386710724
20
-16.3011401592
30
0.0000000000
10
30.0220709543
20
-16.1960811969
30
0.0000000000
10
30.0220709543
20
-16.1438432204
30
0.0000000000
11
30.5213857217
21
-16.6431579878
31
0.0000000000
11
30.3667031117
21
-16.6186429779
31
0.0000000000
11
30.2277662480
21
-16.5478361067
31
0.0000000000
11
30.1176309477
21
-16.4377902001
31
0.0000000000
11
30.0466175210
21
-16.2986228112
31
0.0000000000
11
30.0220709543
21
-16.1438432204
31
0.0000000000
0
SPLINE
5
550
100
AcDbEntity
8
0
100
AcDbSpline
62
0
6
CONTINUOUS
70
0
71
3
72
12
73
8
74
6
42
0.0000001000
43
0.0000001000
44
0.0000000001
12
0.0000000000
22
-0.7811965698
32
0.0000000000
13
-0.7811965698
23
0.0000000000
33
0.0000000000
40
0.0000000000
40
0.0000000000
40
0.0000000000
40
0.0000000000
40
0.2004786115
40
0.4000945666
40
0.5993934927
40
0.7993924508
40
1.0000000000
40
1.0000000000
40
1.0000000000
40
1.0000000000
10
35.0220709543
20
-16.1438432204
30
0.0000000000
10
35.0220709543
20
-16.1960476216
30
0.0000000000
10
35.0055026096
20
-16.3009719570
30
0.0000000000
10
34.9334783909
20
-16.4422168895
30
0.0000000000
10
34.8213919327
20
-16.5543951988
30
0.0000000000
10
34.6800531257
20
-16.6265578697
30
0.0000000000
10
34.5749941634
20
-16.6431579878
30
0.0000000000
10
34.5227561870
20
-16.6431579878
30
0.0000000000
11
35.0220709543
21
-16.1438432204
31
0.0000000000
11
34.9975559445
21
-16.2985258305
31
0.0000000000
11
34.9267490733
21
-16.4374626942
31
0.0000000000
11
34.8167031666
21
-16.5475979945
31
0.0000000000
11
34.6775357777
21
-16.6186114211
31
0.0000000000
11
34.5227561870
21
-16.6431579878
31
0.0000000000
0
SPLINE
5
551
100
AcDbEntity
8
0
100
AcDbSpline
62
9
6
CONTINUOUS
70
0
71
3
72
13
73
9
74
7
42
0.0000001000
43
0.0000001000
44
0.0000000001
12
-0.0002139176
22
-0.7827212073
32
0.0000000000
13
-0.7827212197
23
-0.0001623695
33
0.0000000000
40
0.0000000000
40
0.0000000000
40
0.0000000000
40
0.0000000000
40
0.1657245566
40
0.3328000955
40
0.5000534630
40
0.6672457725
40
0.8342736681
40
1.0000000000
40
1.0000000000
40
1.0000000000
40
1.0000000000
10
43.3341594863
20
-27.5206303368
30
0.0000000000
10
43.3341476692
20
-27.5638690451
30
0.0000000000
10
43.3227856415
20
-27.6511198764
30
0.0000000000
10
43.2724323161
20
-27.7730436713
30
0.0000000000
10
43.1919170587
20
-27.8781208888
30
0.0000000000
10
43.0868400898
20
-27.9586138708
30
0.0000000000
10
42.9649421794
20
-28.0089515240
30
0.0000000000
10
42.8777032450
20
-28.0203167806
30
0.0000000000
10
42.8344640728
20
-28.0203257503
30
0.0000000000
11
43.3341594863
21
-27.5206303368
31
0.0000000000
11
43.3173392381
21
-27.6492513055
31
0.0000000000
11
43.2674534645
21
-27.7701361136
31
0.0000000000
11
43.1878092752
21
-27.8740348842
31
0.0000000000
11
43.0839380942
21
-27.9536365075
31
0.0000000000
11
42.9630863219
21
-28.0035045766
31
0.0000000000
11
42.8344640728
21
-28.0203257503
31
0.0000000000
0
SPLINE
5
552
100
AcDbEntity
8
0
100
AcDbSpline
62
9
6
CONTINUOUS
70
0
71
3
72
13
73
9
74
7
42
0.0000001000
43
0.0000001000
44
0.0000000001
12
0.0001623637
22
0.7827212197
32
0.0000000000
13
0.7827212073
23
0.0002139231
33
0.0000000000
40
0.0000000000
40
0.0000000000
40
0.0000000000
40
0.0000000000
40
0.1657263319
40
0.3327542275
40
0.4999465370
40
0.6671999044
40
0.8342754433
40
1.0000000000
40
1.0000000000
40
1.0000000000
40
1.0000000000
10
-43.2550968081
20
25.2343143612
30
0.0000000000
10
-43.2550878388
20
25.2775535334
30
0.0000000000
10
-43.2437225813
20
25.3647924676
30
0.0000000000
10
-43.1933849289
20
25.4866903782
30
0.0000000000
10
-43.1128919466
20
25.5917673471
30
0.0000000000
10
-43.0078147290
20
25.6722826043
30
0.0000000000
10
-42.8858909343
20
25.7226359304
30
0.0000000000
10
-42.7986401030
20
25.7339979572
30
0.0000000000
10
-42.7554013946
20
25.7340097747
30
0.0000000000
11
-43.2550968081
21
25.2343143612
31
0.0000000000
11
-43.2382756343
21
25.3629366102
31
0.0000000000
11
-43.1884075655
21
25.4837883826
31
0.0000000000
11
-43.1088059421
21
25.5876595636
31
0.0000000000
11
-43.0049071714
21
25.6673037528
31
0.0000000000
11
-42.8840223634
21
25.7171895267
31
0.0000000000
11
-42.7554013946
21
25.7340097747
31
0.0000000000
0
SPLINE
5
553
100
AcDbEntity
8
0
100
AcDbSpline
62
0
6
CONTINUOUS
70
0
71
3
72
11
73
7
74
5
42
0.0000001000
43
0.0000001000
44
0.0000000001
12
0.1791272387
22
0.0895363312
32
0.0000000000
13
0.0000000000
23
0.2002581390
33
0.0000000000
40
0.0000000000
40
0.0000000000
40
0.0000000000
40
0.0000000000
40
0.0814888752
40
0.3014516178
40
0.6249974447
40
1.0000000000
40
1.0000000000
40
1.0000000000
40
1.0000000000
10
44.3453671518
20
23.6534119258
30
0.0000000000
10
44.3502327775
20
23.6558439974
30
0.0000000000
10
44.3448360378
20
23.6823731122
30
0.0000000000
10
44.3529000013
20
23.7184002113
30
0.0000000000
10
44.3510674978
20
23.7824983576
30
0.0000000000
10
44.3522294154
20
23.8283490269
30
0.0000000000
10
44.3522294154
20
23.8533814648
30
0.0000000000
11
44.3453671518
21
23.6534119258
31
0.0000000000
11
44.3479936437
21
23.6695179842
31
0.0000000000
11
44.3502373453
21
23.7135101338
31
0.0000000000
11
44.3517183943
21
23.7782858897
31
0.0000000000
11
44.3522294154
21
23.8533814648
31
0.0000000000
0
SPLINE
5
554
100
AcDbEntity
8
0
100
AcDbSpline
62
0
6
CONTINUOUS
70
0
71
3
72
11
73
7
74
5
42
0.0000001000
43
0.0000001000
44
0.0000000001
12
0.0000000000
22
-0.2002581390
32
0.0000000000
13
0.1791272387
23
-0.0895363312
33
0.0000000000
40
0.0000000000
40
0.0000000000
40
0.0000000000
40
0.0000000000
40
0.3750025553
40
0.6985483822
40
0.9185111248
40
1.0000000000
40
1.0000000000
40
1.0000000000
40
1.0000000000
10
-44.3080875067
20
23.8533814648
30
0.0000000000
10
-44.3080875067
20
23.8283490269
30
0.0000000000
10
-44.3069255891
20
23.7824983576
30
0.0000000000
10
-44.3087580926
20
23.7184002113
30
0.0000000000
10
-44.3006941291
20
23.6823731122
30
0.0000000000
10
-44.3060908688
20
23.6558439974
30
0.0000000000
10
-44.3012252431
20
23.6534119258
30
0.0000000000
11
-44.3080875067
21
23.8533814648
31
0.0000000000
11
-44.3075764856
21
23.7782858897
31
0.0000000000
11
-44.3060954366
21
23.7135101338
31
0.0000000000
11
-44.3038517350
21
23.6695179842
31
0.0000000000
11
-44.3012252431
21
23.6534119258
31
0.0000000000
0
SPLINE
5
555
100
AcDbEntity
8
0
100
AcDbSpline
62
9
6
CONTINUOUS
70
0
71
3
72
13
73
9
74
7
42
0.0000001000
43
0.0000001000
44
0.0000000001
12
0.7827212197
22
-0.0001623637
32
0.0000000000
13
0.0002139231
23
-0.7827212073
33
0.0000000000
40
0.0000000000
40
0.0000000000
40
0.0000000000
40
0.0000000000
40
0.1657263319
40
0.3327542275
40
0.4999465370
40
0.6671999044
40
0.8342754433
40
1.0000000000
40
1.0000000000
40
1.0000000000
40
1.0000000000
10
42.7995433033
20
25.7340097747
30
0.0000000000
10
42.8427824755
20
25.7340008054
30
0.0000000000
10
42.9300214098
20
25.7226355478
30
0.0000000000
10
43.0519193204
20
25.6722978955
30
0.0000000000
10
43.1569962892
20
25.5918049131
30
0.0000000000
10
43.2375115464
20
25.4867276956
30
0.0000000000
10
43.2878648725
20
25.3648039009
30
0.0000000000
10
43.2992268994
20
25.2775530695
30
0.0000000000
10
43.2992387168
20
25.2343143612
30
0.0000000000
11
42.7995433033
21
25.7340097747
31
0.0000000000
11
42.9281655524
21
25.7171886008
31
0.0000000000
11
43.0490173247
21
25.6673205320
31
0.0000000000
11
43.1528885057
21
25.5877189086
31
0.0000000000
11
43.2325326949
21
25.4838201379
31
0.0000000000
11
43.2824184688
21
25.3629353300
31
0.0000000000
11
43.2992387168
21
25.2343143612
31
0.0000000000
0
SPLINE
5
556
100
AcDbEntity
8
0
100
AcDbSpline
62
0
6
CONTINUOUS
70
0
71
3
72
11
73
7
74
5
42
0.0000001000
43
0.0000001000
44
0.0000000001
12
-0.2006155389
22
0.0000000000
32
0.0000000000
13
-0.0633938039
23
0.1903360714
33
0.0000000000
40
0.0000000000
40
0.0000000000
40
0.0000000000
40
0.0000000000
40
0.3742615028
40
0.6973315418
40
0.9173084233
40
1.0000000000
40
1.0000000000
40
1.0000000000
40
1.0000000000
10
32.1082509264
20
15.9616575708
30
0.0000000000
10
32.0832233687
20
15.9616575708
30
0.0000000000
10
32.0375034941
20
15.9628240078
30
0.0000000000
10
31.9729084565
20
15.9621412541
30
0.0000000000
10
31.9377935277
20
15.9700808070
30
0.0000000000
10
31.9100287652
20
15.9667098016
30
0.0000000000
10
31.9082813874
20
15.9719561982
30
0.0000000000
11
32.1082509264
21
15.9616575708
31
0.0000000000
11
32.0331721666
21
15.9624241350
31
0.0000000000
11
31.9683974016
21
15.9646462818
31
0.0000000000
11
31.9243952693
21
15.9680135000
31
0.0000000000
11
31.9082813874
21
15.9719561982
31
0.0000000000
0
SPLINE
5
557
100
AcDbEntity
8
0
100
AcDbSpline
62
0
6
CONTINUOUS
70
0
71
3
72
11
73
7
74
5
42
0.0000001000
43
0.0000001000
44
0.0000000001
12
0.3121097150
22
0.0000000000
32
0.0000000000
13
0.0000000000
23
-0.3121097150
33
0.0000000000
40
0.0000000000
40
0.0000000000
40
0.0000000000
40
0.0000000000
40
0.2476602757
40
0.4983421865
40
0.7505917120
40
1.0000000000
40
1.0000000000
40
1.0000000000
40
1.0000000000
10
33.0722231942
20
17.9761042465
30
0.0000000000
10
33.0979889203
20
17.9761042465
30
0.0000000000
10
33.1503908475
20
17.9658246027
30
0.0000000000
10
33.2170375114
20
17.9214375251
30
0.0000000000
10
33.2616891131
20
17.8547153161
30
0.0000000000
10
33.2720709543
20
17.8019602889
30
0.0000000000
10
33.2720709543
20
17.7760127056
30
0.0000000000
11
33.0722231942
21
17.9761042465
31
0.0000000000
11
33.1480594963
21
17.9611473406
31
0.0000000000
11
33.2132195525
21
17.9178379269
31
0.0000000000
11
33.2569547442
21
17.8523736503
31
0.0000000000
11
33.2720709543
21
17.7760127056
31
0.0000000000
0
SPLINE
5
558
100
AcDbEntity
8
0
100
AcDbSpline
62
9
6
CONTINUOUS
70
0
71
3
72
11
73
7
74
5
42
0.0000001000
43
0.0000001000
44
0.0000000001
12
0.3118208881
22
-0.0002844666
32
0.0000000000
13
0.0002851610
23
-0.3118208875
33
0.0000000000
40
0.0000000000
40
0.0000000000
40
0.0000000000
40
0.0000000000
40
0.2501098177
40
0.5001989212
40
0.7501715417
40
1.0000000000
40
1.0000000000
40
1.0000000000
40
1.0000000000
10
32.9358909823
20
17.5667750058
30
0.0000000000
10
32.9618874708
20
17.5667512898
30
0.0000000000
10
33.0144348929
20
17.5563219607
30
0.0000000000
10
33.0808665359
20
17.5118754022
30
0.0000000000
10
33.1253858674
20
17.4455237733
30
0.0000000000
10
33.1358367742
20
17.3930163427
30
0.0000000000
10
33.1358605213
20
17.3670490989
30
0.0000000000
11
32.9358909823
21
17.5667750058
31
0.0000000000
11
33.0123738551
21
17.5515194511
31
0.0000000000
11
33.0772262671
21
17.5082121884
31
0.0000000000
11
33.1205863574
21
17.4434387891
31
0.0000000000
11
33.1358605213
21
17.3670490989
31
0.0000000000
0
SPLINE
5
559
100
AcDbEntity
8
0
100
AcDbSpline
62
0
6
CONTINUOUS
70
0
71
3
72
11
73
7
74
5
42
0.0000001000
43
0.0000001000
44
0.0000000001
12
-0.0633938039
22
-0.1903360714
32
0.0000000000
13
-0.2006155389
23
-0.0000000000
33
0.0000000000
40
0.0000000000
40
0.0000000000
40
0.0000000000
40
0.0000000000
40
0.0826915767
40
0.3026684582
40
0.6257384972
40
1.0000000000
40
1.0000000000
40
1.0000000000
40
1.0000000000
10
33.1358605213
20
15.9719561982
30
0.0000000000
10
33.1341131435
20
15.9667098016
30
0.0000000000
10
33.1063483810
20
15.9700808070
30
0.0000000000
10
33.0712334522
20
15.9621412541
30
0.0000000000
10
33.0066384146
20
15.9628240078
30
0.0000000000
10
32.9609185400
20
15.9616575708
30
0.0000000000
10
32.9358909823
20
15.9616575708
30
0.0000000000
11
33.1358605213
21
15.9719561982
31
0.0000000000
11
33.1197466393
21
15.9680135000
31
0.0000000000
11
33.0757445071
21
15.9646462818
31
0.0000000000
11
33.0109697421
21
15.9624241350
31
0.0000000000
11
32.9358909823
21
15.9616575708
31
0.0000000000
0
SPLINE
5
55A
100
AcDbEntity
8
0
100
AcDbSpline
62
0
6
CONTINUOUS
70
0
71
3
72
11
73
7
74
5
42
0.0000001000
43
0.0000001000
44
0.0000000001
12
0.0000000000
22
0.3121097029
32
0.0000000000
13
0.3121097029
23
0.0000000000
33
0.0000000000
40
0.0000000000
40
0.0000000000
40
0.0000000000
40
0.0000000000
40
0.2481229392
40
0.4989896472
40
0.7510722962
40
1.0000000000
40
1.0000000000
40
1.0000000000
40
1.0000000000
10
31.7720709543
20
17.7760127056
30
0.0000000000
10
31.7720709543
20
17.8018265646
30
0.0000000000
10
31.7823426595
20
17.8542956249
30
0.0000000000
10
31.8266919949
20
17.9210251328
30
0.0000000000
10
31.8933333454
20
17.9657149810
30
0.0000000000
10
31.9460211306
20
17.9761042465
30
0.0000000000
10
31.9719187145
20
17.9761042465
30
0.0000000000
11
31.7720709543
21
17.7760127056
31
0.0000000000
11
31.7870317192
21
17.8519954230
31
0.0000000000
11
31.8303222055
21
17.9172372825
31
0.0000000000
11
31.8957095311
21
17.9609938513
31
0.0000000000
11
31.9719187145
21
17.9761042465
31
0.0000000000
0
SPLINE
5
55B
100
AcDbEntity
8
0
100
AcDbSpline
62
0
6
CONTINUOUS
70
0
71
3
72
12
73
8
74
6
42
0.0000001000
43
0.0000001000
44
0.0000000001
12
-0.5772456046
22
0.8163485629
32
0.0000000000
13
-0.0437560145
23
0.9988607888
33
0.0000000000
40
0.0000000000
40
0.0000000000
40
0.0000000000
40
0.0000000000
40
0.2781254446
40
0.5212859193
40
0.7255817150
40
0.8862591411
40
1.0000000000
40
1.0000000000
40
1.0000000000
40
1.0000000000
10
33.4293578800
20
24.0911532374
30
0.0000000000
10
33.3758423165
20
24.1668356730
30
0.0000000000
10
33.2755076976
20
24.3086949326
30
0.0000000000
10
33.1395157250
20
24.5085708538
30
0.0000000000
10
33.0322761644
20
24.6809728360
30
0.0000000000
10
32.9594415488
20
24.8225058963
30
0.0000000000
10
32.9311881664
20
24.9116185349
30
0.0000000000
10
32.9295292175
20
24.9494889629
30
0.0000000000
11
33.4293578800
21
24.0911532374
31
0.0000000000
11
33.2695272471
21
24.3187051835
31
0.0000000000
11
33.1336959901
21
24.5203371513
31
0.0000000000
11
33.0273513265
21
24.6947288185
31
0.0000000000
11
32.9569280164
21
24.8391186830
31
0.0000000000
11
32.9295292175
21
24.9494889629
31
0.0000000000
0
SPLINE
5
55C
100
AcDbEntity
8
0
100
AcDbSpline
62
0
6
CONTINUOUS
70
0
71
3
72
12
73
8
74
6
42
0.0000001000
43
0.0000001000
44
0.0000000001
12
-0.9997491357
22
0.0000000000
32
0.0000000000
13
-0.8942572968
23
0.4469924176
33
0.0000000000
40
0.0000000000
40
0.0000000000
40
0.0000000000
40
0.0000000000
40
0.3009722503
40
0.5770111337
40
0.7966902040
40
0.9428401746
40
1.0000000000
40
1.0000000000
40
1.0000000000
40
1.0000000000
10
-43.2550968081
20
23.6132043499
30
0.0000000000
10
-43.3553957238
20
23.6132043499
30
0.0000000000
10
-43.5478542827
20
23.6132116098
30
0.0000000000
10
-43.8126811894
20
23.6172883179
30
0.0000000000
10
-44.0282823503
20
23.6156645149
30
0.0000000000
10
-44.1657582898
20
23.6294267136
30
0.0000000000
10
-44.2374491048
20
23.6215335723
30
0.0000000000
10
-44.2544876352
20
23.6300502418
30
0.0000000000
11
-43.2550968081
21
23.6132043499
31
0.0000000000
11
-43.5559924679
21
23.6140132688
31
0.0000000000
11
-43.8319517707
21
23.6164013045
31
0.0000000000
11
-44.0515445132
21
23.6201042077
31
0.0000000000
11
-44.1975815354
21
23.6248250730
31
0.0000000000
11
-44.2544876352
21
23.6300502418
31
0.0000000000
0
SPLINE
5
55D
100
AcDbEntity
8
0
100
AcDbSpline
62
0
6
CONTINUOUS
70
0
71
3
72
12
73
8
74
6
42
0.0000001000
43
0.0000001000
44
0.0000000001
12
0.4469924176
22
-0.8942572968
32
0.0000000000
13
0.0000000000
23
-0.9997491357
33
0.0000000000
40
0.0000000000
40
0.0000000000
40
0.0000000000
40
0.0000000000
40
0.0571598254
40
0.2033097960
40
0.4229888663
40
0.6990277497
40
1.0000000000
40
1.0000000000
40
1.0000000000
40
1.0000000000
10
-34.0011372753
20
26.7334006017
30
0.0000000000
10
-33.9926206058
20
26.7163620714
30
0.0000000000
10
-34.0005137470
20
26.6446712564
30
0.0000000000
10
-33.9867515484
20
26.5071953168
30
0.0000000000
10
-33.9883753514
20
26.2915941559
30
0.0000000000
10
-33.9842986432
20
26.0267672493
30
0.0000000000
10
-33.9842913833
20
25.8343086904
30
0.0000000000
10
-33.9842913833
20
25.7340097747
30
0.0000000000
11
-34.0011372753
21
26.7334006017
31
0.0000000000
11
-33.9959121065
21
26.6764945019
31
0.0000000000
11
-33.9911912411
21
26.5304574798
31
0.0000000000
11
-33.9874883380
21
26.3108647372
31
0.0000000000
11
-33.9851003022
21
26.0349054345
31
0.0000000000
11
-33.9842913833
21
25.7340097747
31
0.0000000000
0
SPLINE
5
55E
100
AcDbEntity
8
0
100
AcDbSpline
62
0
6
CONTINUOUS
70
0
71
3
72
12
73
8
74
6
42
0.0000001000
43
0.0000001000
44
0.0000000001
12
-0.8942572968
22
-0.4469924176
32
0.0000000000
13
-0.9997491357
23
-0.0000000000
33
0.0000000000
40
0.0000000000
40
0.0000000000
40
0.0000000000
40
0.0000000000
40
0.0571598254
40
0.2033097960
40
0.4229888663
40
0.6990277497
40
1.0000000000
40
1.0000000000
40
1.0000000000
40
1.0000000000
10
44.2986295438
20
23.6300502418
30
0.0000000000
10
44.2815910135
20
23.6215335723
30
0.0000000000
10
44.2099001985
20
23.6294267136
30
0.0000000000
10
44.0724242590
20
23.6156645149
30
0.0000000000
10
43.8568230981
20
23.6172883179
30
0.0000000000
10
43.5919961914
20
23.6132116098
30
0.0000000000
10
43.3995376325
20
23.6132043499
30
0.0000000000
10
43.2992387168
20
23.6132043499
30
0.0000000000
11
44.2986295438
21
23.6300502418
31
0.0000000000
11
44.2417234441
21
23.6248250730
31
0.0000000000
11
44.0956864219
21
23.6201042077
31
0.0000000000
11
43.8760936794
21
23.6164013045
31
0.0000000000
11
43.6001343766
21
23.6140132688
31
0.0000000000
11
43.2992387168
21
23.6132043499
31
0.0000000000
0
SPLINE
5
55F
100
AcDbEntity
8
0
100
AcDbSpline
62
0
6
CONTINUOUS
70
0
71
3
72
12
73
8
74
6
42
0.0000001000
43
0.0000001000
44
0.0000000001
12
0.0000000000
22
0.9997491357
32
0.0000000000
13
0.4469924176
23
0.8942572968
33
0.0000000000
40
0.0000000000
40
0.0000000000
40
0.0000000000
40
0.0000000000
40
0.3009722503
40
0.5770111337
40
0.7966902040
40
0.9428401746
40
1.0000000000
40
1.0000000000
40
1.0000000000
40
1.0000000000
10
34.0284332920
20
25.7340097747
30
0.0000000000
10
34.0284332920
20
25.8343086904
30
0.0000000000
10
34.0284405519
20
26.0267672493
30
0.0000000000
10
34.0325172600
20
26.2915941559
30
0.0000000000
10
34.0308934570
20
26.5071953168
30
0.0000000000
10
34.0446556557
20
26.6446712564
30
0.0000000000
10
34.0367625145
20
26.7163620714
30
0.0000000000
10
34.0452791840
20
26.7334006017
30
0.0000000000
11
34.0284332920
21
25.7340097747
31
0.0000000000
11
34.0292422109
21
26.0349054345
31
0.0000000000
11
34.0316302467
21
26.3108647372
31
0.0000000000
11
34.0353331498
21
26.5304574798
31
0.0000000000
11
34.0400540152
21
26.6764945019
31
0.0000000000
11
34.0452791840
21
26.7334006017
31
0.0000000000
0
SPLINE
5
560
100
AcDbEntity
8
0
100
AcDbSpline
62
0
6
CONTINUOUS
70
0
71
3
72
12
73
8
74
6
42
0.0000001000
43
0.0000001000
44
0.0000000001
12
0.6000491693
22
-0.8002078014
32
0.0000000000
13
0.0000000000
23
-1.0001957463
33
0.0000000000
40
0.0000000000
40
0.0000000000
40
0.0000000000
40
0.0000000000
40
0.0574393210
40
0.2036300544
40
0.4232564231
40
0.6991810115
40
1.0000000000
40
1.0000000000
40
1.0000000000
40
1.0000000000
10
32.8384496338
20
26.7334006017
30
0.0000000000
10
32.8499384394
20
26.7180794708
30
0.0000000000
10
32.8409721605
20
26.6428835555
30
0.0000000000
10
32.8591383475
20
26.5082662788
30
0.0000000000
10
32.8579539664
20
26.2911655847
30
0.0000000000
10
32.8635875493
20
26.0269031049
30
0.0000000000
10
32.8637216798
20
25.8343023989
30
0.0000000000
10
32.8637216798
20
25.7340097747
30
0.0000000000
11
32.8384496338
21
26.7334006017
31
0.0000000000
11
32.8462889068
21
26.6764873945
31
0.0000000000
11
32.8533711935
21
26.5304396644
31
0.0000000000
11
32.8589260863
21
26.3108405506
31
0.0000000000
11
32.8625083146
21
26.0348852008
31
0.0000000000
11
32.8637216798
21
25.7340097747
31
0.0000000000
0
SPLINE
5
561
100
AcDbEntity
8
0
100
AcDbSpline
62
0
6
CONTINUOUS
70
0
71
3
72
12
73
8
74
6
42
0.0000001000
43
0.0000001000
44
0.0000000001
12
0.0000000000
22
1.0001957463
32
0.0000000000
13
0.6000491693
23
0.8002078014
33
0.0000000000
40
0.0000000000
40
0.0000000000
40
0.0000000000
40
0.0000000000
40
0.3008189885
40
0.5767435769
40
0.7963699456
40
0.9425606790
40
1.0000000000
40
1.0000000000
40
1.0000000000
40
1.0000000000
10
-32.8195797711
20
25.7340097747
30
0.0000000000
10
-32.8195797711
20
25.8343023989
30
0.0000000000
10
-32.8194456406
20
26.0269031049
30
0.0000000000
10
-32.8138120577
20
26.2911655847
30
0.0000000000
10
-32.8149964388
20
26.5082662788
30
0.0000000000
10
-32.7968302518
20
26.6428835555
30
0.0000000000
10
-32.8057965307
20
26.7180794708
30
0.0000000000
10
-32.7943077251
20
26.7334006017
30
0.0000000000
11
-32.8195797711
21
25.7340097747
31
0.0000000000
11
-32.8183664059
21
26.0348852008
31
0.0000000000
11
-32.8147841776
21
26.3108405506
31
0.0000000000
11
-32.8092292848
21
26.5304396644
31
0.0000000000
11
-32.8021469981
21
26.6764873945
31
0.0000000000
11
-32.7943077251
21
26.7334006017
31
0.0000000000
0
SPLINE
5
562
100
AcDbEntity
8
0
100
AcDbSpline
62
0
6
CONTINUOUS
70
0
71
3
72
12
73
8
74
6
42
0.0000001000
43
0.0000001000
44
0.0000000001
12
1.0001957463
22
0.0000000000
32
0.0000000000
13
0.8002078014
23
-0.6000491693
33
0.0000000000
40
0.0000000000
40
0.0000000000
40
0.0000000000
40
0.0000000000
40
0.3008189885
40
0.5767435769
40
0.7963699456
40
0.9425606790
40
1.0000000000
40
1.0000000000
40
1.0000000000
40
1.0000000000
10
43.3341594863
20
22.4484927377
30
0.0000000000
10
43.4344521106
20
22.4484927377
30
0.0000000000
10
43.6270528166
20
22.4483586072
30
0.0000000000
10
43.8913152963
20
22.4427250242
30
0.0000000000
10
44.1084159904
20
22.4439094054
30
0.0000000000
10
44.2430332672
20
22.4257432183
30
0.0000000000
10
44.3182291824
20
22.4347094972
30
0.0000000000
10
44.3335503133
20
22.4232206916
30
0.0000000000
11
43.3341594863
21
22.4484927377
31
0.0000000000
11
43.6350349124
21
22.4472793725
31
0.0000000000
11
43.9109902622
21
22.4436971441
31
0.0000000000
11
44.1305893761
21
22.4381422514
31
0.0000000000
11
44.2766371061
21
22.4310599647
31
0.0000000000
11
44.3335503133
21
22.4232206916
31
0.0000000000
0
SPLINE
5
563
100
AcDbEntity
8
0
100
AcDbSpline
62
0
6
CONTINUOUS
70
0
71
3
72
12
73
8
74
6
42
0.0000001000
43
0.0000001000
44
0.0000000001
12
0.8002078014
22
0.6000491693
32
0.0000000000
13
1.0001957463
23
0.0000000000
33
0.0000000000
40
0.0000000000
40
0.0000000000
40
0.0000000000
40
0.0000000000
40
0.0574393210
40
0.2036300544
40
0.4232564231
40
0.6991810115
40
1.0000000000
40
1.0000000000
40
1.0000000000
40
1.0000000000
10
-44.2894084046
20
22.4232206916
30
0.0000000000
10
-44.2740872737
20
22.4347094972
30
0.0000000000
10
-44.1988913585
20
22.4257432183
30
0.0000000000
10
-44.0642740817
20
22.4439094054
30
0.0000000000
10
-43.8471733876
20
22.4427250242
30
0.0000000000
10
-43.5829109079
20
22.4483586072
30
0.0000000000
10
-43.3903102019
20
22.4484927377
30
0.0000000000
10
-43.2900175776
20
22.4484927377
30
0.0000000000
11
-44.2894084046
21
22.4232206916
31
0.0000000000
11
-44.2324951974
21
22.4310599647
31
0.0000000000
11
-44.0864474674
21
22.4381422514
31
0.0000000000
11
-43.8668483535
21
22.4436971441
31
0.0000000000
11
-43.5908930037
21
22.4472793725
31
0.0000000000
11
-43.2900175776
21
22.4484927377
31
0.0000000000
0
SPLINE
5
564
100
AcDbEntity
8
0
100
AcDbSpline
62
0
6
CONTINUOUS
70
0
71
3
72
10
73
6
74
4
42
0.0000001000
43
0.0000001000
44
0.0000000001
12
0.1808185195
22
-0.3617472560
32
0.0000000000
13
0.0052298223
23
-0.4043872688
33
0.0000000000
40
0.0000000000
40
0.0000000000
40
0.0000000000
40
0.0000000000
40
0.1348021728
40
0.4802812834
40
1.0000000000
40
1.0000000000
40
1.0000000000
40
1.0000000000
10
-33.9487720805
20
25.0905440644
30
0.0000000000
10
-33.9406471707
20
25.0742892924
30
0.0000000000
10
-33.9479770493
20
25.0057979242
30
0.0000000000
10
-33.9345915024
20
24.8743940749
30
0.0000000000
10
-33.9362622871
20
24.7565267162
30
0.0000000000
10
-33.9353562750
20
24.6864708387
30
0.0000000000
11
-33.9487720805
21
25.0905440644
31
0.0000000000
11
-33.9436778972
21
25.0362657515
31
0.0000000000
11
-33.9390367579
21
24.8966238198
31
0.0000000000
11
-33.9353562750
21
24.6864708387
31
0.0000000000
0
SPLINE
5
565
100
AcDbEntity
8
0
100
AcDbSpline
62
0
6
CONTINUOUS
70
0
71
3
72
10
73
6
74
4
42
0.0000001000
43
0.0000001000
44
0.0000000001
12
-0.4043872688
22
0.0052298223
32
0.0000000000
13
-0.3617472560
23
0.1808185195
33
0.0000000000
40
0.0000000000
40
0.0000000000
40
0.0000000000
40
0.0000000000
40
0.5197187166
40
0.8651978272
40
1.0000000000
40
1.0000000000
40
1.0000000000
40
1.0000000000
10
-42.2075578722
20
23.5642692415
30
0.0000000000
10
-42.2776137496
20
23.5651752537
30
0.0000000000
10
-42.3954811083
20
23.5635044689
30
0.0000000000
10
-42.5268849576
20
23.5768900158
30
0.0000000000
10
-42.5953763258
20
23.5695601373
30
0.0000000000
10
-42.6116310979
20
23.5776850470
30
0.0000000000
11
-42.2075578722
21
23.5642692415
31
0.0000000000
11
-42.4177108533
21
23.5679497244
31
0.0000000000
11
-42.5573527850
21
23.5725908637
31
0.0000000000
11
-42.6116310979
21
23.5776850470
31
0.0000000000
0
SPLINE
5
566
100
AcDbEntity
8
0
100
AcDbSpline
62
0
6
CONTINUOUS
70
0
71
3
72
9
73
5
74
3
42
0.0000001000
43
0.0000001000
44
0.0000000001
12
0.0062038119
22
0.1416204029
32
0.0000000000
13
0.0850440548
23
0.1134122328
33
0.0000000000
40
0.0000000000
40
0.0000000000
40
0.0000000000
40
0.0000000000
40
0.7138972174
40
1.0000000000
40
1.0000000000
40
1.0000000000
40
1.0000000000
10
-32.8853873088
20
24.9494889629
30
0.0000000000
10
-32.8839110142
20
24.9831897668
30
0.0000000000
10
-32.8763864341
20
25.0275404152
30
0.0000000000
10
-32.8809759367
20
25.0797282126
30
0.0000000000
10
-32.8728654898
20
25.0905440644
30
0.0000000000
11
-32.8853873088
21
24.9494889629
31
0.0000000000
11
-32.8793413936
21
25.0505075728
31
0.0000000000
11
-32.8728654898
21
25.0905440644
31
0.0000000000
0
SPLINE
5
567
100
AcDbEntity
8
0
100
AcDbSpline
62
0
6
CONTINUOUS
70
0
71
3
72
9
73
5
74
3
42
0.0000001000
43
0.0000001000
44
0.0000000001
12
0.0850440548
22
-0.1134122328
32
0.0000000000
13
0.0062038119
23
-0.1416204029
33
0.0000000000
40
0.0000000000
40
0.0000000000
40
0.0000000000
40
0.0000000000
40
0.2861027826
40
1.0000000000
40
1.0000000000
40
1.0000000000
40
1.0000000000
10
32.9170073985
20
25.0905440644
30
0.0000000000
10
32.9251178454
20
25.0797282126
30
0.0000000000
10
32.9205283428
20
25.0275404152
30
0.0000000000
10
32.9280529228
20
24.9831897668
30
0.0000000000
10
32.9295292175
20
24.9494889629
30
0.0000000000
11
32.9170073985
21
25.0905440644
31
0.0000000000
11
32.9234833023
21
25.0505075728
31
0.0000000000
11
32.9295292175
21
24.9494889629
31
0.0000000000
0
SPLINE
5
568
100
AcDbEntity
8
0
100
AcDbSpline
62
0
6
CONTINUOUS
70
0
71
3
72
10
73
6
74
4
42
0.0000001000
43
0.0000001000
44
0.0000000001
12
-0.3617472560
22
-0.1808185195
32
0.0000000000
13
-0.4043872688
23
-0.0052298223
33
0.0000000000
40
0.0000000000
40
0.0000000000
40
0.0000000000
40
0.0000000000
40
0.1348021728
40
0.4802812834
40
1.0000000000
40
1.0000000000
40
1.0000000000
40
1.0000000000
10
42.6557730066
20
23.5776850470
30
0.0000000000
10
42.6395182345
20
23.5695601373
30
0.0000000000
10
42.5710268663
20
23.5768900158
30
0.0000000000
10
42.4396230170
20
23.5635044689
30
0.0000000000
10
42.3217556583
20
23.5651752537
30
0.0000000000
10
42.2516997809
20
23.5642692415
30
0.0000000000
11
42.6557730066
21
23.5776850470
31
0.0000000000
11
42.6014946937
21
23.5725908637
31
0.0000000000
11
42.4618527620
21
23.5679497244
31
0.0000000000
11
42.2516997809
21
23.5642692415
31
0.0000000000
0
SPLINE
5
569
100
AcDbEntity
8
0
100
AcDbSpline
62
0
6
CONTINUOUS
70
0
71
3
72
10
73
6
74
4
42
0.0000001000
43
0.0000001000
44
0.0000000001
12
0.0052298223
22
0.4043872688
32
0.0000000000
13
0.1808185195
23
0.3617472560
33
0.0000000000
40
0.0000000000
40
0.0000000000
40
0.0000000000
40
0.0000000000
40
0.5197187166
40
0.8651978272
40
1.0000000000
40
1.0000000000
40
1.0000000000
40
1.0000000000
10
33.9794981836
20
24.6864708387
30
0.0000000000
10
33.9804041958
20
24.7565267162
30
0.0000000000
10
33.9787334111
20
24.8743940749
30
0.0000000000
10
33.9921189579
20
25.0057979242
30
0.0000000000
10
33.9847890794
20
25.0742892924
30
0.0000000000
10
33.9929139892
20
25.0905440644
30
0.0000000000
11
33.9794981836
21
24.6864708387
31
0.0000000000
11
33.9831786665
21
24.8966238198
31
0.0000000000
11
33.9878198059
21
25.0362657515
31
0.0000000000
11
33.9929139892
21
25.0905440644
31
0.0000000000
0
SPLINE
5
56A
100
AcDbEntity
8
0
100
AcDbSpline
62
0
6
CONTINUOUS
70
0
71
3
72
12
73
8
74
6
42
0.0000001000
43
0.0000001000
44
0.0000000001
12
-0.9988567175
22
0.0437558362
32
0.0000000000
13
-0.8163452355
23
0.5772432518
33
0.0000000000
40
0.0000000000
40
0.0000000000
40
0.0000000000
40
0.0000000000
40
0.1141952374
40
0.2758946242
40
0.4804802117
40
0.7227438919
40
1.0000000000
40
1.0000000000
40
1.0000000000
40
1.0000000000
10
42.5147179050
20
22.5143002754
30
0.0000000000
10
42.4766963451
20
22.5159658447
30
0.0000000000
10
42.3871195397
20
22.5444465211
30
0.0000000000
10
42.2451295818
20
22.6176613038
30
0.0000000000
10
42.0726572719
20
22.7250479250
30
0.0000000000
10
41.8732059483
20
22.8607867027
30
0.0000000000
10
41.7318277472
20
22.9607808654
30
0.0000000000
10
41.6563821795
20
23.0141289379
30
0.0000000000
11
42.5147179050
21
22.5143002754
31
0.0000000000
11
42.4039214016
21
22.5418657091
31
0.0000000000
11
42.2586669812
21
22.6128456562
31
0.0000000000
11
42.0840824298
21
22.7194288719
31
0.0000000000
11
41.8832186886
21
22.8547939047
31
0.0000000000
11
41.6563821795
21
23.0141289379
31
0.0000000000
0
SPLINE
5
56B
100
AcDbEntity
8
0
100
AcDbSpline
62
9
6
CONTINUOUS
70
0
71
3
72
13
73
9
74
7
42
0.0000001000
43
0.0000001000
44
0.0000000001
12
-0.7827212073
22
0.0002139176
32
0.0000000000
13
-0.0001623695
23
0.7827212197
33
0.0000000000
40
0.0000000000
40
0.0000000000
40
0.0000000000
40
0.0000000000
40
0.1657245566
40
0.3328000955
40
0.5000534630
40
0.6672457725
40
0.8342736681
40
1.0000000000
40
1.0000000000
40
1.0000000000
40
1.0000000000
10
-42.7903221641
20
-28.0203257503
30
0.0000000000
10
-42.8335608725
20
-28.0203139332
30
0.0000000000
10
-42.9208117037
20
-28.0089519054
30
0.0000000000
10
-43.0427354986
20
-27.9585985801
30
0.0000000000
10
-43.1478127161
20
-27.8780833227
30
0.0000000000
10
-43.2283056982
20
-27.7730063537
30
0.0000000000
10
-43.2786433514
20
-27.6511084434
30
0.0000000000
10
-43.2900086080
20
-27.5638695090
30
0.0000000000
10
-43.2900175776
20
-27.5206303368
30
0.0000000000
11
-42.7903221641
21
-28.0203257503
31
0.0000000000
11
-42.9189431329
21
-28.0035055021
31
0.0000000000
11
-43.0398279409
21
-27.9536197284
31
0.0000000000
11
-43.1437267115
21
-27.8739755392
31
0.0000000000
11
-43.2233283349
21
-27.7701043581
31
0.0000000000
11
-43.2731964040
21
-27.6492525859
31
0.0000000000
11
-43.2900175776
21
-27.5206303368
31
0.0000000000
0
SPLINE
5
56C
100
AcDbEntity
8
0
100
AcDbSpline
62
9
6
CONTINUOUS
70
0
71
3
72
13
73
9
74
7
42
0.0000001000
43
0.0000001000
44
0.0000000001
12
0.0000565366
22
0.6263951544
32
0.0000000000
13
-0.6263951562
23
-0.0000301519
33
0.0000000000
40
0.0000000000
40
0.0000000000
40
0.0000000000
40
0.0000000000
40
0.1474106453
40
0.3138489778
40
0.4941678324
40
0.6765304206
40
0.8481095221
40
1.0000000000
40
1.0000000000
40
1.0000000000
40
1.0000000000
10
-33.7353867359
20
27.6494452439
30
0.0000000000
10
-33.7353839579
20
27.6802243485
30
0.0000000000
10
-33.7430160986
20
27.7459918710
30
0.0000000000
10
-33.7799746680
20
27.8435532512
30
0.0000000000
10
-33.8463401591
20
27.9337546938
30
0.0000000000
10
-33.9363024803
20
28.0023138398
30
0.0000000000
10
-34.0358129332
20
28.0412842531
30
0.0000000000
10
-34.1036113274
20
28.0493858485
30
0.0000000000
10
-34.1353258140
20
28.0493843219
30
0.0000000000
11
-33.7353867359
21
27.6494452439
31
0.0000000000
11
-33.7460478799
21
27.7411650325
31
0.0000000000
11
-33.7829818129
21
27.8386598150
31
0.0000000000
11
-33.8499352795
21
27.9296275536
31
0.0000000000
11
-33.9407810456
21
27.9988791077
31
0.0000000000
11
-34.0408576274
21
28.0380688607
31
0.0000000000
11
-34.1353258140
21
28.0493843219
31
0.0000000000
0
SPLINE
5
56D
100
AcDbEntity
8
0
100
AcDbSpline
62
9
6
CONTINUOUS
70
0
71
3
72
14
73
10
74
8
42
0.0000001000
43
0.0000001000
44
0.0000000001
12
-0.0002387760
22
2.9778342936
32
0.0000000000
13
2.9778342673
23
0.0004624815
33
0.0000000000
40
0.0000000000
40
0.0000000000
40
0.0000000000
40
0.0000000000
40
0.1431466809
40
0.2862383775
40
0.4286368951
40
0.5708499741
40
0.7135251174
40
0.8569146058
40
1.0000000000
40
1.0000000000
40
1.0000000000
40
1.0000000000
10
-45.4204713554
20
26.1496737011
30
0.0000000000
10
-45.4204827487
20
26.2917627329
30
0.0000000000
10
-45.3883347051
20
26.5769201634
30
0.0000000000
10
-45.2463509339
20
26.9816378193
30
0.0000000000
10
-45.0184629606
20
27.3440846595
30
0.0000000000
10
-44.7161845684
20
27.6466072435
30
0.0000000000
10
-44.3533850526
20
27.8750375148
30
0.0000000000
10
-43.9481787299
20
28.0172548315
30
0.0000000000
10
-43.6627889312
20
28.0493622638
30
0.0000000000
10
-43.5207607346
20
28.0493843219
30
0.0000000000
11
-45.4204713554
21
26.1496737011
31
0.0000000000
11
-45.3726557728
21
26.5732505040
31
0.0000000000
11
-45.2316645914
21
26.9753519369
31
0.0000000000
11
-45.0059233146
21
27.3343089132
31
0.0000000000
11
-44.7065956885
21
27.6338822745
31
0.0000000000
11
-44.3470810355
21
27.8602839719
31
0.0000000000
11
-43.9441591156
21
28.0016151573
31
0.0000000000
11
-43.5207607346
21
28.0493843219
31
0.0000000000
0
SPLINE
5
56E
100
AcDbEntity
8
0
100
AcDbSpline
62
9
6
CONTINUOUS
70
0
71
3
72
13
73
9
74
7
42
0.0000001000
43
0.0000001000
44
0.0000000001
12
-0.0000301800
22
-0.6263951889
32
0.0000000000
13
0.6263951871
23
0.0000564314
33
0.0000000000
40
0.0000000000
40
0.0000000000
40
0.0000000000
40
0.0000000000
40
0.1517558204
40
0.3231222473
40
0.5054072098
40
0.6858515733
40
0.8524800500
40
1.0000000000
40
1.0000000000
40
1.0000000000
40
1.0000000000
10
-45.4204713554
20
23.7642387805
30
0.0000000000
10
-45.4204728820
20
23.7325524086
30
0.0000000000
10
-45.4123872055
20
23.6648271996
30
0.0000000000
10
-45.3734887208
20
23.5653886317
30
0.0000000000
10
-45.3050065265
20
23.4754132685
30
0.0000000000
10
-45.2148007054
20
23.4089649879
30
0.0000000000
10
-45.1171647751
20
23.3719420459
30
0.0000000000
10
-45.0513342062
20
23.3642969276
30
0.0000000000
10
-45.0205322773
20
23.3642997025
30
0.0000000000
11
-45.4204713554
21
23.7642387805
31
0.0000000000
11
-45.4091759482
21
23.6698531392
31
0.0000000000
11
-45.3700728591
21
23.5698856909
31
0.0000000000
11
-45.3009061382
21
23.4790364169
31
0.0000000000
11
-45.2099133728
21
23.4119843455
31
0.0000000000
11
-45.1123191599
21
23.3749766718
31
0.0000000000
11
-45.0205322773
21
23.3642997025
31
0.0000000000
0
SPLINE
5
56F
100
AcDbEntity
8
0
100
AcDbSpline
62
9
6
CONTINUOUS
70
0
71
3
72
13
73
9
74
7
42
0.0000001000
43
0.0000001000
44
0.0000000001
12
0.6263951544
22
-0.0000565366
32
0.0000000000
13
-0.0000301519
23
0.6263951562
33
0.0000000000
40
0.0000000000
40
0.0000000000
40
0.0000000000
40
0.0000000000
40
0.1474106453
40
0.3138489778
40
0.4941678324
40
0.6765304206
40
0.8481095221
40
1.0000000000
40
1.0000000000
40
1.0000000000
40
1.0000000000
10
45.0646741860
20
23.3642997025
30
0.0000000000
10
45.0954532907
20
23.3642969244
30
0.0000000000
10
45.1612208132
20
23.3719290651
30
0.0000000000
10
45.2587821933
20
23.4088876345
30
0.0000000000
10
45.3489836359
20
23.4752531256
30
0.0000000000
10
45.4175427819
20
23.5652154468
30
0.0000000000
10
45.4565131952
20
23.6647258998
30
0.0000000000
10
45.4646147907
20
23.7325242940
30
0.0000000000
10
45.4646132641
20
23.7642387805
30
0.0000000000
11
45.0646741860
21
23.3642997025
31
0.0000000000
11
45.1563939746
21
23.3749608464
31
0.0000000000
11
45.2538887571
21
23.4118947795
31
0.0000000000
11
45.3448564957
21
23.4788482461
31
0.0000000000
11
45.4141080499
21
23.5696940121
31
0.0000000000
11
45.4532978029
21
23.6697705940
31
0.0000000000
11
45.4646132641
21
23.7642387805
31
0.0000000000
0
SPLINE
5
570
100
AcDbEntity
8
0
100
AcDbSpline
62
9
6
CONTINUOUS
70
0
71
3
72
14
73
10
74
8
42
0.0000001000
43
0.0000001000
44
0.0000000001
12
2.9778342936
22
0.0002387760
32
0.0000000000
13
0.0004624815
23
-2.9778342673
33
0.0000000000
40
0.0000000000
40
0.0000000000
40
0.0000000000
40
0.0000000000
40
0.1431466809
40
0.2862383775
40
0.4286368951
40
0.5708499741
40
0.7135251174
40
0.8569146058
40
1.0000000000
40
1.0000000000
40
1.0000000000
40
1.0000000000
10
43.5649026433
20
28.0493843219
30
0.0000000000
10
43.7069916751
20
28.0493957153
30
0.0000000000
10
43.9921491056
20
28.0172476717
30
0.0000000000
10
44.3968667615
20
27.8752639004
30
0.0000000000
10
44.7593136017
20
27.6473759271
30
0.0000000000
10
45.0618361857
20
27.3450975349
30
0.0000000000
10
45.2902664570
20
26.9822980191
30
0.0000000000
10
45.4324837736
20
26.5770916965
30
0.0000000000
10
45.4645912060
20
26.2917018978
30
0.0000000000
10
45.4646132641
20
26.1496737011
30
0.0000000000
11
43.5649026433
21
28.0493843219
31
0.0000000000
11
43.9884794461
21
28.0015687393
31
0.0000000000
11
44.3905808790
21
27.8605775580
31
0.0000000000
11
44.7495378554
21
27.6348362811
31
0.0000000000
11
45.0491112166
21
27.3355086551
31
0.0000000000
11
45.2755129141
21
26.9759940020
31
0.0000000000
11
45.4168440994
21
26.5730720822
31
0.0000000000
11
45.4646132641
21
26.1496737011
31
0.0000000000
0
SPLINE
5
571
100
AcDbEntity
8
0
100
AcDbSpline
62
9
6
CONTINUOUS
70
0
71
3
72
13
73
9
74
7
42
0.0000001000
43
0.0000001000
44
0.0000000001
12
-0.6263951889
22
0.0000301800
32
0.0000000000
13
0.0000564314
23
-0.6263951871
33
0.0000000000
40
0.0000000000
40
0.0000000000
40
0.0000000000
40
0.0000000000
40
0.1517558204
40
0.3231222473
40
0.5054072098
40
0.6858515733
40
0.8524800500
40
1.0000000000
40
1.0000000000
40
1.0000000000
40
1.0000000000
10
34.1794677227
20
28.0493843219
30
0.0000000000
10
34.1477813507
20
28.0493858486
30
0.0000000000
10
34.0800561417
20
28.0413001720
30
0.0000000000
10
33.9806175738
20
28.0024016873
30
0.0000000000
10
33.8906422106
20
27.9339194931
30
0.0000000000
10
33.8241939301
20
27.8437136719
30
0.0000000000
10
33.7871709880
20
27.7460777417
30
0.0000000000
10
33.7795258697
20
27.6802471728
30
0.0000000000
10
33.7795286446
20
27.6494452439
30
0.0000000000
11
34.1794677227
21
28.0493843219
31
0.0000000000
11
34.0850820813
21
28.0380889148
31
0.0000000000
11
33.9851146331
21
27.9989858256
31
0.0000000000
11
33.8942653590
21
27.9298191047
31
0.0000000000
11
33.8272132877
21
27.8388263393
31
0.0000000000
11
33.7902056140
21
27.7412321264
31
0.0000000000
11
33.7795286446
21
27.6494452439
31
0.0000000000
0
SPLINE
5
572
100
AcDbEntity
8
0
100
AcDbSpline
62
9
6
CONTINUOUS
70
0
71
3
72
17
73
13
74
11
42
0.0000001000
43
0.0000001000
44
0.0000000001
12
0.0000567131
22
3.9214973048
32
0.0000000000
13
-3.9214973051
23
-0.0000245136
33
0.0000000000
40
0.0000000000
40
0.0000000000
40
0.0000000000
40
0.0000000000
40
0.0793274059
40
0.1734176682
40
0.2784455558
40
0.3905324445
40
0.5058435327
40
0.6207064027
40
0.7314045255
40
0.8341239770
40
0.9248815659
40
1.0000000000
40
1.0000000000
40
1.0000000000
40
1.0000000000
10
45.8147840287
20
25.9004117741
30
0.0000000000
10
45.8147855283
20
26.0041058436
30
0.0000000000
10
45.8006531710
20
26.2310214584
30
0.0000000000
10
45.7286815366
20
26.5891283768
30
0.0000000000
10
45.5867611073
20
26.9723574868
30
0.0000000000
10
45.3677359569
20
27.3502666004
30
0.0000000000
10
45.0765696558
20
27.6931831479
30
0.0000000000
10
44.7298819238
20
27.9769456391
30
0.0000000000
10
44.3531956309
20
28.1869898767
30
0.0000000000
10
43.9768367326
20
28.3205415404
30
0.0000000000
10
43.6308554335
20
28.3867584393
30
0.0000000000
10
43.4138329619
20
28.3995557003
30
0.0000000000
10
43.3156407162
20
28.3995550865
30
0.0000000000
11
45.8147840287
21
25.9004117741
31
0.0000000000
11
45.7954340181
21
26.2108915924
31
0.0000000000
11
45.7227250164
21
26.5726314683
31
0.0000000000
11
45.5796749582
21
26.9588577736
31
0.0000000000
11
45.3592610475
21
27.3391478366
31
0.0000000000
11
45.0665788765
21
27.6838431537
31
0.0000000000
11
44.7180192739
21
27.9691454212
31
0.0000000000
11
44.3388810448
21
28.1805670109
31
0.0000000000
11
43.9592656494
21
28.3152938162
31
0.0000000000
11
43.6097059451
21
28.3822029931
31
0.0000000000
11
43.3156407162
21
28.3995550865
31
0.0000000000
0
SPLINE
5
573
100
AcDbEntity
8
0
100
AcDbSpline
62
9
6
CONTINUOUS
70
0
71
3
72
17
73
13
74
11
42
0.0000001000
43
0.0000001000
44
0.0000000001
12
-3.9214973048
22
0.0000567131
32
0.0000000000
13
0.0000245136
23
-3.9214973051
33
0.0000000000
40
0.0000000000
40
0.0000000000
40
0.0000000000
40
0.0000000000
40
0.0793274059
40
0.1734176682
40
0.2784455558
40
0.3905324445
40
0.5058435327
40
0.6207064027
40
0.7314045255
40
0.8341239770
40
0.9248815659
40
1.0000000000
40
1.0000000000
40
1.0000000000
40
1.0000000000
10
-43.2714988076
20
28.3995550865
30
0.0000000000
10
-43.3751928771
20
28.3995565862
30
0.0000000000
10
-43.6021084919
20
28.3854242288
30
0.0000000000
10
-43.9602154103
20
28.3134525945
30
0.0000000000
10
-44.3434445203
20
28.1715321652
30
0.0000000000
10
-44.7213536338
20
27.9525070147
30
0.0000000000
10
-45.0642701813
20
27.6613407137
30
0.0000000000
10
-45.3480326725
20
27.3146529817
30
0.0000000000
10
-45.5580769102
20
26.9379666887
30
0.0000000000
10
-45.6916285738
20
26.5616077904
30
0.0000000000
10
-45.7578454728
20
26.2156264913
30
0.0000000000
10
-45.7706427338
20
25.9986040197
30
0.0000000000
10
-45.7706421200
20
25.9004117741
30
0.0000000000
11
-43.2714988076
21
28.3995550865
31
0.0000000000
11
-43.5819786259
21
28.3802050760
31
0.0000000000
11
-43.9437185017
21
28.3074960743
31
0.0000000000
11
-44.3299448071
21
28.1644460160
31
0.0000000000
11
-44.7102348700
21
27.9440321054
31
0.0000000000
11
-45.0549301872
21
27.6513499343
31
0.0000000000
11
-45.3402324547
21
27.3027903317
31
0.0000000000
11
-45.5516540443
21
26.9236521027
31
0.0000000000
11
-45.6863808496
21
26.5440367072
31
0.0000000000
11
-45.7532900266
21
26.1944770029
31
0.0000000000
11
-45.7706421200
21
25.9004117741
31
0.0000000000
0
SPLINE
5
574
100
AcDbEntity
8
0
100
AcDbSpline
62
0
6
CONTINUOUS
70
0
71
3
72
9
73
5
74
3
42
0.0000001000
43
0.0000001000
44
0.0000000001
12
0.1134122328
22
0.0850440548
32
0.0000000000
13
0.1416204029
23
0.0062038119
33
0.0000000000
40
0.0000000000
40
0.0000000000
40
0.0000000000
40
0.0000000000
40
0.2861027826
40
1.0000000000
40
1.0000000000
40
1.0000000000
40
1.0000000000
10
-42.6116310979
20
22.5017784563
30
0.0000000000
10
-42.6008152461
20
22.5098889032
30
0.0000000000
10
-42.5486274487
20
22.5052994006
30
0.0000000000
10
-42.5042768002
20
22.5128239807
30
0.0000000000
10
-42.4705759964
20
22.5143002754
30
0.0000000000
11
-42.6116310979
21
22.5017784563
31
0.0000000000
11
-42.5715946063
21
22.5082543601
31
0.0000000000
11
-42.4705759964
21
22.5143002754
31
0.0000000000
0
SPLINE
5
575
100
AcDbEntity
8
0
100
AcDbSpline
62
0
6
CONTINUOUS
70
0
71
3
72
9
73
5
74
3
42
0.0000001000
43
0.0000001000
44
0.0000000001
12
0.1416204029
22
-0.0062038119
32
0.0000000000
13
0.1134122328
23
-0.0850440548
33
0.0000000000
40
0.0000000000
40
0.0000000000
40
0.0000000000
40
0.0000000000
40
0.7138972174
40
1.0000000000
40
1.0000000000
40
1.0000000000
40
1.0000000000
10
42.5147179050
20
22.5143002754
30
0.0000000000
10
42.5484187089
20
22.5128239807
30
0.0000000000
10
42.5927693574
20
22.5052994006
30
0.0000000000
10
42.6449571548
20
22.5098889032
30
0.0000000000
10
42.6557730066
20
22.5017784563
30
0.0000000000
11
42.5147179050
21
22.5143002754
31
0.0000000000
11
42.6157365149
21
22.5082543601
31
0.0000000000
11
42.6557730066
21
22.5017784563
31
0.0000000000
0
SPLINE
5
576
100
AcDbEntity
8
0
100
AcDbSpline
62
0
6
CONTINUOUS
70
0
71
3
72
13
73
9
74
7
42
0.0000001000
43
0.0000001000
44
0.0000000001
12
2.3481667360
22
0.0000000000
32
0.0000000000
13
0.0000000000
23
-2.3481667360
33
0.0000000000
40
0.0000000000
40
0.0000000000
40
0.0000000000
40
0.0000000000
40
0.1646823090
40
0.3333831124
40
0.4997946707
40
0.6663329094
40
0.8353484632
40
1.0000000000
40
1.0000000000
40
1.0000000000
40
1.0000000000
10
42.8531431748
20
26.7870004732
30
0.0000000000
10
42.9820436815
20
26.7870004732
30
0.0000000000
10
43.2442227771
20
26.7530200134
30
0.0000000000
10
43.6099803055
20
26.6021764377
30
0.0000000000
10
43.9251580674
20
26.3604846007
30
0.0000000000
10
44.1671794522
20
26.0452373566
30
0.0000000000
10
44.3182274208
20
25.6791910754
30
0.0000000000
10
44.3522294154
20
25.4167906533
30
0.0000000000
10
44.3522294154
20
25.2879142327
30
0.0000000000
11
42.8531431748
21
26.7870004732
31
0.0000000000
11
43.2366205709
21
26.7371692354
31
0.0000000000
11
43.6028628057
21
26.5862002475
31
0.0000000000
11
43.9129239220
21
26.3483828558
31
0.0000000000
11
44.1510927162
21
26.0382164505
31
0.0000000000
11
44.3024168014
21
25.6713211830
31
0.0000000000
11
44.3522294154
21
25.2879142327
31
0.0000000000
0
SPLINE
5
577
100
AcDbEntity
8
0
100
AcDbSpline
62
9
6
CONTINUOUS
70
0
71
3
72
13
73
9
74
7
42
0.0000001000
43
0.0000001000
44
0.0000000001
12
2.3474898897
22
-0.0021511634
32
0.0000000000
13
0.0022186180
23
-2.3474898270
33
0.0000000000
40
0.0000000000
40
0.0000000000
40
0.0000000000
40
0.0000000000
40
0.1666651758
40
0.3333351974
40
0.4999996368
40
0.6666642129
40
0.8333347173
40
1.0000000000
40
1.0000000000
40
1.0000000000
40
1.0000000000
10
42.7995433033
20
26.7334006017
30
0.0000000000
10
42.9299582417
20
26.7332810937
30
0.0000000000
10
43.1920422432
20
26.6986755080
30
0.0000000000
10
43.5573623899
20
26.5470482398
30
0.0000000000
10
43.8713358328
20
26.3061078405
30
0.0000000000
10
44.1122762290
20
25.9921345125
30
0.0000000000
10
44.2639061148
20
25.6268138395
30
0.0000000000
10
44.2985062883
20
25.3647293797
30
0.0000000000
10
44.2986295438
20
25.2343143612
30
0.0000000000
11
42.7995433033
21
26.7334006017
31
0.0000000000
11
43.1874046434
21
26.6820565197
31
0.0000000000
11
43.5488084255
21
26.5321604172
31
0.0000000000
11
43.8591636780
21
26.2939359464
31
0.0000000000
11
44.0973886817
21
25.9835806983
31
0.0000000000
11
44.2472854057
21
25.6221759470
31
0.0000000000
11
44.2986295438
21
25.2343143612
31
0.0000000000
0
SPLINE
5
578
100
AcDbEntity
8
0
100
AcDbSpline
62
0
6
CONTINUOUS
70
0
71
3
72
15
73
11
74
9
42
0.0000001000
43
0.0000001000
44
0.0000000001
12
0.0000000000
22
2.3510629792
32
0.0000000000
13
2.3510629792
23
-0.0000000000
33
0.0000000000
40
0.0000000000
40
0.0000000000
40
0.0000000000
40
0.0000000000
40
0.1426797943
40
0.2746372828
40
0.3981824196
40
0.5168705318
40
0.6373531683
40
0.7587203360
40
0.8797293821
40
1.0000000000
40
1.0000000000
40
1.0000000000
40
1.0000000000
10
-44.3080875067
20
25.2879142327
30
0.0000000000
10
-44.3080875067
20
25.3997306268
30
0.0000000000
10
-44.2838225760
20
25.6157661323
30
0.0000000000
10
-44.1826565168
20
25.9131954949
30
0.0000000000
10
-44.0338753894
20
26.1680696333
30
0.0000000000
10
-43.8456263687
20
26.3832361473
30
0.0000000000
10
-43.6217989060
20
26.5584377316
30
0.0000000000
10
-43.3672320365
20
26.6890467781
30
0.0000000000
10
-43.0928270120
20
26.7690833812
30
0.0000000000
10
-42.9032558652
20
26.7870004732
30
0.0000000000
10
-42.8090012661
20
26.7870004732
30
0.0000000000
11
-44.3080875067
21
25.2879142327
31
0.0000000000
11
-44.2705914394
21
25.6212611973
31
0.0000000000
11
-44.1707369181
21
25.9149926379
31
0.0000000000
11
-44.0242952204
21
26.1658376767
31
0.0000000000
11
-43.8405608398
21
26.3758538660
31
0.0000000000
11
-43.6175017244
21
26.5504452249
31
0.0000000000
11
-43.3636313397
21
26.6807134168
31
0.0000000000
11
-43.0905071915
21
26.7603587949
31
0.0000000000
11
-42.8090012661
21
26.7870004732
31
0.0000000000
0
SPLINE
5
579
100
AcDbEntity
8
0
100
AcDbSpline
62
9
6
CONTINUOUS
70
0
71
3
72
13
73
9
74
7
42
0.0000001000
43
0.0000001000
44
0.0000000001
12
0.0021511634
22
2.3474898897
32
0.0000000000
13
2.3474898270
23
0.0022186180
33
0.0000000000
40
0.0000000000
40
0.0000000000
40
0.0000000000
40
0.0000000000
40
0.1666651758
40
0.3333351974
40
0.4999996368
40
0.6666642129
40
0.8333347173
40
1.0000000000
40
1.0000000000
40
1.0000000000
40
1.0000000000
10
-44.2544876352
20
25.2343143612
30
0.0000000000
10
-44.2543681271
20
25.3647292995
30
0.0000000000
10
-44.2197625414
20
25.6268133011
30
0.0000000000
10
-44.0681352732
20
25.9921334478
30
0.0000000000
10
-43.8271948740
20
26.3061068907
30
0.0000000000
10
-43.5132215460
20
26.5470472869
30
0.0000000000
10
-43.1479008730
20
26.6986771727
30
0.0000000000
10
-42.8858164132
20
26.7332773462
30
0.0000000000
10
-42.7554013946
20
26.7334006017
30
0.0000000000
11
-44.2544876352
21
25.2343143612
31
0.0000000000
11
-44.2031435531
21
25.6221757013
31
0.0000000000
11
-44.0532474507
21
25.9835794833
31
0.0000000000
11
-43.8150229798
21
26.2939347358
31
0.0000000000
11
-43.5046677318
21
26.5321597396
31
0.0000000000
11
-43.1432629805
21
26.6820564635
31
0.0000000000
11
-42.7554013946
21
26.7334006017
31
0.0000000000
0
SPLINE
5
57A
100
AcDbEntity
8
0
100
AcDbSpline
62
9
6
CONTINUOUS
70
0
71
3
72
13
73
9
74
7
42
0.0000001000
43
0.0000001000
44
0.0000000001
12
-0.0022186096
22
-2.3474898270
32
0.0000000000
13
-2.3474898897
23
-0.0021511708
33
0.0000000000
40
0.0000000000
40
0.0000000000
40
0.0000000000
40
0.0000000000
40
0.1666652827
40
0.3333357871
40
0.5000003632
40
0.6666648026
40
0.8333348242
40
1.0000000000
40
1.0000000000
40
1.0000000000
40
1.0000000000
10
44.3335503133
20
-27.5206303368
30
0.0000000000
10
44.3334270583
20
-27.6510453553
30
0.0000000000
10
44.2988268841
20
-27.9131298151
30
0.0000000000
10
44.1471969986
20
-28.2784504881
30
0.0000000000
10
43.9062566023
20
-28.5924238162
30
0.0000000000
10
43.5922831594
20
-28.8333642153
30
0.0000000000
10
43.2269630127
20
-28.9849914838
30
0.0000000000
10
42.9648790112
20
-29.0195970689
30
0.0000000000
10
42.8344640728
20
-29.0197165773
30
0.0000000000
11
44.3335503133
21
-27.5206303368
31
0.0000000000
11
44.2822061751
21
-27.9084919226
31
0.0000000000
11
44.1323094512
21
-28.2698966740
31
0.0000000000
11
43.8940844474
21
-28.5802519220
31
0.0000000000
11
43.5837291950
21
-28.8184763928
31
0.0000000000
11
43.2223254129
21
-28.9683724953
31
0.0000000000
11
42.8344640728
21
-29.0197165773
31
0.0000000000
0
SPLINE
5
57B
100
AcDbEntity
8
0
100
AcDbSpline
62
9
6
CONTINUOUS
70
0
71
3
72
13
73
9
74
7
42
0.0000001000
43
0.0000001000
44
0.0000000001
12
-2.3474898270
22
0.0022186096
32
0.0000000000
13
-0.0021511708
23
2.3474898897
33
0.0000000000
40
0.0000000000
40
0.0000000000
40
0.0000000000
40
0.0000000000
40
0.1666652827
40
0.3333357871
40
0.5000003632
40
0.6666648026
40
0.8333348242
40
1.0000000000
40
1.0000000000
40
1.0000000000
40
1.0000000000
10
-42.7903221641
20
-29.0197165773
30
0.0000000000
10
-42.9207371827
20
-29.0195933222
30
0.0000000000
10
-43.1828216425
20
-28.9849931480
30
0.0000000000
10
-43.5481423155
20
-28.8333632625
30
0.0000000000
10
-43.8621156435
20
-28.5924228663
30
0.0000000000
10
-44.1030560427
20
-28.2784494234
30
0.0000000000
10
-44.2546833111
20
-27.9131292767
30
0.0000000000
10
-44.2892888962
20
-27.6510452752
30
0.0000000000
10
-44.2894084046
20
-27.5206303368
30
0.0000000000
11
-42.7903221641
21
-29.0197165773
31
0.0000000000
11
-43.1781837499
21
-28.9683724391
31
0.0000000000
11
-43.5395885013
21
-28.8184757152
31
0.0000000000
11
-43.8499437493
21
-28.5802507114
31
0.0000000000
11
-44.0881682202
21
-28.2698954589
31
0.0000000000
11
-44.2380643226
21
-27.9084916769
31
0.0000000000
11
-44.2894084046
21
-27.5206303368
31
0.0000000000
0
SPLINE
5
57C
100
AcDbEntity
8
0
100
AcDbSpline
62
9
6
CONTINUOUS
70
0
71
3
72
15
73
11
74
9
42
0.0000001000
43
0.0000001000
44
0.0000000001
12
0.0000968651
22
2.3493453099
32
0.0000000000
13
-2.3493453112
23
-0.0000557716
33
0.0000000000
40
0.0000000000
40
0.0000000000
40
0.0000000000
40
0.0000000000
40
0.1082529036
40
0.2326445304
40
0.3673661662
40
0.5066559867
40
0.6451150967
40
0.7773331788
40
0.8974456469
40
1.0000000000
40
1.0000000000
40
1.0000000000
40
1.0000000000
10
36.0475886710
20
13.8844154267
30
0.0000000000
10
36.0475921663
20
13.9691899105
30
0.0000000000
10
36.0320978590
20
14.1517273983
30
0.0000000000
10
35.9556627681
20
14.4309288166
30
0.0000000000
10
35.8130940386
20
14.7111030324
30
0.0000000000
10
35.6067575221
20
14.9629955350
30
0.0000000000
10
35.3522953450
20
15.1629218698
30
0.0000000000
10
35.0751209683
20
15.2978404529
30
0.0000000000
10
34.8046272381
20
15.3683187375
30
0.0000000000
10
34.6299562317
20
15.3823616354
30
0.0000000000
10
34.5496443689
20
15.3823597288
30
0.0000000000
11
36.0475886710
21
13.8844154267
31
0.0000000000
11
36.0260470533
21
14.1378249306
31
0.0000000000
11
35.9488672712
21
14.4196881018
31
0.0000000000
11
35.8052968348
21
14.7017601108
31
0.0000000000
11
35.5979285655
21
14.9549089691
31
0.0000000000
11
35.3421479964
21
15.1558785018
31
0.0000000000
11
35.0628675590
21
15.2918597746
31
0.0000000000
11
34.7898028787
21
15.3630245777
31
0.0000000000
11
34.5496443689
21
15.3823597288
31
0.0000000000
0
SPLINE
5
57D
100
AcDbEntity
8
0
100
AcDbSpline
62
9
6
CONTINUOUS
70
0
71
3
72
15
73
11
74
9
42
0.0000001000
43
0.0000001000
44
0.0000000001
12
2.3493453099
22
-0.0000968651
32
0.0000000000
13
-0.0000557716
23
2.3493453112
33
0.0000000000
40
0.0000000000
40
0.0000000000
40
0.0000000000
40
0.0000000000
40
0.1082529036
40
0.2326445304
40
0.3673661662
40
0.5066559867
40
0.6451150967
40
0.7773331788
40
0.8974456469
40
1.0000000000
40
1.0000000000
40
1.0000000000
40
1.0000000000
10
34.5496443689
20
-17.6686757044
30
0.0000000000
10
34.6344188526
20
-17.6686791998
30
0.0000000000
10
34.8169563404
20
-17.6531848924
30
0.0000000000
10
35.0961577588
20
-17.5767498016
30
0.0000000000
10
35.3763319746
20
-17.4341810720
30
0.0000000000
10
35.6282244772
20
-17.2278445555
30
0.0000000000
10
35.8281508119
20
-16.9733823784
30
0.0000000000
10
35.9630693951
20
-16.6962080018
30
0.0000000000
10
36.0335476797
20
-16.4257142716
30
0.0000000000
10
36.0475905775
20
-16.2510432652
30
0.0000000000
10
36.0475886710
20
-16.1707314023
30
0.0000000000
11
34.5496443689
21
-17.6686757044
31
0.0000000000
11
34.8030538728
21
-17.6471340868
31
0.0000000000
11
35.0849170440
21
-17.5699543047
31
0.0000000000
11
35.3669890529
21
-17.4263838683
31
0.0000000000
11
35.6201379112
21
-17.2190155990
31
0.0000000000
11
35.8211074439
21
-16.9632350299
31
0.0000000000
11
35.9570887167
21
-16.6839545925
31
0.0000000000
11
36.0282535199
21
-16.4108899122
31
0.0000000000
11
36.0475886710
21
-16.1707314023
31
0.0000000000
0
SPLINE
5
57E
100
AcDbEntity
8
0
100
AcDbSpline
62
9
6
CONTINUOUS
70
0
71
3
72
15
73
11
74
9
42
0.0000001000
43
0.0000001000
44
0.0000000001
12
-0.0000968651
22
-2.3493453099
32
0.0000000000
13
2.3493453112
23
0.0000557716
33
0.0000000000
40
0.0000000000
40
0.0000000000
40
0.0000000000
40
0.0000000000
40
0.1082529036
40
0.2326445304
40
0.3673661662
40
0.5066559867
40
0.6451150967
40
0.7773331788
40
0.8974456469
40
1.0000000000
40
1.0000000000
40
1.0000000000
40
1.0000000000
10
28.9965532377
20
-16.1707314023
30
0.0000000000
10
28.9965497424
20
-16.2555058861
30
0.0000000000
10
29.0120440497
20
-16.4380433739
30
0.0000000000
10
29.0884791406
20
-16.7172447922
30
0.0000000000
10
29.2310478701
20
-16.9974190080
30
0.0000000000
10
29.4373843866
20
-17.2493115106
30
0.0000000000
10
29.6918465637
20
-17.4492378454
30
0.0000000000
10
29.9690209404
20
-17.5841564286
30
0.0000000000
10
30.2395146706
20
-17.6546347131
30
0.0000000000
10
30.4141856769
20
-17.6686776110
30
0.0000000000
10
30.4944975398
20
-17.6686757044
30
0.0000000000
11
28.9965532377
21
-16.1707314023
31
0.0000000000
11
29.0180948553
21
-16.4241409062
31
0.0000000000
11
29.0952746375
21
-16.7060040774
31
0.0000000000
11
29.2388450739
21
-16.9880760864
31
0.0000000000
11
29.4462133432
21
-17.2412249447
31
0.0000000000
11
29.7019939123
21
-17.4421944774
31
0.0000000000
11
29.9812743497
21
-17.5781757502
31
0.0000000000
11
30.2543390300
21
-17.6493405533
31
0.0000000000
11
30.4944975398
21
-17.6686757044
31
0.0000000000
0
SPLINE
5
57F
100
AcDbEntity
8
0
100
AcDbSpline
62
9
6
CONTINUOUS
70
0
71
3
72
15
73
11
74
9
42
0.0000001000
43
0.0000001000
44
0.0000000001
12
-2.3493453099
22
0.0000968651
32
0.0000000000
13
0.0000557716
23
-2.3493453112
33
0.0000000000
40
0.0000000000
40
0.0000000000
40
0.0000000000
40
0.0000000000
40
0.1082529036
40
0.2326445304
40
0.3673661662
40
0.5066559867
40
0.6451150967
40
0.7773331788
40
0.8974456469
40
1.0000000000
40
1.0000000000
40
1.0000000000
40
1.0000000000
10
30.4944975398
20
15.3823597288
30
0.0000000000
10
30.4097230561
20
15.3823632241
30
0.0000000000
10
30.2271855682
20
15.3668689168
30
0.0000000000
10
29.9479841499
20
15.2904338260
30
0.0000000000
10
29.6678099341
20
15.1478650964
30
0.0000000000
10
29.4159174315
20
14.9415285799
30
0.0000000000
10
29.2159910967
20
14.6870664028
30
0.0000000000
10
29.0810725136
20
14.4098920262
30
0.0000000000
10
29.0105942290
20
14.1393982960
30
0.0000000000
10
28.9965513312
20
13.9647272896
30
0.0000000000
10
28.9965532377
20
13.8844154267
30
0.0000000000
11
30.4944975398
21
15.3823597288
31
0.0000000000
11
30.2410880359
21
15.3608181112
31
0.0000000000
11
29.9592248647
21
15.2836383291
31
0.0000000000
11
29.6771528558
21
15.1400678927
31
0.0000000000
11
29.4240039975
21
14.9326996233
31
0.0000000000
11
29.2230344648
21
14.6769190543
31
0.0000000000
11
29.0870531920
21
14.3976386169
31
0.0000000000
11
29.0158883888
21
14.1245739366
31
0.0000000000
11
28.9965532377
21
13.8844154267
31
0.0000000000
0
SPLINE
5
580
100
AcDbEntity
8
0
100
AcDbSpline
62
9
6
CONTINUOUS
70
0
71
3
72
11
73
7
74
5
42
0.0000001000
43
0.0000001000
44
0.0000000001
12
-0.0005344345
22
-0.7799315481
32
0.0000000000
13
-0.7799315481
23
-0.0005344345
33
0.0000000000
40
0.0000000000
40
0.0000000000
40
0.0000000000
40
0.0000000000
40
0.2510261123
40
0.5022681319
40
0.7535186565
40
1.0000000000
40
1.0000000000
40
1.0000000000
40
1.0000000000
10
46.3146126912
20
23.0141289379
30
0.0000000000
10
46.3145679722
20
22.9488678764
30
0.0000000000
10
46.2882471632
20
22.8168707676
30
0.0000000000
10
46.1760175783
20
22.6502807725
30
0.0000000000
10
46.0096061431
20
22.5399198979
30
0.0000000000
10
45.8788635539
20
22.5143441848
30
0.0000000000
10
45.8147840287
20
22.5143002754
30
0.0000000000
11
46.3146126912
21
23.0141289379
31
0.0000000000
11
46.2761470592
21
22.8221615749
31
0.0000000000
11
46.1668178633
21
22.6595449534
31
0.0000000000
11
46.0034110847
21
22.5513882935
31
0.0000000000
11
45.8147840287
21
22.5143002754
31
0.0000000000
0
SPLINE
5
581
100
AcDbEntity
8
0
100
AcDbSpline
62
9
6
CONTINUOUS
70
0
71
3
72
11
73
7
74
5
42
0.0000001000
43
0.0000001000
44
0.0000000001
12
0.0005344345
22
0.7799315481
32
0.0000000000
13
0.7799315481
23
0.0005344345
33
0.0000000000
40
0.0000000000
40
0.0000000000
40
0.0000000000
40
0.0000000000
40
0.2510261123
40
0.5022681319
40
0.7535186565
40
1.0000000000
40
1.0000000000
40
1.0000000000
40
1.0000000000
10
32.9295292175
20
28.3995550865
30
0.0000000000
10
32.9295739365
20
28.4648161480
30
0.0000000000
10
32.9558947455
20
28.5968132568
30
0.0000000000
10
33.0681243304
20
28.7634032519
30
0.0000000000
10
33.2345357656
20
28.8737641265
30
0.0000000000
10
33.3652783547
20
28.8993398396
30
0.0000000000
10
33.4293578800
20
28.8993837490
30
0.0000000000
11
32.9295292175
21
28.3995550865
31
0.0000000000
11
32.9679948495
21
28.5915224495
31
0.0000000000
11
33.0773240454
21
28.7541390710
31
0.0000000000
11
33.2407308239
21
28.8622957309
31
0.0000000000
11
33.4293578800
21
28.8993837490
31
0.0000000000
0
SPLINE
5
582
100
AcDbEntity
8
0
100
AcDbSpline
62
0
6
CONTINUOUS
70
0
71
3
72
12
73
8
74
6
42
0.0000001000
43
0.0000001000
44
0.0000000001
12
-0.0437558362
22
-0.9988567175
32
0.0000000000
13
-0.5772432518
23
-0.8163452355
33
0.0000000000
40
0.0000000000
40
0.0000000000
40
0.0000000000
40
0.0000000000
40
0.1141952374
40
0.2758946242
40
0.4804802117
40
0.7227438919
40
1.0000000000
40
1.0000000000
40
1.0000000000
40
1.0000000000
10
-32.8853873088
20
24.9494889629
30
0.0000000000
10
-32.8870528782
20
24.9114674029
30
0.0000000000
10
-32.9155335546
20
24.8218905975
30
0.0000000000
10
-32.9887483373
20
24.6799006397
30
0.0000000000
10
-33.0961349585
20
24.5074283297
30
0.0000000000
10
-33.2318737362
20
24.3079770061
30
0.0000000000
10
-33.3318678988
20
24.1665988050
30
0.0000000000
10
-33.3852159713
20
24.0911532374
30
0.0000000000
11
-32.8853873088
21
24.9494889629
31
0.0000000000
11
-32.9129527425
21
24.8386924595
31
0.0000000000
11
-32.9839326896
21
24.6934380391
31
0.0000000000
11
-33.0905159054
21
24.5188534876
31
0.0000000000
11
-33.2258809382
21
24.3179897464
31
0.0000000000
11
-33.3852159713
21
24.0911532374
31
0.0000000000
0
SPLINE
5
583
100
AcDbEntity
8
0
100
AcDbSpline
62
0
6
CONTINUOUS
70
0
71
3
72
15
73
11
74
9
42
0.0000001000
43
0.0000001000
44
0.0000000001
12
-3.1325954581
22
0.0000000000
32
0.0000000000
13
0.0000000000
23
3.1325954581
33
0.0000000000
40
0.0000000000
40
0.0000000000
40
0.0000000000
40
0.0000000000
40
0.1398914632
40
0.2703965567
40
0.3935620119
40
0.5126294479
40
0.6337941792
40
0.7562415273
40
0.8790113021
40
1.0000000000
40
1.0000000000
40
1.0000000000
40
1.0000000000
10
29.9952522310
20
-18.6672357806
30
0.0000000000
10
29.8491777769
20
-18.6672357806
30
0.0000000000
10
29.5658185223
20
-18.6360836482
30
0.0000000000
10
29.1734033014
20
-18.5051515342
30
0.0000000000
10
28.8337232790
20
-18.3101275323
30
0.0000000000
10
28.5447123873
20
-18.0608505307
30
0.0000000000
10
28.3080538366
20
-17.7622515215
30
0.0000000000
10
28.1307659944
20
-17.4205329960
30
0.0000000000
10
28.0222203864
20
-17.0514992600
30
0.0000000000
10
27.9979931615
20
-16.7963129263
30
0.0000000000
10
27.9979931615
20
-16.6699767111
30
0.0000000000
11
29.9952522310
21
-18.6672357806
31
0.0000000000
11
29.5596626310
21
-18.6192627087
31
0.0000000000
11
29.1718440753
21
-18.4899171068
31
0.0000000000
11
28.8372536841
21
-18.2977917179
31
0.0000000000
11
28.5548060353
21
-18.0541835340
31
0.0000000000
11
28.3190535920
21
-17.7567164854
31
0.0000000000
11
28.1423852663
21
-17.4162456498
31
0.0000000000
11
28.0338746187
21
-17.0472830515
31
0.0000000000
11
27.9979931615
21
-16.6699767111
31
0.0000000000
0
SPLINE
5
584
100
AcDbEntity
8
0
100
AcDbSpline
62
9
6
CONTINUOUS
70
0
71
3
72
15
73
11
74
9
42
0.0000001000
43
0.0000001000
44
0.0000000001
12
0.0020791203
22
-3.1317049848
32
0.0000000000
13
3.1317049674
23
-0.0021052006
33
0.0000000000
40
0.0000000000
40
0.0000000000
40
0.0000000000
40
0.0000000000
40
0.1081493845
40
0.2324588901
40
0.3671653957
40
0.5065006839
40
0.6450300731
40
0.7772994792
40
0.8974091594
40
1.0000000000
40
1.0000000000
40
1.0000000000
40
1.0000000000
10
28.4972384703
20
-16.1707314023
30
0.0000000000
10
28.4973134222
20
-16.2836287245
30
0.0000000000
10
28.5181024820
20
-16.5267435402
30
0.0000000000
10
28.6200943852
20
-16.8986695790
30
0.0000000000
10
28.8101756758
20
-17.2720563124
30
0.0000000000
10
29.0852429373
20
-17.6079427941
30
0.0000000000
10
29.4244754083
20
-17.8746798326
30
0.0000000000
10
29.7939529967
20
-18.0548014334
30
0.0000000000
10
30.1545417902
20
-18.1490279836
30
0.0000000000
10
30.3874027914
20
-18.1679184804
30
0.0000000000
10
30.4944975398
20
-18.1679904718
30
0.0000000000
11
28.4972384703
21
-16.1707314023
31
0.0000000000
11
28.5261342313
21
-16.5081885607
31
0.0000000000
11
28.6291017483
21
-16.8836253610
31
0.0000000000
11
28.8205177742
21
-17.2595598184
31
0.0000000000
11
29.0969881179
21
-17.5971567363
31
0.0000000000
11
29.4380189841
21
-17.8653157530
31
0.0000000000
11
29.8103437899
21
-18.0468640356
31
0.0000000000
11
30.1742680195
21
-18.1419776450
31
0.0000000000
11
30.4944975398
21
-18.1679904718
31
0.0000000000
0
SPLINE
5
585
100
AcDbEntity
8
0
100
AcDbSpline
62
0
6
CONTINUOUS
70
0
71
3
72
15
73
11
74
9
42
0.0000001000
43
0.0000001000
44
0.0000000001
12
0.0000000000
22
-3.1325954581
32
0.0000000000
13
-3.1325954581
23
0.0000000000
33
0.0000000000
40
0.0000000000
40
0.0000000000
40
0.0000000000
40
0.0000000000
40
0.1398914632
40
0.2703965567
40
0.3935620119
40
0.5126294479
40
0.6337941792
40
0.7562415273
40
0.8790113021
40
1.0000000000
40
1.0000000000
40
1.0000000000
40
1.0000000000
10
37.0461487472
20
-16.6699767111
30
0.0000000000
10
37.0461487472
20
-16.8160511652
30
0.0000000000
10
37.0149966147
20
-17.0994104198
30
0.0000000000
10
36.8840645008
20
-17.4918256407
30
0.0000000000
10
36.6890404988
20
-17.8315056631
30
0.0000000000
10
36.4397634972
20
-18.1205165549
30
0.0000000000
10
36.1411644880
20
-18.3571751055
30
0.0000000000
10
35.7994459626
20
-18.5344629477
30
0.0000000000
10
35.4304122265
20
-18.6430085558
30
0.0000000000
10
35.1752258929
20
-18.6672357806
30
0.0000000000
10
35.0488896777
20
-18.6672357806
30
0.0000000000
11
37.0461487472
21
-16.6699767111
31
0.0000000000
11
36.9981756752
21
-17.1055663111
31
0.0000000000
11
36.8688300733
21
-17.4933848668
31
0.0000000000
11
36.6767046844
21
-17.8279752580
31
0.0000000000
11
36.4330965005
21
-18.1104229069
31
0.0000000000
11
36.1356294519
21
-18.3461753502
31
0.0000000000
11
35.7951586164
21
-18.5228436758
31
0.0000000000
11
35.4261960180
21
-18.6313543234
31
0.0000000000
11
35.0488896777
21
-18.6672357806
31
0.0000000000
0
SPLINE
5
586
100
AcDbEntity
8
0
100
AcDbSpline
62
9
6
CONTINUOUS
70
0
71
3
72
15
73
11
74
9
42
0.0000001000
43
0.0000001000
44
0.0000000001
12
3.1317049848
22
0.0020791203
32
0.0000000000
13
0.0021052006
23
3.1317049674
33
0.0000000000
40
0.0000000000
40
0.0000000000
40
0.0000000000
40
0.0000000000
40
0.1081493845
40
0.2324588901
40
0.3671653957
40
0.5065006839
40
0.6450300731
40
0.7772994792
40
0.8974091594
40
1.0000000000
40
1.0000000000
40
1.0000000000
40
1.0000000000
10
34.5496443689
20
-18.1679904718
30
0.0000000000
10
34.6625416910
20
-18.1679155200
30
0.0000000000
10
34.9056565067
20
-18.1471264601
30
0.0000000000
10
35.2775825455
20
-18.0451345569
30
0.0000000000
10
35.6509692790
20
-17.8550532664
30
0.0000000000
10
35.9868557607
20
-17.5799860049
30
0.0000000000
10
36.2535927991
20
-17.2407535338
30
0.0000000000
10
36.4337143999
20
-16.8712759455
30
0.0000000000
10
36.5279409501
20
-16.5106871520
30
0.0000000000
10
36.5468314469
20
-16.2778261507
30
0.0000000000
10
36.5469034384
20
-16.1707314023
30
0.0000000000
11
34.5496443689
21
-18.1679904718
31
0.0000000000
11
34.8871015272
21
-18.1390947109
31
0.0000000000
11
35.2625383276
21
-18.0361271938
31
0.0000000000
11
35.6384727849
21
-17.8447111679
31
0.0000000000
11
35.9760697028
21
-17.5682408242
31
0.0000000000
11
36.2442287196
21
-17.2272099581
31
0.0000000000
11
36.4257770021
21
-16.8548851523
31
0.0000000000
11
36.5208906115
21
-16.4909609226
31
0.0000000000
11
36.5469034384
21
-16.1707314023
31
0.0000000000
0
SPLINE
5
587
100
AcDbEntity
8
0
100
AcDbSpline
62
0
6
CONTINUOUS
70
0
71
3
72
15
73
11
74
9
42
0.0000001000
43
0.0000001000
44
0.0000000001
12
0.0000000000
22
3.1325954581
32
0.0000000000
13
3.1325954581
23
0.0000000000
33
0.0000000000
40
0.0000000000
40
0.0000000000
40
0.0000000000
40
0.0000000000
40
0.1398914632
40
0.2703965567
40
0.3935620119
40
0.5126294479
40
0.6337941792
40
0.7562415273
40
0.8790113021
40
1.0000000000
40
1.0000000000
40
1.0000000000
40
1.0000000000
10
27.9979931615
20
14.3836607355
30
0.0000000000
10
27.9979931615
20
14.5297351896
30
0.0000000000
10
28.0291452940
20
14.8130944442
30
0.0000000000
10
28.1600774079
20
15.2055096651
30
0.0000000000
10
28.3551014099
20
15.5451896875
30
0.0000000000
10
28.6043784114
20
15.8342005793
30
0.0000000000
10
28.9029774207
20
16.0708591299
30
0.0000000000
10
29.2446959461
20
16.2481469721
30
0.0000000000
10
29.6137296821
20
16.3566925801
30
0.0000000000
10
29.8689160158
20
16.3809198050
30
0.0000000000
10
29.9952522310
20
16.3809198050
30
0.0000000000
11
27.9979931615
21
14.3836607355
31
0.0000000000
11
28.0459662335
21
14.8192503355
31
0.0000000000
11
28.1753118354
21
15.2070688912
31
0.0000000000
11
28.3674372243
21
15.5416592824
31
0.0000000000
11
28.6110454082
21
15.8241069313
31
0.0000000000
11
28.9085124568
21
16.0598593746
31
0.0000000000
11
29.2489832923
21
16.2365277002
31
0.0000000000
11
29.6179458907
21
16.3450383478
31
0.0000000000
11
29.9952522310
21
16.3809198050
31
0.0000000000
0
SPLINE
5
588
100
AcDbEntity
8
0
100
AcDbSpline
62
9
6
CONTINUOUS
70
0
71
3
72
15
73
11
74
9
42
0.0000001000
43
0.0000001000
44
0.0000000001
12
-3.1317049848
22
-0.0020791203
32
0.0000000000
13
-0.0021052006
23
-3.1317049674
33
0.0000000000
40
0.0000000000
40
0.0000000000
40
0.0000000000
40
0.0000000000
40
0.1081493845
40
0.2324588901
40
0.3671653957
40
0.5065006839
40
0.6450300731
40
0.7772994792
40
0.8974091594
40
1.0000000000
40
1.0000000000
40
1.0000000000
40
1.0000000000
10
30.4944975398
20
15.8816744962
30
0.0000000000
10
30.3816002177
20
15.8815995444
30
0.0000000000
10
30.1384854020
20
15.8608104845
30
0.0000000000
10
29.7665593632
20
15.7588185813
30
0.0000000000
10
29.3931726297
20
15.5687372908
30
0.0000000000
10
29.0572861480
20
15.2936700293
30
0.0000000000
10
28.7905491096
20
14.9544375582
30
0.0000000000
10
28.6104275088
20
14.5849599699
30
0.0000000000
10
28.5162009585
20
14.2243711764
30
0.0000000000
10
28.4973104618
20
13.9915101751
30
0.0000000000
10
28.4972384703
20
13.8844154267
30
0.0000000000
11
30.4944975398
21
15.8816744962
31
0.0000000000
11
30.1570403815
21
15.8527787353
31
0.0000000000
11
29.7816035811
21
15.7498112182
31
0.0000000000
11
29.4056691238
21
15.5583951923
31
0.0000000000
11
29.0680722059
21
15.2819248486
31
0.0000000000
11
28.7999131891
21
14.9408939825
31
0.0000000000
11
28.6183649066
21
14.5685691767
31
0.0000000000
11
28.5232512972
21
14.2046449470
31
0.0000000000
11
28.4972384703
21
13.8844154267
31
0.0000000000
0
SPLINE
5
589
100
AcDbEntity
8
0
100
AcDbSpline
62
0
6
CONTINUOUS
70
0
71
3
72
15
73
11
74
9
42
0.0000001000
43
0.0000001000
44
0.0000000001
12
3.1325954581
22
0.0000000000
32
0.0000000000
13
0.0000000000
23
-3.1325954581
33
0.0000000000
40
0.0000000000
40
0.0000000000
40
0.0000000000
40
0.0000000000
40
0.1398914632
40
0.2703965567
40
0.3935620119
40
0.5126294479
40
0.6337941792
40
0.7562415273
40
0.8790113021
40
1.0000000000
40
1.0000000000
40
1.0000000000
40
1.0000000000
10
35.0488896777
20
16.3809198050
30
0.0000000000
10
35.1949641318
20
16.3809198050
30
0.0000000000
10
35.4783233864
20
16.3497676726
30
0.0000000000
10
35.8707386072
20
16.2188355586
30
0.0000000000
10
36.2104186296
20
16.0238115567
30
0.0000000000
10
36.4994295214
20
15.7745345551
30
0.0000000000
10
36.7360880721
20
15.4759355459
30
0.0000000000
10
36.9133759143
20
15.1342170204
30
0.0000000000
10
37.0219215223
20
14.7651832844
30
0.0000000000
10
37.0461487472
20
14.5099969507
30
0.0000000000
10
37.0461487472
20
14.3836607355
30
0.0000000000
11
35.0488896777
21
16.3809198050
31
0.0000000000
11
35.4844792777
21
16.3329467331
31
0.0000000000
11
35.8722978334
21
16.2036011312
31
0.0000000000
11
36.2068882246
21
16.0114757423
31
0.0000000000
11
36.4893358734
21
15.7678675583
31
0.0000000000
11
36.7250883167
21
15.4704005098
31
0.0000000000
11
36.9017566424
21
15.1299296742
31
0.0000000000
11
37.0102672900
21
14.7609670759
31
0.0000000000
11
37.0461487472
21
14.3836607355
31
0.0000000000
0
SPLINE
5
58A
100
AcDbEntity
8
0
100
AcDbSpline
62
9
6
CONTINUOUS
70
0
71
3
72
15
73
11
74
9
42
0.0000001000
43
0.0000001000
44
0.0000000001
12
-0.0020791203
22
3.1317049848
32
0.0000000000
13
-3.1317049674
23
0.0021052006
33
0.0000000000
40
0.0000000000
40
0.0000000000
40
0.0000000000
40
0.0000000000
40
0.1081493845
40
0.2324588901
40
0.3671653957
40
0.5065006839
40
0.6450300731
40
0.7772994792
40
0.8974091594
40
1.0000000000
40
1.0000000000
40
1.0000000000
40
1.0000000000
10
36.5469034384
20
13.8844154267
30
0.0000000000
10
36.5468284865
20
13.9973127489
30
0.0000000000
10
36.5260394267
20
14.2404275646
30
0.0000000000
10
36.4240475235
20
14.6123536034
30
0.0000000000
10
36.2339662329
20
14.9857403368
30
0.0000000000
10
35.9588989714
20
15.3216268185
30
0.0000000000
10
35.6196665004
20
15.5883638570
30
0.0000000000
10
35.2501889120
20
15.7684854578
30
0.0000000000
10
34.8896001185
20
15.8627120080
30
0.0000000000
10
34.6567391172
20
15.8816025048
30
0.0000000000
10
34.5496443689
20
15.8816744962
30
0.0000000000
11
36.5469034384
21
13.8844154267
31
0.0000000000
11
36.5180076774
21
14.2218725851
31
0.0000000000
11
36.4150401604
21
14.5973093854
31
0.0000000000
11
36.2236241345
21
14.9732438428
31
0.0000000000
11
35.9471537908
21
15.3108407607
31
0.0000000000
11
35.6061229246
21
15.5789997774
31
0.0000000000
11
35.2337981188
21
15.7605480600
31
0.0000000000
11
34.8698738892
21
15.8556616694
31
0.0000000000
11
34.5496443689
21
15.8816744962
31
0.0000000000
0
SPLINE
5
58B
100
AcDbEntity
8
0
100
AcDbSpline
62
0
6
CONTINUOUS
70
0
71
3
72
12
73
8
74
6
42
0.0000001000
43
0.0000001000
44
0.0000000001
12
0.0000000000
22
-1.5634768652
32
0.0000000000
13
-1.5634768652
23
0.0000000000
33
0.0000000000
40
0.0000000000
40
0.0000000000
40
0.0000000000
40
0.0000000000
40
0.1991627327
40
0.4001122235
40
0.5995966163
40
0.8009897561
40
1.0000000000
40
1.0000000000
40
1.0000000000
40
1.0000000000
10
42.7268332628
20
-26.4485294693
30
0.0000000000
10
42.7268332628
20
-26.5523249109
30
0.0000000000
10
42.6938572495
20
-26.7622973338
30
0.0000000000
10
42.5498428317
20
-27.0452676651
30
0.0000000000
10
42.3243960403
20
-27.2708209902
30
0.0000000000
10
42.0412789185
20
-27.4149481806
30
0.0000000000
10
41.8311584065
20
-27.4479202963
30
0.0000000000
10
41.7274424358
20
-27.4479202963
30
0.0000000000
11
42.7268332628
21
-26.4485294693
31
0.0000000000
11
42.6783638549
21
-26.7561203663
31
0.0000000000
11
42.5359358616
21
-27.0361619054
31
0.0000000000
11
42.3154477745
21
-27.2567517899
31
0.0000000000
11
42.0348036691
21
-27.3995250947
31
0.0000000000
11
41.7274424358
21
-27.4479202963
31
0.0000000000
0
SPLINE
5
58C
100
AcDbEntity
8
0
100
AcDbSpline
62
9
6
CONTINUOUS
70
0
71
3
72
12
73
8
74
6
42
0.0000001000
43
0.0000001000
44
0.0000000001
12
-0.0019034578
22
-1.5628054810
32
0.0000000000
13
-1.5628054810
23
-0.0019034578
33
0.0000000000
40
0.0000000000
40
0.0000000000
40
0.0000000000
40
0.0000000000
40
0.1999588935
40
0.3999785630
40
0.6000214370
40
0.8000411065
40
1.0000000000
40
1.0000000000
40
1.0000000000
40
1.0000000000
10
42.6557730066
20
-26.3774692130
30
0.0000000000
10
42.6556461355
20
-26.4816348312
30
0.0000000000
10
42.6222717221
20
-26.6914199160
30
0.0000000000
10
42.4778598266
20
-26.9741847615
30
0.0000000000
10
42.2530977281
20
-27.1989468600
30
0.0000000000
10
41.9703328826
20
-27.3433587556
30
0.0000000000
10
41.7605477978
20
-27.3767331689
30
0.0000000000
10
41.6563821795
20
-27.3768600400
30
0.0000000000
11
42.6557730066
21
-26.3774692130
31
0.0000000000
11
42.6065586749
21
-26.6860666508
31
0.0000000000
11
42.4644774431
21
-26.9645028632
31
0.0000000000
11
42.2434158297
21
-27.1855644766
31
0.0000000000
11
41.9649796173
21
-27.3276457084
31
0.0000000000
11
41.6563821795
21
-27.3768600400
31
0.0000000000
0
SPLINE
5
58D
100
AcDbEntity
8
0
100
AcDbSpline
62
0
6
CONTINUOUS
70
0
71
3
72
12
73
8
74
6
42
0.0000001000
43
0.0000001000
44
0.0000000001
12
-1.5634768652
22
0.0000000000
32
0.0000000000
13
0.0000000000
23
1.5634768652
33
0.0000000000
40
0.0000000000
40
0.0000000000
40
0.0000000000
40
0.0000000000
40
0.1991627327
40
0.4001122235
40
0.5995966163
40
0.8009897561
40
1.0000000000
40
1.0000000000
40
1.0000000000
40
1.0000000000
10
-41.6833005271
20
-27.4479202963
30
0.0000000000
10
-41.7870959688
20
-27.4479202963
30
0.0000000000
10
-41.9970683916
20
-27.4149442829
30
0.0000000000
10
-42.2800387230
20
-27.2709298652
30
0.0000000000
10
-42.5055920480
20
-27.0454830738
30
0.0000000000
10
-42.6497192384
20
-26.7623659520
30
0.0000000000
10
-42.6826913541
20
-26.5522454400
30
0.0000000000
10
-42.6826913541
20
-26.4485294693
30
0.0000000000
11
-41.6833005271
21
-27.4479202963
31
0.0000000000
11
-41.9908914241
21
-27.3994508884
31
0.0000000000
11
-42.2709329633
21
-27.2570228950
31
0.0000000000
11
-42.4915228477
21
-27.0365348079
31
0.0000000000
11
-42.6342961525
21
-26.7558907026
31
0.0000000000
11
-42.6826913541
21
-26.4485294693
31
0.0000000000
0
SPLINE
5
58E
100
AcDbEntity
8
0
100
AcDbSpline
62
9
6
CONTINUOUS
70
0
71
3
72
12
73
8
74
6
42
0.0000001000
43
0.0000001000
44
0.0000000001
12
-1.5628054810
22
0.0019034578
32
0.0000000000
13
-0.0019034578
23
1.5628054810
33
0.0000000000
40
0.0000000000
40
0.0000000000
40
0.0000000000
40
0.0000000000
40
0.1999588935
40
0.3999785630
40
0.6000214370
40
0.8000411065
40
1.0000000000
40
1.0000000000
40
1.0000000000
40
1.0000000000
10
-41.6122402708
20
-27.3768600400
30
0.0000000000
10
-41.7164058891
20
-27.3767331689
30
0.0000000000
10
-41.9261909739
20
-27.3433587556
30
0.0000000000
10
-42.2089558194
20
-27.1989468600
30
0.0000000000
10
-42.4337179179
20
-26.9741847615
30
0.0000000000
10
-42.5781298135
20
-26.6914199160
30
0.0000000000
10
-42.6115042268
20
-26.4816348312
30
0.0000000000
10
-42.6116310979
20
-26.3774692130
30
0.0000000000
11
-41.6122402708
21
-27.3768600400
31
0.0000000000
11
-41.9208377086
21
-27.3276457084
31
0.0000000000
11
-42.1992739210
21
-27.1855644766
31
0.0000000000
11
-42.4203355344
21
-26.9645028632
31
0.0000000000
11
-42.5624167662
21
-26.6860666508
31
0.0000000000
11
-42.6116310979
21
-26.3774692130
31
0.0000000000
0
SPLINE
5
58F
100
AcDbEntity
8
0
100
AcDbSpline
62
0
6
CONTINUOUS
70
0
71
3
72
12
73
8
74
6
42
0.0000001000
43
0.0000001000
44
0.0000000001
12
1.5634768652
22
0.0000000000
32
0.0000000000
13
0.0000000000
23
-1.5634768652
33
0.0000000000
40
0.0000000000
40
0.0000000000
40
0.0000000000
40
0.0000000000
40
0.1991627327
40
0.4001122235
40
0.5995966163
40
0.8009897561
40
1.0000000000
40
1.0000000000
40
1.0000000000
40
1.0000000000
10
41.7274424358
20
25.1616043207
30
0.0000000000
10
41.8312378775
20
25.1616043207
30
0.0000000000
10
42.0412103003
20
25.1286283073
30
0.0000000000
10
42.3241806317
20
24.9846138896
30
0.0000000000
10
42.5497339567
20
24.7591670982
30
0.0000000000
10
42.6938611471
20
24.4760499764
30
0.0000000000
10
42.7268332628
20
24.2659294644
30
0.0000000000
10
42.7268332628
20
24.1622134937
30
0.0000000000
11
41.7274424358
21
25.1616043207
31
0.0000000000
11
42.0350333328
21
25.1131349128
31
0.0000000000
11
42.3150748720
21
24.9707069194
31
0.0000000000
11
42.5356647564
21
24.7502188323
31
0.0000000000
11
42.6784380612
21
24.4695747270
31
0.0000000000
11
42.7268332628
21
24.1622134937
31
0.0000000000
0
SPLINE
5
590
100
AcDbEntity
8
0
100
AcDbSpline
62
9
6
CONTINUOUS
70
0
71
3
72
12
73
8
74
6
42
0.0000001000
43
0.0000001000
44
0.0000000001
12
1.5628054810
22
-0.0019034578
32
0.0000000000
13
0.0019034578
23
-1.5628054810
33
0.0000000000
40
0.0000000000
40
0.0000000000
40
0.0000000000
40
0.0000000000
40
0.1999588935
40
0.3999785630
40
0.6000214370
40
0.8000411065
40
1.0000000000
40
1.0000000000
40
1.0000000000
40
1.0000000000
10
41.6563821795
20
25.0905440644
30
0.0000000000
10
41.7605477978
20
25.0904171933
30
0.0000000000
10
41.9703328826
20
25.0570427800
30
0.0000000000
10
42.2530977281
20
24.9126308844
30
0.0000000000
10
42.4778598266
20
24.6878687859
30
0.0000000000
10
42.6222717221
20
24.4051039404
30
0.0000000000
10
42.6556461355
20
24.1953188556
30
0.0000000000
10
42.6557730066
20
24.0911532374
30
0.0000000000
11
41.6563821795
21
25.0905440644
31
0.0000000000
11
41.9649796173
21
25.0413297328
31
0.0000000000
11
42.2434158297
21
24.8992485010
31
0.0000000000
11
42.4644774431
21
24.6781868876
31
0.0000000000
11
42.6065586749
21
24.3997506752
31
0.0000000000
11
42.6557730066
21
24.0911532374
31
0.0000000000
0
SPLINE
5
591
100
AcDbEntity
8
0
100
AcDbSpline
62
0
6
CONTINUOUS
70
0
71
3
72
12
73
8
74
6
42
0.0000001000
43
0.0000001000
44
0.0000000001
12
0.0000000000
22
1.5634768652
32
0.0000000000
13
1.5634768652
23
0.0000000000
33
0.0000000000
40
0.0000000000
40
0.0000000000
40
0.0000000000
40
0.0000000000
40
0.1991627327
40
0.4001122235
40
0.5995966163
40
0.8009897561
40
1.0000000000
40
1.0000000000
40
1.0000000000
40
1.0000000000
10
-42.6826913541
20
24.1622134937
30
0.0000000000
10
-42.6826913541
20
24.2660089353
30
0.0000000000
10
-42.6497153408
20
24.4759813581
30
0.0000000000
10
-42.5057009230
20
24.7589516895
30
0.0000000000
10
-42.2802541316
20
24.9845050146
30
0.0000000000
10
-41.9971370098
20
25.1286322050
30
0.0000000000
10
-41.7870164979
20
25.1616043207
30
0.0000000000
10
-41.6833005271
20
25.1616043207
30
0.0000000000
11
-42.6826913541
21
24.1622134937
31
0.0000000000
11
-42.6342219462
21
24.4698043907
31
0.0000000000
11
-42.4917939529
21
24.7498459298
31
0.0000000000
11
-42.2713058658
21
24.9704358143
31
0.0000000000
11
-41.9906617604
21
25.1132091191
31
0.0000000000
11
-41.6833005271
21
25.1616043207
31
0.0000000000
0
SPLINE
5
592
100
AcDbEntity
8
0
100
AcDbSpline
62
9
6
CONTINUOUS
70
0
71
3
72
12
73
8
74
6
42
0.0000001000
43
0.0000001000
44
0.0000000001
12
0.0019034578
22
1.5628054810
32
0.0000000000
13
1.5628054810
23
0.0019034578
33
0.0000000000
40
0.0000000000
40
0.0000000000
40
0.0000000000
40
0.0000000000
40
0.1999588935
40
0.3999785630
40
0.6000214370
40
0.8000411065
40
1.0000000000
40
1.0000000000
40
1.0000000000
40
1.0000000000
10
-42.6116310979
20
24.0911532374
30
0.0000000000
10
-42.6115042268
20
24.1953188556
30
0.0000000000
10
-42.5781298135
20
24.4051039404
30
0.0000000000
10
-42.4337179179
20
24.6878687859
30
0.0000000000
10
-42.2089558194
20
24.9126308844
30
0.0000000000
10
-41.9261909739
20
25.0570427800
30
0.0000000000
10
-41.7164058891
20
25.0904171933
30
0.0000000000
10
-41.6122402708
20
25.0905440644
30
0.0000000000
11
-42.6116310979
21
24.0911532374
31
0.0000000000
11
-42.5624167662
21
24.3997506752
31
0.0000000000
11
-42.4203355344
21
24.6781868876
31
0.0000000000
11
-42.1992739210
21
24.8992485010
31
0.0000000000
11
-41.9208377086
21
25.0413297328
31
0.0000000000
11
-41.6122402708
21
25.0905440644
31
0.0000000000
0
SPLINE
5
593
100
AcDbEntity
8
0
100
AcDbSpline
62
9
6
CONTINUOUS
70
0
71
3
72
14
73
10
74
8
42
0.0000001000
43
0.0000001000
44
0.0000000001
12
2.6643510476
22
0.0000113290
32
0.0000000000
13
0.0002944461
23
-2.6643510313
33
0.0000000000
40
0.0000000000
40
0.0000000000
40
0.0000000000
40
0.0000000000
40
0.1427380922
40
0.2855639514
40
0.4285449634
40
0.5715074657
40
0.7144788568
40
0.8572613159
40
1.0000000000
40
1.0000000000
40
1.0000000000
40
1.0000000000
10
43.4757599590
20
27.7602720986
30
0.0000000000
10
43.6025280875
20
27.7602726376
30
0.0000000000
10
43.8570561516
20
27.7316528559
30
0.0000000000
10
44.2191961834
20
27.6049789198
30
0.0000000000
10
44.5444232974
20
27.4007189591
30
0.0000000000
10
44.8160306814
20
27.1290897491
30
0.0000000000
10
45.0202384281
20
26.8038875512
30
0.0000000000
10
45.1468926309
20
26.4417897773
30
0.0000000000
10
45.1754870311
20
26.1872996702
30
0.0000000000
10
45.1755010408
20
26.0605310168
30
0.0000000000
11
43.4757599590
21
27.7602720986
31
0.0000000000
11
43.8536765772
21
27.7177226525
31
0.0000000000
11
44.2128888760
21
27.5921206346
31
0.0000000000
11
44.5354811507
21
27.3894920261
31
0.0000000000
11
44.8048086076
21
27.1201422953
31
0.0000000000
11
45.0073993544
21
26.7975565111
31
0.0000000000
11
45.1329512440
21
26.4384491824
31
0.0000000000
11
45.1755010408
21
26.0605310168
31
0.0000000000
0
SPLINE
5
594
100
AcDbEntity
8
0
100
AcDbSpline
62
9
6
CONTINUOUS
70
0
71
3
72
14
73
10
74
8
42
0.0000001000
43
0.0000001000
44
0.0000000001
12
2.6644190192
22
0.0002031963
32
0.0000000000
13
0.0001129602
23
-2.6644190246
33
0.0000000000
40
0.0000000000
40
0.0000000000
40
0.0000000000
40
0.0000000000
40
0.1436912217
40
0.2866745465
40
0.4288753492
40
0.5707549259
40
0.7130550529
40
0.8562166689
40
1.0000000000
40
1.0000000000
40
1.0000000000
40
1.0000000000
10
43.5649026433
20
27.8494147829
30
0.0000000000
10
43.6925205180
20
27.8494245154
30
0.0000000000
10
43.9480617859
20
27.8205164339
30
0.0000000000
10
44.3102965506
20
27.6931706151
30
0.0000000000
10
44.6339837261
20
27.4893799221
30
0.0000000000
10
44.9040485145
20
27.2194733964
30
0.0000000000
10
45.1081354338
20
26.8956750431
30
0.0000000000
10
45.2357064304
20
26.5331565334
30
0.0000000000
10
45.2646383111
20
26.2773733821
30
0.0000000000
10
45.2646437250
20
26.1496737011
30
0.0000000000
11
43.5649026433
21
27.8494147829
31
0.0000000000
11
43.9453233489
21
27.8063220337
31
0.0000000000
11
44.3047436529
21
27.6800157622
31
0.0000000000
11
44.6253618144
21
27.4781347036
31
0.0000000000
11
44.8927449758
21
27.2109074811
31
0.0000000000
11
45.0949290431
21
26.8901674363
31
0.0000000000
11
45.2214957024
21
26.5303351321
31
0.0000000000
11
45.2646437250
21
26.1496737011
31
0.0000000000
0
SPLINE
5
595
100
AcDbEntity
8
0
100
AcDbSpline
62
9
6
CONTINUOUS
70
0
71
3
72
14
73
10
74
8
42
0.0000001000
43
0.0000001000
44
0.0000000001
12
-0.0000113290
22
2.6643510476
32
0.0000000000
13
2.6643510313
23
0.0002944461
33
0.0000000000
40
0.0000000000
40
0.0000000000
40
0.0000000000
40
0.0000000000
40
0.1427380922
40
0.2855639514
40
0.4285449634
40
0.5715074657
40
0.7144788568
40
0.8572613159
40
1.0000000000
40
1.0000000000
40
1.0000000000
40
1.0000000000
10
-45.1313591321
20
26.0605310168
30
0.0000000000
10
-45.1313596711
20
26.1872991453
30
0.0000000000
10
-45.1027398894
20
26.4418272095
30
0.0000000000
10
-44.9760659533
20
26.8039672413
30
0.0000000000
10
-44.7718059925
20
27.1291943553
30
0.0000000000
10
-44.5001767825
20
27.4008017393
30
0.0000000000
10
-44.1749745846
20
27.6050094859
30
0.0000000000
10
-43.8128768108
20
27.7316636887
30
0.0000000000
10
-43.5583867037
20
27.7602580890
30
0.0000000000
10
-43.4316180503
20
27.7602720986
30
0.0000000000
11
-45.1313591321
21
26.0605310168
31
0.0000000000
11
-45.0888096860
21
26.4384476350
31
0.0000000000
11
-44.9632076680
21
26.7976599338
31
0.0000000000
11
-44.7605790596
21
27.1202522085
31
0.0000000000
11
-44.4912293287
21
27.3895796654
31
0.0000000000
11
-44.1686435446
21
27.5921704123
31
0.0000000000
11
-43.8095362159
21
27.7177223019
31
0.0000000000
11
-43.4316180503
21
27.7602720986
31
0.0000000000
0
SPLINE
5
596
100
AcDbEntity
8
0
100
AcDbSpline
62
9
6
CONTINUOUS
70
0
71
3
72
14
73
10
74
8
42
0.0000001000
43
0.0000001000
44
0.0000000001
12
-0.0002031963
22
2.6644190192
32
0.0000000000
13
2.6644190246
23
0.0001129602
33
0.0000000000
40
0.0000000000
40
0.0000000000
40
0.0000000000
40
0.0000000000
40
0.1436912217
40
0.2866745465
40
0.4288753492
40
0.5707549259
40
0.7130550529
40
0.8562166689
40
1.0000000000
40
1.0000000000
40
1.0000000000
40
1.0000000000
10
-45.2205018164
20
26.1496737011
30
0.0000000000
10
-45.2205115489
20
26.2772915758
30
0.0000000000
10
-45.1916034674
20
26.5328328438
30
0.0000000000
10
-45.0642576486
20
26.8950676084
30
0.0000000000
10
-44.8604669556
20
27.2187547840
30
0.0000000000
10
-44.5905604298
20
27.4888195724
30
0.0000000000
10
-44.2667620766
20
27.6929064916
30
0.0000000000
10
-43.9042435668
20
27.8204774882
30
0.0000000000
10
-43.6484604155
20
27.8494093690
30
0.0000000000
10
-43.5207607346
20
27.8494147829
30
0.0000000000
11
-45.2205018164
21
26.1496737011
31
0.0000000000
11
-45.1774090672
21
26.5300944068
31
0.0000000000
11
-45.0511027957
21
26.8895147108
31
0.0000000000
11
-44.8492217371
21
27.2101328723
31
0.0000000000
11
-44.5819945145
21
27.4775160336
31
0.0000000000
11
-44.2612544698
21
27.6797001009
31
0.0000000000
11
-43.9014221656
21
27.8062667602
31
0.0000000000
11
-43.5207607346
21
27.8494147829
31
0.0000000000
0
SPLINE
5
597
100
AcDbEntity
8
0
100
AcDbSpline
62
0
6
CONTINUOUS
70
0
71
3
72
12
73
8
74
6
42
0.0000001000
43
0.0000001000
44
0.0000000001
12
-0.8163485629
22
-0.5772456046
32
0.0000000000
13
-0.9988607888
23
-0.0437560145
33
0.0000000000
40
0.0000000000
40
0.0000000000
40
0.0000000000
40
0.0000000000
40
0.2781254446
40
0.5212859193
40
0.7255817150
40
0.8862591411
40
1.0000000000
40
1.0000000000
40
1.0000000000
40
1.0000000000
10
-41.6122402708
20
23.0141289379
30
0.0000000000
10
-41.6879227065
20
22.9606133744
30
0.0000000000
10
-41.8297819661
20
22.8602787554
30
0.0000000000
10
-42.0296578872
20
22.7242867829
30
0.0000000000
10
-42.2020598694
20
22.6170472222
30
0.0000000000
10
-42.3435929298
20
22.5442126066
30
0.0000000000
10
-42.4327055683
20
22.5159592243
30
0.0000000000
10
-42.4705759964
20
22.5143002754
30
0.0000000000
11
-41.6122402708
21
23.0141289379
31
0.0000000000
11
-41.8397922170
21
22.8542983049
31
0.0000000000
11
-42.0414241848
21
22.7184670479
31
0.0000000000
11
-42.2158158519
21
22.6121223844
31
0.0000000000
11
-42.3602057165
21
22.5416990743
31
0.0000000000
11
-42.4705759964
21
22.5143002754
31
0.0000000000
0
SPLINE
5
598
100
AcDbEntity
8
0
100
AcDbSpline
62
9
6
CONTINUOUS
70
0
71
3
72
11
73
7
74
5
42
0.0000001000
43
0.0000001000
44
0.0000000001
12
-0.7799315481
22
0.0005344345
32
0.0000000000
13
-0.0005344345
23
0.7799315481
33
0.0000000000
40
0.0000000000
40
0.0000000000
40
0.0000000000
40
0.0000000000
40
0.2464813435
40
0.4977318681
40
0.7489738877
40
1.0000000000
40
1.0000000000
40
1.0000000000
40
1.0000000000
10
-45.7706421200
20
22.5143002754
30
0.0000000000
10
-45.8347216453
20
22.5143441848
30
0.0000000000
10
-45.9654642344
20
22.5399198979
30
0.0000000000
10
-46.1318756696
20
22.6502807725
30
0.0000000000
10
-46.2441052545
20
22.8168707676
30
0.0000000000
10
-46.2704260635
20
22.9488678764
30
0.0000000000
10
-46.2704707825
20
23.0141289379
30
0.0000000000
11
-45.7706421200
21
22.5143002754
31
0.0000000000
11
-45.9592691761
21
22.5513882935
31
0.0000000000
11
-46.1226759546
21
22.6595449534
31
0.0000000000
11
-46.2320051505
21
22.8221615749
31
0.0000000000
11
-46.2704707825
21
23.0141289379
31
0.0000000000
0
SPLINE
5
599
100
AcDbEntity
8
0
100
AcDbSpline
62
9
6
CONTINUOUS
70
0
71
3
72
11
73
7
74
5
42
0.0000001000
43
0.0000001000
44
0.0000000001
12
0.7799315481
22
-0.0005344345
32
0.0000000000
13
0.0005344345
23
-0.7799315481
33
0.0000000000
40
0.0000000000
40
0.0000000000
40
0.0000000000
40
0.0000000000
40
0.2464813435
40
0.4977318681
40
0.7489738877
40
1.0000000000
40
1.0000000000
40
1.0000000000
40
1.0000000000
10
-33.3852159713
20
28.8993837490
30
0.0000000000
10
-33.3211364461
20
28.8993398396
30
0.0000000000
10
-33.1903938569
20
28.8737641265
30
0.0000000000
10
-33.0239824217
20
28.7634032519
30
0.0000000000
10
-32.9117528368
20
28.5968132568
30
0.0000000000
10
-32.8854320278
20
28.4648161480
30
0.0000000000
10
-32.8853873088
20
28.3995550865
30
0.0000000000
11
-33.3852159713
21
28.8993837490
31
0.0000000000
11
-33.1965889153
21
28.8622957309
31
0.0000000000
11
-33.0331821367
21
28.7541390710
31
0.0000000000
11
-32.9238529408
21
28.5915224495
31
0.0000000000
11
-32.8853873088
21
28.3995550865
31
0.0000000000
0
SPLINE
5
59A
100
AcDbEntity
8
0
100
AcDbSpline
62
9
6
CONTINUOUS
70
0
71
3
72
17
73
13
74
11
42
0.0000001000
43
0.0000001000
44
0.0000000001
12
-0.0005041668
22
4.7056117526
32
0.0000000000
13
-4.7056117505
23
0.0005232451
33
0.0000000000
40
0.0000000000
40
0.0000000000
40
0.0000000000
40
0.0000000000
40
0.0793001986
40
0.1733574934
40
0.2783645719
40
0.3904482310
40
0.5057716119
40
0.6206551966
40
0.7313731844
40
0.8341030234
40
0.9248574007
40
1.0000000000
40
1.0000000000
40
1.0000000000
40
1.0000000000
10
46.3146126912
20
25.9004117741
30
0.0000000000
10
46.3145993643
20
26.0247970896
30
0.0000000000
10
46.2976223487
20
26.2969884456
30
0.0000000000
10
46.2112669247
20
26.7265700694
30
0.0000000000
10
46.0410069878
20
27.1863434447
30
0.0000000000
10
45.7782281002
20
27.6398173077
30
0.0000000000
10
45.4288544124
20
28.0513717470
30
0.0000000000
10
45.0128238905
20
28.3919780401
30
0.0000000000
10
44.5607811391
20
28.6441195152
30
0.0000000000
10
44.1091508377
20
28.8044533410
30
0.0000000000
10
43.6939527438
20
28.8839791783
30
0.0000000000
10
43.4335046823
20
28.8993706430
30
0.0000000000
10
43.3156407162
20
28.8993837490
30
0.0000000000
11
46.3146126912
21
25.9004117741
31
0.0000000000
11
46.2913666000
21
26.2728429507
31
0.0000000000
11
46.2041322243
21
26.7067581142
31
0.0000000000
11
46.0325206896
21
27.1701225187
31
0.0000000000
11
45.7680734130
21
27.6264577035
31
0.0000000000
11
45.4168738909
21
28.0401561843
31
0.0000000000
11
44.9985856535
21
28.3826188258
31
0.0000000000
11
44.5435892156
21
28.6364198024
31
0.0000000000
11
44.0880447931
21
28.7981645270
31
0.0000000000
11
43.6686159080
21
28.8785092206
31
0.0000000000
11
43.3156407162
21
28.8993837490
31
0.0000000000
0
SPLINE
5
59B
100
AcDbEntity
8
0
100
AcDbSpline
62
9
6
CONTINUOUS
70
0
71
3
72
17
73
13
74
11
42
0.0000001000
43
0.0000001000
44
0.0000000001
12
-4.7056117526
22
-0.0005041668
32
0.0000000000
13
-0.0005232451
23
-4.7056117505
33
0.0000000000
40
0.0000000000
40
0.0000000000
40
0.0000000000
40
0.0000000000
40
0.0793001986
40
0.1733574934
40
0.2783645719
40
0.3904482310
40
0.5057716119
40
0.6206551966
40
0.7313731844
40
0.8341030234
40
0.9248574007
40
1.0000000000
40
1.0000000000
40
1.0000000000
40
1.0000000000
10
-43.2714988076
20
28.8993837490
30
0.0000000000
10
-43.3958841231
20
28.8993704222
30
0.0000000000
10
-43.6680754790
20
28.8823934066
30
0.0000000000
10
-44.0976571029
20
28.7960379826
30
0.0000000000
10
-44.5574304782
20
28.6257780456
30
0.0000000000
10
-45.0109043411
20
28.3629991581
30
0.0000000000
10
-45.4224587804
20
28.0136254703
30
0.0000000000
10
-45.7630650735
20
27.5975949483
30
0.0000000000
10
-46.0152065486
20
27.1455521969
30
0.0000000000
10
-46.1755403744
20
26.6939218955
30
0.0000000000
10
-46.2550662118
20
26.2787238016
30
0.0000000000
10
-46.2704576765
20
26.0182757401
30
0.0000000000
10
-46.2704707825
20
25.9004117741
30
0.0000000000
11
-43.2714988076
21
28.8993837490
31
0.0000000000
11
-43.6439299842
21
28.8761376579
31
0.0000000000
11
-44.0778451476
21
28.7889032821
31
0.0000000000
11
-44.5412095521
21
28.6172917474
31
0.0000000000
11
-44.9975447370
21
28.3528444708
31
0.0000000000
11
-45.4112432177
21
28.0016449488
31
0.0000000000
11
-45.7537058593
21
27.5833567114
31
0.0000000000
11
-46.0075068359
21
27.1283602735
31
0.0000000000
11
-46.1692515605
21
26.6728158509
31
0.0000000000
11
-46.2495962541
21
26.2533869659
31
0.0000000000
11
-46.2704707825
21
25.9004117741
31
0.0000000000
0
SPLINE
5
59C
100
AcDbEntity
8
0
100
AcDbSpline
62
9
6
CONTINUOUS
70
0
71
3
72
11
73
7
74
5
42
0.0000001000
43
0.0000001000
44
0.0000000001
12
-0.3121341846
22
0.0001015634
32
0.0000000000
13
0.0001014138
23
-0.3121341846
33
0.0000000000
40
0.0000000000
40
0.0000000000
40
0.0000000000
40
0.0000000000
40
0.2498180899
40
0.4998192838
40
0.7498384228
40
1.0000000000
40
1.0000000000
40
1.0000000000
40
1.0000000000
10
34.1794677227
20
27.8494147829
30
0.0000000000
10
34.1534754674
20
27.8494232404
30
0.0000000000
10
34.1008995732
20
27.8390479201
30
0.0000000000
10
34.0344141248
20
27.7945795163
30
0.0000000000
10
33.9898879482
20
27.7280890591
30
0.0000000000
10
33.9794897270
20
27.6754732372
30
0.0000000000
10
33.9794981836
20
27.6494452439
30
0.0000000000
11
34.1794677227
21
27.8494147829
31
0.0000000000
11
34.1029820050
21
27.8342387610
31
0.0000000000
11
34.0380796678
21
27.7909146366
31
0.0000000000
11
33.9947160125
21
27.7260319676
31
0.0000000000
11
33.9794981836
21
27.6494452439
31
0.0000000000
0
SPLINE
5
59D
100
AcDbEntity
8
0
100
AcDbSpline
62
9
6
CONTINUOUS
70
0
71
3
72
11
73
7
74
5
42
0.0000001000
43
0.0000001000
44
0.0000000001
12
-0.3120682848
22
-0.0000950518
32
0.0000000000
13
-0.0000950518
23
-0.3120682848
33
0.0000000000
40
0.0000000000
40
0.0000000000
40
0.0000000000
40
0.0000000000
40
0.2499897029
40
0.5000000000
40
0.7500102971
40
1.0000000000
40
1.0000000000
40
1.0000000000
40
1.0000000000
10
34.2686104070
20
27.7602720986
30
0.0000000000
10
34.2426057877
20
27.7602641779
30
0.0000000000
10
34.1900289724
20
27.7498445608
30
0.0000000000
10
34.1235736836
20
27.7053392830
30
0.0000000000
10
34.0790684058
20
27.6388839941
30
0.0000000000
10
34.0686487886
20
27.5863071788
30
0.0000000000
10
34.0686408679
20
27.5603025596
30
0.0000000000
11
34.2686104070
21
27.7602720986
31
0.0000000000
11
34.1920994420
21
27.7450328462
31
0.0000000000
11
34.1272321192
21
27.7016808473
31
0.0000000000
11
34.0838801204
21
27.6368135245
31
0.0000000000
11
34.0686408679
21
27.5603025596
31
0.0000000000
0
SPLINE
5
59E
100
AcDbEntity
8
0
100
AcDbSpline
62
0
6
CONTINUOUS
70
0
71
3
72
12
73
8
74
6
42
0.0000001000
43
0.0000001000
44
0.0000000001
12
0.5763198327
22
0.2577380645
32
0.0000000000
13
0.6312739558
23
0.0081640814
33
0.0000000000
40
0.0000000000
40
0.0000000000
40
0.0000000000
40
0.0000000000
40
0.2480372190
40
0.4727117892
40
0.6732697292
40
0.8491903603
40
1.0000000000
40
1.0000000000
40
1.0000000000
40
1.0000000000
10
41.6563821795
20
23.3642997025
30
0.0000000000
10
41.7040317691
20
23.3856092467
30
0.0000000000
10
41.7948418659
20
23.4262308659
30
0.0000000000
10
41.9254653404
20
23.4811572414
30
0.0000000000
10
42.0443477067
20
23.5247020601
30
0.0000000000
10
42.1513754065
20
23.5544279668
30
0.0000000000
10
42.2199657150
20
23.5638588341
30
0.0000000000
10
42.2516997809
20
23.5642692415
30
0.0000000000
11
41.6563821795
21
23.3642997025
31
0.0000000000
11
41.7995783916
21
23.4276721364
31
0.0000000000
11
41.9305886935
21
23.4820390006
31
0.0000000000
11
42.0497776669
21
23.5247707582
31
0.0000000000
11
42.1571308584
21
23.5532377738
31
0.0000000000
11
42.2516997809
21
23.5642692415
31
0.0000000000
0
SPLINE
5
59F
100
AcDbEntity
8
0
100
AcDbSpline
62
9
6
CONTINUOUS
70
0
71
3
72
11
73
7
74
5
42
0.0000001000
43
0.0000001000
44
0.0000000001
12
0.0001015633
22
-0.3121341846
32
0.0000000000
13
-0.3121341846
23
0.0001014140
33
0.0000000000
40
0.0000000000
40
0.0000000000
40
0.0000000000
40
0.0000000000
40
0.2498181029
40
0.4998193505
40
0.7498383919
40
1.0000000000
40
1.0000000000
40
1.0000000000
40
1.0000000000
10
45.2646437250
20
23.7642387805
30
0.0000000000
10
45.2646521825
20
23.7382465239
30
0.0000000000
10
45.2542768604
20
23.6856706227
30
0.0000000000
10
45.2098084534
20
23.6191851790
30
0.0000000000
10
45.1433179978
20
23.5746590062
30
0.0000000000
10
45.0907021825
20
23.5642607849
30
0.0000000000
10
45.0646741860
20
23.5642692415
30
0.0000000000
11
45.2646437250
21
23.7642387805
31
0.0000000000
11
45.2494677016
21
23.6877530590
31
0.0000000000
11
45.2061435637
21
23.6228507107
31
0.0000000000
11
45.1412609188
21
23.5794870741
31
0.0000000000
11
45.0646741860
21
23.5642692415
31
0.0000000000
0
SPLINE
5
5A0
100
AcDbEntity
8
0
100
AcDbSpline
62
9
6
CONTINUOUS
70
0
71
3
72
11
73
7
74
5
42
0.0000001000
43
0.0000001000
44
0.0000000001
12
-0.0000950518
22
-0.3120682848
32
0.0000000000
13
-0.3120682848
23
-0.0000950518
33
0.0000000000
40
0.0000000000
40
0.0000000000
40
0.0000000000
40
0.0000000000
40
0.2499897029
40
0.5000000000
40
0.7500102971
40
1.0000000000
40
1.0000000000
40
1.0000000000
40
1.0000000000
10
45.1755010408
20
23.8533814648
30
0.0000000000
10
45.1754931201
20
23.8273768455
30
0.0000000000
10
45.1650735029
20
23.7748000303
30
0.0000000000
10
45.1205682251
20
23.7083447414
30
0.0000000000
10
45.0541129363
20
23.6638394636
30
0.0000000000
10
45.0015361210
20
23.6534198464
30
0.0000000000
10
44.9755315017
20
23.6534119258
30
0.0000000000
11
45.1755010408
21
23.8533814648
31
0.0000000000
11
45.1602617883
21
23.7768704998
31
0.0000000000
11
45.1169097895
21
23.7120031771
31
0.0000000000
11
45.0520424667
21
23.6686511782
31
0.0000000000
11
44.9755315017
21
23.6534119258
31
0.0000000000
0
SPLINE
5
5A1
100
AcDbEntity
8
0
100
AcDbSpline
62
0
6
CONTINUOUS
70
0
71
3
72
12
73
8
74
6
42
0.0000001000
43
0.0000001000
44
0.0000000001
12
-0.0081640814
22
-0.6312739558
32
0.0000000000
13
-0.2577380645
23
-0.5763198327
33
0.0000000000
40
0.0000000000
40
0.0000000000
40
0.0000000000
40
0.0000000000
40
0.1508096397
40
0.3267302708
40
0.5272882108
40
0.7519627810
40
1.0000000000
40
1.0000000000
40
1.0000000000
40
1.0000000000
10
33.9794981836
20
24.6864708387
30
0.0000000000
10
33.9790877763
20
24.6547367728
30
0.0000000000
10
33.9696569090
20
24.5861464644
30
0.0000000000
10
33.9399310023
20
24.4791187645
30
0.0000000000
10
33.8963861836
20
24.3602363982
30
0.0000000000
10
33.8414598080
20
24.2296129237
30
0.0000000000
10
33.8008381889
20
24.1388028269
30
0.0000000000
10
33.7795286446
20
24.0911532374
30
0.0000000000
11
33.9794981836
21
24.6864708387
31
0.0000000000
11
33.9684667160
21
24.5919019163
31
0.0000000000
11
33.9399997004
21
24.4845487247
31
0.0000000000
11
33.8972679427
21
24.3653597513
31
0.0000000000
11
33.8429010785
21
24.2343494494
31
0.0000000000
11
33.7795286446
21
24.0911532374
31
0.0000000000
0
SPLINE
5
5A2
100
AcDbEntity
8
0
100
AcDbSpline
62
9
6
CONTINUOUS
70
0
71
3
72
11
73
7
74
5
42
0.0000001000
43
0.0000001000
44
0.0000000001
12
-0.0001015634
22
-0.3121341846
32
0.0000000000
13
0.3121341846
23
0.0001014138
33
0.0000000000
40
0.0000000000
40
0.0000000000
40
0.0000000000
40
0.0000000000
40
0.2498180899
40
0.4998192838
40
0.7498384228
40
1.0000000000
40
1.0000000000
40
1.0000000000
40
1.0000000000
10
-45.2205018164
20
23.7642387805
30
0.0000000000
10
-45.2205102738
20
23.7382465253
30
0.0000000000
10
-45.2101349536
20
23.6856706311
30
0.0000000000
10
-45.1656665498
20
23.6191851827
30
0.0000000000
10
-45.0991760926
20
23.5746590061
30
0.0000000000
10
-45.0465602706
20
23.5642607849
30
0.0000000000
10
-45.0205322773
20
23.5642692415
30
0.0000000000
11
-45.2205018164
21
23.7642387805
31
0.0000000000
11
-45.2053257945
21
23.6877530629
31
0.0000000000
11
-45.1620016700
21
23.6228507257
31
0.0000000000
11
-45.0971190010
21
23.5794870704
31
0.0000000000
11
-45.0205322773
21
23.5642692415
31
0.0000000000
0
SPLINE
5
5A3
100
AcDbEntity
8
0
100
AcDbSpline
62
0
6
CONTINUOUS
70
0
71
3
72
12
73
8
74
6
42
0.0000001000
43
0.0000001000
44
0.0000000001
12
0.6312739558
22
-0.0081640814
32
0.0000000000
13
0.5763198327
23
-0.2577380645
33
0.0000000000
40
0.0000000000
40
0.0000000000
40
0.0000000000
40
0.0000000000
40
0.1508096397
40
0.3267302708
40
0.5272882108
40
0.7519627810
40
1.0000000000
40
1.0000000000
40
1.0000000000
40
1.0000000000
10
-42.2075578722
20
23.5642692415
30
0.0000000000
10
-42.1758238063
20
23.5638588341
30
0.0000000000
10
-42.1072334978
20
23.5544279668
30
0.0000000000
10
-42.0002057980
20
23.5247020601
30
0.0000000000
10
-41.8813234317
20
23.4811572414
30
0.0000000000
10
-41.7506999572
20
23.4262308659
30
0.0000000000
10
-41.6598898604
20
23.3856092467
30
0.0000000000
10
-41.6122402708
20
23.3642997025
30
0.0000000000
11
-42.2075578722
21
23.5642692415
31
0.0000000000
11
-42.1129889497
21
23.5532377738
31
0.0000000000
11
-42.0056357582
21
23.5247707582
31
0.0000000000
11
-41.8864467848
21
23.4820390006
31
0.0000000000
11
-41.7554364829
21
23.4276721364
31
0.0000000000
11
-41.6122402708
21
23.3642997025
31
0.0000000000
0
SPLINE
5
5A4
100
AcDbEntity
8
0
100
AcDbSpline
62
0
6
CONTINUOUS
70
0
71
3
72
12
73
8
74
6
42
0.0000001000
43
0.0000001000
44
0.0000000001
12
-0.2577380737
22
0.5763198532
32
0.0000000000
13
-0.0081640817
23
0.6312739782
33
0.0000000000
40
0.0000000000
40
0.0000000000
40
0.0000000000
40
0.0000000000
40
0.2481432339
40
0.4729087044
40
0.6734536919
40
0.8491135784
40
1.0000000000
40
1.0000000000
40
1.0000000000
40
1.0000000000
10
-33.7353867359
20
24.0911532374
30
0.0000000000
10
-33.7567053890
20
24.1388231948
30
0.0000000000
10
-33.7973439669
20
24.2296711314
30
0.0000000000
10
-33.8522827259
20
24.3603313680
30
0.0000000000
10
-33.8958078257
20
24.4791803375
30
0.0000000000
10
-33.9255162246
20
24.5861690192
30
0.0000000000
10
-33.9349456586
20
24.6547206149
30
0.0000000000
10
-33.9353562750
20
24.6864708387
30
0.0000000000
11
-33.7353867359
21
24.0911532374
31
0.0000000000
11
-33.7987857722
21
24.2344108740
31
0.0000000000
11
-33.8531713661
21
24.3654755418
31
0.0000000000
11
-33.8958930308
21
24.4846594513
31
0.0000000000
11
-33.9243152279
21
24.5918542272
31
0.0000000000
11
-33.9353562750
21
24.6864708387
31
0.0000000000
0
SPLINE
5
5A5
100
AcDbEntity
8
0
100
AcDbSpline
62
9
6
CONTINUOUS
70
0
71
3
72
11
73
7
74
5
42
0.0000001000
43
0.0000001000
44
0.0000000001
12
0.3121341846
22
0.0001015633
32
0.0000000000
13
-0.0001014140
23
-0.3121341846
33
0.0000000000
40
0.0000000000
40
0.0000000000
40
0.0000000000
40
0.0000000000
40
0.2498181029
40
0.4998193505
40
0.7498383919
40
1.0000000000
40
1.0000000000
40
1.0000000000
40
1.0000000000
10
-34.1353258140
20
27.8494147829
30
0.0000000000
10
-34.1093335574
20
27.8494232403
30
0.0000000000
10
-34.0567576561
20
27.8390479182
30
0.0000000000
10
-33.9902722125
20
27.7945795112
30
0.0000000000
10
-33.9457460396
20
27.7280890556
30
0.0000000000
10
-33.9353478183
20
27.6754732404
30
0.0000000000
10
-33.9353562750
20
27.6494452439
30
0.0000000000
11
-34.1353258140
21
27.8494147829
31
0.0000000000
11
-34.0588400925
21
27.8342387594
31
0.0000000000
11
-33.9939377441
21
27.7909146215
31
0.0000000000
11
-33.9505741075
21
27.7260319767
31
0.0000000000
11
-33.9353562750
21
27.6494452439
31
0.0000000000
0
SPLINE
5
5A6
100
AcDbEntity
8
0
100
AcDbSpline
62
0
6
CONTINUOUS
70
0
71
3
72
11
73
7
74
5
42
0.0000001000
43
0.0000001000
44
0.0000000001
12
-0.2002581390
22
0.0000000000
32
0.0000000000
13
-0.0895363312
23
-0.1791272387
33
0.0000000000
40
0.0000000000
40
0.0000000000
40
0.0000000000
40
0.0000000000
40
0.3750025553
40
0.6985483822
40
0.9185111248
40
1.0000000000
40
1.0000000000
40
1.0000000000
40
1.0000000000
10
34.2686104070
20
26.7870004732
30
0.0000000000
10
34.2435779690
20
26.7870004732
30
0.0000000000
10
34.1977272997
20
26.7858385556
30
0.0000000000
10
34.1336291535
20
26.7876710591
30
0.0000000000
10
34.0976020543
20
26.7796070956
30
0.0000000000
10
34.0710729396
20
26.7850038353
30
0.0000000000
10
34.0686408679
20
26.7801382096
30
0.0000000000
11
34.2686104070
21
26.7870004732
31
0.0000000000
11
34.1935148318
21
26.7864894522
31
0.0000000000
11
34.1287390760
21
26.7850084031
31
0.0000000000
11
34.0847469263
21
26.7827647016
31
0.0000000000
11
34.0686408679
21
26.7801382096
31
0.0000000000
0
SPLINE
5
5A7
100
AcDbEntity
8
0
100
AcDbSpline
62
0
6
CONTINUOUS
70
0
71
3
72
11
73
7
74
5
42
0.0000001000
43
0.0000001000
44
0.0000000001
12
-0.0895363312
22
0.1791272387
32
0.0000000000
13
-0.2002581390
23
0.0000000000
33
0.0000000000
40
0.0000000000
40
0.0000000000
40
0.0000000000
40
0.0000000000
40
0.0814888752
40
0.3014516178
40
0.6249974447
40
1.0000000000
40
1.0000000000
40
1.0000000000
40
1.0000000000
10
-34.0244989592
20
26.7801382096
30
0.0000000000
10
-34.0269310309
20
26.7850038353
30
0.0000000000
10
-34.0534601457
20
26.7796070956
30
0.0000000000
10
-34.0894872448
20
26.7876710591
30
0.0000000000
10
-34.1535853910
20
26.7858385556
30
0.0000000000
10
-34.1994360603
20
26.7870004732
30
0.0000000000
10
-34.2244684983
20
26.7870004732
30
0.0000000000
11
-34.0244989592
21
26.7801382096
31
0.0000000000
11
-34.0406050176
21
26.7827647016
31
0.0000000000
11
-34.0845971673
21
26.7850084031
31
0.0000000000
11
-34.1493729231
21
26.7864894522
31
0.0000000000
11
-34.2244684983
21
26.7870004732
31
0.0000000000
0
SPLINE
5
5A8
100
AcDbEntity
8
0
100
AcDbSpline
62
9
6
CONTINUOUS
70
0
71
3
72
14
73
10
74
8
42
0.0000001000
43
0.0000001000
44
0.0000000001
12
2.3509214710
22
0.0001991490
32
0.0000000000
13
0.0003496794
23
-2.3509214534
33
0.0000000000
40
0.0000000000
40
0.0000000000
40
0.0000000000
40
0.0000000000
40
0.1422186365
40
0.2851408952
40
0.4283068424
40
0.5716030612
40
0.7149467604
40
0.8579444026
40
1.0000000000
40
1.0000000000
40
1.0000000000
40
1.0000000000
10
43.4757599590
20
27.5603025596
30
0.0000000000
10
43.5872082410
20
27.5603120005
30
0.0000000000
10
43.8114570054
20
27.5351958207
30
0.0000000000
10
44.1308988404
20
27.4237039803
30
0.0000000000
10
44.4183966497
20
27.2433932426
30
0.0000000000
10
44.6585899644
20
27.0032339385
30
0.0000000000
10
44.8390225718
20
26.7155691527
30
0.0000000000
10
44.9504766499
20
26.3960280795
30
0.0000000000
10
44.9755149437
20
26.1718515340
30
0.0000000000
10
44.9755315017
20
26.0605310168
30
0.0000000000
11
43.4757599590
21
27.5603025596
31
0.0000000000
11
43.8080220085
21
27.5230412212
31
0.0000000000
11
44.1252716327
21
27.4123704965
31
0.0000000000
11
44.4103876012
21
27.2335143289
31
0.0000000000
11
44.6486148247
21
26.9953238932
31
0.0000000000
11
44.8277009537
21
26.7098588843
31
0.0000000000
11
44.9383597559
21
26.3924174156
31
0.0000000000
11
44.9755315017
21
26.0605310168
31
0.0000000000
0
SPLINE
5
5A9
100
AcDbEntity
8
0
100
AcDbSpline
62
9
6
CONTINUOUS
70
0
71
3
72
14
73
10
74
8
42
0.0000001000
43
0.0000001000
44
0.0000000001
12
-0.0001991490
22
2.3509214710
32
0.0000000000
13
2.3509214534
23
0.0003496794
33
0.0000000000
40
0.0000000000
40
0.0000000000
40
0.0000000000
40
0.0000000000
40
0.1422186365
40
0.2851408952
40
0.4283068424
40
0.5716030612
40
0.7149467604
40
0.8579444026
40
1.0000000000
40
1.0000000000
40
1.0000000000
40
1.0000000000
10
-44.9313895930
20
26.0605310168
30
0.0000000000
10
-44.9313990339
20
26.1719792989
30
0.0000000000
10
-44.9062828542
20
26.3962280633
30
0.0000000000
10
-44.7947910137
20
26.7156698983
30
0.0000000000
10
-44.6144802761
20
27.0031677076
30
0.0000000000
10
-44.3743209720
20
27.2433610223
30
0.0000000000
10
-44.0866561862
20
27.4237936296
30
0.0000000000
10
-43.7671151130
20
27.5352477077
30
0.0000000000
10
-43.5429385675
20
27.5602860016
30
0.0000000000
10
-43.4316180503
20
27.5603025596
30
0.0000000000
11
-44.9313895930
21
26.0605310168
31
0.0000000000
11
-44.8941282546
21
26.3927930664
31
0.0000000000
11
-44.7834575299
21
26.7100426905
31
0.0000000000
11
-44.6046013623
21
26.9951586591
31
0.0000000000
11
-44.3664109266
21
27.2333858826
31
0.0000000000
11
-44.0809459178
21
27.4124720115
31
0.0000000000
11
-43.7635044490
21
27.5231308138
31
0.0000000000
11
-43.4316180503
21
27.5603025596
31
0.0000000000
0
ENDSEC
0
SECTION
2
OBJECTS
0
DICTIONARY
5
C
100
AcDbDictionary
280
0
281
1
3
ACAD_GROUP
350
D
3
ACAD_MLINESTYLE
350
17
3
ACAD_LAYOUT
350
1A
3
ACAD_PLOTSETTINGS
350
19
3
ACAD_PLOTSTYLENAME
350
E
0
DICTIONARY
5
D
102
{ACAD_REACTORS
330
C
102
}
100
AcDbDictionary
280
0
281
1
0
ACDBDICTIONARYWDFLT
5
E
102
{ACAD_REACTORS
330
C
102
}
100
AcDbDictionary
281
1
3
Normal
350
F
100
AcDbDictionaryWithDefault
340
F
0
DICTIONARY
5
17
102
{ACAD_REACTORS
330
C
102
}
100
AcDbDictionary
280
0
281
1
3
Standard
350
18
0
DICTIONARY
5
19
102
{ACAD_REACTORS
330
C
102
}
100
AcDbDictionary
281
1
0
DICTIONARY
5
1A
102
{ACAD_REACTORS
330
C
102
}
100
AcDbDictionary
281
1
3
Layout1
350
1E
3
Model
350
22
0
ACDBPLACEHOLDER
5
F
102
{ACAD_REACTORS
330
E
102
}
0
MLINESTYLE
5
18
102
{ACAD_REACTORS
330
17
102
}
100
AcDbMlineStyle
2
STANDARD
70
0
3

62
256
51
90.0
52
90.0
71
2
49
0.5
62
256
6
BYLAYER
49
-0.5
62
256
6
BYLAYER
0
LAYOUT
5
1E
102
{ACAD_REACTORS
330
1A
102
}
100
AcDbPlotSettings
1

2

4

6

40
0.0
41
0.0
42
0.0
43
0.0
44
0.0
45
0.0
46
0.0
47
0.0
48
0.0
49
0.0
140
0.0
141
0.0
142
1.0
143
1.0
70
0
72
0
73
0
74
0
7

75
0
147
1.0
148
0.0
149
0.0
100
AcDbLayout
1
Layout1
70
0
71
0
10
0.0
20
0.0
11
0.0
21
0.0
12
0.0
22
0.0
32
0.0
14
0.0
24
0.0
34
0.0
15
0.0
25
0.0
35
0.0
146
0.0
13
0.0
23
0.0
33
0.0
16
0.0
26
0.0
36
0.0
17
0.0
27
0.0
37
0.0
76
0
330
1B
331
0
345
0
346
0
0
LAYOUT
5
22
102
{ACAD_REACTORS
330
1A
102
}
100
AcDbPlotSettings
1

2

4

6

40
0.0
41
0.0
42
0.0
43
0.0
44
0.0
45
0.0
46
0.0
47
0.0
48
0.0
49
0.0
140
0.0
141
0.0
142
1.0
143
1.0
70
0
72
0
73
0
74
0
7

75
0
147
1.0
148
0.0
149
0.0
100
AcDbLayout
1
Model
70
0
71
0
10
0.0
20
0.0
11
0.0
21
0.0
12
0.0
22
0.0
32
0.0
14
0.0
24
0.0
34
0.0
15
0.0
25
0.0
35
0.0
146
0.0
13
0.0
23
0.0
33
0.0
16
0.0
26
0.0
36
0.0
17
0.0
27
0.0
37
0.0
76
0
330
1F
331
0
345
0
346
0
0
ENDSEC
0
EOF
