  0
SECTION
  2
HEADER
  9
$ACADVER
  1
AC1021
  9
$DWGCODEPAGE
  3
ANSI_1252
  9
$EXTMAX
 10
297.0
 20
210.0
 30
0.0
  9
$EXTMIN
 10
0.0
 20
0.0
 30
0.0
  9
$LIMMIN
 10
0.0
 20
0.0
  9
$LIMMAX
 10
297.0
 20
210.0
  9
$VIEWCTR
 10
148.5
 20
105.0
  9
$VIEWSIZE
 40
210.0
  9
$CLAYER
  8
0
  9
$LTSCALE
 40
16.335
  9
$CELTYPE
  6
BYLAYER
  9
$DIMSCALE
 40
1.0
  9
$DIMASZ
 40
3.0
  9
$DIMEXO
 40
0.5
  9
$DIMDLI
 40
11.286
  9
$DIMEXE
 40
1.5
  9
$DIMCEN
 40
2.673
  9
$DIMLFAC
 40
1.0
  9
$DIMBLK
  1
_FILLED
  9
$DIMALT
 70
0
  9
$DIMALTF
 40
0.0393700787
  9
$DIMTXT
 40
3.0
  9
$DIMTOL
 70
1
  9
$DIMLIM
 70
0
  9
$DIMTFAC
 40
1.0
  9
$DIMTP
 40
0.01
  9
$DIMTM
 40
0.01
  9
$DIMGAP
 40
0.625
  9
$DIMDSEP
 70
44
  9
$AUNITS
 70
0
  9
$PDMODE
 70
3
  9
$PDSIZE
 40
3.0
  9
$HANDSEED
  5
5C1
  9
$TILEMODE
 70
1
  9
$MEASUREMENT
 70
1
  9
$INSUNITS
 70
4
  0
ENDSEC
  0
SECTION
  2
CLASSES
  0
CLASS
  1
ACDBDICTIONARYWDFLT
  2
AcDbDictionaryWithDefault
  3
AutoCAD 2000
 90
0
 91
1
280
0
281
0
  0
CLASS
  1
ACDBPLACEHOLDER
  2
AcDbPlaceHolder
  3
AutoCAD 2000
 90
0
 91
1
280
0
281
0
  0
CLASS
  1
LAYOUT
  2
AcDbLayout
  3
AutoCAD 2000
 90
0
 91
0
280
0
281
0
  0
ENDSEC
  0
SECTION
  2
TABLES
  0
TABLE
  2
VPORT
  5
8
100
AcDbSymbolTable
 70
2
  0
VPORT
  5
1F4
100
AcDbSymbolTableRecord
100
AcDbViewportTableRecord
  2
*ACTIVE
 70
0
 10
0.0
 20
0.0
 11
1.0
 21
1.0
 12
148.5
 22
105.0
 13
0.0
 23
0.0
 14
1.0
 24
1.0
 15
0.0
 25
0.0
 16
0.0
 26
0.0
 36
1.0
 17
0.0
 27
0.0
 37
0.0
 40
210.0
 41
1.4142857143
 42
50.0
 43
0.0
 44
0.0
 50
0.0
 51
0.0
 71
0
 72
100
 73
1
 74
1
 75
0
 76
0
 77
0
 78
0
  0
ENDTAB
  0
TABLE
  2
LTYPE
  5
5
100
AcDbSymbolTable
 70
6
  0
LTYPE
  5
14
100
AcDbSymbolTableRecord
100
AcDbLinetypeTableRecord
  2
BYBLOCK
 70
0
  3

 72
65
 73
0
 40
0.0
  0
LTYPE
  5
15
100
AcDbSymbolTableRecord
100
AcDbLinetypeTableRecord
  2
BYLAYER
 70
0
  3

 72
65
 73
0
 40
0.0
  0
LTYPE
  5
16
100
AcDbSymbolTableRecord
100
AcDbLinetypeTableRecord
  2
CONTINUOUS
 70
64
  3
Solid line
 72
65
 73
0
 40
0.0
  0
LTYPE
  5
1F5
100
AcDbSymbolTableRecord
100
AcDbLinetypeTableRecord
  2
CENTER
 70
64
  3
____ _ ____ _ ____ _ ____ _ ____ _ ____ _ ____
 72
65
 73
4
 40
0.6
 49
0.375
 74
0
 49
-0.075
 74
0
 49
0.075
 74
0
 49
-0.075
 74
0
  0
LTYPE
  5
1F6
100
AcDbSymbolTableRecord
100
AcDbLinetypeTableRecord
  2
HIDDEN
 70
64
  3
- - - - - - - - - - - - - - - - - - - -
 72
65
 73
2
 40
0.2
 49
0.1
 74
0
 49
-0.1
 74
0
  0
LTYPE
  5
1F7
100
AcDbSymbolTableRecord
100
AcDbLinetypeTableRecord
  2
PHANTOM
 70
64
  3
_____ _ _ _____ _ _ _____ _ _ _____
 72
65
 73
6
 40
0.8
 49
0.45
 74
0
 49
-0.05
 74
0
 49
0.1
 74
0
 49
-0.05
 74
0
 49
0.1
 74
0
 49
-0.05
 74
0
  0
LTYPE
  5
1F8
100
AcDbSymbolTableRecord
100
AcDbLinetypeTableRecord
  2
DOT
 70
64
  3
. . . . . . . . . . . . . . . . . . . .
 72
65
 73
2
 40
0.2
 49
0.1
 74
0
 49
-0.1
 74
0
  0
LTYPE
  5
1F9
100
AcDbSymbolTableRecord
100
AcDbLinetypeTableRecord
  2
DASHED
 70
64
  3
- - - - - - - - - - - - - - - - - - - -
 72
65
 73
2
 40
0.2
 49
0.1
 74
0
 49
-0.1
 74
0
  0
ENDTAB
  0
TABLE
  2
LAYER
  5
2
100
AcDbSymbolTable
 70
36
  0
LAYER
  5
10
100
AcDbSymbolTableRecord
100
AcDbLayerTableRecord
  2
0
 70
0
 62
7
  6
CONTINUOUS
370
-3
390
F
  0
LAYER
  5
1FA
100
AcDbSymbolTableRecord
100
AcDbLayerTableRecord
  2
DEFAULT_1
 70
0
 62
7
  6
CENTER
370
-3
390
F
  0
LAYER
  5
1FB
100
AcDbSymbolTableRecord
100
AcDbLayerTableRecord
  2
DEFAULT_2
 70
0
 62
7
  6
HIDDEN
370
-3
390
F
  0
LAYER
  5
1FC
100
AcDbSymbolTableRecord
100
AcDbLayerTableRecord
  2
DEFAULT_3
 70
0
 62
7
  6
PHANTOM
370
-3
390
F
  0
LAYER
  5
1FD
100
AcDbSymbolTableRecord
100
AcDbLayerTableRecord
  2
ASSI
 70
0
 62
7
  6
CONTINUOUS
370
-3
390
F
  0
LAYER
  5
1FE
100
AcDbSymbolTableRecord
100
AcDbLayerTableRecord
  2
COLOR1
 70
0
 62
7
  6
CONTINUOUS
370
-3
390
F
  0
LAYER
  5
1FF
100
AcDbSymbolTableRecord
100
AcDbLayerTableRecord
  2
COLOR14
 70
0
 62
7
  6
CONTINUOUS
370
-3
390
F
  0
LAYER
  5
200
100
AcDbSymbolTableRecord
100
AcDbLayerTableRecord
  2
COLOR5
 70
0
 62
7
  6
CONTINUOUS
370
-3
390
F
  0
LAYER
  5
201
100
AcDbSymbolTableRecord
100
AcDbLayerTableRecord
  2
COORDINATE
 70
0
 62
7
  6
CONTINUOUS
370
-3
390
F
  0
LAYER
  5
202
100
AcDbSymbolTableRecord
100
AcDbLayerTableRecord
  2
COORD_ORIGINE
 70
0
 62
7
  6
CONTINUOUS
370
-3
390
F
  0
LAYER
  5
203
100
AcDbSymbolTableRecord
100
AcDbLayerTableRecord
  2
COPY_PUBLISH
 70
0
 62
7
  6
CONTINUOUS
370
-3
390
F
  0
LAYER
  5
204
100
AcDbSymbolTableRecord
100
AcDbLayerTableRecord
  2
COSMETIC
 70
0
 62
7
  6
CONTINUOUS
370
-3
390
F
  0
LAYER
  5
205
100
AcDbSymbolTableRecord
100
AcDbLayerTableRecord
  2
CURVE
 70
0
 62
7
  6
CONTINUOUS
370
-3
390
F
  0
LAYER
  5
206
100
AcDbSymbolTableRecord
100
AcDbLayerTableRecord
  2
DRAFT
 70
0
 62
7
  6
CONTINUOUS
370
-3
390
F
  0
LAYER
  5
207
100
AcDbSymbolTableRecord
100
AcDbLayerTableRecord
  2
IGES_HOLGER
 70
0
 62
7
  6
CONTINUOUS
370
-3
390
F
  0
LAYER
  5
208
100
AcDbSymbolTableRecord
100
AcDbLayerTableRecord
  2
IMPORT_IGES
 70
0
 62
7
  6
CONTINUOUS
370
-3
390
F
  0
LAYER
  5
209
100
AcDbSymbolTableRecord
100
AcDbLayerTableRecord
  2
INTFCLR_1
 70
0
 62
7
  6
CONTINUOUS
370
-3
390
F
  0
LAYER
  5
20A
100
AcDbSymbolTableRecord
100
AcDbLayerTableRecord
  2
INTFCLR_2
 70
0
 62
7
  6
CONTINUOUS
370
-3
390
F
  0
LAYER
  5
20B
100
AcDbSymbolTableRecord
100
AcDbLayerTableRecord
  2
INTFCLR_3
 70
0
 62
7
  6
CONTINUOUS
370
-3
390
F
  0
LAYER
  5
20C
100
AcDbSymbolTableRecord
100
AcDbLayerTableRecord
  2
INTFCLR_4
 70
0
 62
7
  6
CONTINUOUS
370
-3
390
F
  0
LAYER
  5
20D
100
AcDbSymbolTableRecord
100
AcDbLayerTableRecord
  2
INTFCLR_5
 70
0
 62
7
  6
CONTINUOUS
370
-3
390
F
  0
LAYER
  5
20E
100
AcDbSymbolTableRecord
100
AcDbLayerTableRecord
  2
INTFCLR_6
 70
0
 62
7
  6
CONTINUOUS
370
-3
390
F
  0
LAYER
  5
20F
100
AcDbSymbolTableRecord
100
AcDbLayerTableRecord
  2
INTF_6
 70
0
 62
7
  6
CONTINUOUS
370
-3
390
F
  0
LAYER
  5
210
100
AcDbSymbolTableRecord
100
AcDbLayerTableRecord
  2
INTF_8
 70
0
 62
7
  6
CONTINUOUS
370
-3
390
F
  0
LAYER
  5
211
100
AcDbSymbolTableRecord
100
AcDbLayerTableRecord
  2
INTF_GREEN
 70
0
 62
7
  6
CONTINUOUS
370
-3
390
F
  0
LAYER
  5
212
100
AcDbSymbolTableRecord
100
AcDbLayerTableRecord
  2
INTF_YELLOW
 70
0
 62
7
  6
CONTINUOUS
370
-3
390
F
  0
LAYER
  5
213
100
AcDbSymbolTableRecord
100
AcDbLayerTableRecord
  2
LIVELLO_1
 70
0
 62
7
  6
CONTINUOUS
370
-3
390
F
  0
LAYER
  5
214
100
AcDbSymbolTableRecord
100
AcDbLayerTableRecord
  2
NOTE
 70
0
 62
7
  6
CONTINUOUS
370
-3
390
F
  0
LAYER
  5
215
100
AcDbSymbolTableRecord
100
AcDbLayerTableRecord
  2
PIANI
 70
0
 62
7
  6
CONTINUOUS
370
-3
390
F
  0
LAYER
  5
216
100
AcDbSymbolTableRecord
100
AcDbLayerTableRecord
  2
PIANI_ORIGINE
 70
0
 62
7
  6
CONTINUOUS
370
-3
390
F
  0
LAYER
  5
217
100
AcDbSymbolTableRecord
100
AcDbLayerTableRecord
  2
PUNTI
 70
0
 62
7
  6
CONTINUOUS
370
-3
390
F
  0
LAYER
  5
218
100
AcDbSymbolTableRecord
100
AcDbLayerTableRecord
  2
RACCORDO
 70
0
 62
7
  6
CONTINUOUS
370
-3
390
F
  0
LAYER
  5
219
100
AcDbSymbolTableRecord
100
AcDbLayerTableRecord
  2
SMUSSO
 70
0
 62
7
  6
CONTINUOUS
370
-3
390
F
  0
LAYER
  5
21A
100
AcDbSymbolTableRecord
100
AcDbLayerTableRecord
  2
SNAPLINE
 70
0
 62
7
  6
CONTINUOUS
370
-3
390
F
  0
LAYER
  5
21B
100
AcDbSymbolTableRecord
100
AcDbLayerTableRecord
  2
SUPERFICI
 70
0
 62
7
  6
CONTINUOUS
370
-3
390
F
  0
LAYER
  5
21C
100
AcDbSymbolTableRecord
100
AcDbLayerTableRecord
  2
TRASH
 70
0
 62
7
  6
CONTINUOUS
370
-3
390
F
  0
LAYER
  5
21D
100
AcDbSymbolTableRecord
100
AcDbLayerTableRecord
  2
WHITE
 70
0
 62
7
  6
CONTINUOUS
370
-3
390
F
  0
LAYER
  5
21E
100
AcDbSymbolTableRecord
100
AcDbLayerTableRecord
  2
XSEC_DATUMS
 70
0
 62
7
  6
CONTINUOUS
370
-3
390
F
  0
ENDTAB
  0
TABLE
  2
STYLE
  5
3
100
AcDbSymbolTable
 70
1
  0
STYLE
  5
11
100
AcDbSymbolTableRecord
100
AcDbTextStyleTableRecord
  2
STANDARD
 70
0
 40
0.0
 41
0.8
 50
0.0
 71
0
 42
0.2
  3
txt
  4

  0
STYLE
  5
21F
100
AcDbSymbolTableRecord
100
AcDbTextStyleTableRecord
  2
TEXTSTYLE_1
 70
0
 40
0.0
 41
0.8
 50
0.0
 71
0
 42
0.2
  3
gdt
  4

  0
ENDTAB
  0
TABLE
  2
VIEW
  5
6
100
AcDbSymbolTable
 70
0
  0
ENDTAB
  0
TABLE
  2
UCS
  5
7
100
AcDbSymbolTable
 70
0
  0
ENDTAB
  0
TABLE
  2
APPID
  5
9
100
AcDbSymbolTable
 70
1
  0
APPID
  5
220
100
AcDbSymbolTableRecord
100
AcDbRegAppTableRecord
  2
ACAD
 70
0
  0
ENDTAB
  0
TABLE
  2
BLOCK_RECORD
  5
1
100
AcDbSymbolTable
 70
0
  0
BLOCK_RECORD
  5
221
100
AcDbSymbolTableRecord
100
AcDbBlockTableRecord
  2
*Model_Space
  0
BLOCK_RECORD
  5
222
100
AcDbSymbolTableRecord
100
AcDbBlockTableRecord
  2
*Paper_Space
  0
ENDTAB
  0
TABLE
  2
DIMSTYLE
  5
A
100
AcDbSymbolTable
 70
1
100
AcDbDimStyleTable
 71
0
  0
DIMSTYLE
105
223
100
AcDbSymbolTableRecord
100
AcDbDimStyleTableRecord
  2
STANDARD
 70
0
  3

  4

 40
1.0
 41
3.0
 42
0.5
 43
0.38
 44
1.5
 45
0.0
 46
0.0
 47
0.01
 48
0.01
140
3.0
141
0.09
142
0.0
143
25.4
144
1.0
145
0.0
146
1.0
147
0.625
 71
1.0
 72
0.0
 73
0
 74
0
 75
0
 76
0
 77
1
 78
8
170
0
171
2
172
0
173
0
174
0
175
0
176
0
177
0
178
0
270
2
271
2
272
2
273
2
274
2
275
0
280
0
281
0
282
0
283
1
284
8
285
0
286
0
287
3
288
0
340
11
278
44
  0
ENDTAB
  0
ENDSEC
  0
SECTION
  2
BLOCKS
  0
BLOCK
  5
20
100
AcDbEntity
  8
0
100
AcDbBlockBegin
  2
*Model_Space
 70
0
 10
0.0
 20
0.0
 30
0.0
  3
*Model_Space
  1

  0
ENDBLK
  5
21
100
AcDbEntity
  8
0
100
AcDbBlockEnd
  0
BLOCK
  5
1C
100
AcDbEntity
  8
0
100
AcDbBlockBegin
  2
*Paper_Space
 70
0
 10
0.0
 20
0.0
 30
0.0
  3
*Paper_Space
  1

  0
ENDBLK
  5
1D
100
AcDbEntity
  8
0
100
AcDbBlockEnd
  0
ENDSEC
  0
SECTION
  2
ENTITIES
  0
LINE
  5
224
100
AcDbEntity
  8
0
100
AcDbLine
 62
7
  6
CONTINUOUS
 10
90.0890784853
 20
135.5967299157
 11
90.0749309916
 21
135.5769192874
  0
LINE
  5
225
100
AcDbEntity
  8
0
100
AcDbLine
 62
7
  6
CONTINUOUS
 10
89.774923312
 20
133.8674459077
 11
89.8271632054
 21
133.9196858051
  0
LINE
  5
226
100
AcDbEntity
  8
0
100
AcDbLine
 62
7
  6
CONTINUOUS
 10
90.8666101737
 20
134.9591327734
 11
90.9188500671
 21
135.0113726708
  0
LINE
  5
227
100
AcDbEntity
  8
0
100
AcDbLine
 62
7
  6
CONTINUOUS
 10
89.1892502686
 20
134.6969917568
 11
89.2093767827
 21
134.7113650379
  0
LINE
  5
228
100
AcDbEntity
  8
0
100
AcDbLine
 62
7
  6
CONTINUOUS
 10
91.4843965963
 20
134.1674535406
 11
91.5045231027
 21
134.1818268161
  0
LINE
  5
229
100
AcDbEntity
  8
0
100
AcDbLine
 62
7
  6
CONTINUOUS
 10
89.2093767827
 20
134.7113650379
 11
89.2917102733
 21
134.7568460042
  0
LINE
  5
22A
100
AcDbEntity
  8
0
100
AcDbLine
 62
7
  6
CONTINUOUS
 10
91.4843965963
 20
134.1674535406
 11
91.4020631057
 21
134.1219725743
  0
LINE
  5
22B
100
AcDbEntity
  8
0
100
AcDbLine
 62
7
  6
CONTINUOUS
 10
89.2917102733
 20
134.7568460042
 11
89.3747830965
 21
134.8021555466
  0
LINE
  5
22C
100
AcDbEntity
  8
0
100
AcDbLine
 62
7
  6
CONTINUOUS
 10
91.4020631057
 20
134.1219725743
 11
91.3189902826
 21
134.0766630319
  0
LINE
  5
22D
100
AcDbEntity
  8
0
100
AcDbLine
 62
7
  6
CONTINUOUS
 10
89.3747830965
 20
134.8021555466
 11
89.4803804593
 21
134.8589271302
  0
LINE
  5
22E
100
AcDbEntity
  8
0
100
AcDbLine
 62
7
  6
CONTINUOUS
 10
91.3189902826
 20
134.0766630319
 11
91.2133929197
 21
134.0198914484
  0
LWPOLYLINE
  5
22F
100
AcDbEntity
  8
0
100
AcDbPolyline
 62
7
  6
CONTINUOUS
 90
3
 70
0
 10
89.4803804593
 20
134.8589271302
 10
89.5482008384
 20
134.8948490796
 10
89.5972196997
 20
134.9205264642
  0
LWPOLYLINE
  5
230
100
AcDbEntity
  8
0
100
AcDbPolyline
 62
7
  6
CONTINUOUS
 90
3
 70
0
 10
91.2133929197
 20
134.0198914484
 10
91.1455725407
 20
133.983969499
 10
91.0965536794
 20
133.9582921144
  0
LWPOLYLINE
  5
231
100
AcDbEntity
  8
0
100
AcDbPolyline
 62
7
  6
CONTINUOUS
 90
4
 70
0
 10
89.5972196997
 20
134.9205264642
 10
89.6233492435
 20
134.9341168697
 10
89.6505954894
 20
134.94806331
 10
89.7095169333
 20
134.9787052866
  0
LWPOLYLINE
  5
232
100
AcDbEntity
  8
0
100
AcDbPolyline
 62
7
  6
CONTINUOUS
 90
4
 70
0
 10
91.0965536794
 20
133.9582921144
 10
91.0704241355
 20
133.9447017088
 10
91.0431778897
 20
133.9307552686
 10
90.9842564457
 20
133.9001132919
  0
LWPOLYLINE
  5
233
100
AcDbEntity
  8
0
100
AcDbPolyline
 62
7
  6
CONTINUOUS
 90
3
 70
0
 10
89.7095169333
 20
134.9787052866
 10
89.7413783088
 20
134.994936954
 10
89.7749233272
 20
135.011372568
  0
LWPOLYLINE
  5
234
100
AcDbEntity
  8
0
100
AcDbPolyline
 62
7
  6
CONTINUOUS
 90
3
 70
0
 10
90.9842564457
 20
133.9001132919
 10
90.9523950703
 20
133.8838816246
 10
90.9188500519
 20
133.8674460106
  0
LINE
  5
235
100
AcDbEntity
  8
TRASH
100
AcDbLine
 62
7
  6
CONTINUOUS
 10
89.5037613108
 20
134.8083215286
 11
89.7271850611
 21
134.912512311
  0
LINE
  5
236
100
AcDbEntity
  8
0
100
AcDbLine
 62
7
  6
CONTINUOUS
 10
90.5857090621
 20
135.5615155763
 11
90.6188424382
 21
135.5769191961
  0
LINE
  5
237
100
AcDbEntity
  8
0
100
AcDbLine
 62
7
  6
CONTINUOUS
 10
90.108064317
 20
133.3173030023
 11
90.0749309409
 21
133.3018993825
  0
LINE
  5
238
100
AcDbEntity
  8
TRASH
100
AcDbLine
 62
7
  6
CONTINUOUS
 10
89.7271850611
 20
134.912512311
 11
89.8271599073
 21
134.9591267242
  0
LINE
  5
239
100
AcDbEntity
  8
TRASH
100
AcDbLine
 62
7
  6
CONTINUOUS
 10
90.9665883181
 20
133.9663062676
 11
90.8666134718
 21
133.9196918543
  0
LINE
  5
23A
100
AcDbEntity
  8
TRASH
100
AcDbLine
 62
7
  6
CONTINUOUS
 10
89.2018894194
 20
134.6675575074
 11
89.5037613108
 21
134.8083215286
  0
LINE
  5
23B
100
AcDbEntity
  8
TRASH
100
AcDbLine
 62
7
  6
CONTINUOUS
 10
91.4918839596
 20
134.2112610711
 11
90.9665883181
 21
133.9663062676
  0
LINE
  5
23C
100
AcDbEntity
  8
0
100
AcDbLine
 62
7
  6
CONTINUOUS
 10
90.5946861695
 20
135.5927885795
 11
90.6044691641
 21
135.5970457004
  0
LINE
  5
23D
100
AcDbEntity
  8
0
100
AcDbLine
 62
7
  6
CONTINUOUS
 10
90.0990872196
 20
133.2860299846
 11
90.0893042231
 21
133.2817728668
  0
LINE
  5
23E
100
AcDbEntity
  8
0
100
AcDbLine
 62
7
  6
CONTINUOUS
 10
90.5848747507
 20
135.5885755325
 11
90.5946861695
 21
135.5927885795
  0
LINE
  5
23F
100
AcDbEntity
  8
0
100
AcDbLine
 62
7
  6
CONTINUOUS
 10
90.1088986357
 20
133.2902430354
 11
90.0990872196
 21
133.2860299846
  0
LINE
  5
240
100
AcDbEntity
  8
0
100
AcDbLine
 62
7
  6
CONTINUOUS
 10
90.5750349077
 20
135.5844065594
 11
90.5848747507
 21
135.5885755325
  0
LINE
  5
241
100
AcDbEntity
  8
0
100
AcDbLine
 62
7
  6
CONTINUOUS
 10
90.1187384714
 20
133.2944120192
 11
90.1088986357
 21
133.2902430354
  0
LINE
  5
242
100
AcDbEntity
  8
RACCORDO
100
AcDbLine
 62
7
  6
CONTINUOUS
 10
158.2470389944
 20
34.7894092893
 11
98.8992518843
 21
34.7894092893
  0
LINE
  5
243
100
AcDbEntity
  8
RACCORDO
100
AcDbLine
 62
7
  6
CONTINUOUS
 10
88.7945214947
 20
34.7894092893
 11
88.4467343847
 21
34.7894092893
  0
LINE
  5
244
100
AcDbEntity
  8
DRAFT
100
AcDbLine
 62
7
  6
CONTINUOUS
 10
98.8468866895
 20
34.8417744841
 11
88.8468866895
 21
34.8417744841
  0
LINE
  5
245
100
AcDbEntity
  8
RACCORDO
100
AcDbLine
 62
7
  6
CONTINUOUS
 10
158.1423086048
 20
34.8941396788
 11
88.5514647743
 21
34.8941396788
  0
LINE
  5
246
100
AcDbEntity
  8
0
100
AcDbLine
 62
7
  6
CONTINUOUS
 10
127.8468866895
 20
35.6894092893
 11
118.8468866895
 21
35.6894092893
  0
LINE
  5
247
100
AcDbEntity
  8
0
100
AcDbLine
 62
7
  6
CONTINUOUS
 10
157.7968866895
 20
36.1894092893
 11
128.8468866895
 21
36.1894092893
  0
LINE
  5
248
100
AcDbEntity
  8
ASSI
100
AcDbLine
 62
7
  6
CONTINUOUS
 10
117.8468866895
 20
36.1894092893
 11
99.8468866895
 21
36.1894092893
  0
LINE
  5
249
100
AcDbEntity
  8
0
100
AcDbLine
 62
7
  6
CONTINUOUS
 10
94.8468866895
 20
36.7894092893
 11
92.8468866895
 21
36.7894092893
  0
LWPOLYLINE
  5
24A
100
AcDbEntity
  8
0
100
AcDbPolyline
 62
7
  6
CONTINUOUS
 90
7
 70
0
 10
90.6046948938
 20
43.7820886628
 10
90.5998351012
 20
43.7842678043
 10
90.5949418939
 20
43.7863968458
 10
90.5900152719
 20
43.7884757874
 10
90.5850552351
 20
43.790504629
 10
90.5800617837
 20
43.7924833707
 10
90.5750349176
 20
43.7944120124
  0
LWPOLYLINE
  5
24B
100
AcDbEntity
  8
0
100
AcDbPolyline
 62
7
  6
CONTINUOUS
 90
7
 70
0
 10
90.0890784853
 20
46.0967299157
 10
90.0939382779
 20
46.0945507743
 10
90.0988314852
 20
46.0924217328
 10
90.1037581072
 20
46.0903427912
 10
90.1087181439
 20
46.0883139496
 10
90.1137115953
 20
46.0863352079
 10
90.1187384614
 20
46.0844065661
  0
LINE
  5
24C
100
AcDbEntity
  8
0
100
AcDbLine
 62
7
  6
CONTINUOUS
 10
90.6188423875
 20
43.8018992912
 11
90.585709072
 21
43.8173029956
  0
LINE
  5
24D
100
AcDbEntity
  8
0
100
AcDbLine
 62
7
  6
CONTINUOUS
 10
90.0749309916
 20
46.0769192874
 11
90.1080643071
 21
46.061515583
  0
LINE
  5
24E
100
AcDbEntity
  8
TRASH
100
AcDbLine
 62
7
  6
CONTINUOUS
 10
89.8271632057
 20
44.4196858054
 11
89.2018894127
 21
44.7112610612
  0
LINE
  5
24F
100
AcDbEntity
  8
TRASH
100
AcDbLine
 62
7
  6
CONTINUOUS
 10
90.8666101734
 20
45.4591327731
 11
91.4918839664
 21
45.1675575174
  0
LINE
  5
250
100
AcDbEntity
  8
0
100
AcDbLine
 62
7
  6
CONTINUOUS
 10
89.774923312
 20
44.3674459077
 11
89.7261612859
 21
44.3920034868
  0
LINE
  5
251
100
AcDbEntity
  8
0
100
AcDbLine
 62
7
  6
CONTINUOUS
 10
90.9188500671
 20
45.5113726708
 11
90.9676120931
 21
45.4868150918
  0
LINE
  5
252
100
AcDbEntity
  8
0
100
AcDbLine
 62
7
  6
CONTINUOUS
 10
89.7261612859
 20
44.3920034868
 11
89.6776103815
 21
44.4167404895
  0
LINE
  5
253
100
AcDbEntity
  8
0
100
AcDbLine
 62
7
  6
CONTINUOUS
 10
90.9676120931
 20
45.4868150918
 11
91.0161629976
 21
45.4620780891
  0
LINE
  5
254
100
AcDbEntity
  8
0
100
AcDbLine
 62
7
  6
CONTINUOUS
 10
89.6776103815
 20
44.4167404895
 11
89.6294566686
 21
44.4415446624
  0
LINE
  5
255
100
AcDbEntity
  8
0
100
AcDbLine
 62
7
  6
CONTINUOUS
 10
91.0161629976
 20
45.4620780891
 11
91.0643167105
 21
45.4372739161
  0
LINE
  5
256
100
AcDbEntity
  8
0
100
AcDbLine
 62
7
  6
CONTINUOUS
 10
89.6294566686
 20
44.4415446624
 11
89.5651108373
 21
44.4750875738
  0
LINE
  5
257
100
AcDbEntity
  8
0
100
AcDbLine
 62
7
  6
CONTINUOUS
 10
91.0643167105
 20
45.4372739161
 11
91.1286625418
 21
45.4037310047
  0
LINE
  5
258
100
AcDbEntity
  8
0
100
AcDbLine
 62
7
  6
CONTINUOUS
 10
89.5651108373
 20
44.4750875738
 11
89.4608760759
 21
44.53028903
  0
LINE
  5
259
100
AcDbEntity
  8
0
100
AcDbLine
 62
7
  6
CONTINUOUS
 10
91.1286625418
 20
45.4037310047
 11
91.2328973032
 21
45.3485295486
  0
LINE
  5
25A
100
AcDbEntity
  8
0
100
AcDbLine
 62
7
  6
CONTINUOUS
 10
89.4608760759
 20
44.53028903
 11
89.4019526209
 21
44.5619430173
  0
LINE
  5
25B
100
AcDbEntity
  8
0
100
AcDbLine
 62
7
  6
CONTINUOUS
 10
91.2328973032
 20
45.3485295486
 11
91.2918207581
 21
45.3168755612
  0
LINE
  5
25C
100
AcDbEntity
  8
0
100
AcDbLine
 62
7
  6
CONTINUOUS
 10
89.4019526209
 20
44.5619430173
 11
89.3365744146
 21
44.5974157254
  0
LINE
  5
25D
100
AcDbEntity
  8
0
100
AcDbLine
 62
7
  6
CONTINUOUS
 10
91.2918207581
 20
45.3168755612
 11
91.3571989645
 21
45.2814028531
  0
LWPOLYLINE
  5
25E
100
AcDbEntity
  8
0
100
AcDbPolyline
 62
7
  6
CONTINUOUS
 90
3
 70
0
 10
89.3365744146
 20
44.5974157254
 10
89.2367673824
 20
44.6521423131
 10
89.2093766914
 20
44.6674535913
  0
LWPOLYLINE
  5
25F
100
AcDbEntity
  8
0
100
AcDbPolyline
 62
7
  6
CONTINUOUS
 90
3
 70
0
 10
91.3571989645
 20
45.2814028531
 10
91.4570059967
 20
45.2266762655
 10
91.4843966876
 20
45.2113649872
  0
LINE
  5
260
100
AcDbEntity
  8
0
100
AcDbLine
 62
7
  6
CONTINUOUS
 10
89.1895660631
 20
44.681601085
 11
89.2093766914
 21
44.6674535913
  0
LINE
  5
261
100
AcDbEntity
  8
0
100
AcDbLine
 62
7
  6
CONTINUOUS
 10
91.4843966876
 20
45.2113649872
 11
91.504207316
 21
45.1972174935
  0
LINE
  5
262
100
AcDbEntity
  8
DRAFT
100
AcDbLine
 62
7
  6
CONTINUOUS
 10
98.8992518843
 20
34.7894092893
 11
98.8468866895
 21
34.8417744841
  0
LINE
  5
263
100
AcDbEntity
  8
0
100
AcDbLine
 62
7
  6
CONTINUOUS
 10
90.8666101737
 20
44.4196858051
 11
90.9188500519
 21
44.3674460106
  0
LINE
  5
264
100
AcDbEntity
  8
0
100
AcDbLine
 62
7
  6
CONTINUOUS
 10
89.8271632054
 20
45.4591327734
 11
89.7749233272
 21
45.511372568
  0
LINE
  5
265
100
AcDbEntity
  8
0
100
AcDbLine
 62
7
  6
CONTINUOUS
 10
90.0749309409
 20
43.8018993825
 11
90.0893042231
 21
43.7817728668
  0
LWPOLYLINE
  5
266
100
AcDbEntity
  8
0
100
AcDbPolyline
 62
7
  6
CONTINUOUS
 90
7
 70
0
 10
89.1895660631
 20
134.181601085
 10
89.1917452045
 20
134.1864608776
 10
89.193874246
 20
134.1913540849
 10
89.1959531876
 20
134.1962807069
 10
89.1979820292
 20
134.2012407437
 10
89.1999607709
 20
134.2062341951
 10
89.2018894127
 20
134.2112610612
  0
LINE
  5
267
100
AcDbEntity
  8
0
100
AcDbLine
 62
7
  6
CONTINUOUS
 10
89.2093766914
 20
134.1674535913
 11
89.2247803958
 21
134.2005869068
  0
LINE
  5
268
100
AcDbEntity
  8
0
100
AcDbLine
 62
7
  6
CONTINUOUS
 10
91.4843966876
 20
134.7113649872
 11
91.4689929832
 21
134.6782316718
  0
LINE
  5
269
100
AcDbEntity
  8
TRASH
100
AcDbLine
 62
7
  6
CONTINUOUS
 10
89.8271692546
 20
134.9591360715
 11
90.1187384614
 21
135.5844065661
  0
LINE
  5
26A
100
AcDbEntity
  8
TRASH
100
AcDbLine
 62
7
  6
CONTINUOUS
 10
90.8666041245
 20
133.919682507
 11
90.5750349176
 21
133.2944120124
  0
LWPOLYLINE
  5
26B
100
AcDbEntity
  8
0
100
AcDbPolyline
 62
7
  6
CONTINUOUS
 90
3
 70
0
 10
89.7749233272
 20
135.011372568
 10
89.7943647405
 20
135.050220547
 10
89.8140192118
 20
135.088888149
  0
LWPOLYLINE
  5
26C
100
AcDbEntity
  8
0
100
AcDbPolyline
 62
7
  6
CONTINUOUS
 90
3
 70
0
 10
90.9188500519
 20
133.8674460106
 10
90.8994086385
 20
133.8285980315
 10
90.8797541673
 20
133.7899304295
  0
LINE
  5
26D
100
AcDbEntity
  8
0
100
AcDbLine
 62
7
  6
CONTINUOUS
 10
89.8140192118
 20
135.088888149
 11
89.8741070181
 21
135.2051932005
  0
LINE
  5
26E
100
AcDbEntity
  8
0
100
AcDbLine
 62
7
  6
CONTINUOUS
 10
90.8797541673
 20
133.7899304295
 11
90.819666361
 21
133.6736253781
  0
LINE
  5
26F
100
AcDbEntity
  8
0
100
AcDbLine
 62
7
  6
CONTINUOUS
 10
89.8741070181
 20
135.2051932005
 11
89.9351773858
 21
135.3207013151
  0
LINE
  5
270
100
AcDbEntity
  8
0
100
AcDbLine
 62
7
  6
CONTINUOUS
 10
90.819666361
 20
133.6736253781
 11
90.7585959933
 21
133.5581172635
  0
LINE
  5
271
100
AcDbEntity
  8
0
100
AcDbLine
 62
7
  6
CONTINUOUS
 10
89.9351773858
 20
135.3207013151
 11
89.9960469817
 21
135.4335811659
  0
LINE
  5
272
100
AcDbEntity
  8
0
100
AcDbLine
 62
7
  6
CONTINUOUS
 10
90.7585959933
 20
133.5581172635
 11
90.6977263974
 21
133.4452374126
  0
LINE
  5
273
100
AcDbEntity
  8
0
100
AcDbLine
 62
7
  6
CONTINUOUS
 10
90.0558083219
 20
135.5418626238
 11
90.0749309916
 21
135.5769192874
  0
LINE
  5
274
100
AcDbEntity
  8
0
100
AcDbLine
 62
7
  6
CONTINUOUS
 10
90.6379650572
 20
133.3369559548
 11
90.6188423875
 21
133.3018992912
  0
LWPOLYLINE
  5
275
100
AcDbEntity
  8
0
100
AcDbPolyline
 62
7
  6
CONTINUOUS
 90
3
 70
0
 10
89.9960469817
 20
135.4335811659
 10
90.0161453614
 20
135.470294892
 10
90.0558083219
 20
135.5418626238
  0
LWPOLYLINE
  5
276
100
AcDbEntity
  8
0
100
AcDbPolyline
 62
7
  6
CONTINUOUS
 90
3
 70
0
 10
90.6977263974
 20
133.4452374126
 10
90.6776280177
 20
133.4085236866
 10
90.6379650572
 20
133.3369559548
  0
LINE
  5
277
100
AcDbEntity
  8
0
100
AcDbLine
 62
7
  6
CONTINUOUS
 10
90.6188423875
 20
133.3018992912
 11
90.6046948938
 21
133.2820886628
  0
LINE
  5
278
100
AcDbEntity
  8
0
100
AcDbLine
 62
7
  6
CONTINUOUS
 10
157.6298870722
 20
44.7112845999
 11
157.5045231027
 21
44.6818268161
  0
LINE
  5
279
100
AcDbEntity
  8
0
100
AcDbLine
 62
7
  6
CONTINUOUS
 10
155.0638863061
 20
45.1675339746
 11
155.1892502686
 21
45.1969917568
  0
LINE
  5
27A
100
AcDbEntity
  8
RACCORDO
100
AcDbLine
 62
7
  6
CONTINUOUS
 10
127.2469628419
 20
39.5894092893
 11
119.4468105371
 21
39.5894092893
  0
LINE
  5
27B
100
AcDbEntity
  8
RACCORDO
100
AcDbLine
 62
7
  6
CONTINUOUS
 10
127.1719060628
 20
39.6644660685
 11
119.5218673163
 21
39.6644660685
  0
LINE
  5
27C
100
AcDbEntity
  8
0
100
AcDbLine
 62
7
  6
CONTINUOUS
 10
92.8468866895
 20
40.7894092893
 11
94.8468866895
 21
40.7894092893
  0
LINE
  5
27D
100
AcDbEntity
  8
DRAFT
100
AcDbLine
 62
7
  6
CONTINUOUS
 10
120.0357939623
 20
41.0894092893
 11
126.6579794168
 21
41.0894092893
  0
LINE
  5
27E
100
AcDbEntity
  8
0
100
AcDbLine
 62
7
  6
CONTINUOUS
 10
89.0638902138
 20
44.7112626279
 11
89.1895660631
 21
44.681601085
  0
LINE
  5
27F
100
AcDbEntity
  8
0
100
AcDbLine
 62
7
  6
CONTINUOUS
 10
91.504207316
 20
45.1972174935
 11
91.6298831653
 21
45.1675559507
  0
LINE
  5
280
100
AcDbEntity
  8
0
100
AcDbLine
 62
7
  6
CONTINUOUS
 10
90.6044691641
 20
46.0970457004
 11
90.6188424382
 21
46.0769191961
  0
LINE
  5
281
100
AcDbEntity
  8
0
100
AcDbLine
 62
7
  6
CONTINUOUS
 10
90.0157850094
 20
43.9091821449
 11
89.9956575224
 21
43.9459636324
  0
LINE
  5
282
100
AcDbEntity
  8
0
100
AcDbLine
 62
7
  6
CONTINUOUS
 10
90.6779883697
 20
45.9696364337
 11
90.6981158566
 21
45.9328549462
  0
LWPOLYLINE
  5
283
100
AcDbEntity
  8
0
100
AcDbPolyline
 62
7
  6
CONTINUOUS
 90
3
 70
0
 10
90.0749309409
 20
43.8018993825
 10
90.0556342265
 20
43.8372416582
 10
90.0157850094
 20
43.9091821449
  0
LWPOLYLINE
  5
284
100
AcDbEntity
  8
0
100
AcDbPolyline
 62
7
  6
CONTINUOUS
 90
3
 70
0
 10
90.6188424382
 20
46.0769191961
 10
90.6381391526
 20
46.0415769203
 10
90.6779883697
 20
45.9696364337
  0
LINE
  5
285
100
AcDbEntity
  8
0
100
AcDbLine
 62
7
  6
CONTINUOUS
 10
89.9956575224
 20
43.9459636324
 11
89.9348465917
 21
44.0587448184
  0
LINE
  5
286
100
AcDbEntity
  8
0
100
AcDbLine
 62
7
  6
CONTINUOUS
 10
90.6981158566
 20
45.9328549462
 11
90.7589267874
 21
45.8200737601
  0
LINE
  5
287
100
AcDbEntity
  8
0
100
AcDbLine
 62
7
  6
CONTINUOUS
 10
89.9348465917
 20
44.0587448184
 11
89.8739276899
 21
44.1739728694
  0
LINE
  5
288
100
AcDbEntity
  8
0
100
AcDbLine
 62
7
  6
CONTINUOUS
 10
90.7589267874
 20
45.8200737601
 11
90.8198456891
 21
45.7048457092
  0
LWPOLYLINE
  5
289
100
AcDbEntity
  8
0
100
AcDbPolyline
 62
7
  6
CONTINUOUS
 90
4
 70
0
 10
89.8739276899
 20
44.1739728694
 10
89.8139665495
 20
44.2900294275
 10
89.7943397262
 20
44.3286416954
 10
89.774923312
 20
44.3674459077
  0
LWPOLYLINE
  5
28A
100
AcDbEntity
  8
0
100
AcDbPolyline
 62
7
  6
CONTINUOUS
 90
4
 70
0
 10
90.8198456891
 20
45.7048457092
 10
90.8798068296
 20
45.5887891511
 10
90.8994336528
 20
45.5501768832
 10
90.9188500671
 20
45.5113726708
  0
LINE
  5
28B
100
AcDbEntity
  8
0
100
AcDbLine
 62
7
  6
CONTINUOUS
 10
89.2247804025
 20
45.1782316619
 11
89.2093767827
 21
45.2113650379
  0
LINE
  5
28C
100
AcDbEntity
  8
0
100
AcDbLine
 62
7
  6
CONTINUOUS
 10
91.4689929765
 20
44.7005869167
 11
91.4843965963
 21
44.6674535406
  0
LINE
  5
28D
100
AcDbEntity
  8
TRASH
100
AcDbLine
 62
7
  6
CONTINUOUS
 10
89.8737559257
 20
44.3197292099
 11
89.8271632057
 21
44.4196858054
  0
LINE
  5
28E
100
AcDbEntity
  8
TRASH
100
AcDbLine
 62
7
  6
CONTINUOUS
 10
90.8200174534
 20
45.5590893687
 11
90.8666101734
 21
45.4591327731
  0
LINE
  5
28F
100
AcDbEntity
  8
TRASH
100
AcDbLine
 62
7
  6
CONTINUOUS
 10
90.1187384714
 20
43.7944120192
 11
89.8737559257
 21
44.3197292099
  0
LINE
  5
290
100
AcDbEntity
  8
TRASH
100
AcDbLine
 62
7
  6
CONTINUOUS
 10
90.5750349077
 20
46.0844065594
 11
90.8200174534
 21
45.5590893687
  0
LINE
  5
291
100
AcDbEntity
  8
0
100
AcDbLine
 62
7
  6
CONTINUOUS
 10
89.1935073867
 20
45.1872087605
 11
89.1892502686
 21
45.1969917568
  0
LINE
  5
292
100
AcDbEntity
  8
0
100
AcDbLine
 62
7
  6
CONTINUOUS
 10
89.197720437
 20
45.177397344
 11
89.1935073867
 21
45.1872087605
  0
LINE
  5
293
100
AcDbEntity
  8
0
100
AcDbLine
 62
7
  6
CONTINUOUS
 10
89.2018894194
 20
45.1675575074
 11
89.197720437
 21
45.177397344
  0
LWPOLYLINE
  5
294
100
AcDbEntity
  8
0
100
AcDbPolyline
 62
7
  6
CONTINUOUS
 90
7
 70
0
 10
91.504207316
 20
134.6972174935
 10
91.5020281745
 20
134.6923577009
 10
91.499899133
 20
134.6874644936
 10
91.4978201914
 20
134.6825378716
 10
91.4957913498
 20
134.6775778349
 10
91.4938126081
 20
134.6725843835
 10
91.4918839664
 20
134.6675575174
  0
LINE
  5
295
100
AcDbEntity
  8
0
100
AcDbLine
 62
7
  6
CONTINUOUS
 10
157.4918946136
 20
44.7112165444
 11
157.6298870722
 21
44.7112845999
  0
LINE
  5
296
100
AcDbEntity
  8
0
100
AcDbLine
 62
7
  6
CONTINUOUS
 10
91.4918946136
 20
44.7112165444
 11
91.6298870722
 21
44.7112845999
  0
LINE
  5
297
100
AcDbEntity
  8
0
100
AcDbLine
 62
7
  6
CONTINUOUS
 10
155.0638863061
 20
45.1675339746
 11
155.2018787664
 21
45.1676020293
  0
LINE
  5
298
100
AcDbEntity
  8
0
100
AcDbLine
 62
7
  6
CONTINUOUS
 10
89.0638863061
 20
45.1675339746
 11
89.2018787664
 21
45.1676020293
  0
LINE
  5
299
100
AcDbEntity
  8
0
100
AcDbLine
 62
7
  6
CONTINUOUS
 10
114.1468866895
 20
42.4894092893
 11
116.3468866895
 21
42.4894092893
  0
LINE
  5
29A
100
AcDbEntity
  8
0
100
AcDbLine
 62
7
  6
CONTINUOUS
 10
130.3468866895
 20
42.4894092893
 11
132.5468866895
 21
42.4894092893
  0
LINE
  5
29B
100
AcDbEntity
  8
0
100
AcDbLine
 62
7
  6
CONTINUOUS
 10
153.3468866895
 20
42.4894092893
 11
155.5468866895
 21
42.4894092893
  0
LINE
  5
29C
100
AcDbEntity
  8
RACCORDO
100
AcDbLine
 62
7
  6
CONTINUOUS
 10
127.8468866895
 20
42.9394092893
 11
127.7468866895
 21
42.9394092893
  0
LINE
  5
29D
100
AcDbEntity
  8
RACCORDO
100
AcDbLine
 62
7
  6
CONTINUOUS
 10
126.5829226376
 20
42.9394092893
 11
120.1108507415
 21
42.9394092893
  0
LINE
  5
29E
100
AcDbEntity
  8
RACCORDO
100
AcDbLine
 62
7
  6
CONTINUOUS
 10
118.9468866895
 20
42.9394092893
 11
118.8468866895
 21
42.9394092893
  0
LINE
  5
29F
100
AcDbEntity
  8
DRAFT
100
AcDbLine
 62
7
  6
CONTINUOUS
 10
157.7968866895
 20
43.0894092893
 11
157.1048512299
 21
43.0894092893
  0
LINE
  5
2A0
100
AcDbEntity
  8
DRAFT
100
AcDbLine
 62
7
  6
CONTINUOUS
 10
155.5889285578
 20
43.0894092893
 11
154.0968866895
 21
43.0894092893
  0
LINE
  5
2A1
100
AcDbEntity
  8
DRAFT
100
AcDbLine
 62
7
  6
CONTINUOUS
 10
154.0619765597
 20
43.0894092893
 11
128.8468866895
 21
43.0894092893
  0
LINE
  5
2A2
100
AcDbEntity
  8
ASSI
100
AcDbLine
 62
7
  6
CONTINUOUS
 10
117.8468866895
 20
43.0894092893
 11
99.8468866895
 21
43.0894092893
  0
LINE
  5
2A3
100
AcDbEntity
  8
DRAFT
100
AcDbLine
 62
7
  6
CONTINUOUS
 10
126.609105235
 20
43.2894092893
 11
120.0846681441
 21
43.2894092893
  0
LINE
  5
2A4
100
AcDbEntity
  8
DRAFT
100
AcDbLine
 62
7
  6
CONTINUOUS
 10
127.8468866895
 20
44.4394092893
 11
127.7468866895
 21
44.4394092893
  0
LINE
  5
2A5
100
AcDbEntity
  8
DRAFT
100
AcDbLine
 62
7
  6
CONTINUOUS
 10
118.9468866895
 20
44.4394092893
 11
118.8468866895
 21
44.4394092893
  0
LINE
  5
2A6
100
AcDbEntity
  8
DRAFT
100
AcDbLine
 62
7
  6
CONTINUOUS
 10
127.8468866895
 20
44.4908978092
 11
127.7468866895
 21
44.4908978092
  0
LINE
  5
2A7
100
AcDbEntity
  8
DRAFT
100
AcDbLine
 62
7
  6
CONTINUOUS
 10
118.9468866895
 20
44.4908978092
 11
118.8468866895
 21
44.4908978092
  0
LINE
  5
2A8
100
AcDbEntity
  8
DRAFT
100
AcDbLine
 62
7
  6
CONTINUOUS
 10
118.8468866895
 20
44.9894092893
 11
118.9468866895
 21
44.9894092893
  0
LINE
  5
2A9
100
AcDbEntity
  8
DRAFT
100
AcDbLine
 62
7
  6
CONTINUOUS
 10
127.7468866895
 20
44.9894092893
 11
127.8468866895
 21
44.9894092893
  0
LINE
  5
2AA
100
AcDbEntity
  8
0
100
AcDbLine
 62
7
  6
CONTINUOUS
 10
118.8468866895
 20
45.9894092893
 11
119.6968866895
 21
45.9894092893
  0
LINE
  5
2AB
100
AcDbEntity
  8
0
100
AcDbLine
 62
7
  6
CONTINUOUS
 10
126.9968866895
 20
45.9894092893
 11
127.8468866895
 21
45.9894092893
  0
LINE
  5
2AC
100
AcDbEntity
  8
0
100
AcDbLine
 62
7
  6
CONTINUOUS
 10
89.2018471064
 20
44.7110560182
 11
89.0638902138
 21
44.7112626279
  0
LINE
  5
2AD
100
AcDbEntity
  8
0
100
AcDbLine
 62
7
  6
CONTINUOUS
 10
155.2018471064
 20
44.7110560182
 11
155.0638902138
 21
44.7112626279
  0
LINE
  5
2AE
100
AcDbEntity
  8
0
100
AcDbLine
 62
7
  6
CONTINUOUS
 10
91.4919262726
 20
45.1677625604
 11
91.6298831653
 21
45.1675559507
  0
LINE
  5
2AF
100
AcDbEntity
  8
0
100
AcDbLine
 62
7
  6
CONTINUOUS
 10
157.4919262726
 20
45.1677625604
 11
157.6298831653
 21
45.1675559507
  0
LINE
  5
2B0
100
AcDbEntity
  8
0
100
AcDbLine
 62
7
  6
CONTINUOUS
 10
91.5002659824
 20
44.6916098111
 11
91.5045231027
 21
44.6818268161
  0
LINE
  5
2B1
100
AcDbEntity
  8
0
100
AcDbLine
 62
7
  6
CONTINUOUS
 10
91.4960529347
 20
44.7014212295
 11
91.5002659824
 21
44.6916098111
  0
LINE
  5
2B2
100
AcDbEntity
  8
0
100
AcDbLine
 62
7
  6
CONTINUOUS
 10
91.4918839596
 20
44.7112610711
 11
91.4960529347
 21
44.7014212295
  0
LINE
  5
2B3
100
AcDbEntity
  8
0
100
AcDbLine
 62
7
  6
CONTINUOUS
 10
90.1187400281
 20
135.722405765
 11
90.0890784853
 21
135.5967299157
  0
LINE
  5
2B4
100
AcDbEntity
  8
0
100
AcDbLine
 62
7
  6
CONTINUOUS
 10
90.6046948938
 20
133.2820886628
 11
90.5750333509
 21
133.1564128135
  0
LINE
  5
2B5
100
AcDbEntity
  8
DRAFT
100
AcDbLine
 62
7
  6
CONTINUOUS
 10
87.4468866895
 20
107.4394092893
 11
87.5516170791
 21
107.753855965
  0
LINE
  5
2B6
100
AcDbEntity
  8
DRAFT
100
AcDbLine
 62
7
  6
CONTINUOUS
 10
120.0846681441
 20
48.0894092893
 11
126.609105235
 21
48.0894092893
  0
LINE
  5
2B7
100
AcDbEntity
  8
DRAFT
100
AcDbLine
 62
7
  6
CONTINUOUS
 10
87.5516170791
 20
69.1249626136
 11
87.4905243518
 21
69.3083898411
  0
LINE
  5
2B8
100
AcDbEntity
  8
SMUSSO
100
AcDbLine
 62
7
  6
CONTINUOUS
 10
87.4776300444
 20
71.8471042213
 11
87.4468866895
 21
71.9394092893
  0
LINE
  5
2B9
100
AcDbEntity
  8
0
100
AcDbLine
 62
7
  6
CONTINUOUS
 10
90.118762005
 20
43.6564089057
 11
90.0893042231
 21
43.7817728668
  0
LINE
  5
2BA
100
AcDbEntity
  8
0
100
AcDbLine
 62
7
  6
CONTINUOUS
 10
90.57501138
 20
46.2224096718
 11
90.6044691641
 21
46.0970457004
  0
LINE
  5
2BB
100
AcDbEntity
  8
SMUSSO
100
AcDbLine
 62
7
  6
CONTINUOUS
 10
87.4905243518
 20
71.1083898411
 11
87.4776300444
 21
71.8471042213
  0
LINE
  5
2BC
100
AcDbEntity
  8
RACCORDO
100
AcDbLine
 62
7
  6
CONTINUOUS
 10
87.4468866895
 20
35.7892569844
 11
87.4468866895
 21
53.7894092893
  0
LINE
  5
2BD
100
AcDbEntity
  8
DRAFT
100
AcDbLine
 62
7
  6
CONTINUOUS
 10
87.4468866895
 20
53.7894092893
 11
87.4468866895
 21
68.3831989669
  0
LINE
  5
2BE
100
AcDbEntity
  8
RACCORDO
100
AcDbLine
 62
7
  6
CONTINUOUS
 10
87.4468866895
 20
125.5894092893
 11
87.4468866895
 21
143.5895615941
  0
LINE
  5
2BF
100
AcDbEntity
  8
DRAFT
100
AcDbLine
 62
7
  6
CONTINUOUS
 10
87.4468866895
 20
71.9394092893
 11
87.4468866895
 21
125.5894092893
  0
LINE
  5
2C0
100
AcDbEntity
  8
DRAFT
100
AcDbLine
 62
7
  6
CONTINUOUS
 10
87.459105235
 20
57.0394092893
 11
87.459105235
 21
62.3394092893
  0
LINE
  5
2C1
100
AcDbEntity
  8
DRAFT
100
AcDbLine
 62
7
  6
CONTINUOUS
 10
87.459105235
 20
117.0394092893
 11
87.459105235
 21
122.3394092893
  0
LINE
  5
2C2
100
AcDbEntity
  8
SMUSSO
100
AcDbLine
 62
7
  6
CONTINUOUS
 10
87.4905243518
 20
71.1083898411
 11
87.4905243518
 21
69.3083898411
  0
LINE
  5
2C3
100
AcDbEntity
  8
DRAFT
100
AcDbLine
 62
7
  6
CONTINUOUS
 10
87.5167069492
 20
122.3394092893
 11
87.5167069492
 21
117.0394092893
  0
LINE
  5
2C4
100
AcDbEntity
  8
DRAFT
100
AcDbLine
 62
7
  6
CONTINUOUS
 10
87.5167069492
 20
62.3394092893
 11
87.5167069492
 21
57.0394092893
  0
LINE
  5
2C5
100
AcDbEntity
  8
RACCORDO
100
AcDbLine
 62
7
  6
CONTINUOUS
 10
87.5481260661
 20
54.7894092893
 11
87.5481260661
 21
64.5894092893
  0
LINE
  5
2C6
100
AcDbEntity
  8
RACCORDO
100
AcDbLine
 62
7
  6
CONTINUOUS
 10
87.5481260661
 20
114.7894092893
 11
87.5481260661
 21
124.5894092893
  0
LINE
  5
2C7
100
AcDbEntity
  8
RACCORDO
100
AcDbLine
 62
7
  6
CONTINUOUS
 10
87.5516170791
 20
35.893987374
 11
87.5516170791
 21
53.6894092893
  0
LINE
  5
2C8
100
AcDbEntity
  8
DRAFT
100
AcDbLine
 62
7
  6
CONTINUOUS
 10
87.5516170791
 20
65.6894092893
 11
87.5516170791
 21
69.1249626136
  0
LINE
  5
2C9
100
AcDbEntity
  8
DRAFT
100
AcDbLine
 62
7
  6
CONTINUOUS
 10
87.5516170791
 20
107.753855965
 11
87.5516170791
 21
113.6894092893
  0
LINE
  5
2CA
100
AcDbEntity
  8
RACCORDO
100
AcDbLine
 62
7
  6
CONTINUOUS
 10
87.5516170791
 20
125.6894092893
 11
87.5516170791
 21
143.4848312046
  0
LINE
  5
2CB
100
AcDbEntity
  8
DRAFT
100
AcDbLine
 62
7
  6
CONTINUOUS
 10
88.2079794168
 20
65.6894092893
 11
88.2079794168
 21
65.5894092893
  0
LINE
  5
2CC
100
AcDbEntity
  8
DRAFT
100
AcDbLine
 62
7
  6
CONTINUOUS
 10
88.2079794168
 20
53.7894092893
 11
88.2079794168
 21
53.6894092893
  0
LINE
  5
2CD
100
AcDbEntity
  8
DRAFT
100
AcDbLine
 62
7
  6
CONTINUOUS
 10
88.2079794168
 20
113.6894092893
 11
88.2079794168
 21
113.7894092893
  0
LINE
  5
2CE
100
AcDbEntity
  8
DRAFT
100
AcDbLine
 62
7
  6
CONTINUOUS
 10
88.2079794168
 20
125.5894092893
 11
88.2079794168
 21
125.6894092893
  0
LINE
  5
2CF
100
AcDbEntity
  8
DRAFT
100
AcDbLine
 62
7
  6
CONTINUOUS
 10
88.2254344817
 20
125.6894092893
 11
88.2254344817
 21
125.5894092893
  0
LINE
  5
2D0
100
AcDbEntity
  8
DRAFT
100
AcDbLine
 62
7
  6
CONTINUOUS
 10
88.2254344817
 20
113.7894092893
 11
88.2254344817
 21
113.6894092893
  0
LINE
  5
2D1
100
AcDbEntity
  8
DRAFT
100
AcDbLine
 62
7
  6
CONTINUOUS
 10
88.2254344817
 20
65.6894092893
 11
88.2254344817
 21
65.5894092893
  0
LINE
  5
2D2
100
AcDbEntity
  8
DRAFT
100
AcDbLine
 62
7
  6
CONTINUOUS
 10
88.2254344817
 20
53.7894092893
 11
88.2254344817
 21
53.6894092893
  0
LINE
  5
2D3
100
AcDbEntity
  8
0
100
AcDbLine
 62
7
  6
CONTINUOUS
 10
88.314734326
 20
122.3894092893
 11
88.314734326
 21
116.9894092893
  0
LINE
  5
2D4
100
AcDbEntity
  8
0
100
AcDbLine
 62
7
  6
CONTINUOUS
 10
88.314734326
 20
56.9894092893
 11
88.314734326
 21
62.3894092893
  0
LINE
  5
2D5
100
AcDbEntity
  8
RACCORDO
100
AcDbLine
 62
7
  6
CONTINUOUS
 10
88.714734326
 20
54.7894092893
 11
88.714734326
 21
56.9894092893
  0
LINE
  5
2D6
100
AcDbEntity
  8
RACCORDO
100
AcDbLine
 62
7
  6
CONTINUOUS
 10
88.714734326
 20
62.3894092893
 11
88.714734326
 21
64.5894092893
  0
LINE
  5
2D7
100
AcDbEntity
  8
RACCORDO
100
AcDbLine
 62
7
  6
CONTINUOUS
 10
88.714734326
 20
114.7894092893
 11
88.714734326
 21
116.9894092893
  0
LINE
  5
2D8
100
AcDbEntity
  8
RACCORDO
100
AcDbLine
 62
7
  6
CONTINUOUS
 10
88.714734326
 20
122.3894092893
 11
88.714734326
 21
124.5894092893
  0
LINE
  5
2D9
100
AcDbEntity
  8
0
100
AcDbLine
 62
7
  6
CONTINUOUS
 10
88.7272045631
 20
122.3894092893
 11
88.7272045631
 21
116.9894092893
  0
LINE
  5
2DA
100
AcDbEntity
  8
0
100
AcDbLine
 62
7
  6
CONTINUOUS
 10
88.7272045631
 20
56.9894092893
 11
88.7272045631
 21
62.3894092893
  0
LINE
  5
2DB
100
AcDbEntity
  8
DRAFT
100
AcDbLine
 62
7
  6
CONTINUOUS
 10
88.7480338271
 20
122.2315176341
 11
88.7480338271
 21
117.1473009445
  0
LINE
  5
2DC
100
AcDbEntity
  8
DRAFT
100
AcDbLine
 62
7
  6
CONTINUOUS
 10
88.7480338271
 20
62.2315176341
 11
88.7480338271
 21
57.1473009445
  0
LINE
  5
2DD
100
AcDbEntity
  8
DRAFT
100
AcDbLine
 62
7
  6
CONTINUOUS
 10
88.7985186376
 20
125.6894092893
 11
88.7985186376
 21
125.5894092893
  0
LINE
  5
2DE
100
AcDbEntity
  8
DRAFT
100
AcDbLine
 62
7
  6
CONTINUOUS
 10
88.7985186376
 20
113.7894092893
 11
88.7985186376
 21
113.6894092893
  0
LINE
  5
2DF
100
AcDbEntity
  8
DRAFT
100
AcDbLine
 62
7
  6
CONTINUOUS
 10
88.7985186376
 20
65.6894092893
 11
88.7985186376
 21
65.5894092893
  0
LINE
  5
2E0
100
AcDbEntity
  8
DRAFT
100
AcDbLine
 62
7
  6
CONTINUOUS
 10
88.7985186376
 20
53.7894092893
 11
88.7985186376
 21
53.6894092893
  0
LINE
  5
2E1
100
AcDbEntity
  8
DRAFT
100
AcDbLine
 62
7
  6
CONTINUOUS
 10
88.801704846
 20
57.1566921559
 11
88.801704846
 21
57.3894092893
  0
LINE
  5
2E2
100
AcDbEntity
  8
DRAFT
100
AcDbLine
 62
7
  6
CONTINUOUS
 10
88.801704846
 20
61.9894092893
 11
88.801704846
 21
62.2221264226
  0
LINE
  5
2E3
100
AcDbEntity
  8
DRAFT
100
AcDbLine
 62
7
  6
CONTINUOUS
 10
88.801704846
 20
117.1566921559
 11
88.801704846
 21
117.3894092893
  0
LINE
  5
2E4
100
AcDbEntity
  8
DRAFT
100
AcDbLine
 62
7
  6
CONTINUOUS
 10
88.801704846
 20
121.9894092893
 11
88.801704846
 21
122.2221264226
  0
LINE
  5
2E5
100
AcDbEntity
  8
0
100
AcDbLine
 62
7
  6
CONTINUOUS
 10
91.6298870722
 20
44.7112845999
 11
91.5045231027
 21
44.6818268161
  0
LINE
  5
2E6
100
AcDbEntity
  8
0
100
AcDbLine
 62
7
  6
CONTINUOUS
 10
89.0638863061
 20
45.1675339746
 11
89.1892502686
 21
45.1969917568
  0
LINE
  5
2E7
100
AcDbEntity
  8
DRAFT
100
AcDbLine
 62
7
  6
CONTINUOUS
 10
87.4468866895
 20
53.6894092893
 11
88.8584855467
 21
53.6894092893
  0
LINE
  5
2E8
100
AcDbEntity
  8
DRAFT
100
AcDbLine
 62
7
  6
CONTINUOUS
 10
157.8352878324
 20
53.6894092893
 11
159.2468866895
 21
53.6894092893
  0
LINE
  5
2E9
100
AcDbEntity
  8
RACCORDO
100
AcDbLine
 62
7
  6
CONTINUOUS
 10
87.4468866895
 20
53.7894092893
 11
88.7985186376
 21
53.7894092893
  0
LINE
  5
2EA
100
AcDbEntity
  8
RACCORDO
100
AcDbLine
 62
7
  6
CONTINUOUS
 10
157.8952547414
 20
53.7894092893
 11
159.2468866895
 21
53.7894092893
  0
LINE
  5
2EB
100
AcDbEntity
  8
RACCORDO
100
AcDbLine
 62
253
  6
CONTINUOUS
 10
87.5481260661
 20
54.7894092893
 11
88.714734326
 21
54.7894092893
  0
LINE
  5
2EC
100
AcDbEntity
  8
RACCORDO
100
AcDbLine
 62
253
  6
CONTINUOUS
 10
157.9790390531
 20
54.7894092893
 11
159.1456473129
 21
54.7894092893
  0
LINE
  5
2ED
100
AcDbEntity
  8
0
100
AcDbLine
 62
7
  6
CONTINUOUS
 10
155.0638902138
 20
44.7112626279
 11
155.1895660631
 21
44.681601085
  0
LINE
  5
2EE
100
AcDbEntity
  8
0
100
AcDbLine
 62
7
  6
CONTINUOUS
 10
157.504207316
 20
45.1972174935
 11
157.6298831653
 21
45.1675559507
  0
LINE
  5
2EF
100
AcDbEntity
  8
0
100
AcDbLine
 62
7
  6
CONTINUOUS
 10
90.1186939504
 20
43.7944013663
 11
90.118762005
 21
43.6564089057
  0
LINE
  5
2F0
100
AcDbEntity
  8
0
100
AcDbLine
 62
7
  6
CONTINUOUS
 10
90.1186939504
 20
133.2944013663
 11
90.118762005
 21
133.1564089057
  0
LINE
  5
2F1
100
AcDbEntity
  8
0
100
AcDbLine
 62
7
  6
CONTINUOUS
 10
90.57501138
 20
46.2224096718
 11
90.5750794358
 21
46.0844172136
  0
LINE
  5
2F2
100
AcDbEntity
  8
0
100
AcDbLine
 62
7
  6
CONTINUOUS
 10
90.57501138
 20
135.7224096718
 11
90.5750794358
 21
135.5844172136
  0
LINE
  5
2F3
100
AcDbEntity
  8
DRAFT
100
AcDbLine
 62
7
  6
CONTINUOUS
 10
88.8584855467
 20
125.6894092893
 11
88.8584855467
 21
121.9894092893
  0
LINE
  5
2F4
100
AcDbEntity
  8
DRAFT
100
AcDbLine
 62
7
  6
CONTINUOUS
 10
88.8584855467
 20
53.6894092893
 11
88.8584855467
 21
57.3894092893
  0
LINE
  5
2F5
100
AcDbEntity
  8
DRAFT
100
AcDbLine
 62
7
  6
CONTINUOUS
 10
88.8584855467
 20
61.9894092893
 11
88.8584855467
 21
65.6894092893
  0
LINE
  5
2F6
100
AcDbEntity
  8
DRAFT
100
AcDbLine
 62
7
  6
CONTINUOUS
 10
88.8584855467
 20
113.6894092893
 11
88.8584855467
 21
117.3894092893
  0
LINE
  5
2F7
100
AcDbEntity
  8
DRAFT
100
AcDbLine
 62
7
  6
CONTINUOUS
 10
88.8968866895
 20
136.2052842287
 11
88.8968866895
 21
143.1894092893
  0
LINE
  5
2F8
100
AcDbEntity
  8
DRAFT
100
AcDbLine
 62
7
  6
CONTINUOUS
 10
88.9352769319
 20
121.9894092893
 11
88.9352769319
 21
117.3894092893
  0
LINE
  5
2F9
100
AcDbEntity
  8
DRAFT
100
AcDbLine
 62
7
  6
CONTINUOUS
 10
88.9352769319
 20
57.3894092893
 11
88.9352769319
 21
61.9894092893
  0
LINE
  5
2FA
100
AcDbEntity
  8
0
100
AcDbLine
 62
7
  6
CONTINUOUS
 10
91.1468866895
 20
143.1894092893
 11
91.1468866895
 21
136.8894092893
  0
LINE
  5
2FB
100
AcDbEntity
  8
DRAFT
100
AcDbLine
 62
7
  6
CONTINUOUS
 10
92.6317968194
 20
134.4394092893
 11
92.6317968194
 21
136.2894092893
  0
LINE
  5
2FC
100
AcDbEntity
  8
0
100
AcDbLine
 62
7
  6
CONTINUOUS
 10
90.1185334184
 20
135.5844488724
 11
90.1187400281
 21
135.722405765
  0
LINE
  5
2FD
100
AcDbEntity
  8
0
100
AcDbLine
 62
7
  6
CONTINUOUS
 10
90.1185334184
 20
46.0844488724
 11
90.1187400281
 21
46.222405765
  0
LINE
  5
2FE
100
AcDbEntity
  8
0
100
AcDbLine
 62
7
  6
CONTINUOUS
 10
90.5752399606
 20
133.2943697062
 11
90.5750333509
 21
133.1564128135
  0
LINE
  5
2FF
100
AcDbEntity
  8
0
100
AcDbLine
 62
7
  6
CONTINUOUS
 10
90.5752399606
 20
43.7943697062
 11
90.5750333509
 21
43.6564128135
  0
LINE
  5
300
100
AcDbEntity
  8
DRAFT
100
AcDbLine
 62
7
  6
CONTINUOUS
 10
120.0357939623
 20
55.6780722223
 11
120.0968866895
 21
55.6944419692
  0
LINE
  5
301
100
AcDbEntity
  8
DRAFT
100
AcDbLine
 62
7
  6
CONTINUOUS
 10
157.8920685331
 20
62.2221264226
 11
157.9457395519
 21
62.2315176341
  0
LINE
  5
302
100
AcDbEntity
  8
DRAFT
100
AcDbLine
 62
7
  6
CONTINUOUS
 10
159.2346681441
 20
62.3394092893
 11
159.1775026543
 21
62.3344155946
  0
LINE
  5
303
100
AcDbEntity
  8
DRAFT
100
AcDbLine
 62
7
  6
CONTINUOUS
 10
157.9461472521
 20
62.2268504723
 11
157.8920685331
 21
62.2221264226
  0
LINE
  5
304
100
AcDbEntity
  8
0
100
AcDbLine
 62
7
  6
CONTINUOUS
 10
88.314734326
 20
56.9894092893
 11
88.7272045631
 21
56.9894092893
  0
LINE
  5
305
100
AcDbEntity
  8
0
100
AcDbLine
 62
7
  6
CONTINUOUS
 10
157.9665688159
 20
56.9894092893
 11
158.3790390531
 21
56.9894092893
  0
LINE
  5
306
100
AcDbEntity
  8
DRAFT
100
AcDbLine
 62
7
  6
CONTINUOUS
 10
159.2346681441
 20
57.0394092893
 11
159.1770664298
 21
57.0394092893
  0
LINE
  5
307
100
AcDbEntity
  8
DRAFT
100
AcDbLine
 62
7
  6
CONTINUOUS
 10
87.5167069492
 20
57.0394092893
 11
87.459105235
 21
57.0394092893
  0
LINE
  5
308
100
AcDbEntity
  8
DRAFT
100
AcDbLine
 62
7
  6
CONTINUOUS
 10
157.9457395519
 20
57.3894092893
 11
157.7584964472
 21
57.3894092893
  0
LINE
  5
309
100
AcDbEntity
  8
DRAFT
100
AcDbLine
 62
7
  6
CONTINUOUS
 10
88.7480338271
 20
57.3894092893
 11
88.9352769319
 21
57.3894092893
  0
LINE
  5
30A
100
AcDbEntity
  8
DRAFT
100
AcDbLine
 62
7
  6
CONTINUOUS
 10
87.459105235
 20
62.3394092893
 11
87.5162707248
 21
62.3344155946
  0
LINE
  5
30B
100
AcDbEntity
  8
DRAFT
100
AcDbLine
 62
7
  6
CONTINUOUS
 10
88.801704846
 20
62.2221264226
 11
88.7480338271
 21
62.2315176341
  0
LINE
  5
30C
100
AcDbEntity
  8
DRAFT
100
AcDbLine
 62
7
  6
CONTINUOUS
 10
126.6579794168
 20
55.6780722223
 11
126.5968866895
 21
55.6944419692
  0
LINE
  5
30D
100
AcDbEntity
  8
RACCORDO
100
AcDbLine
 62
253
  6
CONTINUOUS
 10
127.2469628419
 20
39.5894092893
 11
127.1719060628
 21
39.6644660685
  0
LINE
  5
30E
100
AcDbEntity
  8
RACCORDO
100
AcDbLine
 62
253
  6
CONTINUOUS
 10
127.7468866895
 20
40.0893331369
 11
127.6718299103
 21
40.164389916
  0
LINE
  5
30F
100
AcDbEntity
  8
0
100
AcDbLine
 62
7
  6
CONTINUOUS
 10
93.3468866895
 20
143.1894092893
 11
93.3468866895
 21
136.8894092893
  0
LINE
  5
310
100
AcDbEntity
  8
DRAFT
100
AcDbLine
 62
7
  6
CONTINUOUS
 10
95.8468866895
 20
105.6394092893
 11
95.8468866895
 21
107.7070490161
  0
LINE
  5
311
100
AcDbEntity
  8
TRASH
100
AcDbLine
 62
7
  6
CONTINUOUS
 10
155.5037613108
 20
134.8083215286
 11
155.7271850611
 21
134.912512311
  0
LINE
  5
312
100
AcDbEntity
  8
TRASH
100
AcDbLine
 62
7
  6
CONTINUOUS
 10
157.1900120684
 20
134.07049705
 11
157.0730907715
 21
134.0159790917
  0
LINE
  5
313
100
AcDbEntity
  8
0
100
AcDbLine
 62
7
  6
CONTINUOUS
 10
156.5857090621
 20
135.5615155763
 11
156.6188424382
 21
135.5769191961
  0
LINE
  5
314
100
AcDbEntity
  8
0
100
AcDbLine
 62
7
  6
CONTINUOUS
 10
156.108064317
 20
133.3173030023
 11
156.0749309409
 21
133.3018993825
  0
LINE
  5
315
100
AcDbEntity
  8
TRASH
100
AcDbLine
 62
7
  6
CONTINUOUS
 10
155.7271850611
 20
134.912512311
 11
155.8271599073
 21
134.9591267242
  0
LINE
  5
316
100
AcDbEntity
  8
TRASH
100
AcDbLine
 62
7
  6
CONTINUOUS
 10
157.0730907715
 20
134.0159790917
 11
156.8666134718
 21
133.9196918543
  0
LINE
  5
317
100
AcDbEntity
  8
TRASH
100
AcDbLine
 62
7
  6
CONTINUOUS
 10
155.2018894194
 20
134.6675575074
 11
155.5037613108
 21
134.8083215286
  0
LINE
  5
318
100
AcDbEntity
  8
TRASH
100
AcDbLine
 62
7
  6
CONTINUOUS
 10
157.4918839596
 20
134.2112610711
 11
157.1900120684
 21
134.07049705
  0
LINE
  5
319
100
AcDbEntity
  8
0
100
AcDbLine
 62
7
  6
CONTINUOUS
 10
156.5946861695
 20
135.5927885795
 11
156.6044691641
 21
135.5970457004
  0
LINE
  5
31A
100
AcDbEntity
  8
0
100
AcDbLine
 62
7
  6
CONTINUOUS
 10
156.0990872196
 20
133.2860299846
 11
156.0893042231
 21
133.2817728668
  0
LINE
  5
31B
100
AcDbEntity
  8
0
100
AcDbLine
 62
7
  6
CONTINUOUS
 10
156.5848747507
 20
135.5885755325
 11
156.5946861695
 21
135.5927885795
  0
LINE
  5
31C
100
AcDbEntity
  8
0
100
AcDbLine
 62
7
  6
CONTINUOUS
 10
156.1088986357
 20
133.2902430354
 11
156.0990872196
 21
133.2860299846
  0
LINE
  5
31D
100
AcDbEntity
  8
0
100
AcDbLine
 62
7
  6
CONTINUOUS
 10
156.5750349077
 20
135.5844065594
 11
156.5848747507
 21
135.5885755325
  0
LINE
  5
31E
100
AcDbEntity
  8
0
100
AcDbLine
 62
7
  6
CONTINUOUS
 10
156.1187384714
 20
133.2944120192
 11
156.1088986357
 21
133.2902430354
  0
LINE
  5
31F
100
AcDbEntity
  8
DRAFT
100
AcDbLine
 62
7
  6
CONTINUOUS
 10
126.6579794168
 20
60.3007463562
 11
126.5968866895
 21
60.2843766093
  0
LINE
  5
320
100
AcDbEntity
  8
DRAFT
100
AcDbLine
 62
7
  6
CONTINUOUS
 10
88.7480338271
 20
57.1473009445
 11
88.801704846
 21
57.1566921559
  0
LINE
  5
321
100
AcDbEntity
  8
DRAFT
100
AcDbLine
 62
7
  6
CONTINUOUS
 10
87.459105235
 20
57.0394092893
 11
87.5162707248
 21
57.0444029839
  0
LINE
  5
322
100
AcDbEntity
  8
DRAFT
100
AcDbLine
 62
7
  6
CONTINUOUS
 10
88.7476261269
 20
57.1519681063
 11
88.801704846
 21
57.1566921559
  0
LINE
  5
323
100
AcDbEntity
  8
DRAFT
100
AcDbLine
 62
7
  6
CONTINUOUS
 10
157.9457395519
 20
61.9894092893
 11
157.7584964472
 21
61.9894092893
  0
LINE
  5
324
100
AcDbEntity
  8
DRAFT
100
AcDbLine
 62
7
  6
CONTINUOUS
 10
88.7480338271
 20
61.9894092893
 11
88.9352769319
 21
61.9894092893
  0
LINE
  5
325
100
AcDbEntity
  8
DRAFT
100
AcDbLine
 62
7
  6
CONTINUOUS
 10
87.459105235
 20
62.3394092893
 11
87.5167069492
 21
62.3394092893
  0
LINE
  5
326
100
AcDbEntity
  8
DRAFT
100
AcDbLine
 62
7
  6
CONTINUOUS
 10
159.1770664298
 20
62.3394092893
 11
159.2346681441
 21
62.3394092893
  0
LINE
  5
327
100
AcDbEntity
  8
0
100
AcDbLine
 62
7
  6
CONTINUOUS
 10
88.314734326
 20
62.3894092893
 11
88.7272045631
 21
62.3894092893
  0
LINE
  5
328
100
AcDbEntity
  8
0
100
AcDbLine
 62
7
  6
CONTINUOUS
 10
157.9665688159
 20
62.3894092893
 11
158.3790390531
 21
62.3894092893
  0
LINE
  5
329
100
AcDbEntity
  8
DRAFT
100
AcDbLine
 62
7
  6
CONTINUOUS
 10
159.2346681441
 20
57.0394092893
 11
159.1775026543
 21
57.0444029839
  0
LINE
  5
32A
100
AcDbEntity
  8
DRAFT
100
AcDbLine
 62
7
  6
CONTINUOUS
 10
157.9461472521
 20
57.1519681063
 11
157.8920685331
 21
57.1566921559
  0
LINE
  5
32B
100
AcDbEntity
  8
DRAFT
100
AcDbLine
 62
7
  6
CONTINUOUS
 10
157.9457395519
 20
57.1473009445
 11
157.8920685331
 21
57.1566921559
  0
LINE
  5
32C
100
AcDbEntity
  8
DRAFT
100
AcDbLine
 62
7
  6
CONTINUOUS
 10
120.0357939623
 20
60.3007463562
 11
120.0968866895
 21
60.2843766093
  0
LWPOLYLINE
  5
32D
100
AcDbEntity
  8
0
100
AcDbPolyline
 62
7
  6
CONTINUOUS
 90
7
 70
0
 10
156.6046948938
 20
43.7820886628
 10
156.5998351012
 20
43.7842678043
 10
156.5949418939
 20
43.7863968458
 10
156.5900152719
 20
43.7884757874
 10
156.5850552351
 20
43.790504629
 10
156.5800617837
 20
43.7924833707
 10
156.5750349176
 20
43.7944120124
  0
LWPOLYLINE
  5
32E
100
AcDbEntity
  8
0
100
AcDbPolyline
 62
7
  6
CONTINUOUS
 90
7
 70
0
 10
156.0890784853
 20
46.0967299157
 10
156.0939382779
 20
46.0945507743
 10
156.0988314852
 20
46.0924217328
 10
156.1037581072
 20
46.0903427912
 10
156.1087181439
 20
46.0883139496
 10
156.1137115953
 20
46.0863352079
 10
156.1187384614
 20
46.0844065661
  0
LINE
  5
32F
100
AcDbEntity
  8
0
100
AcDbLine
 62
7
  6
CONTINUOUS
 10
156.6188423875
 20
43.8018992912
 11
156.585709072
 21
43.8173029956
  0
LINE
  5
330
100
AcDbEntity
  8
0
100
AcDbLine
 62
7
  6
CONTINUOUS
 10
156.0749309916
 20
46.0769192874
 11
156.1080643071
 21
46.061515583
  0
LINE
  5
331
100
AcDbEntity
  8
TRASH
100
AcDbLine
 62
7
  6
CONTINUOUS
 10
155.8271632057
 20
44.4196858054
 11
155.2018894127
 21
44.7112610612
  0
LINE
  5
332
100
AcDbEntity
  8
TRASH
100
AcDbLine
 62
7
  6
CONTINUOUS
 10
156.8666101734
 20
45.4591327731
 11
157.4918839664
 21
45.1675575174
  0
LINE
  5
333
100
AcDbEntity
  8
0
100
AcDbLine
 62
7
  6
CONTINUOUS
 10
155.774923312
 20
44.3674459077
 11
155.7261612859
 21
44.3920034868
  0
LINE
  5
334
100
AcDbEntity
  8
DRAFT
100
AcDbLine
 62
7
  6
CONTINUOUS
 10
97.5968866895
 20
105.6394092893
 11
97.5968866895
 21
107.7070490161
  0
LINE
  5
335
100
AcDbEntity
  8
DRAFT
100
AcDbLine
 62
7
  6
CONTINUOUS
 10
99.0968866895
 20
105.6394092893
 11
99.0968866895
 21
107.7070490161
  0
LINE
  5
336
100
AcDbEntity
  8
ASSI
100
AcDbLine
 62
7
  6
CONTINUOUS
 10
99.8468866895
 20
43.0894092893
 11
99.8468866895
 21
36.1894092893
  0
LINE
  5
337
100
AcDbEntity
  8
DRAFT
100
AcDbLine
 62
7
  6
CONTINUOUS
 10
100.8468866895
 20
105.6394092893
 11
100.8468866895
 21
107.7070490161
  0
LINE
  5
338
100
AcDbEntity
  8
0
100
AcDbLine
 62
7
  6
CONTINUOUS
 10
90.6046948938
 20
43.7820886628
 11
90.5948222999
 21
43.7399581407
  0
LINE
  5
339
100
AcDbEntity
  8
0
100
AcDbLine
 62
7
  6
CONTINUOUS
 10
90.1187400281
 20
46.222405765
 11
90.0890784853
 21
46.0967299157
  0
LINE
  5
33A
100
AcDbEntity
  8
0
100
AcDbLine
 62
7
  6
CONTINUOUS
 10
155.2093767827
 20
134.7113650379
 11
155.2504225859
 21
134.734071143
  0
LINE
  5
33B
100
AcDbEntity
  8
0
100
AcDbLine
 62
7
  6
CONTINUOUS
 10
157.4843965963
 20
134.1674535406
 11
157.4433507932
 21
134.1447474356
  0
LINE
  5
33C
100
AcDbEntity
  8
0
100
AcDbLine
 62
7
  6
CONTINUOUS
 10
155.2504225859
 20
134.734071143
 11
155.3124580752
 21
134.7682064243
  0
LINE
  5
33D
100
AcDbEntity
  8
0
100
AcDbLine
 62
7
  6
CONTINUOUS
 10
157.4433507932
 20
134.1447474356
 11
157.3813153038
 21
134.1106121543
  0
LINE
  5
33E
100
AcDbEntity
  8
0
100
AcDbLine
 62
7
  6
CONTINUOUS
 10
155.3124580752
 20
134.7682064243
 11
155.3956481924
 21
134.8134618116
  0
LINE
  5
33F
100
AcDbEntity
  8
0
100
AcDbLine
 62
7
  6
CONTINUOUS
 10
157.3813153038
 20
134.1106121543
 11
157.2981251867
 21
134.065356767
  0
LINE
  5
340
100
AcDbEntity
  8
0
100
AcDbLine
 62
7
  6
CONTINUOUS
 10
155.3956481924
 20
134.8134618116
 11
155.4803804593
 21
134.8589271302
  0
LINE
  5
341
100
AcDbEntity
  8
0
100
AcDbLine
 62
7
  6
CONTINUOUS
 10
157.2981251867
 20
134.065356767
 11
157.2133929197
 21
134.0198914484
  0
LWPOLYLINE
  5
342
100
AcDbEntity
  8
0
100
AcDbPolyline
 62
7
  6
CONTINUOUS
 90
3
 70
0
 10
155.4803804593
 20
134.8589271302
 10
155.5482008384
 20
134.8948490796
 10
155.5972196997
 20
134.9205264642
  0
LWPOLYLINE
  5
343
100
AcDbEntity
  8
0
100
AcDbPolyline
 62
7
  6
CONTINUOUS
 90
3
 70
0
 10
157.2133929197
 20
134.0198914484
 10
157.1455725407
 20
133.983969499
 10
157.0965536794
 20
133.9582921144
  0
LWPOLYLINE
  5
344
100
AcDbEntity
  8
0
100
AcDbPolyline
 62
7
  6
CONTINUOUS
 90
4
 70
0
 10
155.5972196997
 20
134.9205264642
 10
155.6233492435
 20
134.9341168697
 10
155.6505954894
 20
134.94806331
 10
155.7095169333
 20
134.9787052866
  0
LWPOLYLINE
  5
345
100
AcDbEntity
  8
0
100
AcDbPolyline
 62
7
  6
CONTINUOUS
 90
4
 70
0
 10
157.0965536794
 20
133.9582921144
 10
157.0704241355
 20
133.9447017088
 10
157.0431778897
 20
133.9307552686
 10
156.9842564457
 20
133.9001132919
  0
LWPOLYLINE
  5
346
100
AcDbEntity
  8
0
100
AcDbPolyline
 62
7
  6
CONTINUOUS
 90
3
 70
0
 10
155.7095169333
 20
134.9787052866
 10
155.7413783088
 20
134.994936954
 10
155.7749233272
 20
135.011372568
  0
LWPOLYLINE
  5
347
100
AcDbEntity
  8
0
100
AcDbPolyline
 62
7
  6
CONTINUOUS
 90
3
 70
0
 10
156.9842564457
 20
133.9001132919
 10
156.9523950703
 20
133.8838816246
 10
156.9188500519
 20
133.8674460106
  0
LINE
  5
348
100
AcDbEntity
  8
RACCORDO
100
AcDbLine
 62
253
  6
CONTINUOUS
 10
87.5481260661
 20
64.5894092893
 11
88.714734326
 21
64.5894092893
  0
LINE
  5
349
100
AcDbEntity
  8
RACCORDO
100
AcDbLine
 62
253
  6
CONTINUOUS
 10
157.9790390531
 20
64.5894092893
 11
159.1456473129
 21
64.5894092893
  0
LINE
  5
34A
100
AcDbEntity
  8
RACCORDO
100
AcDbLine
 62
7
  6
CONTINUOUS
 10
87.4468866895
 20
65.5894092893
 11
88.7985186376
 21
65.5894092893
  0
LINE
  5
34B
100
AcDbEntity
  8
RACCORDO
100
AcDbLine
 62
7
  6
CONTINUOUS
 10
157.8952547414
 20
65.5894092893
 11
159.2468866895
 21
65.5894092893
  0
LINE
  5
34C
100
AcDbEntity
  8
DRAFT
100
AcDbLine
 62
7
  6
CONTINUOUS
 10
87.4468866895
 20
65.6894092893
 11
88.8584855467
 21
65.6894092893
  0
LINE
  5
34D
100
AcDbEntity
  8
DRAFT
100
AcDbLine
 62
7
  6
CONTINUOUS
 10
157.8352878324
 20
65.6894092893
 11
159.2468866895
 21
65.6894092893
  0
LINE
  5
34E
100
AcDbEntity
  8
0
100
AcDbLine
 62
7
  6
CONTINUOUS
 10
156.9188500671
 20
45.5113726708
 11
156.9676120931
 21
45.4868150918
  0
LINE
  5
34F
100
AcDbEntity
  8
0
100
AcDbLine
 62
7
  6
CONTINUOUS
 10
155.7261612859
 20
44.3920034868
 11
155.6776103815
 21
44.4167404895
  0
LINE
  5
350
100
AcDbEntity
  8
0
100
AcDbLine
 62
7
  6
CONTINUOUS
 10
156.9676120931
 20
45.4868150918
 11
157.0161629976
 21
45.4620780891
  0
LINE
  5
351
100
AcDbEntity
  8
0
100
AcDbLine
 62
7
  6
CONTINUOUS
 10
155.6776103815
 20
44.4167404895
 11
155.6294566686
 21
44.4415446624
  0
LINE
  5
352
100
AcDbEntity
  8
0
100
AcDbLine
 62
7
  6
CONTINUOUS
 10
157.0161629976
 20
45.4620780891
 11
157.0643167105
 21
45.4372739161
  0
LINE
  5
353
100
AcDbEntity
  8
0
100
AcDbLine
 62
7
  6
CONTINUOUS
 10
155.6294566686
 20
44.4415446624
 11
155.5651108373
 21
44.4750875738
  0
LINE
  5
354
100
AcDbEntity
  8
0
100
AcDbLine
 62
7
  6
CONTINUOUS
 10
157.0643167105
 20
45.4372739161
 11
157.1286625418
 21
45.4037310047
  0
LINE
  5
355
100
AcDbEntity
  8
0
100
AcDbLine
 62
7
  6
CONTINUOUS
 10
155.5651108373
 20
44.4750875738
 11
155.4608760759
 21
44.53028903
  0
LINE
  5
356
100
AcDbEntity
  8
0
100
AcDbLine
 62
7
  6
CONTINUOUS
 10
157.1286625418
 20
45.4037310047
 11
157.2328973032
 21
45.3485295486
  0
LINE
  5
357
100
AcDbEntity
  8
0
100
AcDbLine
 62
7
  6
CONTINUOUS
 10
155.4608760759
 20
44.53028903
 11
155.4019526209
 21
44.5619430173
  0
LINE
  5
358
100
AcDbEntity
  8
0
100
AcDbLine
 62
7
  6
CONTINUOUS
 10
157.2328973032
 20
45.3485295486
 11
157.2918207581
 21
45.3168755612
  0
LINE
  5
359
100
AcDbEntity
  8
0
100
AcDbLine
 62
7
  6
CONTINUOUS
 10
155.4019526209
 20
44.5619430173
 11
155.3365744146
 21
44.5974157254
  0
LINE
  5
35A
100
AcDbEntity
  8
0
100
AcDbLine
 62
7
  6
CONTINUOUS
 10
157.2918207581
 20
45.3168755612
 11
157.3571989645
 21
45.2814028531
  0
LWPOLYLINE
  5
35B
100
AcDbEntity
  8
0
100
AcDbPolyline
 62
7
  6
CONTINUOUS
 90
3
 70
0
 10
155.3365744146
 20
44.5974157254
 10
155.2367673824
 20
44.6521423131
 10
155.2093766914
 20
44.6674535913
  0
LWPOLYLINE
  5
35C
100
AcDbEntity
  8
0
100
AcDbPolyline
 62
7
  6
CONTINUOUS
 90
3
 70
0
 10
157.3571989645
 20
45.2814028531
 10
157.4570059967
 20
45.2266762655
 10
157.4843966876
 20
45.2113649872
  0
LINE
  5
35D
100
AcDbEntity
  8
0
100
AcDbLine
 62
7
  6
CONTINUOUS
 10
90.118762005
 20
133.1564089057
 11
90.0893042231
 21
133.2817728668
  0
LINE
  5
35E
100
AcDbEntity
  8
0
100
AcDbLine
 62
7
  6
CONTINUOUS
 10
90.589803794
 20
135.6598115419
 11
90.6044691641
 21
135.5970457004
  0
LINE
  5
35F
100
AcDbEntity
  8
0
100
AcDbLine
 62
7
  6
CONTINUOUS
 10
90.5948222999
 20
43.7399581407
 11
90.5750333509
 21
43.6564128135
  0
LINE
  5
360
100
AcDbEntity
  8
0
100
AcDbLine
 62
7
  6
CONTINUOUS
 10
155.1892502686
 20
134.6969917568
 11
155.2093767827
 21
134.7113650379
  0
LINE
  5
361
100
AcDbEntity
  8
0
100
AcDbLine
 62
7
  6
CONTINUOUS
 10
118.8468866895
 20
68.4394092893
 11
119.6968866895
 21
68.4394092893
  0
LINE
  5
362
100
AcDbEntity
  8
0
100
AcDbLine
 62
7
  6
CONTINUOUS
 10
120.1108507415
 20
68.4394092893
 11
120.1968866895
 21
68.4394092893
  0
LINE
  5
363
100
AcDbEntity
  8
0
100
AcDbLine
 62
7
  6
CONTINUOUS
 10
126.4968866895
 20
68.4394092893
 11
126.5829226376
 21
68.4394092893
  0
LINE
  5
364
100
AcDbEntity
  8
0
100
AcDbLine
 62
7
  6
CONTINUOUS
 10
126.9968866895
 20
68.4394092893
 11
127.8468866895
 21
68.4394092893
  0
LINE
  5
365
100
AcDbEntity
  8
DRAFT
100
AcDbLine
 62
7
  6
CONTINUOUS
 10
159.1421563
 20
69.1249626136
 11
127.8468866895
 21
69.1249626136
  0
LINE
  5
366
100
AcDbEntity
  8
DRAFT
100
AcDbLine
 62
7
  6
CONTINUOUS
 10
118.8468866895
 20
69.1249626136
 11
87.5516170791
 21
69.1249626136
  0
LINE
  5
367
100
AcDbEntity
  8
DRAFT
100
AcDbLine
 62
7
  6
CONTINUOUS
 10
159.2032490272
 20
69.3083898411
 11
127.8468866895
 21
69.3083898411
  0
LINE
  5
368
100
AcDbEntity
  8
DRAFT
100
AcDbLine
 62
7
  6
CONTINUOUS
 10
118.8468866895
 20
69.3083898411
 11
87.4905243518
 21
69.3083898411
  0
LINE
  5
369
100
AcDbEntity
  8
DRAFT
100
AcDbLine
 62
7
  6
CONTINUOUS
 10
126.6579794168
 20
70.3894092893
 11
120.0357939623
 21
70.3894092893
  0
LINE
  5
36A
100
AcDbEntity
  8
SMUSSO
100
AcDbLine
 62
7
  6
CONTINUOUS
 10
87.4905243518
 20
71.1083898411
 11
118.8468866895
 21
71.1083898411
  0
LINE
  5
36B
100
AcDbEntity
  8
SMUSSO
100
AcDbLine
 62
7
  6
CONTINUOUS
 10
127.8468866895
 20
71.1083898411
 11
159.2032490272
 21
71.1083898411
  0
LINE
  5
36C
100
AcDbEntity
  8
SMUSSO
100
AcDbLine
 62
7
  6
CONTINUOUS
 10
87.4776300444
 20
71.8471042213
 11
118.8468866895
 21
71.8471042213
  0
LINE
  5
36D
100
AcDbEntity
  8
SMUSSO
100
AcDbLine
 62
7
  6
CONTINUOUS
 10
127.8468866895
 20
71.8471042213
 11
159.2161433347
 21
71.8471042213
  0
LINE
  5
36E
100
AcDbEntity
  8
DRAFT
100
AcDbLine
 62
7
  6
CONTINUOUS
 10
159.2468866895
 20
71.9394092893
 11
127.8468866895
 21
71.9394092893
  0
LINE
  5
36F
100
AcDbEntity
  8
DRAFT
100
AcDbLine
 62
7
  6
CONTINUOUS
 10
118.8468866895
 20
71.9394092893
 11
87.4468866895
 21
71.9394092893
  0
LINE
  5
370
100
AcDbEntity
  8
DRAFT
100
AcDbLine
 62
7
  6
CONTINUOUS
 10
119.0219434687
 20
72.0894092893
 11
127.6718299103
 21
72.0894092893
  0
LINE
  5
371
100
AcDbEntity
  8
0
100
AcDbLine
 62
7
  6
CONTINUOUS
 10
155.1895660631
 20
44.681601085
 11
155.2093766914
 21
44.6674535913
  0
LINE
  5
372
100
AcDbEntity
  8
DRAFT
100
AcDbLine
 62
7
  6
CONTINUOUS
 10
120.0357939623
 20
55.6780722223
 11
119.6968866895
 21
56.2650768378
  0
LINE
  5
373
100
AcDbEntity
  8
DRAFT
100
AcDbLine
 62
7
  6
CONTINUOUS
 10
119.6968866895
 20
56.3872622923
 11
120.0968866895
 21
55.6944419692
  0
LINE
  5
374
100
AcDbEntity
  8
0
100
AcDbLine
 62
7
  6
CONTINUOUS
 10
90.57501138
 20
135.7224096718
 11
90.589803794
 21
135.6598115419
  0
LWPOLYLINE
  5
375
100
AcDbEntity
  8
0
100
AcDbPolyline
 62
7
  6
CONTINUOUS
 90
7
 70
0
 10
89.1895660631
 20
44.681601085
 10
89.1917452045
 20
44.6864608776
 10
89.193874246
 20
44.6913540849
 10
89.1959531876
 20
44.6962807069
 10
89.1979820292
 20
44.7012407437
 10
89.1999607709
 20
44.7062341951
 10
89.2018894127
 20
44.7112610612
  0
LINE
  5
376
100
AcDbEntity
  8
DRAFT
100
AcDbLine
 62
7
  6
CONTINUOUS
 10
157.8992518843
 20
144.5894092893
 11
157.8468866895
 21
144.5370440945
  0
LINE
  5
377
100
AcDbEntity
  8
RACCORDO
100
AcDbLine
 62
253
  6
CONTINUOUS
 10
158.2470389944
 20
144.5894092893
 11
158.1423086048
 21
144.4846788997
  0
LINE
  5
378
100
AcDbEntity
  8
RACCORDO
100
AcDbLine
 62
253
  6
CONTINUOUS
 10
159.2468866895
 20
143.5895615941
 11
159.1421563
 21
143.4848312046
  0
LINE
  5
379
100
AcDbEntity
  8
0
100
AcDbLine
 62
7
  6
CONTINUOUS
 10
157.4843965963
 20
134.1674535406
 11
157.5045231027
 21
134.1818268161
  0
LINE
  5
37A
100
AcDbEntity
  8
DRAFT
100
AcDbLine
 62
7
  6
CONTINUOUS
 10
118.9870333389
 20
74.0894092893
 11
127.7067400402
 21
74.0894092893
  0
LINE
  5
37B
100
AcDbEntity
  8
0
100
AcDbLine
 62
7
  6
CONTINUOUS
 10
157.4843966876
 20
45.2113649872
 11
157.504207316
 21
45.1972174935
  0
LINE
  5
37C
100
AcDbEntity
  8
RACCORDO
100
AcDbLine
 62
253
  6
CONTINUOUS
 10
158.1423086048
 20
34.8941396788
 11
158.2470389944
 21
34.7894092893
  0
LINE
  5
37D
100
AcDbEntity
  8
RACCORDO
100
AcDbLine
 62
253
  6
CONTINUOUS
 10
159.1421563
 20
35.893987374
 11
159.2468866895
 21
35.7892569844
  0
LINE
  5
37E
100
AcDbEntity
  8
0
100
AcDbLine
 62
7
  6
CONTINUOUS
 10
89.1935073867
 20
134.6872087605
 11
89.1892502686
 21
134.6969917568
  0
LINE
  5
37F
100
AcDbEntity
  8
0
100
AcDbLine
 62
7
  6
CONTINUOUS
 10
89.197720437
 20
134.677397344
 11
89.1935073867
 21
134.6872087605
  0
LINE
  5
380
100
AcDbEntity
  8
0
100
AcDbLine
 62
7
  6
CONTINUOUS
 10
89.2018894194
 20
134.6675575074
 11
89.197720437
 21
134.677397344
  0
LINE
  5
381
100
AcDbEntity
  8
0
100
AcDbLine
 62
7
  6
CONTINUOUS
 10
114.1468866895
 20
143.1894092893
 11
114.1468866895
 21
136.8894092893
  0
LINE
  5
382
100
AcDbEntity
  8
0
100
AcDbLine
 62
7
  6
CONTINUOUS
 10
114.1468866895
 20
36.1894092893
 11
114.1468866895
 21
42.4894092893
  0
LWPOLYLINE
  5
383
100
AcDbEntity
  8
0
100
AcDbPolyline
 62
7
  6
CONTINUOUS
 90
7
 70
0
 10
91.504207316
 20
45.1972174935
 10
91.5020281745
 20
45.1923577009
 10
91.499899133
 20
45.1874644936
 10
91.4978201914
 20
45.1825378716
 10
91.4957913498
 20
45.1775778349
 10
91.4938126081
 20
45.1725843835
 10
91.4918839664
 20
45.1675575174
  0
LINE
  5
384
100
AcDbEntity
  8
0
100
AcDbLine
 62
7
  6
CONTINUOUS
 10
89.2093766914
 20
44.6674535913
 11
89.2247803958
 21
44.7005869068
  0
LINE
  5
385
100
AcDbEntity
  8
0
100
AcDbLine
 62
7
  6
CONTINUOUS
 10
91.4843966876
 20
45.2113649872
 11
91.4689929832
 21
45.1782316718
  0
LINE
  5
386
100
AcDbEntity
  8
TRASH
100
AcDbLine
 62
7
  6
CONTINUOUS
 10
89.8271692546
 20
45.4591360715
 11
90.1187384614
 21
46.0844065661
  0
LINE
  5
387
100
AcDbEntity
  8
TRASH
100
AcDbLine
 62
7
  6
CONTINUOUS
 10
90.8666041245
 20
44.419682507
 11
90.5750349176
 21
43.7944120124
  0
LWPOLYLINE
  5
388
100
AcDbEntity
  8
0
100
AcDbPolyline
 62
7
  6
CONTINUOUS
 90
3
 70
0
 10
89.7749233272
 20
45.511372568
 10
89.7943647405
 20
45.550220547
 10
89.8140192118
 20
45.588888149
  0
LWPOLYLINE
  5
389
100
AcDbEntity
  8
0
100
AcDbPolyline
 62
7
  6
CONTINUOUS
 90
3
 70
0
 10
90.9188500519
 20
44.3674460106
 10
90.8994086385
 20
44.3285980315
 10
90.8797541673
 20
44.2899304295
  0
LINE
  5
38A
100
AcDbEntity
  8
0
100
AcDbLine
 62
7
  6
CONTINUOUS
 10
89.8140192118
 20
45.588888149
 11
89.8741070181
 21
45.7051932005
  0
LINE
  5
38B
100
AcDbEntity
  8
0
100
AcDbLine
 62
7
  6
CONTINUOUS
 10
89.8741070181
 20
45.7051932005
 11
89.9351773858
 21
45.8207013151
  0
LINE
  5
38C
100
AcDbEntity
  8
0
100
AcDbLine
 62
7
  6
CONTINUOUS
 10
89.9351773858
 20
45.8207013151
 11
89.9960469817
 21
45.9335811659
  0
LINE
  5
38D
100
AcDbEntity
  8
0
100
AcDbLine
 62
7
  6
CONTINUOUS
 10
90.0558083219
 20
46.0418626238
 11
90.0749309916
 21
46.0769192874
  0
LWPOLYLINE
  5
38E
100
AcDbEntity
  8
0
100
AcDbPolyline
 62
7
  6
CONTINUOUS
 90
3
 70
0
 10
89.9960469817
 20
45.9335811659
 10
90.0161453614
 20
45.970294892
 10
90.0558083219
 20
46.0418626238
  0
LINE
  5
38F
100
AcDbEntity
  8
0
100
AcDbLine
 62
7
  6
CONTINUOUS
 10
155.774923312
 20
133.8674459077
 11
155.8271632054
 21
133.9196858051
  0
LINE
  5
390
100
AcDbEntity
  8
0
100
AcDbLine
 62
7
  6
CONTINUOUS
 10
156.8666101737
 20
134.9591327734
 11
156.9188500671
 21
135.0113726708
  0
LINE
  5
391
100
AcDbEntity
  8
0
100
AcDbLine
 62
7
  6
CONTINUOUS
 10
156.8666101737
 20
44.4196858051
 11
156.9188500519
 21
44.3674460106
  0
LINE
  5
392
100
AcDbEntity
  8
0
100
AcDbLine
 62
7
  6
CONTINUOUS
 10
155.8271632054
 20
45.4591327734
 11
155.7749233272
 21
45.511372568
  0
LINE
  5
393
100
AcDbEntity
  8
DRAFT
100
AcDbLine
 62
7
  6
CONTINUOUS
 10
126.9968866895
 20
59.5915562863
 11
126.5968866895
 21
60.2843766093
  0
LINE
  5
394
100
AcDbEntity
  8
DRAFT
100
AcDbLine
 62
7
  6
CONTINUOUS
 10
126.9968866895
 20
59.7137417408
 11
126.6579794168
 21
60.3007463562
  0
LINE
  5
395
100
AcDbEntity
  8
0
100
AcDbLine
 62
7
  6
CONTINUOUS
 10
90.0157850094
 20
133.4091821449
 11
89.9956575224
 21
133.4459636324
  0
LWPOLYLINE
  5
396
100
AcDbEntity
  8
0
100
AcDbPolyline
 62
7
  6
CONTINUOUS
 90
3
 70
0
 10
90.0749309409
 20
133.3018993825
 10
90.0556342265
 20
133.3372416582
 10
90.0157850094
 20
133.4091821449
  0
LINE
  5
397
100
AcDbEntity
  8
0
100
AcDbLine
 62
7
  6
CONTINUOUS
 10
89.9956575224
 20
133.4459636324
 11
89.9348465917
 21
133.5587448184
  0
LINE
  5
398
100
AcDbEntity
  8
0
100
AcDbLine
 62
7
  6
CONTINUOUS
 10
89.9348465917
 20
133.5587448184
 11
89.8739276899
 21
133.6739728694
  0
LWPOLYLINE
  5
399
100
AcDbEntity
  8
0
100
AcDbPolyline
 62
7
  6
CONTINUOUS
 90
4
 70
0
 10
89.8739276899
 20
133.6739728694
 10
89.8139665495
 20
133.7900294275
 10
89.7943397262
 20
133.8286416954
 10
89.774923312
 20
133.8674459077
  0
LINE
  5
39A
100
AcDbEntity
  8
0
100
AcDbLine
 62
7
  6
CONTINUOUS
 10
89.2247804025
 20
134.6782316619
 11
89.2093767827
 21
134.7113650379
  0
LINE
  5
39B
100
AcDbEntity
  8
0
100
AcDbLine
 62
7
  6
CONTINUOUS
 10
91.4689929765
 20
134.2005869167
 11
91.4843965963
 21
134.1674535406
  0
LINE
  5
39C
100
AcDbEntity
  8
TRASH
100
AcDbLine
 62
7
  6
CONTINUOUS
 10
89.8737559257
 20
133.8197292099
 11
89.8271632057
 21
133.9196858054
  0
LINE
  5
39D
100
AcDbEntity
  8
TRASH
100
AcDbLine
 62
7
  6
CONTINUOUS
 10
90.8200174534
 20
135.0590893687
 11
90.8666101734
 21
134.9591327731
  0
LINE
  5
39E
100
AcDbEntity
  8
TRASH
100
AcDbLine
 62
7
  6
CONTINUOUS
 10
90.1187384714
 20
133.2944120192
 11
89.8737559257
 21
133.8197292099
  0
LINE
  5
39F
100
AcDbEntity
  8
TRASH
100
AcDbLine
 62
7
  6
CONTINUOUS
 10
90.5750349077
 20
135.5844065594
 11
90.8200174534
 21
135.0590893687
  0
LINE
  5
3A0
100
AcDbEntity
  8
0
100
AcDbLine
 62
7
  6
CONTINUOUS
 10
91.5002659824
 20
134.1916098111
 11
91.5045231027
 21
134.1818268161
  0
LINE
  5
3A1
100
AcDbEntity
  8
0
100
AcDbLine
 62
7
  6
CONTINUOUS
 10
91.4960529347
 20
134.2014212295
 11
91.5002659824
 21
134.1916098111
  0
LINE
  5
3A2
100
AcDbEntity
  8
0
100
AcDbLine
 62
7
  6
CONTINUOUS
 10
91.4918839596
 20
134.2112610711
 11
91.4960529347
 21
134.2014212295
  0
LINE
  5
3A3
100
AcDbEntity
  8
DRAFT
100
AcDbLine
 62
7
  6
CONTINUOUS
 10
119.0219434687
 20
72.0894092893
 11
118.9870333389
 21
74.0894092893
  0
LINE
  5
3A4
100
AcDbEntity
  8
0
100
AcDbLine
 62
7
  6
CONTINUOUS
 10
116.3468866895
 20
143.1894092893
 11
116.3468866895
 21
136.8894092893
  0
LINE
  5
3A5
100
AcDbEntity
  8
0
100
AcDbLine
 62
7
  6
CONTINUOUS
 10
116.3468866895
 20
36.1894092893
 11
116.3468866895
 21
42.4894092893
  0
LINE
  5
3A6
100
AcDbEntity
  8
DRAFT
100
AcDbLine
 62
7
  6
CONTINUOUS
 10
117.3468866895
 20
91.1894092893
 11
117.3468866895
 21
88.1894092893
  0
LINE
  5
3A7
100
AcDbEntity
  8
RACCORDO
100
AcDbLine
 62
7
  6
CONTINUOUS
 10
117.4097440746
 20
90.6437075168
 11
117.4097440746
 21
88.7351110618
  0
LINE
  5
3A8
100
AcDbEntity
  8
0
100
AcDbLine
 62
7
  6
CONTINUOUS
 10
117.8468866895
 20
43.0894092893
 11
117.8468866895
 21
36.1894092893
  0
LINE
  5
3A9
100
AcDbEntity
  8
RACCORDO
100
AcDbLine
 62
7
  6
CONTINUOUS
 10
118.3645781432
 20
88.7351110618
 11
118.3645781432
 21
90.6437075168
  0
LINE
  5
3AA
100
AcDbEntity
  8
0
100
AcDbLine
 62
7
  6
CONTINUOUS
 10
118.8468866895
 20
35.6894092893
 11
118.8468866895
 21
45.9894092893
  0
LINE
  5
3AB
100
AcDbEntity
  8
DRAFT
100
AcDbLine
 62
7
  6
CONTINUOUS
 10
118.8468866895
 20
68.4394092893
 11
118.8468866895
 21
69.3083898411
  0
LINE
  5
3AC
100
AcDbEntity
  8
SMUSSO
100
AcDbLine
 62
7
  6
CONTINUOUS
 10
118.8468866895
 20
69.3083898411
 11
118.8468866895
 21
71.9394092893
  0
LINE
  5
3AD
100
AcDbEntity
  8
DRAFT
100
AcDbLine
 62
7
  6
CONTINUOUS
 10
118.8468866895
 20
88.1894092893
 11
118.8468866895
 21
91.1894092893
  0
LINE
  5
3AE
100
AcDbEntity
  8
RACCORDO
100
AcDbLine
 62
7
  6
CONTINUOUS
 10
118.9468866895
 20
40.0893331369
 11
118.9468866895
 21
45.9894092893
  0
LINE
  5
3AF
100
AcDbEntity
  8
RACCORDO
100
AcDbLine
 62
7
  6
CONTINUOUS
 10
118.9468866895
 20
68.4394092893
 11
118.9468866895
 21
72.9894092893
  0
LINE
  5
3B0
100
AcDbEntity
  8
RACCORDO
100
AcDbLine
 62
7
  6
CONTINUOUS
 10
118.9678327674
 20
73.7894092893
 11
118.9678327674
 21
73.2894092893
  0
LINE
  5
3B1
100
AcDbEntity
  8
RACCORDO
100
AcDbLine
 62
7
  6
CONTINUOUS
 10
119.0219434687
 20
40.164389916
 11
119.0219434687
 21
45.9894092893
  0
LINE
  5
3B2
100
AcDbEntity
  8
RACCORDO
100
AcDbLine
 62
7
  6
CONTINUOUS
 10
119.0219434687
 20
68.4394092893
 11
119.0219434687
 21
72.0894092893
  0
LINE
  5
3B3
100
AcDbEntity
  8
DRAFT
100
AcDbLine
 62
7
  6
CONTINUOUS
 10
118.9692358886
 20
74.0894092893
 11
118.9678327674
 21
73.7894092893
  0
LINE
  5
3B4
100
AcDbEntity
  8
0
100
AcDbLine
 62
7
  6
CONTINUOUS
 10
90.8797541673
 20
44.2899304295
 11
90.819666361
 21
44.1736253781
  0
LINE
  5
3B5
100
AcDbEntity
  8
0
100
AcDbLine
 62
7
  6
CONTINUOUS
 10
90.819666361
 20
44.1736253781
 11
90.7585959933
 21
44.0581172635
  0
LINE
  5
3B6
100
AcDbEntity
  8
0
100
AcDbLine
 62
7
  6
CONTINUOUS
 10
90.7585959933
 20
44.0581172635
 11
90.6977263974
 21
43.9452374126
  0
LINE
  5
3B7
100
AcDbEntity
  8
0
100
AcDbLine
 62
7
  6
CONTINUOUS
 10
90.6379650572
 20
43.8369559548
 11
90.6188423875
 21
43.8018992912
  0
LWPOLYLINE
  5
3B8
100
AcDbEntity
  8
0
100
AcDbPolyline
 62
7
  6
CONTINUOUS
 90
3
 70
0
 10
90.6977263974
 20
43.9452374126
 10
90.6776280177
 20
43.9085236866
 10
90.6379650572
 20
43.8369559548
  0
LINE
  5
3B9
100
AcDbEntity
  8
0
100
AcDbLine
 62
7
  6
CONTINUOUS
 10
90.6779883697
 20
135.4696364337
 11
90.6981158566
 21
135.4328549462
  0
LWPOLYLINE
  5
3BA
100
AcDbEntity
  8
0
100
AcDbPolyline
 62
7
  6
CONTINUOUS
 90
3
 70
0
 10
90.6188424382
 20
135.5769191961
 10
90.6381391526
 20
135.5415769203
 10
90.6779883697
 20
135.4696364337
  0
LINE
  5
3BB
100
AcDbEntity
  8
0
100
AcDbLine
 62
7
  6
CONTINUOUS
 10
90.6981158566
 20
135.4328549462
 11
90.7589267874
 21
135.3200737601
  0
LINE
  5
3BC
100
AcDbEntity
  8
0
100
AcDbLine
 62
7
  6
CONTINUOUS
 10
90.7589267874
 20
135.3200737601
 11
90.8198456891
 21
135.2048457092
  0
LWPOLYLINE
  5
3BD
100
AcDbEntity
  8
0
100
AcDbPolyline
 62
7
  6
CONTINUOUS
 90
4
 70
0
 10
90.8198456891
 20
135.2048457092
 10
90.8798068296
 20
135.0887891511
 10
90.8994336528
 20
135.0501768832
 10
90.9188500671
 20
135.0113726708
  0
LINE
  5
3BE
100
AcDbEntity
  8
0
100
AcDbLine
 62
7
  6
CONTINUOUS
 10
119.6968866895
 20
45.9894092893
 11
119.6968866895
 21
68.4394092893
  0
LINE
  5
3BF
100
AcDbEntity
  8
DRAFT
100
AcDbLine
 62
7
  6
CONTINUOUS
 10
120.0357939623
 20
70.3894092893
 11
120.0357939623
 21
60.3007463562
  0
LINE
  5
3C0
100
AcDbEntity
  8
DRAFT
100
AcDbLine
 62
7
  6
CONTINUOUS
 10
120.0357939623
 20
55.6780722223
 11
120.0357939623
 21
41.0894092893
  0
LINE
  5
3C1
100
AcDbEntity
  8
DRAFT
100
AcDbLine
 62
7
  6
CONTINUOUS
 10
120.0846681441
 20
43.2894092893
 11
120.0846681441
 21
48.0894092893
  0
LINE
  5
3C2
100
AcDbEntity
  8
DRAFT
100
AcDbLine
 62
7
  6
CONTINUOUS
 10
120.0968866895
 20
60.2843766093
 11
120.0968866895
 21
55.6944419692
  0
LINE
  5
3C3
100
AcDbEntity
  8
DRAFT
100
AcDbLine
 62
7
  6
CONTINUOUS
 10
120.1108507415
 20
70.3894092893
 11
120.1108507415
 21
48.0894092893
  0
LINE
  5
3C4
100
AcDbEntity
  8
DRAFT
100
AcDbLine
 62
7
  6
CONTINUOUS
 10
120.1108507415
 20
43.2894092893
 11
120.1108507415
 21
41.0894092893
  0
LINE
  5
3C5
100
AcDbEntity
  8
0
100
AcDbLine
 62
7
  6
CONTINUOUS
 10
120.1968866895
 20
68.4394092893
 11
120.1968866895
 21
48.0894092893
  0
LINE
  5
3C6
100
AcDbEntity
  8
DRAFT
100
AcDbLine
 62
7
  6
CONTINUOUS
 10
120.8468866895
 20
105.6394092893
 11
120.8468866895
 21
107.7070490161
  0
LINE
  5
3C7
100
AcDbEntity
  8
DRAFT
100
AcDbLine
 62
7
  6
CONTINUOUS
 10
122.5968866895
 20
105.6394092893
 11
122.5968866895
 21
107.7070490161
  0
LINE
  5
3C8
100
AcDbEntity
  8
0
100
AcDbLine
 62
7
  6
CONTINUOUS
 10
90.0890784853
 20
46.0967299157
 11
90.0749309916
 21
46.0769192874
  0
LINE
  5
3C9
100
AcDbEntity
  8
0
100
AcDbLine
 62
7
  6
CONTINUOUS
 10
156.0890784853
 20
135.5967299157
 11
156.0749309916
 21
135.5769192874
  0
LINE
  5
3CA
100
AcDbEntity
  8
0
100
AcDbLine
 62
7
  6
CONTINUOUS
 10
90.6188423875
 20
43.8018992912
 11
90.6046948938
 21
43.7820886628
  0
LINE
  5
3CB
100
AcDbEntity
  8
RACCORDO
100
AcDbLine
 62
7
  6
CONTINUOUS
 10
117.3468866895
 20
88.1894092893
 11
117.3928930485
 21
88.2354156483
  0
LINE
  5
3CC
100
AcDbEntity
  8
RACCORDO
100
AcDbLine
 62
7
  6
CONTINUOUS
 10
127.8468866895
 20
88.1894092893
 11
128.1998962857
 21
88.2354156483
  0
LINE
  5
3CD
100
AcDbEntity
  8
DRAFT
100
AcDbLine
 62
7
  6
CONTINUOUS
 10
117.3468866895
 20
88.1894092893
 11
118.8468866895
 21
88.1894092893
  0
LINE
  5
3CE
100
AcDbEntity
  8
DRAFT
100
AcDbLine
 62
7
  6
CONTINUOUS
 10
127.8468866895
 20
88.1894092893
 11
129.3468866895
 21
88.1894092893
  0
LINE
  5
3CF
100
AcDbEntity
  8
RACCORDO
100
AcDbLine
 62
253
  6
CONTINUOUS
 10
117.3928930485
 20
88.2354156483
 11
118.4938770934
 21
88.2354156483
  0
LINE
  5
3D0
100
AcDbEntity
  8
RACCORDO
100
AcDbLine
 62
253
  6
CONTINUOUS
 10
128.1998962857
 20
88.2354156483
 11
129.3008803305
 21
88.2354156483
  0
LINE
  5
3D1
100
AcDbEntity
  8
RACCORDO
100
AcDbLine
 62
253
  6
CONTINUOUS
 10
117.4097440746
 20
88.7351110618
 11
118.3645781432
 21
88.7351110618
  0
LINE
  5
3D2
100
AcDbEntity
  8
RACCORDO
100
AcDbLine
 62
253
  6
CONTINUOUS
 10
128.3291952359
 20
88.7351110618
 11
129.2840293044
 21
88.7351110618
  0
LINE
  5
3D3
100
AcDbEntity
  8
RACCORDO
100
AcDbLine
 62
7
  6
CONTINUOUS
 10
118.8468866895
 20
88.1894092893
 11
118.4938770934
 21
88.2354156483
  0
LINE
  5
3D4
100
AcDbEntity
  8
RACCORDO
100
AcDbLine
 62
7
  6
CONTINUOUS
 10
117.3468866895
 20
91.1894092893
 11
117.3928930485
 21
91.1434029303
  0
LINE
  5
3D5
100
AcDbEntity
  8
0
100
AcDbLine
 62
7
  6
CONTINUOUS
 10
90.0749309409
 20
133.3018993825
 11
90.0893042231
 21
133.2817728668
  0
LINE
  5
3D6
100
AcDbEntity
  8
0
100
AcDbLine
 62
7
  6
CONTINUOUS
 10
156.0749309409
 20
43.8018993825
 11
156.0893042231
 21
43.7817728668
  0
LINE
  5
3D7
100
AcDbEntity
  8
0
100
AcDbLine
 62
7
  6
CONTINUOUS
 10
90.6044691641
 20
135.5970457004
 11
90.6188424382
 21
135.5769191961
  0
LINE
  5
3D8
100
AcDbEntity
  8
DRAFT
100
AcDbLine
 62
7
  6
CONTINUOUS
 10
127.7245374904
 20
74.0894092893
 11
127.7259406116
 21
73.7894092893
  0
LINE
  5
3D9
100
AcDbEntity
  8
DRAFT
100
AcDbLine
 62
7
  6
CONTINUOUS
 10
124.0968866895
 20
105.6394092893
 11
124.0968866895
 21
107.7070490161
  0
LINE
  5
3DA
100
AcDbEntity
  8
DRAFT
100
AcDbLine
 62
7
  6
CONTINUOUS
 10
125.8468866895
 20
105.6394092893
 11
125.8468866895
 21
107.7070490161
  0
LINE
  5
3DB
100
AcDbEntity
  8
0
100
AcDbLine
 62
7
  6
CONTINUOUS
 10
126.4968866895
 20
48.0894092893
 11
126.4968866895
 21
68.4394092893
  0
LINE
  5
3DC
100
AcDbEntity
  8
DRAFT
100
AcDbLine
 62
7
  6
CONTINUOUS
 10
126.5829226376
 20
41.0894092893
 11
126.5829226376
 21
43.2894092893
  0
LINE
  5
3DD
100
AcDbEntity
  8
DRAFT
100
AcDbLine
 62
7
  6
CONTINUOUS
 10
126.5829226376
 20
48.0894092893
 11
126.5829226376
 21
70.3894092893
  0
LINE
  5
3DE
100
AcDbEntity
  8
DRAFT
100
AcDbLine
 62
7
  6
CONTINUOUS
 10
126.5968866895
 20
55.6944419692
 11
126.5968866895
 21
60.2843766093
  0
LINE
  5
3DF
100
AcDbEntity
  8
DRAFT
100
AcDbLine
 62
7
  6
CONTINUOUS
 10
126.609105235
 20
43.2894092893
 11
126.609105235
 21
48.0894092893
  0
LINE
  5
3E0
100
AcDbEntity
  8
DRAFT
100
AcDbLine
 62
7
  6
CONTINUOUS
 10
126.6579794168
 20
41.0894092893
 11
126.6579794168
 21
55.6780722223
  0
LINE
  5
3E1
100
AcDbEntity
  8
DRAFT
100
AcDbLine
 62
7
  6
CONTINUOUS
 10
126.6579794168
 20
60.3007463562
 11
126.6579794168
 21
70.3894092893
  0
LINE
  5
3E2
100
AcDbEntity
  8
0
100
AcDbLine
 62
7
  6
CONTINUOUS
 10
126.9968866895
 20
68.4394092893
 11
126.9968866895
 21
45.9894092893
  0
LINE
  5
3E3
100
AcDbEntity
  8
RACCORDO
100
AcDbLine
 62
7
  6
CONTINUOUS
 10
127.6718299103
 20
72.0894092893
 11
127.6718299103
 21
68.4394092893
  0
LINE
  5
3E4
100
AcDbEntity
  8
RACCORDO
100
AcDbLine
 62
7
  6
CONTINUOUS
 10
127.6718299103
 20
45.9894092893
 11
127.6718299103
 21
40.164389916
  0
LINE
  5
3E5
100
AcDbEntity
  8
RACCORDO
100
AcDbLine
 62
7
  6
CONTINUOUS
 10
127.7259406116
 20
73.7894092893
 11
127.7259406116
 21
73.2894092893
  0
LINE
  5
3E6
100
AcDbEntity
  8
RACCORDO
100
AcDbLine
 62
7
  6
CONTINUOUS
 10
127.7468866895
 20
72.9894092893
 11
127.7468866895
 21
68.4394092893
  0
LINE
  5
3E7
100
AcDbEntity
  8
RACCORDO
100
AcDbLine
 62
7
  6
CONTINUOUS
 10
127.7468866895
 20
45.9894092893
 11
127.7468866895
 21
40.0893331369
  0
LINE
  5
3E8
100
AcDbEntity
  8
DRAFT
100
AcDbLine
 62
7
  6
CONTINUOUS
 10
127.8468866895
 20
91.1894092893
 11
127.8468866895
 21
88.1894092893
  0
LINE
  5
3E9
100
AcDbEntity
  8
0
100
AcDbLine
 62
7
  6
CONTINUOUS
 10
127.8468866895
 20
45.9894092893
 11
127.8468866895
 21
35.6894092893
  0
LINE
  5
3EA
100
AcDbEntity
  8
DRAFT
100
AcDbLine
 62
7
  6
CONTINUOUS
 10
127.8468866895
 20
68.4394092893
 11
127.8468866895
 21
69.3083898411
  0
LINE
  5
3EB
100
AcDbEntity
  8
SMUSSO
100
AcDbLine
 62
7
  6
CONTINUOUS
 10
127.8468866895
 20
69.3083898411
 11
127.8468866895
 21
71.9394092893
  0
LINE
  5
3EC
100
AcDbEntity
  8
DRAFT
100
AcDbLine
 62
7
  6
CONTINUOUS
 10
127.6718299103
 20
72.0894092893
 11
127.7067400402
 21
74.0894092893
  0
LINE
  5
3ED
100
AcDbEntity
  8
0
100
AcDbLine
 62
7
  6
CONTINUOUS
 10
156.6188423875
 20
133.3018992912
 11
156.6046948938
 21
133.2820886628
  0
LINE
  5
3EE
100
AcDbEntity
  8
RACCORDO
100
AcDbLine
 62
7
  6
CONTINUOUS
 10
129.3468866895
 20
91.1894092893
 11
129.3008803305
 21
91.1434029303
  0
LINE
  5
3EF
100
AcDbEntity
  8
RACCORDO
100
AcDbLine
 62
7
  6
CONTINUOUS
 10
118.8468866895
 20
91.1894092893
 11
118.4938770934
 21
91.1434029303
  0
LINE
  5
3F0
100
AcDbEntity
  8
RACCORDO
100
AcDbLine
 62
253
  6
CONTINUOUS
 10
129.2840293044
 20
90.6437075168
 11
128.3291952359
 21
90.6437075168
  0
LINE
  5
3F1
100
AcDbEntity
  8
RACCORDO
100
AcDbLine
 62
253
  6
CONTINUOUS
 10
118.3645781432
 20
90.6437075168
 11
117.4097440746
 21
90.6437075168
  0
LINE
  5
3F2
100
AcDbEntity
  8
RACCORDO
100
AcDbLine
 62
253
  6
CONTINUOUS
 10
129.3008803305
 20
91.1434029303
 11
128.1998962857
 21
91.1434029303
  0
LINE
  5
3F3
100
AcDbEntity
  8
RACCORDO
100
AcDbLine
 62
253
  6
CONTINUOUS
 10
118.4938770934
 20
91.1434029303
 11
117.3928930485
 21
91.1434029303
  0
LINE
  5
3F4
100
AcDbEntity
  8
DRAFT
100
AcDbLine
 62
7
  6
CONTINUOUS
 10
129.3468866895
 20
91.1894092893
 11
127.8468866895
 21
91.1894092893
  0
LINE
  5
3F5
100
AcDbEntity
  8
DRAFT
100
AcDbLine
 62
7
  6
CONTINUOUS
 10
118.8468866895
 20
91.1894092893
 11
117.3468866895
 21
91.1894092893
  0
LINE
  5
3F6
100
AcDbEntity
  8
RACCORDO
100
AcDbLine
 62
7
  6
CONTINUOUS
 10
127.8468866895
 20
91.1894092893
 11
128.1998962857
 21
91.1434029303
  0
LINE
  5
3F7
100
AcDbEntity
  8
RACCORDO
100
AcDbLine
 62
7
  6
CONTINUOUS
 10
129.3468866895
 20
88.1894092893
 11
129.3008803305
 21
88.2354156483
  0
LINE
  5
3F8
100
AcDbEntity
  8
0
100
AcDbLine
 62
7
  6
CONTINUOUS
 10
156.6044691641
 20
46.0970457004
 11
156.6188424382
 21
46.0769191961
  0
LINE
  5
3F9
100
AcDbEntity
  8
RACCORDO
100
AcDbLine
 62
7
  6
CONTINUOUS
 10
128.3291952359
 20
90.6437075168
 11
128.3291952359
 21
88.7351110618
  0
LINE
  5
3FA
100
AcDbEntity
  8
0
100
AcDbLine
 62
7
  6
CONTINUOUS
 10
128.8468866895
 20
36.1894092893
 11
128.8468866895
 21
43.0894092893
  0
LINE
  5
3FB
100
AcDbEntity
  8
RACCORDO
100
AcDbLine
 62
7
  6
CONTINUOUS
 10
129.2840293044
 20
88.7351110618
 11
129.2840293044
 21
90.6437075168
  0
LINE
  5
3FC
100
AcDbEntity
  8
DRAFT
100
AcDbLine
 62
7
  6
CONTINUOUS
 10
129.3468866895
 20
88.1894092893
 11
129.3468866895
 21
91.1894092893
  0
LINE
  5
3FD
100
AcDbEntity
  8
0
100
AcDbLine
 62
7
  6
CONTINUOUS
 10
130.3468866895
 20
143.1894092893
 11
130.3468866895
 21
136.8894092893
  0
LINE
  5
3FE
100
AcDbEntity
  8
0
100
AcDbLine
 62
7
  6
CONTINUOUS
 10
130.3468866895
 20
36.1894092893
 11
130.3468866895
 21
42.4894092893
  0
LINE
  5
3FF
100
AcDbEntity
  8
0
100
AcDbLine
 62
7
  6
CONTINUOUS
 10
132.5468866895
 20
143.1894092893
 11
132.5468866895
 21
136.8894092893
  0
LINE
  5
400
100
AcDbEntity
  8
0
100
AcDbLine
 62
7
  6
CONTINUOUS
 10
132.5468866895
 20
36.1894092893
 11
132.5468866895
 21
42.4894092893
  0
LWPOLYLINE
  5
401
100
AcDbEntity
  8
0
100
AcDbPolyline
 62
7
  6
CONTINUOUS
 90
3
 70
0
 10
155.7749233272
 20
135.011372568
 10
155.7943647405
 20
135.050220547
 10
155.8140192118
 20
135.088888149
  0
LINE
  5
402
100
AcDbEntity
  8
0
100
AcDbLine
 62
7
  6
CONTINUOUS
 10
155.8140192118
 20
135.088888149
 11
155.8741070181
 21
135.2051932005
  0
LINE
  5
403
100
AcDbEntity
  8
0
100
AcDbLine
 62
7
  6
CONTINUOUS
 10
155.8741070181
 20
135.2051932005
 11
155.9351773858
 21
135.3207013151
  0
LINE
  5
404
100
AcDbEntity
  8
0
100
AcDbLine
 62
7
  6
CONTINUOUS
 10
156.819666361
 20
133.6736253781
 11
156.7585959933
 21
133.5581172635
  0
LINE
  5
405
100
AcDbEntity
  8
0
100
AcDbLine
 62
7
  6
CONTINUOUS
 10
155.9351773858
 20
135.3207013151
 11
155.9960469817
 21
135.4335811659
  0
LINE
  5
406
100
AcDbEntity
  8
0
100
AcDbLine
 62
7
  6
CONTINUOUS
 10
156.7585959933
 20
133.5581172635
 11
156.6977263974
 21
133.4452374126
  0
LINE
  5
407
100
AcDbEntity
  8
0
100
AcDbLine
 62
7
  6
CONTINUOUS
 10
156.0558083219
 20
135.5418626238
 11
156.0749309916
 21
135.5769192874
  0
LINE
  5
408
100
AcDbEntity
  8
0
100
AcDbLine
 62
7
  6
CONTINUOUS
 10
156.6379650572
 20
133.3369559548
 11
156.6188423875
 21
133.3018992912
  0
LWPOLYLINE
  5
409
100
AcDbEntity
  8
0
100
AcDbPolyline
 62
7
  6
CONTINUOUS
 90
3
 70
0
 10
155.9960469817
 20
135.4335811659
 10
156.0161453614
 20
135.470294892
 10
156.0558083219
 20
135.5418626238
  0
LWPOLYLINE
  5
40A
100
AcDbEntity
  8
0
100
AcDbPolyline
 62
7
  6
CONTINUOUS
 90
3
 70
0
 10
156.6977263974
 20
133.4452374126
 10
156.6776280177
 20
133.4085236866
 10
156.6379650572
 20
133.3369559548
  0
LINE
  5
40B
100
AcDbEntity
  8
0
100
AcDbLine
 62
7
  6
CONTINUOUS
 10
89.774923312
 20
44.3674459077
 11
89.8271632054
 21
44.4196858051
  0
LINE
  5
40C
100
AcDbEntity
  8
0
100
AcDbLine
 62
7
  6
CONTINUOUS
 10
90.8666101737
 20
45.4591327734
 11
90.9188500671
 21
45.5113726708
  0
LINE
  5
40D
100
AcDbEntity
  8
0
100
AcDbLine
 62
7
  6
CONTINUOUS
 10
90.8666101737
 20
133.9196858051
 11
90.9188500519
 21
133.8674460106
  0
LINE
  5
40E
100
AcDbEntity
  8
0
100
AcDbLine
 62
7
  6
CONTINUOUS
 10
89.8271632054
 20
134.9591327734
 11
89.7749233272
 21
135.011372568
  0
LINE
  5
40F
100
AcDbEntity
  8
0
100
AcDbLine
 62
7
  6
CONTINUOUS
 10
156.0157850094
 20
43.9091821449
 11
155.9956575224
 21
43.9459636324
  0
LINE
  5
410
100
AcDbEntity
  8
0
100
AcDbLine
 62
7
  6
CONTINUOUS
 10
156.6779883697
 20
45.9696364337
 11
156.6981158566
 21
45.9328549462
  0
LWPOLYLINE
  5
411
100
AcDbEntity
  8
0
100
AcDbPolyline
 62
7
  6
CONTINUOUS
 90
3
 70
0
 10
156.0749309409
 20
43.8018993825
 10
156.0556342265
 20
43.8372416582
 10
156.0157850094
 20
43.9091821449
  0
LWPOLYLINE
  5
412
100
AcDbEntity
  8
0
100
AcDbPolyline
 62
7
  6
CONTINUOUS
 90
3
 70
0
 10
156.6188424382
 20
46.0769191961
 10
156.6381391526
 20
46.0415769203
 10
156.6779883697
 20
45.9696364337
  0
LINE
  5
413
100
AcDbEntity
  8
0
100
AcDbLine
 62
7
  6
CONTINUOUS
 10
155.9956575224
 20
43.9459636324
 11
155.9348465917
 21
44.0587448184
  0
LINE
  5
414
100
AcDbEntity
  8
0
100
AcDbLine
 62
7
  6
CONTINUOUS
 10
156.6981158566
 20
45.9328549462
 11
156.7589267874
 21
45.8200737601
  0
LINE
  5
415
100
AcDbEntity
  8
0
100
AcDbLine
 62
7
  6
CONTINUOUS
 10
155.9348465917
 20
44.0587448184
 11
155.8739276899
 21
44.1739728694
  0
LINE
  5
416
100
AcDbEntity
  8
0
100
AcDbLine
 62
7
  6
CONTINUOUS
 10
156.7589267874
 20
45.8200737601
 11
156.8198456891
 21
45.7048457092
  0
LWPOLYLINE
  5
417
100
AcDbEntity
  8
0
100
AcDbPolyline
 62
7
  6
CONTINUOUS
 90
4
 70
0
 10
155.8739276899
 20
44.1739728694
 10
155.8139665495
 20
44.2900294275
 10
155.7943397262
 20
44.3286416954
 10
155.774923312
 20
44.3674459077
  0
LWPOLYLINE
  5
418
100
AcDbEntity
  8
0
100
AcDbPolyline
 62
7
  6
CONTINUOUS
 90
7
 70
0
 10
155.1895660631
 20
134.181601085
 10
155.1917452045
 20
134.1864608776
 10
155.193874246
 20
134.1913540849
 10
155.1959531876
 20
134.1962807069
 10
155.1979820292
 20
134.2012407437
 10
155.1999607709
 20
134.2062341951
 10
155.2018894127
 20
134.2112610612
  0
LWPOLYLINE
  5
419
100
AcDbEntity
  8
0
100
AcDbPolyline
 62
7
  6
CONTINUOUS
 90
7
 70
0
 10
157.504207316
 20
134.6972174935
 10
157.5020281745
 20
134.6923577009
 10
157.499899133
 20
134.6874644936
 10
157.4978201914
 20
134.6825378716
 10
157.4957913498
 20
134.6775778349
 10
157.4938126081
 20
134.6725843835
 10
157.4918839664
 20
134.6675575174
  0
LINE
  5
41A
100
AcDbEntity
  8
0
100
AcDbLine
 62
7
  6
CONTINUOUS
 10
155.2093766914
 20
134.1674535913
 11
155.2247803958
 21
134.2005869068
  0
LINE
  5
41B
100
AcDbEntity
  8
0
100
AcDbLine
 62
7
  6
CONTINUOUS
 10
157.4843966876
 20
134.7113649872
 11
157.4689929832
 21
134.6782316718
  0
LINE
  5
41C
100
AcDbEntity
  8
TRASH
100
AcDbLine
 62
7
  6
CONTINUOUS
 10
155.8271692546
 20
134.9591360715
 11
156.1187384614
 21
135.5844065661
  0
LINE
  5
41D
100
AcDbEntity
  8
TRASH
100
AcDbLine
 62
7
  6
CONTINUOUS
 10
156.8666041245
 20
133.919682507
 11
156.5750349176
 21
133.2944120124
  0
LWPOLYLINE
  5
41E
100
AcDbEntity
  8
0
100
AcDbPolyline
 62
7
  6
CONTINUOUS
 90
3
 70
0
 10
156.9188500519
 20
133.8674460106
 10
156.8994086385
 20
133.8285980315
 10
156.8797541673
 20
133.7899304295
  0
LINE
  5
41F
100
AcDbEntity
  8
0
100
AcDbLine
 62
7
  6
CONTINUOUS
 10
156.8797541673
 20
133.7899304295
 11
156.819666361
 21
133.6736253781
  0
LINE
  5
420
100
AcDbEntity
  8
DRAFT
100
AcDbLine
 62
7
  6
CONTINUOUS
 10
120.0357939623
 20
60.3007463562
 11
119.6968866895
 21
59.7137417408
  0
LINE
  5
421
100
AcDbEntity
  8
DRAFT
100
AcDbLine
 62
7
  6
CONTINUOUS
 10
120.0968866895
 20
60.2843766093
 11
119.6968866895
 21
59.5915562863
  0
LINE
  5
422
100
AcDbEntity
  8
RACCORDO
100
AcDbLine
 62
253
  6
CONTINUOUS
 10
87.4468866895
 20
35.7892569844
 11
87.5516170791
 21
35.893987374
  0
LINE
  5
423
100
AcDbEntity
  8
RACCORDO
100
AcDbLine
 62
253
  6
CONTINUOUS
 10
87.5516170791
 20
143.4848312046
 11
87.4468866895
 21
143.5895615941
  0
LWPOLYLINE
  5
424
100
AcDbEntity
  8
0
100
AcDbPolyline
 62
7
  6
CONTINUOUS
 90
4
 70
0
 10
156.8198456891
 20
45.7048457092
 10
156.8798068296
 20
45.5887891511
 10
156.8994336528
 20
45.5501768832
 10
156.9188500671
 20
45.5113726708
  0
LINE
  5
425
100
AcDbEntity
  8
0
100
AcDbLine
 62
7
  6
CONTINUOUS
 10
155.2247804025
 20
45.1782316619
 11
155.2093767827
 21
45.2113650379
  0
LINE
  5
426
100
AcDbEntity
  8
0
100
AcDbLine
 62
7
  6
CONTINUOUS
 10
157.4689929765
 20
44.7005869167
 11
157.4843965963
 21
44.6674535406
  0
LINE
  5
427
100
AcDbEntity
  8
TRASH
100
AcDbLine
 62
7
  6
CONTINUOUS
 10
155.8737559257
 20
44.3197292099
 11
155.8271632057
 21
44.4196858054
  0
LINE
  5
428
100
AcDbEntity
  8
TRASH
100
AcDbLine
 62
7
  6
CONTINUOUS
 10
156.8200174534
 20
45.5590893687
 11
156.8666101734
 21
45.4591327731
  0
LINE
  5
429
100
AcDbEntity
  8
TRASH
100
AcDbLine
 62
7
  6
CONTINUOUS
 10
156.1187384714
 20
43.7944120192
 11
155.8737559257
 21
44.3197292099
  0
LINE
  5
42A
100
AcDbEntity
  8
TRASH
100
AcDbLine
 62
7
  6
CONTINUOUS
 10
156.5750349077
 20
46.0844065594
 11
156.8200174534
 21
45.5590893687
  0
LINE
  5
42B
100
AcDbEntity
  8
0
100
AcDbLine
 62
7
  6
CONTINUOUS
 10
155.1935073867
 20
45.1872087605
 11
155.1892502686
 21
45.1969917568
  0
LINE
  5
42C
100
AcDbEntity
  8
0
100
AcDbLine
 62
7
  6
CONTINUOUS
 10
157.5002659824
 20
44.6916098111
 11
157.5045231027
 21
44.6818268161
  0
LINE
  5
42D
100
AcDbEntity
  8
0
100
AcDbLine
 62
7
  6
CONTINUOUS
 10
155.197720437
 20
45.177397344
 11
155.1935073867
 21
45.1872087605
  0
LINE
  5
42E
100
AcDbEntity
  8
0
100
AcDbLine
 62
7
  6
CONTINUOUS
 10
157.4960529347
 20
44.7014212295
 11
157.5002659824
 21
44.6916098111
  0
LINE
  5
42F
100
AcDbEntity
  8
0
100
AcDbLine
 62
7
  6
CONTINUOUS
 10
155.2018894194
 20
45.1675575074
 11
155.197720437
 21
45.177397344
  0
LINE
  5
430
100
AcDbEntity
  8
RACCORDO
100
AcDbLine
 62
253
  6
CONTINUOUS
 10
88.4467343847
 20
34.7894092893
 11
88.5514647743
 21
34.8941396788
  0
LINE
  5
431
100
AcDbEntity
  8
DRAFT
100
AcDbLine
 62
7
  6
CONTINUOUS
 10
88.7945214947
 20
34.7894092893
 11
88.8468866895
 21
34.8417744841
  0
LINE
  5
432
100
AcDbEntity
  8
0
100
AcDbLine
 62
7
  6
CONTINUOUS
 10
89.1892502686
 20
45.1969917568
 11
89.2093767827
 21
45.2113650379
  0
LINE
  5
433
100
AcDbEntity
  8
0
100
AcDbLine
 62
7
  6
CONTINUOUS
 10
91.4843965963
 20
44.6674535406
 11
91.5045231027
 21
44.6818268161
  0
LINE
  5
434
100
AcDbEntity
  8
0
100
AcDbLine
 62
7
  6
CONTINUOUS
 10
150.8468866895
 20
105.6394092893
 11
149.0968866895
 21
105.6394092893
  0
LINE
  5
435
100
AcDbEntity
  8
0
100
AcDbLine
 62
7
  6
CONTINUOUS
 10
147.5968866895
 20
105.6394092893
 11
145.8468866895
 21
105.6394092893
  0
LINE
  5
436
100
AcDbEntity
  8
0
100
AcDbLine
 62
7
  6
CONTINUOUS
 10
125.8468866895
 20
105.6394092893
 11
124.0968866895
 21
105.6394092893
  0
LINE
  5
437
100
AcDbEntity
  8
0
100
AcDbLine
 62
7
  6
CONTINUOUS
 10
122.5968866895
 20
105.6394092893
 11
120.8468866895
 21
105.6394092893
  0
LINE
  5
438
100
AcDbEntity
  8
0
100
AcDbLine
 62
7
  6
CONTINUOUS
 10
100.8468866895
 20
105.6394092893
 11
99.0968866895
 21
105.6394092893
  0
LINE
  5
439
100
AcDbEntity
  8
0
100
AcDbLine
 62
7
  6
CONTINUOUS
 10
97.5968866895
 20
105.6394092893
 11
95.8468866895
 21
105.6394092893
  0
LINE
  5
43A
100
AcDbEntity
  8
DRAFT
100
AcDbLine
 62
7
  6
CONTINUOUS
 10
159.2468866895
 20
107.4394092893
 11
150.8468866895
 21
107.4394092893
  0
LINE
  5
43B
100
AcDbEntity
  8
DRAFT
100
AcDbLine
 62
7
  6
CONTINUOUS
 10
149.0968866895
 20
107.4394092893
 11
147.5968866895
 21
107.4394092893
  0
LINE
  5
43C
100
AcDbEntity
  8
DRAFT
100
AcDbLine
 62
7
  6
CONTINUOUS
 10
145.8468866895
 20
107.4394092893
 11
125.8468866895
 21
107.4394092893
  0
LINE
  5
43D
100
AcDbEntity
  8
DRAFT
100
AcDbLine
 62
7
  6
CONTINUOUS
 10
124.0968866895
 20
107.4394092893
 11
122.5968866895
 21
107.4394092893
  0
LINE
  5
43E
100
AcDbEntity
  8
DRAFT
100
AcDbLine
 62
7
  6
CONTINUOUS
 10
120.8468866895
 20
107.4394092893
 11
100.8468866895
 21
107.4394092893
  0
LINE
  5
43F
100
AcDbEntity
  8
DRAFT
100
AcDbLine
 62
7
  6
CONTINUOUS
 10
99.0968866895
 20
107.4394092893
 11
97.5968866895
 21
107.4394092893
  0
LINE
  5
440
100
AcDbEntity
  8
DRAFT
100
AcDbLine
 62
7
  6
CONTINUOUS
 10
95.8468866895
 20
107.4394092893
 11
87.4468866895
 21
107.4394092893
  0
LINE
  5
441
100
AcDbEntity
  8
DRAFT
100
AcDbLine
 62
7
  6
CONTINUOUS
 10
159.1421563
 20
107.753855965
 11
87.5516170791
 21
107.753855965
  0
LINE
  5
442
100
AcDbEntity
  8
0
100
AcDbLine
 62
7
  6
CONTINUOUS
 10
89.1895660631
 20
134.181601085
 11
89.2093766914
 21
134.1674535913
  0
LINE
  5
443
100
AcDbEntity
  8
0
100
AcDbLine
 62
7
  6
CONTINUOUS
 10
91.4843966876
 20
134.7113649872
 11
91.504207316
 21
134.6972174935
  0
LINE
  5
444
100
AcDbEntity
  8
RACCORDO
100
AcDbLine
 62
253
  6
CONTINUOUS
 10
88.5514647743
 20
144.4846788997
 11
88.4467343847
 21
144.5894092893
  0
LINE
  5
445
100
AcDbEntity
  8
0
100
AcDbLine
 62
7
  6
CONTINUOUS
 10
157.4918839596
 20
44.7112610711
 11
157.4960529347
 21
44.7014212295
  0
LINE
  5
446
100
AcDbEntity
  8
DRAFT
100
AcDbLine
 62
7
  6
CONTINUOUS
 10
145.8468866895
 20
105.6394092893
 11
145.8468866895
 21
107.7070490161
  0
LINE
  5
447
100
AcDbEntity
  8
0
100
AcDbLine
 62
7
  6
CONTINUOUS
 10
156.1187400281
 20
135.722405765
 11
156.0890784853
 21
135.5967299157
  0
LINE
  5
448
100
AcDbEntity
  8
0
100
AcDbLine
 62
7
  6
CONTINUOUS
 10
156.6046948938
 20
133.2820886628
 11
156.5750333509
 21
133.1564128135
  0
LINE
  5
449
100
AcDbEntity
  8
DRAFT
100
AcDbLine
 62
7
  6
CONTINUOUS
 10
126.5968866895
 20
55.6944419692
 11
126.9968866895
 21
56.3872622923
  0
LINE
  5
44A
100
AcDbEntity
  8
DRAFT
100
AcDbLine
 62
7
  6
CONTINUOUS
 10
126.6579794168
 20
55.6780722223
 11
126.9968866895
 21
56.2650768378
  0
LINE
  5
44B
100
AcDbEntity
  8
0
100
AcDbLine
 62
7
  6
CONTINUOUS
 10
89.2093767827
 20
45.2113650379
 11
89.2917102733
 21
45.2568460042
  0
LWPOLYLINE
  5
44C
100
AcDbEntity
  8
0
100
AcDbPolyline
 62
7
  6
CONTINUOUS
 90
3
 70
0
 10
89.2632157487
 20
134.1375592122
 10
89.2367673824
 20
134.1521423131
 10
89.2093766914
 20
134.1674535913
  0
LINE
  5
44D
100
AcDbEntity
  8
0
100
AcDbLine
 62
7
  6
CONTINUOUS
 10
156.118762005
 20
43.6564089057
 11
156.0893042231
 21
43.7817728668
  0
LINE
  5
44E
100
AcDbEntity
  8
0
100
AcDbLine
 62
7
  6
CONTINUOUS
 10
156.57501138
 20
46.2224096718
 11
156.6044691641
 21
46.0970457004
  0
LINE
  5
44F
100
AcDbEntity
  8
ASSI
100
AcDbLine
 62
7
  6
CONTINUOUS
 10
146.8468866895
 20
136.2894092893
 11
146.8468866895
 21
143.1894092893
  0
LINE
  5
450
100
AcDbEntity
  8
DRAFT
100
AcDbLine
 62
7
  6
CONTINUOUS
 10
147.5968866895
 20
105.6394092893
 11
147.5968866895
 21
107.7070490161
  0
LINE
  5
451
100
AcDbEntity
  8
DRAFT
100
AcDbLine
 62
7
  6
CONTINUOUS
 10
149.0968866895
 20
105.6394092893
 11
149.0968866895
 21
107.7070490161
  0
LINE
  5
452
100
AcDbEntity
  8
0
100
AcDbLine
 62
7
  6
CONTINUOUS
 10
91.4843965963
 20
44.6674535406
 11
91.3813153038
 21
44.6106121543
  0
LINE
  5
453
100
AcDbEntity
  8
0
100
AcDbLine
 62
7
  6
CONTINUOUS
 10
89.2917102733
 20
45.2568460042
 11
89.3747830965
 21
45.3021555466
  0
LINE
  5
454
100
AcDbEntity
  8
0
100
AcDbLine
 62
7
  6
CONTINUOUS
 10
91.3813153038
 20
44.6106121543
 11
91.2981251867
 21
44.565356767
  0
LINE
  5
455
100
AcDbEntity
  8
0
100
AcDbLine
 62
7
  6
CONTINUOUS
 10
89.3747830965
 20
45.3021555466
 11
89.4803804593
 21
45.3589271302
  0
LINE
  5
456
100
AcDbEntity
  8
0
100
AcDbLine
 62
7
  6
CONTINUOUS
 10
91.2981251867
 20
44.565356767
 11
91.2133929197
 21
44.5198914484
  0
LWPOLYLINE
  5
457
100
AcDbEntity
  8
0
100
AcDbPolyline
 62
7
  6
CONTINUOUS
 90
3
 70
0
 10
89.4803804593
 20
45.3589271302
 10
89.5482008384
 20
45.3948490796
 10
89.5972196997
 20
45.4205264642
  0
LWPOLYLINE
  5
458
100
AcDbEntity
  8
0
100
AcDbPolyline
 62
7
  6
CONTINUOUS
 90
3
 70
0
 10
91.2133929197
 20
44.5198914484
 10
91.1455725407
 20
44.483969499
 10
91.0965536794
 20
44.4582921144
  0
LWPOLYLINE
  5
459
100
AcDbEntity
  8
0
100
AcDbPolyline
 62
7
  6
CONTINUOUS
 90
4
 70
0
 10
89.5972196997
 20
45.4205264642
 10
89.6233492435
 20
45.4341168697
 10
89.6505954894
 20
45.44806331
 10
89.7095169333
 20
45.4787052866
  0
LWPOLYLINE
  5
45A
100
AcDbEntity
  8
0
100
AcDbPolyline
 62
7
  6
CONTINUOUS
 90
4
 70
0
 10
91.0965536794
 20
44.4582921144
 10
91.0704241355
 20
44.4447017088
 10
91.0431778897
 20
44.4307552686
 10
90.9842564457
 20
44.4001132919
  0
LWPOLYLINE
  5
45B
100
AcDbEntity
  8
0
100
AcDbPolyline
 62
7
  6
CONTINUOUS
 90
3
 70
0
 10
89.7095169333
 20
45.4787052866
 10
89.7413783088
 20
45.494936954
 10
89.7749233272
 20
45.511372568
  0
LWPOLYLINE
  5
45C
100
AcDbEntity
  8
0
100
AcDbPolyline
 62
7
  6
CONTINUOUS
 90
3
 70
0
 10
90.9842564457
 20
44.4001132919
 10
90.9523950703
 20
44.3838816246
 10
90.9188500519
 20
44.3674460106
  0
LINE
  5
45D
100
AcDbEntity
  8
0
100
AcDbLine
 62
7
  6
CONTINUOUS
 10
90.5857090621
 20
46.0615155763
 11
90.6188424382
 21
46.0769191961
  0
LINE
  5
45E
100
AcDbEntity
  8
TRASH
100
AcDbLine
 62
7
  6
CONTINUOUS
 10
89.2018894194
 20
45.1675575074
 11
89.8271599073
 21
45.4591267242
  0
LINE
  5
45F
100
AcDbEntity
  8
0
100
AcDbLine
 62
7
  6
CONTINUOUS
 10
90.5995812198
 20
46.0949116307
 11
90.6044691641
 21
46.0970457004
  0
LINE
  5
460
100
AcDbEntity
  8
DRAFT
100
AcDbLine
 62
7
  6
CONTINUOUS
 10
157.8920685331
 20
122.2221264226
 11
157.9457395519
 21
122.2315176341
  0
LINE
  5
461
100
AcDbEntity
  8
DRAFT
100
AcDbLine
 62
7
  6
CONTINUOUS
 10
87.4468866895
 20
113.6894092893
 11
88.8584855467
 21
113.6894092893
  0
LINE
  5
462
100
AcDbEntity
  8
DRAFT
100
AcDbLine
 62
7
  6
CONTINUOUS
 10
157.8352878324
 20
113.6894092893
 11
159.2468866895
 21
113.6894092893
  0
LINE
  5
463
100
AcDbEntity
  8
RACCORDO
100
AcDbLine
 62
7
  6
CONTINUOUS
 10
87.4468866895
 20
113.7894092893
 11
88.7985186376
 21
113.7894092893
  0
LINE
  5
464
100
AcDbEntity
  8
RACCORDO
100
AcDbLine
 62
7
  6
CONTINUOUS
 10
157.8952547414
 20
113.7894092893
 11
159.2468866895
 21
113.7894092893
  0
LINE
  5
465
100
AcDbEntity
  8
RACCORDO
100
AcDbLine
 62
253
  6
CONTINUOUS
 10
87.5481260661
 20
114.7894092893
 11
88.714734326
 21
114.7894092893
  0
LINE
  5
466
100
AcDbEntity
  8
RACCORDO
100
AcDbLine
 62
253
  6
CONTINUOUS
 10
157.9790390531
 20
114.7894092893
 11
159.1456473129
 21
114.7894092893
  0
LINE
  5
467
100
AcDbEntity
  8
DRAFT
100
AcDbLine
 62
7
  6
CONTINUOUS
 10
88.801704846
 20
122.2221264226
 11
88.7480338271
 21
122.2315176341
  0
LWPOLYLINE
  5
468
100
AcDbEntity
  8
0
100
AcDbPolyline
 62
7
  6
CONTINUOUS
 90
7
 70
0
 10
90.6046948938
 20
133.2820886628
 10
90.5998351012
 20
133.2842678043
 10
90.5949418939
 20
133.2863968458
 10
90.5900152719
 20
133.2884757874
 10
90.5850552351
 20
133.290504629
 10
90.5800617837
 20
133.2924833707
 10
90.5750349176
 20
133.2944120124
  0
LINE
  5
469
100
AcDbEntity
  8
0
100
AcDbLine
 62
7
  6
CONTINUOUS
 10
90.6188423875
 20
133.3018992912
 11
90.585709072
 21
133.3173029956
  0
LINE
  5
46A
100
AcDbEntity
  8
TRASH
100
AcDbLine
 62
7
  6
CONTINUOUS
 10
89.8271632057
 20
133.9196858054
 11
89.2018894127
 21
134.2112610612
  0
LINE
  5
46B
100
AcDbEntity
  8
0
100
AcDbLine
 62
7
  6
CONTINUOUS
 10
89.774923312
 20
133.8674459077
 11
89.7261612859
 21
133.8920034868
  0
LINE
  5
46C
100
AcDbEntity
  8
0
100
AcDbLine
 62
7
  6
CONTINUOUS
 10
90.9188500671
 20
135.0113726708
 11
90.9676120931
 21
134.9868150918
  0
LINE
  5
46D
100
AcDbEntity
  8
0
100
AcDbLine
 62
7
  6
CONTINUOUS
 10
89.7261612859
 20
133.8920034868
 11
89.6776103815
 21
133.9167404895
  0
LINE
  5
46E
100
AcDbEntity
  8
0
100
AcDbLine
 62
7
  6
CONTINUOUS
 10
90.9676120931
 20
134.9868150918
 11
91.0161629976
 21
134.9620780891
  0
LINE
  5
46F
100
AcDbEntity
  8
0
100
AcDbLine
 62
7
  6
CONTINUOUS
 10
89.6776103815
 20
133.9167404895
 11
89.6294566686
 21
133.9415446624
  0
LINE
  5
470
100
AcDbEntity
  8
0
100
AcDbLine
 62
7
  6
CONTINUOUS
 10
91.0161629976
 20
134.9620780891
 11
91.0643167105
 21
134.9372739161
  0
LINE
  5
471
100
AcDbEntity
  8
0
100
AcDbLine
 62
7
  6
CONTINUOUS
 10
89.6294566686
 20
133.9415446624
 11
89.5651108373
 21
133.9750875738
  0
LINE
  5
472
100
AcDbEntity
  8
0
100
AcDbLine
 62
7
  6
CONTINUOUS
 10
91.0643167105
 20
134.9372739161
 11
91.1286625418
 21
134.9037310047
  0
LINE
  5
473
100
AcDbEntity
  8
0
100
AcDbLine
 62
7
  6
CONTINUOUS
 10
89.5651108373
 20
133.9750875738
 11
89.4608760759
 21
134.03028903
  0
LINE
  5
474
100
AcDbEntity
  8
0
100
AcDbLine
 62
7
  6
CONTINUOUS
 10
91.1286625418
 20
134.9037310047
 11
91.2328973032
 21
134.8485295486
  0
LINE
  5
475
100
AcDbEntity
  8
0
100
AcDbLine
 62
7
  6
CONTINUOUS
 10
89.4608760759
 20
134.03028903
 11
89.4019526209
 21
134.0619430173
  0
LINE
  5
476
100
AcDbEntity
  8
0
100
AcDbLine
 62
7
  6
CONTINUOUS
 10
91.2328973032
 20
134.8485295486
 11
91.2918207581
 21
134.8168755612
  0
LWPOLYLINE
  5
477
100
AcDbEntity
  8
0
100
AcDbPolyline
 62
7
  6
CONTINUOUS
 90
3
 70
0
 10
89.4019526209
 20
134.0619430173
 10
89.3365744146
 20
134.0974157254
 10
89.2632157487
 20
134.1375592122
  0
LINE
  5
478
100
AcDbEntity
  8
0
100
AcDbLine
 62
7
  6
CONTINUOUS
 10
91.2918207581
 20
134.8168755612
 11
91.3571989645
 21
134.7814028531
  0
LWPOLYLINE
  5
479
100
AcDbEntity
  8
0
100
AcDbPolyline
 62
7
  6
CONTINUOUS
 90
3
 70
0
 10
91.3571989645
 20
134.7814028531
 10
91.4570059967
 20
134.7266762655
 10
91.4843966876
 20
134.7113649872
  0
LINE
  5
47A
100
AcDbEntity
  8
DRAFT
100
AcDbLine
 62
7
  6
CONTINUOUS
 10
150.8468866895
 20
105.6394092893
 11
150.8468866895
 21
107.7070490161
  0
LINE
  5
47B
100
AcDbEntity
  8
0
100
AcDbLine
 62
7
  6
CONTINUOUS
 10
153.3468866895
 20
36.1894092893
 11
153.3468866895
 21
42.4894092893
  0
LINE
  5
47C
100
AcDbEntity
  8
DRAFT
100
AcDbLine
 62
7
  6
CONTINUOUS
 10
154.0619765597
 20
44.9394092893
 11
154.0619765597
 21
43.0894092893
  0
LINE
  5
47D
100
AcDbEntity
  8
TRASH
100
AcDbLine
 62
7
  6
CONTINUOUS
 10
91.1900120684
 20
44.57049705
 11
90.9665883181
 21
44.4663062676
  0
LINE
  5
47E
100
AcDbEntity
  8
0
100
AcDbLine
 62
7
  6
CONTINUOUS
 10
90.108064317
 20
43.8173030023
 11
90.0749309409
 21
43.8018993825
  0
LINE
  5
47F
100
AcDbEntity
  8
TRASH
100
AcDbLine
 62
7
  6
CONTINUOUS
 10
90.9665883181
 20
44.4663062676
 11
90.8666134718
 21
44.4196918543
  0
LINE
  5
480
100
AcDbEntity
  8
TRASH
100
AcDbLine
 62
7
  6
CONTINUOUS
 10
91.4918839596
 20
44.7112610711
 11
91.1900120684
 21
44.57049705
  0
LINE
  5
481
100
AcDbEntity
  8
0
100
AcDbLine
 62
7
  6
CONTINUOUS
 10
90.0990872196
 20
43.7860299846
 11
90.0893042231
 21
43.7817728668
  0
LINE
  5
482
100
AcDbEntity
  8
0
100
AcDbLine
 62
7
  6
CONTINUOUS
 10
90.5897840131
 20
46.0906765468
 11
90.5995812198
 21
46.0949116307
  0
LINE
  5
483
100
AcDbEntity
  8
0
100
AcDbLine
 62
7
  6
CONTINUOUS
 10
90.1088986357
 20
43.7902430354
 11
90.0990872196
 21
43.7860299846
  0
LWPOLYLINE
  5
484
100
AcDbEntity
  8
0
100
AcDbPolyline
 62
7
  6
CONTINUOUS
 90
3
 70
0
 10
90.5750349077
 20
46.0844065594
 10
90.5799583822
 20
46.0864855367
 10
90.5897840131
 20
46.0906765468
  0
LINE
  5
485
100
AcDbEntity
  8
0
100
AcDbLine
 62
7
  6
CONTINUOUS
 10
90.1187384714
 20
43.7944120192
 11
90.1088986357
 21
43.7902430354
  0
LINE
  5
486
100
AcDbEntity
  8
DRAFT
100
AcDbLine
 62
7
  6
CONTINUOUS
 10
159.2346681441
 20
122.3394092893
 11
159.1775026543
 21
122.3344155946
  0
LINE
  5
487
100
AcDbEntity
  8
DRAFT
100
AcDbLine
 62
7
  6
CONTINUOUS
 10
157.9461472521
 20
122.2268504723
 11
157.8920685331
 21
122.2221264226
  0
LINE
  5
488
100
AcDbEntity
  8
DRAFT
100
AcDbLine
 62
7
  6
CONTINUOUS
 10
87.459105235
 20
117.0394092893
 11
87.5162707248
 21
117.0444029839
  0
LINE
  5
489
100
AcDbEntity
  8
DRAFT
100
AcDbLine
 62
7
  6
CONTINUOUS
 10
88.7476261269
 20
117.1519681063
 11
88.801704846
 21
117.1566921559
  0
LINE
  5
48A
100
AcDbEntity
  8
0
100
AcDbLine
 62
7
  6
CONTINUOUS
 10
88.314734326
 20
116.9894092893
 11
88.7272045631
 21
116.9894092893
  0
LINE
  5
48B
100
AcDbEntity
  8
0
100
AcDbLine
 62
7
  6
CONTINUOUS
 10
157.9665688159
 20
116.9894092893
 11
158.3790390531
 21
116.9894092893
  0
LINE
  5
48C
100
AcDbEntity
  8
DRAFT
100
AcDbLine
 62
7
  6
CONTINUOUS
 10
159.2346681441
 20
117.0394092893
 11
159.1770664298
 21
117.0394092893
  0
LINE
  5
48D
100
AcDbEntity
  8
DRAFT
100
AcDbLine
 62
7
  6
CONTINUOUS
 10
87.5167069492
 20
117.0394092893
 11
87.459105235
 21
117.0394092893
  0
LINE
  5
48E
100
AcDbEntity
  8
DRAFT
100
AcDbLine
 62
7
  6
CONTINUOUS
 10
157.9457395519
 20
117.3894092893
 11
157.7584964472
 21
117.3894092893
  0
LINE
  5
48F
100
AcDbEntity
  8
DRAFT
100
AcDbLine
 62
7
  6
CONTINUOUS
 10
88.7480338271
 20
117.3894092893
 11
88.9352769319
 21
117.3894092893
  0
LINE
  5
490
100
AcDbEntity
  8
DRAFT
100
AcDbLine
 62
7
  6
CONTINUOUS
 10
87.459105235
 20
122.3394092893
 11
87.5162707248
 21
122.3344155946
  0
LINE
  5
491
100
AcDbEntity
  8
DRAFT
100
AcDbLine
 62
7
  6
CONTINUOUS
 10
159.2346681441
 20
117.0394092893
 11
159.1775026543
 21
117.0444029839
  0
LINE
  5
492
100
AcDbEntity
  8
DRAFT
100
AcDbLine
 62
7
  6
CONTINUOUS
 10
157.9461472521
 20
117.1519681063
 11
157.8920685331
 21
117.1566921559
  0
LWPOLYLINE
  5
493
100
AcDbEntity
  8
0
100
AcDbPolyline
 62
7
  6
CONTINUOUS
 90
7
 70
0
 10
90.0890784853
 20
135.5967299157
 10
90.0939382779
 20
135.5945507743
 10
90.0988314852
 20
135.5924217328
 10
90.1037581072
 20
135.5903427912
 10
90.1087181439
 20
135.5883139496
 10
90.1137115953
 20
135.5863352079
 10
90.1187384614
 20
135.5844065661
  0
LINE
  5
494
100
AcDbEntity
  8
0
100
AcDbLine
 62
7
  6
CONTINUOUS
 10
90.0749309916
 20
135.5769192874
 11
90.1080643071
 21
135.561515583
  0
LINE
  5
495
100
AcDbEntity
  8
TRASH
100
AcDbLine
 62
7
  6
CONTINUOUS
 10
90.8666101734
 20
134.9591327731
 11
91.4918839664
 21
134.6675575174
  0
LINE
  5
496
100
AcDbEntity
  8
0
100
AcDbLine
 62
7
  6
CONTINUOUS
 10
156.1186939504
 20
43.7944013663
 11
156.118762005
 21
43.6564089057
  0
LINE
  5
497
100
AcDbEntity
  8
0
100
AcDbLine
 62
7
  6
CONTINUOUS
 10
156.1186939504
 20
133.2944013663
 11
156.118762005
 21
133.1564089057
  0
LINE
  5
498
100
AcDbEntity
  8
0
100
AcDbLine
 62
7
  6
CONTINUOUS
 10
156.57501138
 20
46.2224096718
 11
156.5750794358
 21
46.0844172136
  0
LINE
  5
499
100
AcDbEntity
  8
0
100
AcDbLine
 62
7
  6
CONTINUOUS
 10
156.57501138
 20
135.7224096718
 11
156.5750794358
 21
135.5844172136
  0
LINE
  5
49A
100
AcDbEntity
  8
0
100
AcDbLine
 62
7
  6
CONTINUOUS
 10
155.5468866895
 20
36.1894092893
 11
155.5468866895
 21
42.4894092893
  0
LINE
  5
49B
100
AcDbEntity
  8
DRAFT
100
AcDbLine
 62
7
  6
CONTINUOUS
 10
157.7584964472
 20
61.9894092893
 11
157.7584964472
 21
57.3894092893
  0
LINE
  5
49C
100
AcDbEntity
  8
DRAFT
100
AcDbLine
 62
7
  6
CONTINUOUS
 10
157.7584964472
 20
117.3894092893
 11
157.7584964472
 21
121.9894092893
  0
LINE
  5
49D
100
AcDbEntity
  8
DRAFT
100
AcDbLine
 62
7
  6
CONTINUOUS
 10
157.7968866895
 20
43.1735343499
 11
157.7968866895
 21
36.1894092893
  0
LINE
  5
49E
100
AcDbEntity
  8
DRAFT
100
AcDbLine
 62
7
  6
CONTINUOUS
 10
157.8352878324
 20
125.6894092893
 11
157.8352878324
 21
121.9894092893
  0
LINE
  5
49F
100
AcDbEntity
  8
DRAFT
100
AcDbLine
 62
7
  6
CONTINUOUS
 10
157.8352878324
 20
53.6894092893
 11
157.8352878324
 21
57.3894092893
  0
LINE
  5
4A0
100
AcDbEntity
  8
DRAFT
100
AcDbLine
 62
7
  6
CONTINUOUS
 10
157.8352878324
 20
61.9894092893
 11
157.8352878324
 21
65.6894092893
  0
LINE
  5
4A1
100
AcDbEntity
  8
DRAFT
100
AcDbLine
 62
7
  6
CONTINUOUS
 10
157.8352878324
 20
113.6894092893
 11
157.8352878324
 21
117.3894092893
  0
LINE
  5
4A2
100
AcDbEntity
  8
DRAFT
100
AcDbLine
 62
7
  6
CONTINUOUS
 10
157.8920685331
 20
57.1566921559
 11
157.8920685331
 21
57.3894092893
  0
LINE
  5
4A3
100
AcDbEntity
  8
DRAFT
100
AcDbLine
 62
7
  6
CONTINUOUS
 10
157.8920685331
 20
61.9894092893
 11
157.8920685331
 21
62.2221264226
  0
LINE
  5
4A4
100
AcDbEntity
  8
DRAFT
100
AcDbLine
 62
7
  6
CONTINUOUS
 10
157.8920685331
 20
117.1566921559
 11
157.8920685331
 21
117.3894092893
  0
LINE
  5
4A5
100
AcDbEntity
  8
DRAFT
100
AcDbLine
 62
7
  6
CONTINUOUS
 10
157.8920685331
 20
121.9894092893
 11
157.8920685331
 21
122.2221264226
  0
LINE
  5
4A6
100
AcDbEntity
  8
DRAFT
100
AcDbLine
 62
7
  6
CONTINUOUS
 10
157.8952547414
 20
125.6894092893
 11
157.8952547414
 21
125.5894092893
  0
LINE
  5
4A7
100
AcDbEntity
  8
DRAFT
100
AcDbLine
 62
7
  6
CONTINUOUS
 10
157.8952547414
 20
113.7894092893
 11
157.8952547414
 21
113.6894092893
  0
LINE
  5
4A8
100
AcDbEntity
  8
DRAFT
100
AcDbLine
 62
7
  6
CONTINUOUS
 10
157.8952547414
 20
65.6894092893
 11
157.8952547414
 21
65.5894092893
  0
LINE
  5
4A9
100
AcDbEntity
  8
DRAFT
100
AcDbLine
 62
7
  6
CONTINUOUS
 10
157.8952547414
 20
53.7894092893
 11
157.8952547414
 21
53.6894092893
  0
LINE
  5
4AA
100
AcDbEntity
  8
DRAFT
100
AcDbLine
 62
7
  6
CONTINUOUS
 10
157.9457395519
 20
122.2315176341
 11
157.9457395519
 21
117.1473009445
  0
LINE
  5
4AB
100
AcDbEntity
  8
DRAFT
100
AcDbLine
 62
7
  6
CONTINUOUS
 10
157.9457395519
 20
62.2315176341
 11
157.9457395519
 21
57.1473009445
  0
LINE
  5
4AC
100
AcDbEntity
  8
0
100
AcDbLine
 62
7
  6
CONTINUOUS
 10
157.9665688159
 20
122.3894092893
 11
157.9665688159
 21
116.9894092893
  0
LINE
  5
4AD
100
AcDbEntity
  8
0
100
AcDbLine
 62
7
  6
CONTINUOUS
 10
157.9665688159
 20
56.9894092893
 11
157.9665688159
 21
62.3894092893
  0
LINE
  5
4AE
100
AcDbEntity
  8
RACCORDO
100
AcDbLine
 62
7
  6
CONTINUOUS
 10
157.9790390531
 20
54.7894092893
 11
157.9790390531
 21
56.9894092893
  0
LINE
  5
4AF
100
AcDbEntity
  8
RACCORDO
100
AcDbLine
 62
7
  6
CONTINUOUS
 10
157.9790390531
 20
62.3894092893
 11
157.9790390531
 21
64.5894092893
  0
LINE
  5
4B0
100
AcDbEntity
  8
RACCORDO
100
AcDbLine
 62
7
  6
CONTINUOUS
 10
157.9790390531
 20
114.7894092893
 11
157.9790390531
 21
116.9894092893
  0
LINE
  5
4B1
100
AcDbEntity
  8
RACCORDO
100
AcDbLine
 62
7
  6
CONTINUOUS
 10
157.9790390531
 20
122.3894092893
 11
157.9790390531
 21
124.5894092893
  0
LINE
  5
4B2
100
AcDbEntity
  8
0
100
AcDbLine
 62
7
  6
CONTINUOUS
 10
158.3790390531
 20
122.3894092893
 11
158.3790390531
 21
116.9894092893
  0
LINE
  5
4B3
100
AcDbEntity
  8
0
100
AcDbLine
 62
7
  6
CONTINUOUS
 10
158.3790390531
 20
56.9894092893
 11
158.3790390531
 21
62.3894092893
  0
LINE
  5
4B4
100
AcDbEntity
  8
DRAFT
100
AcDbLine
 62
7
  6
CONTINUOUS
 10
158.4683388973
 20
125.6894092893
 11
158.4683388973
 21
125.5894092893
  0
LINE
  5
4B5
100
AcDbEntity
  8
DRAFT
100
AcDbLine
 62
7
  6
CONTINUOUS
 10
158.4683388973
 20
113.7894092893
 11
158.4683388973
 21
113.6894092893
  0
LINE
  5
4B6
100
AcDbEntity
  8
DRAFT
100
AcDbLine
 62
7
  6
CONTINUOUS
 10
158.4683388973
 20
65.6894092893
 11
158.4683388973
 21
65.5894092893
  0
LINE
  5
4B7
100
AcDbEntity
  8
DRAFT
100
AcDbLine
 62
7
  6
CONTINUOUS
 10
158.4683388973
 20
53.7894092893
 11
158.4683388973
 21
53.6894092893
  0
LINE
  5
4B8
100
AcDbEntity
  8
DRAFT
100
AcDbLine
 62
7
  6
CONTINUOUS
 10
158.4857939623
 20
65.6894092893
 11
158.4857939623
 21
65.5894092893
  0
LINE
  5
4B9
100
AcDbEntity
  8
DRAFT
100
AcDbLine
 62
7
  6
CONTINUOUS
 10
158.4857939623
 20
53.7894092893
 11
158.4857939623
 21
53.6894092893
  0
LINE
  5
4BA
100
AcDbEntity
  8
DRAFT
100
AcDbLine
 62
7
  6
CONTINUOUS
 10
158.4857939623
 20
113.6894092893
 11
158.4857939623
 21
113.7894092893
  0
LINE
  5
4BB
100
AcDbEntity
  8
DRAFT
100
AcDbLine
 62
7
  6
CONTINUOUS
 10
158.4857939623
 20
125.5894092893
 11
158.4857939623
 21
125.6894092893
  0
LINE
  5
4BC
100
AcDbEntity
  8
0
100
AcDbLine
 62
7
  6
CONTINUOUS
 10
156.1185334184
 20
135.5844488724
 11
156.1187400281
 21
135.722405765
  0
LINE
  5
4BD
100
AcDbEntity
  8
0
100
AcDbLine
 62
7
  6
CONTINUOUS
 10
156.1185334184
 20
46.0844488724
 11
156.1187400281
 21
46.222405765
  0
LINE
  5
4BE
100
AcDbEntity
  8
0
100
AcDbLine
 62
7
  6
CONTINUOUS
 10
156.5752399606
 20
133.2943697062
 11
156.5750333509
 21
133.1564128135
  0
LINE
  5
4BF
100
AcDbEntity
  8
0
100
AcDbLine
 62
7
  6
CONTINUOUS
 10
156.5752399606
 20
43.7943697062
 11
156.5750333509
 21
43.6564128135
  0
LINE
  5
4C0
100
AcDbEntity
  8
RACCORDO
100
AcDbLine
 62
253
  6
CONTINUOUS
 10
118.9468866895
 20
40.0893331369
 11
119.0219434687
 21
40.164389916
  0
LINE
  5
4C1
100
AcDbEntity
  8
RACCORDO
100
AcDbLine
 62
253
  6
CONTINUOUS
 10
119.4468105371
 20
39.5894092893
 11
119.5218673163
 21
39.6644660685
  0
LINE
  5
4C2
100
AcDbEntity
  8
0
100
AcDbLine
 62
7
  6
CONTINUOUS
 10
157.6298870722
 20
134.2112845999
 11
157.5045231027
 21
134.1818268161
  0
LINE
  5
4C3
100
AcDbEntity
  8
DRAFT
100
AcDbLine
 62
7
  6
CONTINUOUS
 10
88.7480338271
 20
117.1473009445
 11
88.801704846
 21
117.1566921559
  0
LINE
  5
4C4
100
AcDbEntity
  8
DRAFT
100
AcDbLine
 62
7
  6
CONTINUOUS
 10
157.9457395519
 20
121.9894092893
 11
157.7584964472
 21
121.9894092893
  0
LINE
  5
4C5
100
AcDbEntity
  8
DRAFT
100
AcDbLine
 62
7
  6
CONTINUOUS
 10
88.7480338271
 20
121.9894092893
 11
88.9352769319
 21
121.9894092893
  0
LINE
  5
4C6
100
AcDbEntity
  8
DRAFT
100
AcDbLine
 62
7
  6
CONTINUOUS
 10
87.459105235
 20
122.3394092893
 11
87.5167069492
 21
122.3394092893
  0
LINE
  5
4C7
100
AcDbEntity
  8
DRAFT
100
AcDbLine
 62
7
  6
CONTINUOUS
 10
159.1770664298
 20
122.3394092893
 11
159.2346681441
 21
122.3394092893
  0
LINE
  5
4C8
100
AcDbEntity
  8
0
100
AcDbLine
 62
7
  6
CONTINUOUS
 10
88.314734326
 20
122.3894092893
 11
88.7272045631
 21
122.3894092893
  0
LINE
  5
4C9
100
AcDbEntity
  8
0
100
AcDbLine
 62
7
  6
CONTINUOUS
 10
157.9665688159
 20
122.3894092893
 11
158.3790390531
 21
122.3894092893
  0
LINE
  5
4CA
100
AcDbEntity
  8
RACCORDO
100
AcDbLine
 62
253
  6
CONTINUOUS
 10
87.5481260661
 20
124.5894092893
 11
88.714734326
 21
124.5894092893
  0
LINE
  5
4CB
100
AcDbEntity
  8
RACCORDO
100
AcDbLine
 62
253
  6
CONTINUOUS
 10
157.9790390531
 20
124.5894092893
 11
159.1456473129
 21
124.5894092893
  0
LINE
  5
4CC
100
AcDbEntity
  8
DRAFT
100
AcDbLine
 62
7
  6
CONTINUOUS
 10
157.9457395519
 20
117.1473009445
 11
157.8920685331
 21
117.1566921559
  0
LINE
  5
4CD
100
AcDbEntity
  8
0
100
AcDbLine
 62
7
  6
CONTINUOUS
 10
89.0638902138
 20
134.2112626279
 11
89.1895660631
 21
134.181601085
  0
LINE
  5
4CE
100
AcDbEntity
  8
RACCORDO
100
AcDbLine
 62
7
  6
CONTINUOUS
 10
159.1421563
 20
35.893987374
 11
159.1421563
 21
53.6894092893
  0
LINE
  5
4CF
100
AcDbEntity
  8
DRAFT
100
AcDbLine
 62
7
  6
CONTINUOUS
 10
159.1421563
 20
65.6894092893
 11
159.1421563
 21
69.1249626136
  0
LINE
  5
4D0
100
AcDbEntity
  8
DRAFT
100
AcDbLine
 62
7
  6
CONTINUOUS
 10
159.1421563
 20
107.753855965
 11
159.1421563
 21
113.6894092893
  0
LINE
  5
4D1
100
AcDbEntity
  8
RACCORDO
100
AcDbLine
 62
7
  6
CONTINUOUS
 10
159.1421563
 20
125.6894092893
 11
159.1421563
 21
143.4848312046
  0
LINE
  5
4D2
100
AcDbEntity
  8
RACCORDO
100
AcDbLine
 62
7
  6
CONTINUOUS
 10
159.1456473129
 20
54.7894092893
 11
159.1456473129
 21
64.5894092893
  0
LINE
  5
4D3
100
AcDbEntity
  8
RACCORDO
100
AcDbLine
 62
7
  6
CONTINUOUS
 10
159.1456473129
 20
114.7894092893
 11
159.1456473129
 21
124.5894092893
  0
LINE
  5
4D4
100
AcDbEntity
  8
DRAFT
100
AcDbLine
 62
7
  6
CONTINUOUS
 10
159.1770664298
 20
57.0394092893
 11
159.1770664298
 21
62.3394092893
  0
LINE
  5
4D5
100
AcDbEntity
  8
DRAFT
100
AcDbLine
 62
7
  6
CONTINUOUS
 10
159.1770664298
 20
117.0394092893
 11
159.1770664298
 21
122.3394092893
  0
LINE
  5
4D6
100
AcDbEntity
  8
SMUSSO
100
AcDbLine
 62
7
  6
CONTINUOUS
 10
159.2032490272
 20
71.1083898411
 11
159.2032490272
 21
69.3083898411
  0
LINE
  5
4D7
100
AcDbEntity
  8
DRAFT
100
AcDbLine
 62
7
  6
CONTINUOUS
 10
159.2346681441
 20
122.3394092893
 11
159.2346681441
 21
117.0394092893
  0
LINE
  5
4D8
100
AcDbEntity
  8
DRAFT
100
AcDbLine
 62
7
  6
CONTINUOUS
 10
159.2346681441
 20
62.3394092893
 11
159.2346681441
 21
57.0394092893
  0
LINE
  5
4D9
100
AcDbEntity
  8
RACCORDO
100
AcDbLine
 62
7
  6
CONTINUOUS
 10
159.2468866895
 20
35.7892569844
 11
159.2468866895
 21
53.7894092893
  0
LINE
  5
4DA
100
AcDbEntity
  8
DRAFT
100
AcDbLine
 62
7
  6
CONTINUOUS
 10
159.2468866895
 20
53.7894092893
 11
159.2468866895
 21
68.3831989669
  0
LINE
  5
4DB
100
AcDbEntity
  8
DRAFT
100
AcDbLine
 62
7
  6
CONTINUOUS
 10
159.2468866895
 20
71.9394092893
 11
159.2468866895
 21
125.5894092893
  0
LINE
  5
4DC
100
AcDbEntity
  8
RACCORDO
100
AcDbLine
 62
7
  6
CONTINUOUS
 10
159.2468866895
 20
125.5894092893
 11
159.2468866895
 21
143.5895615941
  0
LINE
  5
4DD
100
AcDbEntity
  8
SMUSSO
100
AcDbLine
 62
7
  6
CONTINUOUS
 10
159.2161433347
 20
71.8471042213
 11
159.2032490272
 21
71.1083898411
  0
LINE
  5
4DE
100
AcDbEntity
  8
SMUSSO
100
AcDbLine
 62
7
  6
CONTINUOUS
 10
159.2161433347
 20
71.8471042213
 11
159.2468866895
 21
71.9394092893
  0
LINE
  5
4DF
100
AcDbEntity
  8
0
100
AcDbLine
 62
7
  6
CONTINUOUS
 10
155.0638863061
 20
134.6675339746
 11
155.1892502686
 21
134.6969917568
  0
LINE
  5
4E0
100
AcDbEntity
  8
RACCORDO
100
AcDbLine
 62
7
  6
CONTINUOUS
 10
87.4468866895
 20
125.5894092893
 11
88.7985186376
 21
125.5894092893
  0
LINE
  5
4E1
100
AcDbEntity
  8
RACCORDO
100
AcDbLine
 62
7
  6
CONTINUOUS
 10
157.8952547414
 20
125.5894092893
 11
159.2468866895
 21
125.5894092893
  0
LINE
  5
4E2
100
AcDbEntity
  8
DRAFT
100
AcDbLine
 62
7
  6
CONTINUOUS
 10
87.4468866895
 20
125.6894092893
 11
88.8584855467
 21
125.6894092893
  0
LINE
  5
4E3
100
AcDbEntity
  8
DRAFT
100
AcDbLine
 62
7
  6
CONTINUOUS
 10
157.8352878324
 20
125.6894092893
 11
159.2468866895
 21
125.6894092893
  0
LINE
  5
4E4
100
AcDbEntity
  8
0
100
AcDbLine
 62
7
  6
CONTINUOUS
 10
91.504207316
 20
134.6972174935
 11
91.6298831653
 21
134.6675559507
  0
LINE
  5
4E5
100
AcDbEntity
  8
DRAFT
100
AcDbLine
 62
7
  6
CONTINUOUS
 10
159.2468866895
 20
107.4394092893
 11
159.1421563
 21
107.753855965
  0
LINE
  5
4E6
100
AcDbEntity
  8
0
100
AcDbLine
 62
7
  6
CONTINUOUS
 10
156.1187400281
 20
46.222405765
 11
156.0890784853
 21
46.0967299157
  0
LINE
  5
4E7
100
AcDbEntity
  8
0
100
AcDbLine
 62
7
  6
CONTINUOUS
 10
156.6046948938
 20
43.7820886628
 11
156.5750333509
 21
43.6564128135
  0
LINE
  5
4E8
100
AcDbEntity
  8
DRAFT
100
AcDbLine
 62
7
  6
CONTINUOUS
 10
159.1421563
 20
69.1249626136
 11
159.2032490272
 21
69.3083898411
  0
LINE
  5
4E9
100
AcDbEntity
  8
0
100
AcDbLine
 62
7
  6
CONTINUOUS
 10
89.2018471064
 20
134.2110560182
 11
89.0638902138
 21
134.2112626279
  0
LINE
  5
4EA
100
AcDbEntity
  8
0
100
AcDbLine
 62
7
  6
CONTINUOUS
 10
156.118762005
 20
133.1564089057
 11
156.0893042231
 21
133.2817728668
  0
LINE
  5
4EB
100
AcDbEntity
  8
0
100
AcDbLine
 62
7
  6
CONTINUOUS
 10
156.57501138
 20
135.7224096718
 11
156.6044691641
 21
135.5970457004
  0
LWPOLYLINE
  5
4EC
100
AcDbEntity
  8
0
100
AcDbPolyline
 62
7
  6
CONTINUOUS
 90
7
 70
0
 10
155.1895660631
 20
44.681601085
 10
155.1917452045
 20
44.6864608776
 10
155.193874246
 20
44.6913540849
 10
155.1959531876
 20
44.6962807069
 10
155.1979820292
 20
44.7012407437
 10
155.1999607709
 20
44.7062341951
 10
155.2018894127
 20
44.7112610612
  0
LINE
  5
4ED
100
AcDbEntity
  8
0
100
AcDbLine
 62
7
  6
CONTINUOUS
 10
155.2093766914
 20
44.6674535913
 11
155.2247803958
 21
44.7005869068
  0
LINE
  5
4EE
100
AcDbEntity
  8
TRASH
100
AcDbLine
 62
7
  6
CONTINUOUS
 10
155.8271692546
 20
45.4591360715
 11
156.1187384614
 21
46.0844065661
  0
LWPOLYLINE
  5
4EF
100
AcDbEntity
  8
0
100
AcDbPolyline
 62
7
  6
CONTINUOUS
 90
3
 70
0
 10
155.7749233272
 20
45.511372568
 10
155.7943647405
 20
45.550220547
 10
155.8140192118
 20
45.588888149
  0
LINE
  5
4F0
100
AcDbEntity
  8
0
100
AcDbLine
 62
7
  6
CONTINUOUS
 10
157.4918946136
 20
134.2112165444
 11
157.6298870722
 21
134.2112845999
  0
LINE
  5
4F1
100
AcDbEntity
  8
0
100
AcDbLine
 62
7
  6
CONTINUOUS
 10
91.4918946136
 20
134.2112165444
 11
91.6298870722
 21
134.2112845999
  0
LINE
  5
4F2
100
AcDbEntity
  8
0
100
AcDbLine
 62
7
  6
CONTINUOUS
 10
155.0638863061
 20
134.6675339746
 11
155.2018787664
 21
134.6676020293
  0
LINE
  5
4F3
100
AcDbEntity
  8
0
100
AcDbLine
 62
7
  6
CONTINUOUS
 10
89.0638863061
 20
134.6675339746
 11
89.2018787664
 21
134.6676020293
  0
LINE
  5
4F4
100
AcDbEntity
  8
DRAFT
100
AcDbLine
 62
7
  6
CONTINUOUS
 10
146.8468866895
 20
136.2894092893
 11
92.6317968194
 21
136.2894092893
  0
LINE
  5
4F5
100
AcDbEntity
  8
DRAFT
100
AcDbLine
 62
7
  6
CONTINUOUS
 10
92.5968866895
 20
136.2894092893
 11
91.1048448212
 21
136.2894092893
  0
LINE
  5
4F6
100
AcDbEntity
  8
DRAFT
100
AcDbLine
 62
7
  6
CONTINUOUS
 10
89.5889221492
 20
136.2894092893
 11
88.8968866895
 21
136.2894092893
  0
LINE
  5
4F7
100
AcDbEntity
  8
0
100
AcDbLine
 62
7
  6
CONTINUOUS
 10
132.5468866895
 20
136.8894092893
 11
130.3468866895
 21
136.8894092893
  0
LINE
  5
4F8
100
AcDbEntity
  8
0
100
AcDbLine
 62
7
  6
CONTINUOUS
 10
116.3468866895
 20
136.8894092893
 11
114.1468866895
 21
136.8894092893
  0
LINE
  5
4F9
100
AcDbEntity
  8
0
100
AcDbLine
 62
7
  6
CONTINUOUS
 10
93.3468866895
 20
136.8894092893
 11
91.1468866895
 21
136.8894092893
  0
LINE
  5
4FA
100
AcDbEntity
  8
0
100
AcDbLine
 62
7
  6
CONTINUOUS
 10
155.2018471064
 20
134.2110560182
 11
155.0638902138
 21
134.2112626279
  0
LINE
  5
4FB
100
AcDbEntity
  8
0
100
AcDbLine
 62
7
  6
CONTINUOUS
 10
91.4919262726
 20
134.6677625604
 11
91.6298831653
 21
134.6675559507
  0
LINE
  5
4FC
100
AcDbEntity
  8
0
100
AcDbLine
 62
7
  6
CONTINUOUS
 10
157.4919262726
 20
134.6677625604
 11
157.6298831653
 21
134.6675559507
  0
LINE
  5
4FD
100
AcDbEntity
  8
0
100
AcDbLine
 62
7
  6
CONTINUOUS
 10
155.2247804025
 20
134.6782316619
 11
155.2093767827
 21
134.7113650379
  0
LINE
  5
4FE
100
AcDbEntity
  8
TRASH
100
AcDbLine
 62
7
  6
CONTINUOUS
 10
155.8737559257
 20
133.8197292099
 11
155.8271632057
 21
133.9196858054
  0
LINE
  5
4FF
100
AcDbEntity
  8
TRASH
100
AcDbLine
 62
7
  6
CONTINUOUS
 10
156.1187384714
 20
133.2944120192
 11
155.8737559257
 21
133.8197292099
  0
LINE
  5
500
100
AcDbEntity
  8
0
100
AcDbLine
 62
7
  6
CONTINUOUS
 10
155.1935073867
 20
134.6872087605
 11
155.1892502686
 21
134.6969917568
  0
LINE
  5
501
100
AcDbEntity
  8
0
100
AcDbLine
 62
7
  6
CONTINUOUS
 10
155.197720437
 20
134.677397344
 11
155.1935073867
 21
134.6872087605
  0
LINE
  5
502
100
AcDbEntity
  8
0
100
AcDbLine
 62
7
  6
CONTINUOUS
 10
155.2018894194
 20
134.6675575074
 11
155.197720437
 21
134.677397344
  0
LINE
  5
503
100
AcDbEntity
  8
0
100
AcDbLine
 62
7
  6
CONTINUOUS
 10
157.4918839596
 20
134.2112610711
 11
157.4960529347
 21
134.2014212295
  0
LWPOLYLINE
  5
504
100
AcDbEntity
  8
0
100
AcDbPolyline
 62
7
  6
CONTINUOUS
 90
7
 70
0
 10
157.504207316
 20
45.1972174935
 10
157.5020281745
 20
45.1923577009
 10
157.499899133
 20
45.1874644936
 10
157.4978201914
 20
45.1825378716
 10
157.4957913498
 20
45.1775778349
 10
157.4938126081
 20
45.1725843835
 10
157.4918839664
 20
45.1675575174
  0
LINE
  5
505
100
AcDbEntity
  8
0
100
AcDbLine
 62
7
  6
CONTINUOUS
 10
157.4843966876
 20
45.2113649872
 11
157.4689929832
 21
45.1782316718
  0
LINE
  5
506
100
AcDbEntity
  8
TRASH
100
AcDbLine
 62
7
  6
CONTINUOUS
 10
156.8666041245
 20
44.419682507
 11
156.5750349176
 21
43.7944120124
  0
LWPOLYLINE
  5
507
100
AcDbEntity
  8
0
100
AcDbPolyline
 62
7
  6
CONTINUOUS
 90
3
 70
0
 10
156.9188500519
 20
44.3674460106
 10
156.8994086385
 20
44.3285980315
 10
156.8797541673
 20
44.2899304295
  0
LINE
  5
508
100
AcDbEntity
  8
0
100
AcDbLine
 62
7
  6
CONTINUOUS
 10
155.8140192118
 20
45.588888149
 11
155.8741070181
 21
45.7051932005
  0
LINE
  5
509
100
AcDbEntity
  8
0
100
AcDbLine
 62
7
  6
CONTINUOUS
 10
156.8797541673
 20
44.2899304295
 11
156.819666361
 21
44.1736253781
  0
LINE
  5
50A
100
AcDbEntity
  8
0
100
AcDbLine
 62
7
  6
CONTINUOUS
 10
155.8741070181
 20
45.7051932005
 11
155.9351773858
 21
45.8207013151
  0
LINE
  5
50B
100
AcDbEntity
  8
0
100
AcDbLine
 62
7
  6
CONTINUOUS
 10
156.819666361
 20
44.1736253781
 11
156.7585959933
 21
44.0581172635
  0
LINE
  5
50C
100
AcDbEntity
  8
0
100
AcDbLine
 62
7
  6
CONTINUOUS
 10
155.9351773858
 20
45.8207013151
 11
155.9960469817
 21
45.9335811659
  0
LINE
  5
50D
100
AcDbEntity
  8
0
100
AcDbLine
 62
7
  6
CONTINUOUS
 10
156.7585959933
 20
44.0581172635
 11
156.6977263974
 21
43.9452374126
  0
LINE
  5
50E
100
AcDbEntity
  8
0
100
AcDbLine
 62
7
  6
CONTINUOUS
 10
156.0558083219
 20
46.0418626238
 11
156.0749309916
 21
46.0769192874
  0
LINE
  5
50F
100
AcDbEntity
  8
0
100
AcDbLine
 62
7
  6
CONTINUOUS
 10
156.6379650572
 20
43.8369559548
 11
156.6188423875
 21
43.8018992912
  0
LWPOLYLINE
  5
510
100
AcDbEntity
  8
0
100
AcDbPolyline
 62
7
  6
CONTINUOUS
 90
3
 70
0
 10
155.9960469817
 20
45.9335811659
 10
156.0161453614
 20
45.970294892
 10
156.0558083219
 20
46.0418626238
  0
LWPOLYLINE
  5
511
100
AcDbEntity
  8
0
100
AcDbPolyline
 62
7
  6
CONTINUOUS
 90
3
 70
0
 10
156.6977263974
 20
43.9452374126
 10
156.6776280177
 20
43.9085236866
 10
156.6379650572
 20
43.8369559548
  0
LINE
  5
512
100
AcDbEntity
  8
0
100
AcDbLine
 62
7
  6
CONTINUOUS
 10
156.0890784853
 20
46.0967299157
 11
156.0749309916
 21
46.0769192874
  0
LINE
  5
513
100
AcDbEntity
  8
0
100
AcDbLine
 62
7
  6
CONTINUOUS
 10
156.5946861695
 20
46.0927885795
 11
156.6044691641
 21
46.0970457004
  0
LINE
  5
514
100
AcDbEntity
  8
0
100
AcDbLine
 62
7
  6
CONTINUOUS
 10
156.5848747507
 20
46.0885755325
 11
156.5946861695
 21
46.0927885795
  0
LINE
  5
515
100
AcDbEntity
  8
0
100
AcDbLine
 62
7
  6
CONTINUOUS
 10
156.5750349077
 20
46.0844065594
 11
156.5848747507
 21
46.0885755325
  0
LINE
  5
516
100
AcDbEntity
  8
0
100
AcDbLine
 62
7
  6
CONTINUOUS
 10
91.6298870722
 20
134.2112845999
 11
91.5045231027
 21
134.1818268161
  0
LINE
  5
517
100
AcDbEntity
  8
0
100
AcDbLine
 62
7
  6
CONTINUOUS
 10
89.0638863061
 20
134.6675339746
 11
89.1892502686
 21
134.6969917568
  0
LINE
  5
518
100
AcDbEntity
  8
0
100
AcDbLine
 62
7
  6
CONTINUOUS
 10
153.8468866895
 20
138.5894092893
 11
151.8468866895
 21
138.5894092893
  0
LINE
  5
519
100
AcDbEntity
  8
0
100
AcDbLine
 62
7
  6
CONTINUOUS
 10
151.8468866895
 20
142.5894092893
 11
153.8468866895
 21
142.5894092893
  0
LINE
  5
51A
100
AcDbEntity
  8
0
100
AcDbLine
 62
7
  6
CONTINUOUS
 10
155.0638902138
 20
134.2112626279
 11
155.1895660631
 21
134.181601085
  0
LINE
  5
51B
100
AcDbEntity
  8
0
100
AcDbLine
 62
7
  6
CONTINUOUS
 10
157.504207316
 20
134.6972174935
 11
157.6298831653
 21
134.6675559507
  0
LINE
  5
51C
100
AcDbEntity
  8
0
100
AcDbLine
 62
7
  6
CONTINUOUS
 10
156.0749309409
 20
133.3018993825
 11
156.0893042231
 21
133.2817728668
  0
LINE
  5
51D
100
AcDbEntity
  8
0
100
AcDbLine
 62
7
  6
CONTINUOUS
 10
156.0157850094
 20
133.4091821449
 11
155.9956575224
 21
133.4459636324
  0
LINE
  5
51E
100
AcDbEntity
  8
0
100
AcDbLine
 62
7
  6
CONTINUOUS
 10
156.6779883697
 20
135.4696364337
 11
156.6981158566
 21
135.4328549462
  0
LWPOLYLINE
  5
51F
100
AcDbEntity
  8
0
100
AcDbPolyline
 62
7
  6
CONTINUOUS
 90
3
 70
0
 10
156.0749309409
 20
133.3018993825
 10
156.0556342265
 20
133.3372416582
 10
156.0157850094
 20
133.4091821449
  0
LWPOLYLINE
  5
520
100
AcDbEntity
  8
0
100
AcDbPolyline
 62
7
  6
CONTINUOUS
 90
3
 70
0
 10
156.6188424382
 20
135.5769191961
 10
156.6381391526
 20
135.5415769203
 10
156.6779883697
 20
135.4696364337
  0
LINE
  5
521
100
AcDbEntity
  8
0
100
AcDbLine
 62
7
  6
CONTINUOUS
 10
155.9956575224
 20
133.4459636324
 11
155.9348465917
 21
133.5587448184
  0
LINE
  5
522
100
AcDbEntity
  8
0
100
AcDbLine
 62
7
  6
CONTINUOUS
 10
156.6981158566
 20
135.4328549462
 11
156.7589267874
 21
135.3200737601
  0
LINE
  5
523
100
AcDbEntity
  8
0
100
AcDbLine
 62
7
  6
CONTINUOUS
 10
155.9348465917
 20
133.5587448184
 11
155.8739276899
 21
133.6739728694
  0
LINE
  5
524
100
AcDbEntity
  8
0
100
AcDbLine
 62
7
  6
CONTINUOUS
 10
156.7589267874
 20
135.3200737601
 11
156.8198456891
 21
135.2048457092
  0
LWPOLYLINE
  5
525
100
AcDbEntity
  8
0
100
AcDbPolyline
 62
7
  6
CONTINUOUS
 90
4
 70
0
 10
155.8739276899
 20
133.6739728694
 10
155.8139665495
 20
133.7900294275
 10
155.7943397262
 20
133.8286416954
 10
155.774923312
 20
133.8674459077
  0
LWPOLYLINE
  5
526
100
AcDbEntity
  8
0
100
AcDbPolyline
 62
7
  6
CONTINUOUS
 90
4
 70
0
 10
156.8198456891
 20
135.2048457092
 10
156.8798068296
 20
135.0887891511
 10
156.8994336528
 20
135.0501768832
 10
156.9188500671
 20
135.0113726708
  0
LINE
  5
527
100
AcDbEntity
  8
0
100
AcDbLine
 62
7
  6
CONTINUOUS
 10
157.4689929765
 20
134.2005869167
 11
157.4843965963
 21
134.1674535406
  0
LINE
  5
528
100
AcDbEntity
  8
TRASH
100
AcDbLine
 62
7
  6
CONTINUOUS
 10
156.8200174534
 20
135.0590893687
 11
156.8666101734
 21
134.9591327731
  0
LINE
  5
529
100
AcDbEntity
  8
TRASH
100
AcDbLine
 62
7
  6
CONTINUOUS
 10
156.5750349077
 20
135.5844065594
 11
156.8200174534
 21
135.0590893687
  0
LINE
  5
52A
100
AcDbEntity
  8
0
100
AcDbLine
 62
7
  6
CONTINUOUS
 10
157.5002659824
 20
134.1916098111
 11
157.5045231027
 21
134.1818268161
  0
LINE
  5
52B
100
AcDbEntity
  8
0
100
AcDbLine
 62
7
  6
CONTINUOUS
 10
157.4960529347
 20
134.2014212295
 11
157.5002659824
 21
134.1916098111
  0
LINE
  5
52C
100
AcDbEntity
  8
0
100
AcDbLine
 62
7
  6
CONTINUOUS
 10
156.6188423875
 20
43.8018992912
 11
156.6046948938
 21
43.7820886628
  0
LINE
  5
52D
100
AcDbEntity
  8
0
100
AcDbLine
 62
7
  6
CONTINUOUS
 10
155.774923312
 20
44.3674459077
 11
155.8271632054
 21
44.4196858051
  0
LINE
  5
52E
100
AcDbEntity
  8
0
100
AcDbLine
 62
7
  6
CONTINUOUS
 10
156.8666101737
 20
45.4591327734
 11
156.9188500671
 21
45.5113726708
  0
LINE
  5
52F
100
AcDbEntity
  8
0
100
AcDbLine
 62
7
  6
CONTINUOUS
 10
155.1892502686
 20
45.1969917568
 11
155.2093767827
 21
45.2113650379
  0
LINE
  5
530
100
AcDbEntity
  8
0
100
AcDbLine
 62
7
  6
CONTINUOUS
 10
157.4843965963
 20
44.6674535406
 11
157.5045231027
 21
44.6818268161
  0
LINE
  5
531
100
AcDbEntity
  8
0
100
AcDbLine
 62
7
  6
CONTINUOUS
 10
155.2093767827
 20
45.2113650379
 11
155.2917102733
 21
45.2568460042
  0
LINE
  5
532
100
AcDbEntity
  8
0
100
AcDbLine
 62
7
  6
CONTINUOUS
 10
157.4843965963
 20
44.6674535406
 11
157.4020631057
 21
44.6219725743
  0
LINE
  5
533
100
AcDbEntity
  8
0
100
AcDbLine
 62
7
  6
CONTINUOUS
 10
155.2917102733
 20
45.2568460042
 11
155.3747830965
 21
45.3021555466
  0
LINE
  5
534
100
AcDbEntity
  8
0
100
AcDbLine
 62
7
  6
CONTINUOUS
 10
157.4020631057
 20
44.6219725743
 11
157.3189902826
 21
44.5766630319
  0
LINE
  5
535
100
AcDbEntity
  8
0
100
AcDbLine
 62
7
  6
CONTINUOUS
 10
155.3747830965
 20
45.3021555466
 11
155.4803804594
 21
45.3589271302
  0
LINE
  5
536
100
AcDbEntity
  8
0
100
AcDbLine
 62
7
  6
CONTINUOUS
 10
157.3189902826
 20
44.5766630319
 11
157.2133929197
 21
44.5198914484
  0
LWPOLYLINE
  5
537
100
AcDbEntity
  8
0
100
AcDbPolyline
 62
7
  6
CONTINUOUS
 90
3
 70
0
 10
155.4803804594
 20
45.3589271302
 10
155.5482008384
 20
45.3948490796
 10
155.5972196997
 20
45.4205264642
  0
LWPOLYLINE
  5
538
100
AcDbEntity
  8
0
100
AcDbPolyline
 62
7
  6
CONTINUOUS
 90
3
 70
0
 10
157.2133929197
 20
44.5198914484
 10
157.1455725407
 20
44.483969499
 10
157.0965536794
 20
44.4582921144
  0
LWPOLYLINE
  5
539
100
AcDbEntity
  8
0
100
AcDbPolyline
 62
7
  6
CONTINUOUS
 90
4
 70
0
 10
155.5972196997
 20
45.4205264642
 10
155.6233492435
 20
45.4341168697
 10
155.6505954894
 20
45.44806331
 10
155.7095169333
 20
45.4787052866
  0
LWPOLYLINE
  5
53A
100
AcDbEntity
  8
0
100
AcDbPolyline
 62
7
  6
CONTINUOUS
 90
4
 70
0
 10
157.0965536794
 20
44.4582921144
 10
157.0704241355
 20
44.4447017088
 10
157.0431778897
 20
44.4307552686
 10
156.9842564457
 20
44.4001132919
  0
LWPOLYLINE
  5
53B
100
AcDbEntity
  8
0
100
AcDbPolyline
 62
7
  6
CONTINUOUS
 90
3
 70
0
 10
155.7095169333
 20
45.4787052866
 10
155.7413783088
 20
45.494936954
 10
155.7749233272
 20
45.511372568
  0
LWPOLYLINE
  5
53C
100
AcDbEntity
  8
0
100
AcDbPolyline
 62
7
  6
CONTINUOUS
 90
3
 70
0
 10
156.9842564457
 20
44.4001132919
 10
156.9523950703
 20
44.3838816246
 10
156.9188500519
 20
44.3674460106
  0
LINE
  5
53D
100
AcDbEntity
  8
0
100
AcDbLine
 62
7
  6
CONTINUOUS
 10
156.5857090621
 20
46.0615155763
 11
156.6188424382
 21
46.0769191961
  0
LINE
  5
53E
100
AcDbEntity
  8
0
100
AcDbLine
 62
7
  6
CONTINUOUS
 10
156.108064317
 20
43.8173030023
 11
156.0749309409
 21
43.8018993825
  0
LINE
  5
53F
100
AcDbEntity
  8
TRASH
100
AcDbLine
 62
7
  6
CONTINUOUS
 10
155.7271850611
 20
45.412512311
 11
155.8271599073
 21
45.4591267242
  0
LINE
  5
540
100
AcDbEntity
  8
TRASH
100
AcDbLine
 62
7
  6
CONTINUOUS
 10
156.9665883181
 20
44.4663062676
 11
156.8666134718
 21
44.4196918543
  0
LINE
  5
541
100
AcDbEntity
  8
TRASH
100
AcDbLine
 62
7
  6
CONTINUOUS
 10
155.2018894194
 20
45.1675575074
 11
155.7271850611
 21
45.412512311
  0
LINE
  5
542
100
AcDbEntity
  8
TRASH
100
AcDbLine
 62
7
  6
CONTINUOUS
 10
157.4918839596
 20
44.7112610711
 11
156.9665883181
 21
44.4663062676
  0
LINE
  5
543
100
AcDbEntity
  8
0
100
AcDbLine
 62
7
  6
CONTINUOUS
 10
156.0990872196
 20
43.7860299846
 11
156.0893042231
 21
43.7817728668
  0
LINE
  5
544
100
AcDbEntity
  8
0
100
AcDbLine
 62
7
  6
CONTINUOUS
 10
156.1088986357
 20
43.7902430354
 11
156.0990872196
 21
43.7860299846
  0
LINE
  5
545
100
AcDbEntity
  8
0
100
AcDbLine
 62
7
  6
CONTINUOUS
 10
156.1187384714
 20
43.7944120192
 11
156.1088986357
 21
43.7902430354
  0
LINE
  5
546
100
AcDbEntity
  8
ASSI
100
AcDbLine
 62
7
  6
CONTINUOUS
 10
146.8468866895
 20
143.1894092893
 11
88.8968866895
 21
143.1894092893
  0
LINE
  5
547
100
AcDbEntity
  8
RACCORDO
100
AcDbLine
 62
7
  6
CONTINUOUS
 10
158.1423086048
 20
144.4846788997
 11
88.5514647743
 21
144.4846788997
  0
LINE
  5
548
100
AcDbEntity
  8
DRAFT
100
AcDbLine
 62
7
  6
CONTINUOUS
 10
157.8468866895
 20
144.5370440945
 11
147.8468866895
 21
144.5370440945
  0
LINE
  5
549
100
AcDbEntity
  8
RACCORDO
100
AcDbLine
 62
7
  6
CONTINUOUS
 10
158.2470389944
 20
144.5894092893
 11
157.8992518843
 21
144.5894092893
  0
LINE
  5
54A
100
AcDbEntity
  8
RACCORDO
100
AcDbLine
 62
7
  6
CONTINUOUS
 10
147.7945214947
 20
144.5894092893
 11
88.4467343847
 21
144.5894092893
  0
LWPOLYLINE
  5
54B
100
AcDbEntity
  8
0
100
AcDbPolyline
 62
7
  6
CONTINUOUS
 90
7
 70
0
 10
156.6046948938
 20
133.2820886628
 10
156.5998351012
 20
133.2842678043
 10
156.5949418939
 20
133.2863968458
 10
156.5900152719
 20
133.2884757874
 10
156.5850552351
 20
133.290504629
 10
156.5800617837
 20
133.2924833707
 10
156.5750349176
 20
133.2944120124
  0
LWPOLYLINE
  5
54C
100
AcDbEntity
  8
0
100
AcDbPolyline
 62
7
  6
CONTINUOUS
 90
7
 70
0
 10
156.0890784853
 20
135.5967299157
 10
156.0939382779
 20
135.5945507743
 10
156.0988314852
 20
135.5924217328
 10
156.1037581072
 20
135.5903427912
 10
156.1087181439
 20
135.5883139496
 10
156.1137115953
 20
135.5863352079
 10
156.1187384614
 20
135.5844065661
  0
LINE
  5
54D
100
AcDbEntity
  8
0
100
AcDbLine
 62
7
  6
CONTINUOUS
 10
156.6188423875
 20
133.3018992912
 11
156.585709072
 21
133.3173029956
  0
LINE
  5
54E
100
AcDbEntity
  8
0
100
AcDbLine
 62
7
  6
CONTINUOUS
 10
156.0749309916
 20
135.5769192874
 11
156.1080643071
 21
135.561515583
  0
LINE
  5
54F
100
AcDbEntity
  8
TRASH
100
AcDbLine
 62
7
  6
CONTINUOUS
 10
155.8271632057
 20
133.9196858054
 11
155.2018894127
 21
134.2112610612
  0
LINE
  5
550
100
AcDbEntity
  8
TRASH
100
AcDbLine
 62
7
  6
CONTINUOUS
 10
156.8666101734
 20
134.9591327731
 11
157.4918839664
 21
134.6675575174
  0
LINE
  5
551
100
AcDbEntity
  8
0
100
AcDbLine
 62
7
  6
CONTINUOUS
 10
155.774923312
 20
133.8674459077
 11
155.7261612859
 21
133.8920034868
  0
LINE
  5
552
100
AcDbEntity
  8
0
100
AcDbLine
 62
7
  6
CONTINUOUS
 10
156.9188500671
 20
135.0113726708
 11
156.9676120931
 21
134.9868150918
  0
LINE
  5
553
100
AcDbEntity
  8
0
100
AcDbLine
 62
7
  6
CONTINUOUS
 10
155.7261612859
 20
133.8920034868
 11
155.6776103815
 21
133.9167404895
  0
LINE
  5
554
100
AcDbEntity
  8
0
100
AcDbLine
 62
7
  6
CONTINUOUS
 10
156.9676120931
 20
134.9868150918
 11
157.0161629976
 21
134.9620780891
  0
LINE
  5
555
100
AcDbEntity
  8
0
100
AcDbLine
 62
7
  6
CONTINUOUS
 10
155.6776103815
 20
133.9167404895
 11
155.6294566686
 21
133.9415446624
  0
LINE
  5
556
100
AcDbEntity
  8
0
100
AcDbLine
 62
7
  6
CONTINUOUS
 10
157.0161629976
 20
134.9620780891
 11
157.0643167105
 21
134.9372739161
  0
LINE
  5
557
100
AcDbEntity
  8
0
100
AcDbLine
 62
7
  6
CONTINUOUS
 10
155.6294566686
 20
133.9415446624
 11
155.5651108373
 21
133.9750875738
  0
LINE
  5
558
100
AcDbEntity
  8
0
100
AcDbLine
 62
7
  6
CONTINUOUS
 10
157.0643167105
 20
134.9372739161
 11
157.1286625418
 21
134.9037310047
  0
LINE
  5
559
100
AcDbEntity
  8
0
100
AcDbLine
 62
7
  6
CONTINUOUS
 10
155.5651108373
 20
133.9750875738
 11
155.4608760759
 21
134.03028903
  0
LINE
  5
55A
100
AcDbEntity
  8
0
100
AcDbLine
 62
7
  6
CONTINUOUS
 10
157.1286625418
 20
134.9037310047
 11
157.2328973032
 21
134.8485295486
  0
LINE
  5
55B
100
AcDbEntity
  8
0
100
AcDbLine
 62
7
  6
CONTINUOUS
 10
155.4608760759
 20
134.03028903
 11
155.4019526209
 21
134.0619430173
  0
LINE
  5
55C
100
AcDbEntity
  8
0
100
AcDbLine
 62
7
  6
CONTINUOUS
 10
157.2328973032
 20
134.8485295486
 11
157.2918207581
 21
134.8168755612
  0
LINE
  5
55D
100
AcDbEntity
  8
0
100
AcDbLine
 62
7
  6
CONTINUOUS
 10
155.4019526209
 20
134.0619430173
 11
155.3365744146
 21
134.0974157254
  0
LINE
  5
55E
100
AcDbEntity
  8
0
100
AcDbLine
 62
7
  6
CONTINUOUS
 10
157.2918207581
 20
134.8168755612
 11
157.3571989645
 21
134.7814028531
  0
LWPOLYLINE
  5
55F
100
AcDbEntity
  8
0
100
AcDbPolyline
 62
7
  6
CONTINUOUS
 90
3
 70
0
 10
155.3365744146
 20
134.0974157254
 10
155.2367673824
 20
134.1521423131
 10
155.2093766914
 20
134.1674535913
  0
LWPOLYLINE
  5
560
100
AcDbEntity
  8
0
100
AcDbPolyline
 62
7
  6
CONTINUOUS
 90
3
 70
0
 10
157.3571989645
 20
134.7814028531
 10
157.4570059967
 20
134.7266762655
 10
157.4843966876
 20
134.7113649872
  0
LINE
  5
561
100
AcDbEntity
  8
0
100
AcDbLine
 62
7
  6
CONTINUOUS
 10
155.1895660631
 20
134.181601085
 11
155.2093766914
 21
134.1674535913
  0
LINE
  5
562
100
AcDbEntity
  8
0
100
AcDbLine
 62
7
  6
CONTINUOUS
 10
157.4843966876
 20
134.7113649872
 11
157.504207316
 21
134.6972174935
  0
LINE
  5
563
100
AcDbEntity
  8
0
100
AcDbLine
 62
7
  6
CONTINUOUS
 10
156.8666101737
 20
133.9196858051
 11
156.9188500519
 21
133.8674460106
  0
LINE
  5
564
100
AcDbEntity
  8
0
100
AcDbLine
 62
7
  6
CONTINUOUS
 10
155.8271632054
 20
134.9591327734
 11
155.7749233272
 21
135.011372568
  0
LINE
  5
565
100
AcDbEntity
  8
DRAFT
100
AcDbLine
 62
7
  6
CONTINUOUS
 10
147.7945214947
 20
144.5894092893
 11
147.8468866895
 21
144.5370440945
  0
LINE
  5
566
100
AcDbEntity
  8
0
100
AcDbLine
 62
7
  6
CONTINUOUS
 10
156.6044691641
 20
135.5970457004
 11
156.6188424382
 21
135.5769191961
  0
CIRCLE
  5
567
100
AcDbEntity
  8
DRAFT
100
AcDbCircle
 62
7
  6
CONTINUOUS
 10
90.3468866895
 20
44.9394092893
 40
2.2849101299
  0
CIRCLE
  5
568
100
AcDbEntity
  8
0
100
AcDbCircle
 62
7
  6
CONTINUOUS
 10
90.3468866895
 20
44.9394092893
 40
2.0
  0
ARC
  5
569
100
AcDbEntity
  8
0
100
AcDbCircle
 62
7
  6
CONTINUOUS
 10
94.8468866895
 20
38.7894092893
 40
2.0
100
AcDbArc
 50
270.0
 51
90.0
  0
ARC
  5
56A
100
AcDbEntity
  8
0
100
AcDbCircle
 62
7
  6
CONTINUOUS
 10
92.8468866895
 20
38.7894092893
 40
2.0
100
AcDbArc
 50
90.0
 51
270.0
  0
CIRCLE
  5
56B
100
AcDbEntity
  8
0
100
AcDbCircle
 62
253
  6
CONTINUOUS
 10
90.3468866895
 20
44.9394092893
 40
1.9612903084
  0
ARC
  5
56C
100
AcDbEntity
  8
0
100
AcDbCircle
 62
7
  6
CONTINUOUS
 10
90.3468866895
 20
44.9394092893
 40
1.3031234998
100
AcDbArc
 50
79.9178551314
 51
100.0831260407
  0
ARC
  5
56D
100
AcDbEntity
  8
0
100
AcDbCircle
 62
7
  6
CONTINUOUS
 10
90.3468866895
 20
44.9394092893
 40
1.3031234998
100
AcDbArc
 50
259.9178553958
 51
280.0831260407
  0
ARC
  5
56E
100
AcDbEntity
  8
0
100
AcDbCircle
 62
7
  6
CONTINUOUS
 10
90.3468866895
 20
44.9394092893
 40
1.3031234998
100
AcDbArc
 50
349.9178551819
 51
10.0831260407
  0
ARC
  5
56F
100
AcDbEntity
  8
0
100
AcDbCircle
 62
7
  6
CONTINUOUS
 10
90.3468866895
 20
44.9394092893
 40
1.3031234998
100
AcDbArc
 50
169.9178553621
 51
190.0831260407
  0
ARC
  5
570
100
AcDbEntity
  8
TRASH
100
AcDbCircle
 62
7
  6
CONTINUOUS
 10
90.3468866895
 20
44.9394092893
 40
1.1472328625
100
AcDbArc
 50
167.9845776281
 51
192.0153200785
  0
ARC
  5
571
100
AcDbEntity
  8
TRASH
100
AcDbCircle
 62
7
  6
CONTINUOUS
 10
90.3468866895
 20
44.9394092893
 40
1.1472328625
100
AcDbArc
 50
347.9845776281
 51
12.0153200785
  0
ARC
  5
572
100
AcDbEntity
  8
TRASH
100
AcDbCircle
 62
7
  6
CONTINUOUS
 10
90.3468866895
 20
44.9394092893
 40
1.1472328182
100
AcDbArc
 50
257.9846799215
 51
282.0154223719
  0
ARC
  5
573
100
AcDbEntity
  8
TRASH
100
AcDbCircle
 62
7
  6
CONTINUOUS
 10
90.3468866895
 20
44.9394092893
 40
1.1472328182
100
AcDbArc
 50
77.9846799215
 51
102.0154223719
  0
ARC
  5
574
100
AcDbEntity
  8
DRAFT
100
AcDbCircle
 62
7
  6
CONTINUOUS
 10
90.3468866895
 20
134.4394092893
 40
2.2849101299
100
AcDbArc
 50
129.3901947656
 51
360.0
  0
ARC
  5
575
100
AcDbEntity
  8
DRAFT
100
AcDbCircle
 62
7
  6
CONTINUOUS
 10
90.3468866895
 20
134.4394092893
 40
2.25
100
AcDbArc
 50
315.7440798202
 51
360.0
  0
CIRCLE
  5
576
100
AcDbEntity
  8
0
100
AcDbCircle
 62
7
  6
CONTINUOUS
 10
90.3468866895
 20
134.4394092893
 40
2.0
  0
CIRCLE
  5
577
100
AcDbEntity
  8
0
100
AcDbCircle
 62
253
  6
CONTINUOUS
 10
90.3468866895
 20
134.4394092893
 40
1.9612903084
  0
ARC
  5
578
100
AcDbEntity
  8
0
100
AcDbCircle
 62
7
  6
CONTINUOUS
 10
90.3468866895
 20
134.4394092893
 40
1.3031234998
100
AcDbArc
 50
79.9178551314
 51
100.0831260407
  0
ARC
  5
579
100
AcDbEntity
  8
0
100
AcDbCircle
 62
7
  6
CONTINUOUS
 10
90.3468866895
 20
134.4394092893
 40
1.3031234998
100
AcDbArc
 50
259.9178553958
 51
280.0831260407
  0
ARC
  5
57A
100
AcDbEntity
  8
0
100
AcDbCircle
 62
7
  6
CONTINUOUS
 10
90.3468866895
 20
134.4394092893
 40
1.3031234998
100
AcDbArc
 50
349.9178551819
 51
10.0831260407
  0
ARC
  5
57B
100
AcDbEntity
  8
0
100
AcDbCircle
 62
7
  6
CONTINUOUS
 10
90.3468866895
 20
134.4394092893
 40
1.3031234998
100
AcDbArc
 50
169.9178553621
 51
190.0831260407
  0
ARC
  5
57C
100
AcDbEntity
  8
TRASH
100
AcDbCircle
 62
7
  6
CONTINUOUS
 10
90.3468866895
 20
134.4394092893
 40
1.1472328625
100
AcDbArc
 50
167.9845776281
 51
192.0153200785
  0
ARC
  5
57D
100
AcDbEntity
  8
TRASH
100
AcDbCircle
 62
7
  6
CONTINUOUS
 10
90.3468866895
 20
134.4394092893
 40
1.1472328625
100
AcDbArc
 50
347.9845776281
 51
12.0153200785
  0
ARC
  5
57E
100
AcDbEntity
  8
TRASH
100
AcDbCircle
 62
7
  6
CONTINUOUS
 10
90.3468866895
 20
134.4394092893
 40
1.1472328182
100
AcDbArc
 50
257.9846799215
 51
282.0154223719
  0
ARC
  5
57F
100
AcDbEntity
  8
TRASH
100
AcDbCircle
 62
7
  6
CONTINUOUS
 10
90.3468866895
 20
134.4394092893
 40
1.1472328182
100
AcDbArc
 50
77.9846799215
 51
102.0154223719
  0
ARC
  5
580
100
AcDbEntity
  8
DRAFT
100
AcDbCircle
 62
7
  6
CONTINUOUS
 10
156.3468866895
 20
44.9394092893
 40
2.2849101299
100
AcDbArc
 50
309.3901947656
 51
180.0
  0
ARC
  5
581
100
AcDbEntity
  8
DRAFT
100
AcDbCircle
 62
7
  6
CONTINUOUS
 10
156.3468866895
 20
44.9394092893
 40
2.25
100
AcDbArc
 50
135.7440798202
 51
180.0
  0
CIRCLE
  5
582
100
AcDbEntity
  8
0
100
AcDbCircle
 62
7
  6
CONTINUOUS
 10
156.3468866895
 20
44.9394092893
 40
2.0
  0
CIRCLE
  5
583
100
AcDbEntity
  8
0
100
AcDbCircle
 62
253
  6
CONTINUOUS
 10
156.3468866895
 20
44.9394092893
 40
1.9612903084
  0
ARC
  5
584
100
AcDbEntity
  8
0
100
AcDbCircle
 62
7
  6
CONTINUOUS
 10
156.3468866895
 20
44.9394092893
 40
1.3031234998
100
AcDbArc
 50
79.9178551314
 51
100.0831260407
  0
ARC
  5
585
100
AcDbEntity
  8
0
100
AcDbCircle
 62
7
  6
CONTINUOUS
 10
156.3468866895
 20
44.9394092893
 40
1.3031234998
100
AcDbArc
 50
259.9178553958
 51
280.0831260407
  0
ARC
  5
586
100
AcDbEntity
  8
0
100
AcDbCircle
 62
7
  6
CONTINUOUS
 10
156.3468866895
 20
44.9394092893
 40
1.3031234998
100
AcDbArc
 50
349.9178551819
 51
10.0831260407
  0
ARC
  5
587
100
AcDbEntity
  8
0
100
AcDbCircle
 62
7
  6
CONTINUOUS
 10
156.3468866895
 20
44.9394092893
 40
1.3031234998
100
AcDbArc
 50
169.9178553621
 51
190.0831260407
  0
ARC
  5
588
100
AcDbEntity
  8
TRASH
100
AcDbCircle
 62
7
  6
CONTINUOUS
 10
156.3468866895
 20
44.9394092893
 40
1.1472328625
100
AcDbArc
 50
167.9845776281
 51
192.0153200785
  0
ARC
  5
589
100
AcDbEntity
  8
TRASH
100
AcDbCircle
 62
7
  6
CONTINUOUS
 10
156.3468866895
 20
44.9394092893
 40
1.1472328625
100
AcDbArc
 50
347.9845776281
 51
12.0153200785
  0
ARC
  5
58A
100
AcDbEntity
  8
TRASH
100
AcDbCircle
 62
7
  6
CONTINUOUS
 10
156.3468866895
 20
44.9394092893
 40
1.1472328182
100
AcDbArc
 50
257.9846799215
 51
282.0154223719
  0
ARC
  5
58B
100
AcDbEntity
  8
TRASH
100
AcDbCircle
 62
7
  6
CONTINUOUS
 10
156.3468866895
 20
44.9394092893
 40
1.1472328182
100
AcDbArc
 50
77.9846799215
 51
102.0154223719
  0
CIRCLE
  5
58C
100
AcDbEntity
  8
DRAFT
100
AcDbCircle
 62
7
  6
CONTINUOUS
 10
156.3468866895
 20
134.4394092893
 40
2.2849101299
  0
CIRCLE
  5
58D
100
AcDbEntity
  8
0
100
AcDbCircle
 62
7
  6
CONTINUOUS
 10
156.3468866895
 20
134.4394092893
 40
2.0
  0
ARC
  5
58E
100
AcDbEntity
  8
0
100
AcDbCircle
 62
7
  6
CONTINUOUS
 10
153.8468866895
 20
140.5894092893
 40
2.0
100
AcDbArc
 50
270.0
 51
90.0
  0
ARC
  5
58F
100
AcDbEntity
  8
0
100
AcDbCircle
 62
7
  6
CONTINUOUS
 10
151.8468866895
 20
140.5894092893
 40
2.0
100
AcDbArc
 50
90.0
 51
270.0
  0
CIRCLE
  5
590
100
AcDbEntity
  8
0
100
AcDbCircle
 62
253
  6
CONTINUOUS
 10
156.3468866895
 20
134.4394092893
 40
1.9612903084
  0
ARC
  5
591
100
AcDbEntity
  8
0
100
AcDbCircle
 62
7
  6
CONTINUOUS
 10
156.3468866895
 20
134.4394092893
 40
1.3031234998
100
AcDbArc
 50
79.9178551314
 51
100.0831260407
  0
ARC
  5
592
100
AcDbEntity
  8
0
100
AcDbCircle
 62
7
  6
CONTINUOUS
 10
156.3468866895
 20
134.4394092893
 40
1.3031234998
100
AcDbArc
 50
259.9178553958
 51
280.0831260407
  0
ARC
  5
593
100
AcDbEntity
  8
0
100
AcDbCircle
 62
7
  6
CONTINUOUS
 10
156.3468866895
 20
134.4394092893
 40
1.3031234998
100
AcDbArc
 50
349.9178551819
 51
10.0831260407
  0
ARC
  5
594
100
AcDbEntity
  8
0
100
AcDbCircle
 62
7
  6
CONTINUOUS
 10
156.3468866895
 20
134.4394092893
 40
1.3031234998
100
AcDbArc
 50
169.9178553621
 51
190.0831260407
  0
ARC
  5
595
100
AcDbEntity
  8
TRASH
100
AcDbCircle
 62
7
  6
CONTINUOUS
 10
156.3468866895
 20
134.4394092893
 40
1.1472328625
100
AcDbArc
 50
167.9845776281
 51
192.0153200785
  0
ARC
  5
596
100
AcDbEntity
  8
TRASH
100
AcDbCircle
 62
7
  6
CONTINUOUS
 10
156.3468866895
 20
134.4394092893
 40
1.1472328625
100
AcDbArc
 50
347.9845776281
 51
12.0153200785
  0
ARC
  5
597
100
AcDbEntity
  8
TRASH
100
AcDbCircle
 62
7
  6
CONTINUOUS
 10
156.3468866895
 20
134.4394092893
 40
1.1472328182
100
AcDbArc
 50
257.9846799215
 51
282.0154223719
  0
ARC
  5
598
100
AcDbEntity
  8
TRASH
100
AcDbCircle
 62
7
  6
CONTINUOUS
 10
156.3468866895
 20
134.4394092893
 40
1.1472328182
100
AcDbArc
 50
77.9846799215
 51
102.0154223719
  0
ELLIPSE
  5
599
100
AcDbEntity
  8
RACCORDO
100
AcDbEllipse
 62
7
  6
CONTINUOUS
 10
118.962596248
 20
73.2894092893
 30
0.0
 11
-0.0
 21
0.3
 31
0.0
 40
0.0174550649
 41
-3.1415926536
 42
-1.5707963268
  0
ELLIPSE
  5
59A
100
AcDbEntity
  8
RACCORDO
100
AcDbEllipse
 62
7
  6
CONTINUOUS
 10
127.7311771311
 20
73.2894092893
 30
0.0
 11
-0.0
 21
0.3
 31
0.0
 40
0.0174550649
 41
-4.7123889804
 42
-3.1415926536
  0
ELLIPSE
  5
59B
100
AcDbEntity
  8
RACCORDO
100
AcDbEllipse
 62
7
  6
CONTINUOUS
 10
119.4469628535
 20
40.0894854533
 30
0.0
 11
0.3536610946
 21
0.3536610946
 31
0.0
 40
0.9996954599
 41
-3.9268385237
 42
-2.3563467834
  0
ELLIPSE
  5
59C
100
AcDbEntity
  8
RACCORDO
100
AcDbEllipse
 62
7
  6
CONTINUOUS
 10
127.2468105255
 20
40.0894854533
 30
0.0
 11
0.3536610946
 21
-0.3536610946
 31
0.0
 40
0.9996954599
 41
-0.7852458701
 42
0.7852458701
  0
ELLIPSE
  5
59D
100
AcDbEntity
  8
RACCORDO
100
AcDbEllipse
 62
7
  6
CONTINUOUS
 10
119.5220196327
 20
40.1645422325
 30
0.0
 11
-0.3536610946
 21
-0.3536610946
 31
0.0
 40
0.9996954599
 41
-0.7852458701
 42
0.7852458701
  0
ELLIPSE
  5
59E
100
AcDbEntity
  8
RACCORDO
100
AcDbEllipse
 62
7
  6
CONTINUOUS
 10
127.1717537463
 20
40.1645422325
 30
0.0
 11
0.3536610946
 21
-0.3536610946
 31
0.0
 40
0.9996954599
 41
-0.7852458701
 42
0.7852458701
  0
ELLIPSE
  5
59F
100
AcDbEntity
  8
RACCORDO
100
AcDbEllipse
 62
7
  6
CONTINUOUS
 10
88.7321893909
 20
124.5894092893
 30
0.0
 11
0.0
 21
1.0
 31
0.0
 40
0.0174550649
 41
-0.0
 42
1.5707963268
  0
ELLIPSE
  5
5A0
100
AcDbEntity
  8
RACCORDO
100
AcDbEllipse
 62
7
  6
CONTINUOUS
 10
88.7321893909
 20
114.7894092893
 30
0.0
 11
0.0
 21
1.0
 31
0.0
 40
0.0174550649
 41
-4.7123889804
 42
-3.1415926536
  0
ELLIPSE
  5
5A1
100
AcDbEntity
  8
RACCORDO
100
AcDbEllipse
 62
7
  6
CONTINUOUS
 10
88.7321893909
 20
64.5894092893
 30
0.0
 11
0.0
 21
1.0
 31
0.0
 40
0.0174550649
 41
-0.0
 42
1.5707963268
  0
ELLIPSE
  5
5A2
100
AcDbEntity
  8
RACCORDO
100
AcDbEllipse
 62
7
  6
CONTINUOUS
 10
88.7321893909
 20
54.7894092893
 30
0.0
 11
0.0
 21
1.0
 31
0.0
 40
0.0174550649
 41
-4.7123889804
 42
-3.1415926536
  0
ELLIPSE
  5
5A3
100
AcDbEntity
  8
RACCORDO
100
AcDbEllipse
 62
7
  6
CONTINUOUS
 10
157.9615839881
 20
64.5894092893
 30
0.0
 11
0.0
 21
1.0
 31
0.0
 40
0.0174550649
 41
-1.5707963268
 42
-0.0
  0
ELLIPSE
  5
5A4
100
AcDbEntity
  8
RACCORDO
100
AcDbEllipse
 62
7
  6
CONTINUOUS
 10
157.9615839881
 20
114.7894092893
 30
0.0
 11
0.0
 21
1.0
 31
0.0
 40
0.0174550649
 41
-3.1415926536
 42
-1.5707963268
  0
ELLIPSE
  5
5A5
100
AcDbEntity
  8
RACCORDO
100
AcDbEllipse
 62
7
  6
CONTINUOUS
 10
157.9615839881
 20
124.5894092893
 30
0.0
 11
0.0
 21
1.0
 31
0.0
 40
0.0174550649
 41
-1.5707963268
 42
-0.0
  0
ELLIPSE
  5
5A6
100
AcDbEntity
  8
RACCORDO
100
AcDbEllipse
 62
7
  6
CONTINUOUS
 10
157.9615839881
 20
54.7894092893
 30
0.0
 11
-0.0
 21
1.0
 31
0.0
 40
0.0174550649
 41
-3.1415926536
 42
-1.5707963268
  0
ELLIPSE
  5
5A7
100
AcDbEntity
  8
RACCORDO
100
AcDbEllipse
 62
7
  6
CONTINUOUS
 10
87.5306710012
 20
124.5894092893
 30
0.0
 11
0.0
 21
1.0
 31
0.0
 40
0.0174550649
 41
-1.5707963268
 42
0.0
  0
ELLIPSE
  5
5A8
100
AcDbEntity
  8
RACCORDO
100
AcDbEllipse
 62
7
  6
CONTINUOUS
 10
87.5306710012
 20
114.7894092893
 30
0.0
 11
0.0
 21
1.0
 31
0.0
 40
0.0174550649
 41
-3.1415926536
 42
-1.5707963268
  0
ELLIPSE
  5
5A9
100
AcDbEntity
  8
RACCORDO
100
AcDbEllipse
 62
7
  6
CONTINUOUS
 10
87.5306710012
 20
64.5894092893
 30
0.0
 11
-0.0
 21
1.0
 31
0.0
 40
0.0174550649
 41
-1.5707963268
 42
0.0
  0
ELLIPSE
  5
5AA
100
AcDbEntity
  8
RACCORDO
100
AcDbEllipse
 62
7
  6
CONTINUOUS
 10
87.5306710012
 20
54.7894092893
 30
0.0
 11
-0.0
 21
1.0
 31
0.0
 40
0.0174550649
 41
-3.1415926536
 42
-1.5707963268
  0
ELLIPSE
  5
5AB
100
AcDbEntity
  8
RACCORDO
100
AcDbEllipse
 62
7
  6
CONTINUOUS
 10
159.1631023779
 20
114.7894092893
 30
0.0
 11
0.0
 21
1.0
 31
0.0
 40
0.0174550649
 41
-4.7123889804
 42
-3.1415926536
  0
ELLIPSE
  5
5AC
100
AcDbEntity
  8
RACCORDO
100
AcDbEllipse
 62
7
  6
CONTINUOUS
 10
159.1631023779
 20
124.5894092893
 30
0.0
 11
-0.0
 21
1.0
 31
0.0
 40
0.0174550649
 41
0.0
 42
1.5707963268
  0
ELLIPSE
  5
5AD
100
AcDbEntity
  8
RACCORDO
100
AcDbEllipse
 62
7
  6
CONTINUOUS
 10
159.1631023779
 20
64.5894092893
 30
0.0
 11
-0.0
 21
1.0
 31
0.0
 40
0.0174550649
 41
0.0
 42
1.5707963268
  0
ELLIPSE
  5
5AE
100
AcDbEntity
  8
RACCORDO
100
AcDbEllipse
 62
7
  6
CONTINUOUS
 10
159.1631023779
 20
54.7894092893
 30
0.0
 11
-0.0
 21
1.0
 31
0.0
 40
0.0174550649
 41
-4.7123889804
 42
-3.1415926536
  0
ELLIPSE
  5
5AF
100
AcDbEntity
  8
RACCORDO
100
AcDbEllipse
 62
7
  6
CONTINUOUS
 10
88.4470390176
 20
35.7895616173
 30
0.0
 11
0.7073221892
 21
0.7073221892
 31
0.0
 40
0.9996954599
 41
-3.9268385237
 42
-2.3563467834
  0
ELLIPSE
  5
5B0
100
AcDbEntity
  8
RACCORDO
100
AcDbEllipse
 62
7
  6
CONTINUOUS
 10
158.2467343615
 20
35.7895616173
 30
0.0
 11
-0.7073221892
 21
0.7073221892
 31
0.0
 40
0.9996954599
 41
-3.9268385237
 42
-2.3563467834
  0
ELLIPSE
  5
5B1
100
AcDbEntity
  8
RACCORDO
100
AcDbEllipse
 62
7
  6
CONTINUOUS
 10
88.4470390176
 20
143.5892569612
 30
0.0
 11
0.7073221892
 21
-0.7073221892
 31
0.0
 40
0.9996954599
 41
2.3563467834
 42
3.9268385237
  0
ELLIPSE
  5
5B2
100
AcDbEntity
  8
RACCORDO
100
AcDbEllipse
 62
7
  6
CONTINUOUS
 10
158.2467343615
 20
143.5892569612
 30
0.0
 11
0.7073221892
 21
0.7073221892
 31
0.0
 40
0.9996954599
 41
-0.7852458701
 42
0.7852458701
  0
ELLIPSE
  5
5B3
100
AcDbEntity
  8
RACCORDO
100
AcDbEllipse
 62
7
  6
CONTINUOUS
 10
88.5517694071
 20
143.4845265717
 30
0.0
 11
-0.7073221892
 21
0.7073221892
 31
0.0
 40
0.9996954599
 41
-0.7852458701
 42
0.7852458701
  0
ELLIPSE
  5
5B4
100
AcDbEntity
  8
RACCORDO
100
AcDbEllipse
 62
7
  6
CONTINUOUS
 10
158.1420039719
 20
143.4845265717
 30
0.0
 11
-0.7073221892
 21
-0.7073221892
 31
0.0
 40
0.9996954599
 41
2.3563467834
 42
3.9268385237
  0
ELLIPSE
  5
5B5
100
AcDbEntity
  8
RACCORDO
100
AcDbEllipse
 62
7
  6
CONTINUOUS
 10
118.4985527394
 20
90.6437075168
 30
0.0
 11
-0.0
 21
0.5
 31
0.0
 40
0.2679491924
 41
0.034906585
 42
1.5707963268
  0
ELLIPSE
  5
5B6
100
AcDbEntity
  8
RACCORDO
100
AcDbEllipse
 62
7
  6
CONTINUOUS
 10
118.4985527394
 20
88.7351110618
 30
0.0
 11
0.0
 21
0.5
 31
0.0
 40
0.2679491924
 41
-4.7123889804
 42
-3.1764992386
  0
ELLIPSE
  5
5B7
100
AcDbEntity
  8
RACCORDO
100
AcDbEllipse
 62
7
  6
CONTINUOUS
 10
117.3922836899
 20
90.6437075168
 30
0.0
 11
-0.0
 21
0.5
 31
0.0
 40
0.0349207695
 41
-1.5707963268
 42
-0.034906585
  0
ELLIPSE
  5
5B8
100
AcDbEntity
  8
RACCORDO
100
AcDbEllipse
 62
7
  6
CONTINUOUS
 10
117.3922836899
 20
88.7351110618
 30
0.0
 11
0.0
 21
0.5
 31
0.0
 40
0.0349207695
 41
-3.1066860685
 42
-1.5707963268
  0
ELLIPSE
  5
5B9
100
AcDbEntity
  8
RACCORDO
100
AcDbEllipse
 62
7
  6
CONTINUOUS
 10
129.3014896892
 20
88.7351110618
 30
0.0
 11
0.0
 21
0.5
 31
0.0
 40
0.0349207695
 41
-4.7123889804
 42
-3.1764992386
  0
ELLIPSE
  5
5BA
100
AcDbEntity
  8
RACCORDO
100
AcDbEllipse
 62
7
  6
CONTINUOUS
 10
129.3014896892
 20
90.6437075168
 30
0.0
 11
-0.0
 21
0.5
 31
0.0
 40
0.0349207695
 41
0.034906585
 42
1.5707963268
  0
ELLIPSE
  5
5BB
100
AcDbEntity
  8
RACCORDO
100
AcDbEllipse
 62
7
  6
CONTINUOUS
 10
128.1952206397
 20
88.7351110618
 30
0.0
 11
-0.0
 21
0.5
 31
0.0
 40
0.2679491924
 41
-3.1066860686
 42
-1.5707963268
  0
ELLIPSE
  5
5BC
100
AcDbEntity
  8
RACCORDO
100
AcDbEllipse
 62
7
  6
CONTINUOUS
 10
128.1952206397
 20
90.6437075168
 30
0.0
 11
-0.0
 21
0.5
 31
0.0
 40
0.2679491924
 41
-1.5707963268
 42
-0.034906585
  0
ELLIPSE
  5
5BD
100
AcDbEntity
  8
RACCORDO
100
AcDbEllipse
 62
7
  6
CONTINUOUS
 10
88.5517694071
 20
35.8942920069
 30
0.0
 11
0.7073221892
 21
0.7073221892
 31
0.0
 40
0.9996954599
 41
2.3563467834
 42
3.9268385237
  0
ELLIPSE
  5
5BE
100
AcDbEntity
  8
RACCORDO
100
AcDbEllipse
 62
7
  6
CONTINUOUS
 10
158.1420039719
 20
35.8942920069
 30
0.0
 11
0.7073221892
 21
-0.7073221892
 31
0.0
 40
0.9996954599
 41
-0.7852458701
 42
0.7852458701
  0
ENDSEC
  0
SECTION
  2
OBJECTS
  0
DICTIONARY
  5
C
100
AcDbDictionary
280
0
281
1
  3
ACAD_GROUP
350
D
  3
ACAD_MLINESTYLE
350
17
  3
ACAD_LAYOUT
350
1A
  3
ACAD_PLOTSETTINGS
350
19
  3
ACAD_PLOTSTYLENAME
350
E
  0
DICTIONARY
  5
D
102
{ACAD_REACTORS
330
C
102
}
100
AcDbDictionary
280
0
281
1
  0
ACDBDICTIONARYWDFLT
  5
E
102
{ACAD_REACTORS
330
C
102
}
100
AcDbDictionary
281
1
  3
Normal
350
F
100
AcDbDictionaryWithDefault
340
F
  0
DICTIONARY
  5
17
102
{ACAD_REACTORS
330
C
102
}
100
AcDbDictionary
280
0
281
1
  3
Standard
350
18
  0
DICTIONARY
  5
19
102
{ACAD_REACTORS
330
C
102
}
100
AcDbDictionary
281
1
  0
DICTIONARY
  5
1A
102
{ACAD_REACTORS
330
C
102
}
100
AcDbDictionary
281
1
  3
Model
350
5BF
  3
Layout1
350
5C0
  0
ACDBPLACEHOLDER
  5
F
102
{ACAD_REACTORS
330
E
102
}
  0
MLINESTYLE
  5
18
102
{ACAD_REACTORS
330
17
102
}
100
AcDbMlineStyle
  2
STANDARD
 70
0
  3

 62
256
 51
90.0
 52
90.0
 71
2
 49
0.5
 62
256
  6
BYLAYER
 49
-0.5
 62
256
  6
BYLAYER
  0
LAYOUT
  5
5BF
102
{ACAD_REACTORS
330
1A
102
}
100
AcDbPlotSettings
  1

  2
none_device
  4
ISO_A4_(297.00_x_210.00_MM)
  6

 40
0.0
 41
0.0
 42
0.0
 43
0.0
 44
297.0
 45
210.0
 46
0.0
 47
0.0
 48
0.0
 49
0.0
140
0.0
141
0.0
142
1.0
143
1.0
 70
1024
 72
1
 73
0
 74
0
  7

 75
0
147
1.0
148
0.0
149
0.0
100
AcDbLayout
  1
Model
 70
0
 71
0
 10
0.0
 20
0.0
 11
297.0
 21
210.0
 12
0.0
 22
0.0
 32
0.0
 14
0.0
 24
0.0
 34
0.0
 15
0.0
 25
0.0
 35
0.0
146
0.0
 13
0.0
 23
0.0
 33
0.0
 16
1.0
 26
0.0
 36
0.0
 17
0.0
 27
1.0
 37
0.0
 76
0
330
221
345
0
346
0
  0
LAYOUT
  5
5C0
102
{ACAD_REACTORS
330
1A
102
}
100
AcDbPlotSettings
  1

  2
none_device
  4
ISO_A4_(297.00_x_210.00_MM)
  6

 40
0.0
 41
0.0
 42
0.0
 43
0.0
 44
297.0
 45
210.0
 46
0.0
 47
0.0
 48
0.0
 49
0.0
140
0.0
141
0.0
142
1.0
143
1.0
 70
0
 72
1
 73
0
 74
0
  7

 75
0
147
1.0
148
0.0
149
0.0
100
AcDbLayout
  1
Layout1
 70
0
 71
1
 10
0.0
 20
0.0
 11
297.0
 21
210.0
 12
0.0
 22
0.0
 32
0.0
 14
0.0
 24
0.0
 34
0.0
 15
0.0
 25
0.0
 35
0.0
146
0.0
 13
0.0
 23
0.0
 33
0.0
 16
1.0
 26
0.0
 36
0.0
 17
0.0
 27
1.0
 37
0.0
 76
0
330
222
345
0
346
0
  0
ENDSEC
  0
EOF
