0
SECTION
2
HEADER
9
$ACADVER
1
AC1015
9
$DWGCODEPAGE
3
ANSI_1252
9
$EXTMAX
10
297.0000000000
20
210.0000000000
30
0.0000000000
9
$EXTMIN
10
0.0000000000
20
0.0000000000
30
0.0000000000
9
$LIMMIN
10
0.0000000000
20
0.0000000000
9
$LIMMAX
10
297.0000000000
20
210.0000000000
9
$VIEWCTR
10
148.5000000000
20
105.0000000000
9
$VIEWSIZE
40
210.0000000000
9
$CLAYER
8
0
9
$LTSCALE
40
16.3350000000
9
$CELTYPE
6
BYLAYER
9
$DIMSCALE
40
1
9
$DIMASZ
40
3.0000000000
9
$DIMEXO
40
1.8562500000
9
$DIMDLI
40
11.2860000000
9
$DIMEXE
40
5.3460000000
9
$DIMCEN
40
2.6730000000
9
$DIMLFAC
40
1.0000000000
9
$DIMBLK
1
_FILLED
9
$DIMTXT
40
3.0000000000
9
$DIMTOL
70
1
9
$DIMLIM
70
0
9
$DIMTFAC
40
1.0000000000
9
$DIMTP
40
0.0100000000
9
$DIMTM
40
0.0100000000
9
$PDMODE
70
3
9
$PDSIZE
40
3.0000000000
9
$HANDSEED
5
2DD
9
$MEASUREMENT
70
1
9
$INSUNITS
70
4
0
ENDSEC
0
SECTION
2
CLASSES
0
CLASS
1
ACDBDICTIONARYWDFLT
2
AcDbDictionaryWithDefault
3
AutoCAD 2000
90
0
280
0
281
0
0
CLASS
1
ACDBPLACEHOLDER
2
AcDbPlaceHolder
3
AutoCAD 2000
90
0
280
0
281
0
0
CLASS
1
LAYOUT
2
AcDbLayout
3
AutoCAD 2000
90
0
280
0
281
0
0
ENDSEC
0
SECTION
2
TABLES
0
TABLE
2
VPORT
5
8
100
AcDbSymbolTable
70
2
0
VPORT
5
1F4
100
AcDbSymbolTableRecord
100
AcDbViewportTableRecord
2
*ACTIVE
70
0
10
0.0
20
0.0
11
1.0
21
1.0
12
148.5000000000
22
105.0000000000
13
0.0
23
0.0
14
1.0
24
1.0
15
0.0
25
0.0
16
0.0
26
0.0
36
1.0
17
0.0
27
0.0
37
0.0
40
210.0000000000
41
1.4142857143
42
50.0
43
0.0
44
0.0
50
0.0
51
0.0
71
0
72
100
73
1
74
1
75
0
76
0
77
0
78
0
0
ENDTAB
0
TABLE
2
LTYPE
5
5
100
AcDbSymbolTable
70
6
0
LTYPE
5
14
100
AcDbSymbolTableRecord
100
AcDbLinetypeTableRecord
2
BYBLOCK
70
0
3

72
65
73
0
40
0.0
0
LTYPE
5
15
100
AcDbSymbolTableRecord
100
AcDbLinetypeTableRecord
2
BYLAYER
70
0
3

72
65
73
0
40
0.0
0
LTYPE
5
16
100
AcDbSymbolTableRecord
100
AcDbLinetypeTableRecord
2
CONTINUOUS
70
64
3
Solid line
72
65
73
0
40
0
0
LTYPE
5
1F5
100
AcDbSymbolTableRecord
100
AcDbLinetypeTableRecord
2
CENTER
70
64
3
____ _ ____ _ ____ _ ____ _ ____ _ ____ _ ____
72
65
73
4
40
0.6
49
0.375
74
0
49
-0.075
74
0
49
0.075
74
0
49
-0.075
74
0
0
LTYPE
5
1F6
100
AcDbSymbolTableRecord
100
AcDbLinetypeTableRecord
2
HIDDEN
70
64
3
- - - - - - - - - - - - - - - - - - - -
72
65
73
2
40
0.2
49
0.1
74
0
49
-0.1
74
0
0
LTYPE
5
1F7
100
AcDbSymbolTableRecord
100
AcDbLinetypeTableRecord
2
PHANTOM
70
64
3
_____ _ _ _____ _ _ _____ _ _ _____
72
65
73
6
40
0.8
49
0.45
74
0
49
-0.05
74
0
49
0.1
74
0
49
-0.05
74
0
49
0.1
74
0
49
-0.05
74
0
0
LTYPE
5
1F8
100
AcDbSymbolTableRecord
100
AcDbLinetypeTableRecord
2
DOT
70
64
3
. . . . . . . . . . . . . . . . . . . .
72
65
73
2
40
0.2
49
0.1
74
0
49
-0.1
74
0
0
LTYPE
5
1F9
100
AcDbSymbolTableRecord
100
AcDbLinetypeTableRecord
2
DASHED
70
64
3
- - - - - - - - - - - - - - - - - - - -
72
65
73
2
40
0.2
49
0.1
74
0
49
-0.1
74
0
0
ENDTAB
0
TABLE
2
LAYER
5
2
100
AcDbSymbolTable
70
36
0
LAYER
5
10
100
AcDbSymbolTableRecord
100
AcDbLayerTableRecord
2
0
70
0
62
7
6
CONTINUOUS
370
-3
390
F
0
LAYER
5
1FA
100
AcDbSymbolTableRecord
100
AcDbLayerTableRecord
2
DEFAULT_1
70
0
62
7
6
CENTER
370
-3
390
F
0
LAYER
5
1FB
100
AcDbSymbolTableRecord
100
AcDbLayerTableRecord
2
DEFAULT_2
70
0
62
0
6
HIDDEN
370
-3
390
F
0
LAYER
5
1FC
100
AcDbSymbolTableRecord
100
AcDbLayerTableRecord
2
DEFAULT_3
70
0
62
7
6
PHANTOM
370
-3
390
F
0
LAYER
5
1FD
100
AcDbSymbolTableRecord
100
AcDbLayerTableRecord
2
_2D_DELETED_OBJS
70
0
62
7
6
CONTINUOUS
370
-3
390
F
0
LAYER
5
1FE
100
AcDbSymbolTableRecord
100
AcDbLayerTableRecord
2
_BLACK_HOLE
70
0
62
7
6
CONTINUOUS
370
-3
390
F
0
LAYER
5
1FF
100
AcDbSymbolTableRecord
100
AcDbLayerTableRecord
2
ASSI
70
0
62
7
6
CONTINUOUS
370
-3
390
F
0
LAYER
5
200
100
AcDbSymbolTableRecord
100
AcDbLayerTableRecord
2
COORDINATE
70
0
62
7
6
CONTINUOUS
370
-3
390
F
0
LAYER
5
201
100
AcDbSymbolTableRecord
100
AcDbLayerTableRecord
2
COPY_PUBLISH
70
0
62
7
6
CONTINUOUS
370
-3
390
F
0
LAYER
5
202
100
AcDbSymbolTableRecord
100
AcDbLayerTableRecord
2
COSMETIC
70
0
62
7
6
CONTINUOUS
370
-3
390
F
0
LAYER
5
203
100
AcDbSymbolTableRecord
100
AcDbLayerTableRecord
2
CURVE
70
0
62
7
6
CONTINUOUS
370
-3
390
F
0
LAYER
5
204
100
AcDbSymbolTableRecord
100
AcDbLayerTableRecord
2
IGES
70
0
62
7
6
CONTINUOUS
370
-3
390
F
0
LAYER
5
205
100
AcDbSymbolTableRecord
100
AcDbLayerTableRecord
2
IMPORT_IGES
70
0
62
7
6
CONTINUOUS
370
-3
390
F
0
LAYER
5
206
100
AcDbSymbolTableRecord
100
AcDbLayerTableRecord
2
PIANI
70
0
62
7
6
CONTINUOUS
370
-3
390
F
0
LAYER
5
207
100
AcDbSymbolTableRecord
100
AcDbLayerTableRecord
2
PUNTI
70
0
62
7
6
CONTINUOUS
370
-3
390
F
0
LAYER
5
208
100
AcDbSymbolTableRecord
100
AcDbLayerTableRecord
2
RACCORDO
70
0
62
7
6
CONTINUOUS
370
-3
390
F
0
LAYER
5
209
100
AcDbSymbolTableRecord
100
AcDbLayerTableRecord
2
TRASH
70
0
62
7
6
CONTINUOUS
370
-3
390
F
0
LAYER
5
20A
100
AcDbSymbolTableRecord
100
AcDbLayerTableRecord
2
___SHELL
70
0
62
7
6
CONTINUOUS
370
-3
390
F
0
ENDTAB
0
TABLE
2
STYLE
5
3
100
AcDbSymbolTable
70
1
0
STYLE
5
11
100
AcDbSymbolTableRecord
100
AcDbTextStyleTableRecord
2
STANDARD
70
0
40
0.0
41
0.8000000000
50
0.0
71
0
42
0.2
3
txt
4

0
ENDTAB
0
TABLE
2
VIEW
5
6
100
AcDbSymbolTable
70
0
0
ENDTAB
0
TABLE
2
UCS
5
7
100
AcDbSymbolTable
70
0
0
ENDTAB
0
TABLE
2
APPID
5
9
100
AcDbSymbolTable
70
1
0
APPID
5
20B
100
AcDbSymbolTableRecord
100
AcDbRegAppTableRecord
2
ACAD
70
0
0
ENDTAB
0
TABLE
2
BLOCK_RECORD
5
1
100
AcDbSymbolTable
70
0
0
BLOCK_RECORD
5
1F
100
AcDbSymbolTableRecord
100
AcDbBlockTableRecord
2
*MODEL_SPACE
0
BLOCK_RECORD
5
1B
100
AcDbSymbolTableRecord
100
AcDbBlockTableRecord
2
*PAPER_SPACE
0
ENDTAB
0
TABLE
2
DIMSTYLE
5
A
100
AcDbSymbolTable
70
1
100
AcDbDimStyleTable
71
0
0
DIMSTYLE
105
20C
100
AcDbSymbolTableRecord
100
AcDbDimStyleTableRecord
2
STANDARD
70
0
3

4

40
1.0
41
3.0000000000
42
0.0625
43
0.38
44
0.18
45
0.0
46
0.0
47
0.0100000000
48
0.0100000000
140
3.0000000000
141
0.09
142
0.0
143
25.4
144
1.0000000000
145
0.0
146
1.0000000000
147
0.09
71
1
72
0
73
0
74
0
75
0
76
0
77
1
78
8
170
0
171
2
172
0
173
0
174
0
175
0
176
0
177
0
178
0
270
2
271
2
272
2
273
2
274
2
275
0
280
0
281
0
282
0
283
1
284
8
285
0
286
0
287
3
288
0
340
11
0
ENDTAB
0
ENDSEC
0
SECTION
2
BLOCKS
0
BLOCK
5
20
100
AcDbEntity
8
0
100
AcDbBlockBegin
2
*MODEL_SPACE
70
0
10
0.0
20
0.0
30
0.0
3
*MODEL_SPACE
1

0
ENDBLK
5
21
100
AcDbEntity
8
0
100
AcDbBlockEnd
0
BLOCK
5
1C
100
AcDbEntity
8
0
100
AcDbBlockBegin
2
*PAPER_SPACE
70
0
10
0.0
20
0.0
30
0.0
3
*PAPER_SPACE
1

0
ENDBLK
5
1D
100
AcDbEntity
8
0
100
AcDbBlockEnd
0
ENDSEC
0
SECTION
2
ENTITIES
0
LINE
5
20D
100
AcDbEntity
8
0
100
AcDbLine
62
0
6
CONTINUOUS
10
-22.7115716789
20
-58.2828470413
11
-14.7777704900
21
-58.2828470413
0
LINE
5
20E
100
AcDbEntity
8
0
100
AcDbLine
62
0
6
CONTINUOUS
10
7.7222295100
20
-58.2828470413
11
22.6563024208
21
-58.2828470413
0
LINE
5
20F
100
AcDbEntity
8
0
100
AcDbLine
62
0
6
CONTINUOUS
10
-22.7115024900
20
-58.2168720444
11
-14.7777704900
21
-58.2168720444
0
LINE
5
210
100
AcDbEntity
8
0
100
AcDbLine
62
0
6
CONTINUOUS
10
7.7222295100
20
-58.2168720444
11
22.6561125100
21
-58.2168720444
0
LINE
5
211
100
AcDbEntity
8
0
100
AcDbLine
62
0
6
CONTINUOUS
10
7.2222295100
20
-58.1208399283
11
-14.2777704900
21
-58.1208399283
0
LINE
5
212
100
AcDbEntity
8
0
100
AcDbLine
62
0
6
CONTINUOUS
10
-22.7115024900
20
-58.0036912756
11
22.6561125100
21
-58.0036912756
0
LINE
5
213
100
AcDbEntity
8
0
100
AcDbLine
62
0
6
CONTINUOUS
10
-22.7115024900
20
-55.0055187946
11
22.6561125100
21
-55.0055187946
0
LINE
5
214
100
AcDbEntity
8
0
100
AcDbLine
62
0
6
CONTINUOUS
10
31.6844014951
20
-52.5168705027
11
-31.7397914642
21
-52.5168705027
0
LINE
5
215
100
AcDbEntity
8
0
100
AcDbLine
62
0
6
CONTINUOUS
10
-32.0448685010
20
-51.8730610392
11
-31.2762911189
21
-51.8730610392
0
LINE
5
216
100
AcDbEntity
8
0
100
AcDbLine
62
0
6
CONTINUOUS
10
31.2207512114
20
-51.8730610392
11
31.9895977002
21
-51.8730610392
0
LINE
5
217
100
AcDbEntity
8
0
100
AcDbLine
62
0
6
CONTINUOUS
10
-32.0410255947
20
-51.8168705027
11
-26.7776949900
21
-51.8168705027
0
LINE
5
218
100
AcDbEntity
8
0
100
AcDbLine
62
0
6
CONTINUOUS
10
26.0223050100
20
-51.8168705027
11
-26.0776949900
21
-51.8168705027
0
LINE
5
219
100
AcDbEntity
8
0
100
AcDbLine
62
0
6
CONTINUOUS
10
26.7223050100
20
-51.8168027392
11
31.9856355674
21
-51.8168705027
0
LINE
5
21A
100
AcDbEntity
8
0
100
AcDbLine
62
0
6
CONTINUOUS
10
-29.3780613037
20
-49.4985577633
11
-32.5316610853
21
-50.1048561606
0
LINE
5
21B
100
AcDbEntity
8
0
100
AcDbLine
62
0
6
CONTINUOUS
10
29.3217955362
20
-49.4983893621
11
32.4762711717
21
-50.1048561172
0
LINE
5
21C
100
AcDbEntity
8
0
100
AcDbLine
62
0
6
CONTINUOUS
10
-26.7776949900
20
-51.8168705027
11
-26.7776949900
21
47.2831294973
0
LINE
5
21D
100
AcDbEntity
8
0
100
AcDbLine
62
0
6
CONTINUOUS
10
-26.0776949900
20
-51.8168705027
11
-26.0776949900
21
47.2752712609
0
LINE
5
21E
100
AcDbEntity
8
0
100
AcDbLine
62
0
6
CONTINUOUS
10
-22.7115024900
20
-55.0055187946
11
-22.7115024900
21
-58.2168720444
0
LINE
5
21F
100
AcDbEntity
8
CURVE
100
AcDbLine
62
0
6
CONTINUOUS
10
-10.1851844900
20
30.9117199556
11
-8.8495534900
21
35.5917799556
0
LINE
5
220
100
AcDbEntity
8
CURVE
100
AcDbLine
62
0
6
CONTINUOUS
10
-7.4312744900
20
35.5917799556
11
-9.6167914900
21
28.7926369556
0
LINE
5
221
100
AcDbEntity
8
0
100
AcDbLine
62
0
6
CONTINUOUS
10
-20.6988180229
20
51.5840119747
11
-21.0050253698
21
54.7807332247
0
LINE
5
222
100
AcDbEntity
8
CURVE
100
AcDbLine
62
0
6
CONTINUOUS
10
-7.6277704900
20
14.6402708808
11
-7.3134847616
21
15.2116994182
0
LINE
5
223
100
AcDbEntity
8
CURVE
100
AcDbLine
62
0
6
CONTINUOUS
10
-7.3134847616
20
15.2116994182
11
-6.6849133378
21
15.7831279556
0
LINE
5
224
100
AcDbEntity
8
CURVE
100
AcDbLine
62
0
6
CONTINUOUS
10
-4.1706277078
20
14.6402708808
11
-2.9134849256
21
15.7831279556
0
LINE
5
225
100
AcDbEntity
8
CURVE
100
AcDbLine
62
0
6
CONTINUOUS
10
-1.2850594900
20
31.8168749556
11
0.1341885100
21
35.5917799556
0
LINE
5
226
100
AcDbEntity
8
CURVE
100
AcDbLine
62
0
6
CONTINUOUS
10
0.4942005100
20
33.2138419556
11
-1.1932844900
21
28.7926369556
0
LINE
5
227
100
AcDbEntity
8
CURVE
100
AcDbLine
62
0
6
CONTINUOUS
10
-5.4277704900
20
12.9259851495
11
-5.7420561855
21
12.3545565525
0
LINE
5
228
100
AcDbEntity
8
CURVE
100
AcDbLine
62
0
6
CONTINUOUS
10
-5.7420561855
20
12.3545565525
11
-6.3706275766
21
11.7831279556
0
LINE
5
229
100
AcDbEntity
8
CURVE
100
AcDbLine
62
0
6
CONTINUOUS
10
-1.0277704900
20
15.7831279556
11
-1.6563421433
21
15.2116994182
0
LINE
5
22A
100
AcDbEntity
8
CURVE
100
AcDbLine
62
0
6
CONTINUOUS
10
2.4293728167
20
15.7831279556
11
1.8008006389
21
15.2116994182
0
LINE
5
22B
100
AcDbEntity
8
CURVE
100
AcDbLine
62
0
6
CONTINUOUS
10
-1.0277704900
20
11.7831279556
11
0.2293722922
21
12.9259851495
0
LINE
5
22C
100
AcDbEntity
8
CURVE
100
AcDbLine
62
0
6
CONTINUOUS
10
-7.6277704900
20
12.9259851495
11
-7.6277704900
21
14.6402708808
0
LINE
5
22D
100
AcDbEntity
8
CURVE
100
AcDbLine
62
0
6
CONTINUOUS
10
-6.9045894900
20
35.5921879556
11
-6.9045894900
21
28.7926369556
0
LINE
5
22E
100
AcDbEntity
8
CURVE
100
AcDbLine
62
0
6
CONTINUOUS
10
-5.4853414900
20
28.7926369556
11
-5.4853414900
21
35.5921879556
0
LINE
5
22F
100
AcDbEntity
8
CURVE
100
AcDbLine
62
0
6
CONTINUOUS
10
-5.4277704900
20
14.6402708808
11
-5.4277704900
21
12.9259851495
0
LINE
5
230
100
AcDbEntity
8
0
100
AcDbLine
62
0
6
CONTINUOUS
10
-4.1777704900
20
55.7480714929
11
-4.1777704900
21
57.0831279556
0
LINE
5
231
100
AcDbEntity
8
CURVE
100
AcDbLine
62
0
6
CONTINUOUS
10
-3.0572834900
20
33.2323499556
11
-3.3635564900
21
28.7926369556
0
LINE
5
232
100
AcDbEntity
8
CURVE
100
AcDbLine
62
0
6
CONTINUOUS
10
-4.7213154900
20
28.7926369556
11
-4.1073924900
21
35.5917799556
0
LINE
5
233
100
AcDbEntity
8
CURVE
100
AcDbLine
62
0
6
CONTINUOUS
10
5.1895065100
20
33.7235489556
11
4.4828395100
21
31.2003009556
0
LINE
5
234
100
AcDbEntity
8
CURVE
100
AcDbLine
62
0
6
CONTINUOUS
10
4.1925255100
20
30.1499879556
11
3.8009015100
21
28.7926369556
0
LINE
5
235
100
AcDbEntity
8
CURVE
100
AcDbLine
62
0
6
CONTINUOUS
10
2.3970515100
20
28.7926369556
11
4.5296955100
21
35.5917799556
0
LINE
5
236
100
AcDbEntity
8
CURVE
100
AcDbLine
62
0
6
CONTINUOUS
10
6.8293728167
20
15.7831279556
11
5.8865150744
21
14.9259850303
0
LINE
5
237
100
AcDbEntity
8
CURVE
100
AcDbLine
62
0
6
CONTINUOUS
10
2.4293728167
20
11.7831279556
11
3.6865150744
21
12.9259851495
0
LINE
5
238
100
AcDbEntity
8
CURVE
100
AcDbLine
62
0
6
CONTINUOUS
10
6.8293728167
20
11.7831279556
11
7.4579439456
21
12.3545565525
0
LINE
5
239
100
AcDbEntity
8
CURVE
100
AcDbLine
62
0
6
CONTINUOUS
10
-2.9134849256
20
15.7831279556
11
-2.9134849256
21
11.7831279556
0
LINE
5
23A
100
AcDbEntity
8
CURVE
100
AcDbLine
62
0
6
CONTINUOUS
10
-1.6563421433
20
15.2116994182
11
-1.6563421433
21
14.0688423435
0
LINE
5
23B
100
AcDbEntity
8
CURVE
100
AcDbLine
62
0
6
CONTINUOUS
10
-0.8953244900
20
-3.7649090444
11
-0.8953244900
21
-3.0140920444
0
LINE
5
23C
100
AcDbEntity
8
CURVE
100
AcDbLine
62
0
6
CONTINUOUS
10
-0.8953244900
20
0.5803479556
11
-0.8953244900
21
1.3311649556
0
LINE
5
23D
100
AcDbEntity
8
CURVE
100
AcDbLine
62
0
6
CONTINUOUS
10
0.5436578567
20
14.0688423435
11
0.5436578567
21
15.2116994182
0
LINE
5
23E
100
AcDbEntity
8
CURVE
100
AcDbLine
62
0
6
CONTINUOUS
10
0.2293722922
20
12.9259851495
11
0.5436578567
21
14.0688423435
0
LINE
5
23F
100
AcDbEntity
8
CURVE
100
AcDbLine
62
0
6
CONTINUOUS
10
3.6865150744
20
12.9259851495
11
4.0008006389
21
14.0688423435
0
LINE
5
240
100
AcDbEntity
8
CURVE
100
AcDbLine
62
0
6
CONTINUOUS
10
5.8865150744
20
14.9259850303
11
5.2579439456
21
13.7831279556
0
LINE
5
241
100
AcDbEntity
8
CURVE
100
AcDbLine
62
0
6
CONTINUOUS
10
1.6292845100
20
-1.5918720444
11
3.0897855100
21
-1.5918720444
0
LINE
5
242
100
AcDbEntity
8
CURVE
100
AcDbLine
62
0
6
CONTINUOUS
10
3.0897855100
20
-0.8418720444
11
1.6292813980
21
-0.8418720444
0
LINE
5
243
100
AcDbEntity
8
CURVE
100
AcDbLine
62
0
6
CONTINUOUS
10
-7.3134847616
20
12.3545565525
11
-7.6277704900
21
12.9259851495
0
LINE
5
244
100
AcDbEntity
8
CURVE
100
AcDbLine
62
0
6
CONTINUOUS
10
-10.8675054900
20
28.7926369556
11
-13.0229664900
21
35.5917799556
0
LINE
5
245
100
AcDbEntity
8
CURVE
100
AcDbLine
62
0
6
CONTINUOUS
10
-11.4812244900
20
35.5917799556
11
-10.1851844900
21
30.9117199556
0
LINE
5
246
100
AcDbEntity
8
CURVE
100
AcDbLine
62
0
6
CONTINUOUS
10
1.5383955100
20
35.5917799556
11
2.1741915100
21
28.7926369556
0
LINE
5
247
100
AcDbEntity
8
CURVE
100
AcDbLine
62
0
6
CONTINUOUS
10
0.7857905100
20
28.7926369556
11
0.4942005100
21
33.2138419556
0
LINE
5
248
100
AcDbEntity
8
CURVE
100
AcDbLine
62
0
6
CONTINUOUS
10
1.8008006389
20
15.2116994182
11
1.8008006389
21
14.0688423435
0
LINE
5
249
100
AcDbEntity
8
CURVE
100
AcDbLine
62
0
6
CONTINUOUS
10
3.0897855100
20
-1.5918720444
11
3.0897855100
21
-0.8418720444
0
LINE
5
24A
100
AcDbEntity
8
CURVE
100
AcDbLine
62
0
6
CONTINUOUS
10
3.4897855100
20
-3.7649091622
11
3.4897855100
21
-3.0140889960
0
LINE
5
24B
100
AcDbEntity
8
CURVE
100
AcDbLine
62
0
6
CONTINUOUS
10
3.4897855100
20
0.5803479556
11
3.4897855100
21
1.3311650733
0
LINE
5
24C
100
AcDbEntity
8
CURVE
100
AcDbLine
62
0
6
CONTINUOUS
10
4.0008006389
20
14.0688423435
11
4.0008006389
21
15.2116994182
0
LINE
5
24D
100
AcDbEntity
8
0
100
AcDbLine
62
0
6
CONTINUOUS
10
4.1222295100
20
55.7480741564
11
4.1222295100
21
57.0831279556
0
LINE
5
24E
100
AcDbEntity
8
CURVE
100
AcDbLine
62
0
6
CONTINUOUS
10
-6.6849133378
20
11.7831279556
11
-7.3134847616
21
12.3545565525
0
LINE
5
24F
100
AcDbEntity
8
CURVE
100
AcDbLine
62
0
6
CONTINUOUS
10
-5.7420561855
20
15.2116994182
11
-5.4277704900
21
14.6402708808
0
LINE
5
250
100
AcDbEntity
8
CURVE
100
AcDbLine
62
0
6
CONTINUOUS
10
5.2579439456
20
13.7831279556
11
5.2579439456
21
12.3545565525
0
LINE
5
251
100
AcDbEntity
8
CURVE
100
AcDbLine
62
0
6
CONTINUOUS
10
7.4579439456
20
12.3545565525
11
7.4579439456
21
13.4974136869
0
LINE
5
252
100
AcDbEntity
8
CURVE
100
AcDbLine
62
0
6
CONTINUOUS
10
8.4055535979
20
35.5123440181
11
8.4055535979
21
28.7926373607
0
LINE
5
253
100
AcDbEntity
8
CURVE
100
AcDbLine
62
0
6
CONTINUOUS
10
-6.3706275766
20
15.7831279556
11
-5.7420561855
21
15.2116994182
0
LINE
5
254
100
AcDbEntity
8
CURVE
100
AcDbLine
62
0
6
CONTINUOUS
10
-1.6563421433
20
14.0688423435
11
-1.0277704900
21
13.4974136869
0
LINE
5
255
100
AcDbEntity
8
CURVE
100
AcDbLine
62
0
6
CONTINUOUS
10
-1.3923334900
20
28.7926369556
11
-3.0572834900
21
33.2323499556
0
LINE
5
256
100
AcDbEntity
8
CURVE
100
AcDbLine
62
0
6
CONTINUOUS
10
9.7720307641
20
32.5669817951
11
9.7720307641
21
34.4334791683
0
LINE
5
257
100
AcDbEntity
8
CURVE
100
AcDbLine
62
0
6
CONTINUOUS
10
9.8190908897
20
28.7926373607
11
9.8190908897
21
31.4534464303
0
LINE
5
258
100
AcDbEntity
8
CURVE
100
AcDbLine
62
0
6
CONTINUOUS
10
5.8865150744
20
11.7831279556
11
6.8293728167
21
11.7831279556
0
LINE
5
259
100
AcDbEntity
8
CURVE
100
AcDbLine
62
0
6
CONTINUOUS
10
-6.3706275766
20
11.7831279556
11
-6.6849133378
21
11.7831279556
0
LINE
5
25A
100
AcDbEntity
8
CURVE
100
AcDbLine
62
0
6
CONTINUOUS
10
-1.0277704900
20
13.4974136869
11
0.3341343219
21
13.4974136869
0
LINE
5
25B
100
AcDbEntity
8
CURVE
100
AcDbLine
62
0
6
CONTINUOUS
10
2.4293728167
20
13.4974136869
11
3.7912776286
21
13.4974136869
0
LINE
5
25C
100
AcDbEntity
8
CURVE
100
AcDbLine
62
0
6
CONTINUOUS
10
6.8293728167
20
14.0688423435
11
5.4674680049
21
14.0688423435
0
LINE
5
25D
100
AcDbEntity
8
CURVE
100
AcDbLine
62
0
6
CONTINUOUS
10
0.5436578567
20
15.2116994182
11
-0.0849132722
21
15.7831279556
0
LINE
5
25E
100
AcDbEntity
8
CURVE
100
AcDbLine
62
0
6
CONTINUOUS
10
1.8008006389
20
14.0688423435
11
2.4293728167
21
13.4974136869
0
LINE
5
25F
100
AcDbEntity
8
CURVE
100
AcDbLine
62
0
6
CONTINUOUS
10
5.2579439456
20
12.3545565525
11
5.8865150744
21
11.7831279556
0
LINE
5
260
100
AcDbEntity
8
CURVE
100
AcDbLine
62
0
6
CONTINUOUS
10
4.0008006389
20
15.2116994182
11
3.3722295100
21
15.7831279556
0
LINE
5
261
100
AcDbEntity
8
CURVE
100
AcDbLine
62
0
6
CONTINUOUS
10
-2.6893174900
20
35.5917799556
11
-1.2850594900
21
31.8168749556
0
LINE
5
262
100
AcDbEntity
8
CURVE
100
AcDbLine
62
0
6
CONTINUOUS
10
6.4929645100
20
28.7926369556
11
6.1253045100
21
30.1499879556
0
LINE
5
263
100
AcDbEntity
8
CURVE
100
AcDbLine
62
0
6
CONTINUOUS
10
5.8416695100
20
31.2003009556
11
5.1895065100
21
33.7235489556
0
LINE
5
264
100
AcDbEntity
8
0
100
AcDbLine
62
0
6
CONTINUOUS
10
20.6434272681
20
51.5840118753
11
20.9496344737
21
54.7807314842
0
LINE
5
265
100
AcDbEntity
8
CURVE
100
AcDbLine
62
0
6
CONTINUOUS
10
-6.6849133378
20
15.7831279556
11
-6.3706275766
21
15.7831279556
0
LINE
5
266
100
AcDbEntity
8
CURVE
100
AcDbLine
62
0
6
CONTINUOUS
10
3.3722295100
20
15.7831279556
11
2.4293728167
21
15.7831279556
0
LINE
5
267
100
AcDbEntity
8
CURVE
100
AcDbLine
62
0
6
CONTINUOUS
10
-0.0849132722
20
15.7831279556
11
-1.0277704900
21
15.7831279556
0
LINE
5
268
100
AcDbEntity
8
CURVE
100
AcDbLine
62
0
6
CONTINUOUS
10
7.4579439456
20
13.4974136869
11
6.8293728167
21
14.0688423435
0
LINE
5
269
100
AcDbEntity
8
CURVE
100
AcDbLine
62
0
6
CONTINUOUS
10
5.9026485100
20
35.5917799556
11
7.9887935100
21
28.7926369556
0
LINE
5
26A
100
AcDbEntity
8
0
100
AcDbLine
62
0
6
CONTINUOUS
10
22.6561125100
20
-55.0055187946
11
22.6561125100
21
-58.2168720444
0
LINE
5
26B
100
AcDbEntity
8
0
100
AcDbLine
62
0
6
CONTINUOUS
10
26.0223050100
20
47.2787638695
11
26.0223050100
21
-51.8168705027
0
LINE
5
26C
100
AcDbEntity
8
0
100
AcDbLine
62
0
6
CONTINUOUS
10
26.7223050100
20
-51.8168027392
11
26.7223050100
21
47.2831294973
0
LINE
5
26D
100
AcDbEntity
8
CURVE
100
AcDbLine
62
0
6
CONTINUOUS
10
-6.9045894900
20
28.7926369556
11
-5.4853414900
21
28.7926369556
0
LINE
5
26E
100
AcDbEntity
8
CURVE
100
AcDbLine
62
0
6
CONTINUOUS
10
7.9887935100
20
28.7926369556
11
6.4929645100
21
28.7926369556
0
LINE
5
26F
100
AcDbEntity
8
CURVE
100
AcDbLine
62
0
6
CONTINUOUS
10
3.8009015100
20
28.7926369556
11
2.3970515100
21
28.7926369556
0
LINE
5
270
100
AcDbEntity
8
CURVE
100
AcDbLine
62
0
6
CONTINUOUS
10
2.1741915100
20
28.7926369556
11
0.7857905100
21
28.7926369556
0
LINE
5
271
100
AcDbEntity
8
CURVE
100
AcDbLine
62
0
6
CONTINUOUS
10
-1.1932844900
20
28.7926369556
11
-1.3923334900
21
28.7926369556
0
LINE
5
272
100
AcDbEntity
8
CURVE
100
AcDbLine
62
0
6
CONTINUOUS
10
-3.3635564900
20
28.7926369556
11
-4.7213154900
21
28.7926369556
0
LINE
5
273
100
AcDbEntity
8
CURVE
100
AcDbLine
62
0
6
CONTINUOUS
10
8.4055535979
20
28.7926373607
11
9.8190908897
21
28.7926373607
0
LINE
5
274
100
AcDbEntity
8
CURVE
100
AcDbLine
62
0
6
CONTINUOUS
10
-9.6167914900
20
28.7926369556
11
-10.8675054900
21
28.7926369556
0
LINE
5
275
100
AcDbEntity
8
CURVE
100
AcDbLine
62
0
6
CONTINUOUS
10
11.9924733069
20
28.7926373607
11
13.3576248358
21
28.7926373607
0
LINE
5
276
100
AcDbEntity
8
CURVE
100
AcDbLine
62
0
6
CONTINUOUS
10
6.1253045100
20
30.1499879556
11
4.1925255100
21
30.1499879556
0
LINE
5
277
100
AcDbEntity
8
CURVE
100
AcDbLine
62
0
6
CONTINUOUS
10
4.4828395100
20
31.2003009556
11
5.8416695100
21
31.2003009556
0
LINE
5
278
100
AcDbEntity
8
CURVE
100
AcDbLine
62
0
6
CONTINUOUS
10
9.8190908897
20
31.4534464303
11
10.5800577083
21
31.4534464303
0
LINE
5
279
100
AcDbEntity
8
CURVE
100
AcDbLine
62
0
6
CONTINUOUS
10
10.5831168714
20
32.5669817951
11
9.7720307641
21
32.5669817951
0
LINE
5
27A
100
AcDbEntity
8
CURVE
100
AcDbLine
62
0
6
CONTINUOUS
10
-13.0229664900
20
35.5917799556
11
-11.4812244900
21
35.5917799556
0
LINE
5
27B
100
AcDbEntity
8
CURVE
100
AcDbLine
62
0
6
CONTINUOUS
10
-8.8495534900
20
35.5917799556
11
-7.4312744900
21
35.5917799556
0
LINE
5
27C
100
AcDbEntity
8
CURVE
100
AcDbLine
62
0
6
CONTINUOUS
10
-4.1073924900
20
35.5917799556
11
-2.6893174900
21
35.5917799556
0
LINE
5
27D
100
AcDbEntity
8
CURVE
100
AcDbLine
62
0
6
CONTINUOUS
10
0.1341885100
20
35.5917799556
11
1.5383955100
21
35.5917799556
0
LINE
5
27E
100
AcDbEntity
8
CURVE
100
AcDbLine
62
0
6
CONTINUOUS
10
4.5296955100
20
35.5917799556
11
5.9026485100
21
35.5917799556
0
LINE
5
27F
100
AcDbEntity
8
CURVE
100
AcDbLine
62
0
6
CONTINUOUS
10
-5.4853414900
20
35.5921879556
11
-6.9045894900
21
35.5921879556
0
LINE
5
280
100
AcDbEntity
8
0
100
AcDbLine
62
0
6
CONTINUOUS
10
29.3170480630
20
43.6869657882
11
32.4762710999
21
44.2943446765
0
LINE
5
281
100
AcDbEntity
8
0
100
AcDbLine
62
0
6
CONTINUOUS
10
-29.3780623051
20
43.6880464388
11
-32.5316621553
21
44.2943447807
0
LINE
5
282
100
AcDbEntity
8
0
100
AcDbLine
62
0
6
CONTINUOUS
10
-26.0776949900
20
47.2752712609
11
26.0223050100
21
47.2787638695
0
LINE
5
283
100
AcDbEntity
8
0
100
AcDbLine
62
0
6
CONTINUOUS
10
-26.7776949900
20
47.2831345308
11
-31.5710467069
21
47.2831294973
0
LINE
5
284
100
AcDbEntity
8
0
100
AcDbLine
62
0
6
CONTINUOUS
10
26.7223050100
20
47.2831294973
11
31.5156560571
21
47.2831294973
0
LINE
5
285
100
AcDbEntity
8
0
100
AcDbLine
62
0
6
CONTINUOUS
10
-31.2262185992
20
47.8902651847
11
-30.7314767448
21
47.8902631202
0
LINE
5
286
100
AcDbEntity
8
0
100
AcDbLine
62
0
6
CONTINUOUS
10
30.6759361544
20
47.8902631202
11
31.1817017971
21
47.8902652307
0
LINE
5
287
100
AcDbEntity
8
0
100
AcDbLine
62
0
6
CONTINUOUS
10
31.1670084873
20
47.9831294973
11
-31.2223993281
21
47.9831294973
0
LINE
5
288
100
AcDbEntity
8
0
100
AcDbLine
62
0
6
CONTINUOUS
10
-4.1777704900
20
57.0831279556
11
4.1222295100
21
57.0831279556
0
LINE
5
289
100
AcDbEntity
8
0
100
AcDbLine
62
0
6
CONTINUOUS
10
-3.3777704900
20
57.8831279556
11
3.3222295100
21
57.8831279556
0
ARC
5
28A
100
AcDbEntity
8
0
100
AcDbCircle
62
0
6
CONTINUOUS
10
-3.3777704900
20
57.0831279556
40
0.8000000000
100
AcDbArc
50
90.0000000000
51
180.0000000000
0
ARC
5
28B
100
AcDbEntity
8
0
100
AcDbCircle
62
0
6
CONTINUOUS
10
3.3222295100
20
57.0831279556
40
0.8000000000
100
AcDbArc
50
0.0000000000
51
90.0000000000
0
CIRCLE
5
28C
100
AcDbEntity
8
0
100
AcDbCircle
62
0
6
CONTINUOUS
10
-22.5276359136
20
-1.2828459657
40
1.0000000000
0
CIRCLE
5
28D
100
AcDbEntity
8
0
100
AcDbCircle
62
0
6
CONTINUOUS
10
22.4723636893
20
-1.2828454996
40
1.0000000000
0
ARC
5
28E
100
AcDbEntity
8
0
100
AcDbCircle
62
0
6
CONTINUOUS
10
-22.7115755850
20
-48.2828470413
40
10.0000000000
100
AcDbArc
50
205.9973196437
51
270.0000053430
0
ARC
5
28F
100
AcDbEntity
8
0
100
AcDbCircle
62
0
6
CONTINUOUS
10
-22.7115755852
20
-48.2828470413
40
9.9999991946
100
AcDbArc
50
190.8793091251
51
201.0401094834
0
ARC
5
290
100
AcDbEntity
8
0
100
AcDbCircle
62
0
6
CONTINUOUS
10
212.9748840361
20
-2.9850507259
40
249.9999949995
100
AcDbArc
50
181.2055987802
51
190.8793091250
0
ARC
5
291
100
AcDbEntity
8
0
100
AcDbCircle
62
0
6
CONTINUOUS
10
19.7115817662
20
41.7717388961
40
12.9999999999
100
AcDbArc
50
28.0768698991
51
28.4653466301
0
ARC
5
292
100
AcDbEntity
8
0
100
AcDbCircle
62
0
6
CONTINUOUS
10
-213.0270525038
20
-2.9689109435
40
249.9999949998
100
AcDbArc
50
349.1167672406
51
1.2137200625
0
ARC
5
293
100
AcDbEntity
8
0
100
AcDbCircle
62
0
6
CONTINUOUS
10
22.6563045570
20
-48.2828470414
40
9.9999991956
100
AcDbArc
50
338.9598910019
51
349.1167672408
0
ARC
5
294
100
AcDbEntity
8
0
100
AcDbCircle
62
0
6
CONTINUOUS
10
22.6563045565
20
-48.2828470413
40
10.0000000000
100
AcDbArc
50
270.0000000000
51
334.0026803561
0
CIRCLE
5
295
100
AcDbEntity
8
0
100
AcDbCircle
62
0
6
CONTINUOUS
10
22.4723018861
20
-1.2168709688
40
1.2500000000
0
CIRCLE
5
296
100
AcDbEntity
8
0
100
AcDbCircle
62
0
6
CONTINUOUS
10
-22.5276969180
20
-1.2168705027
40
1.2500000000
0
CIRCLE
5
297
100
AcDbEntity
8
0
100
AcDbCircle
62
0
6
CONTINUOUS
10
22.4723018861
20
-1.2168709688
40
2.0000000000
0
CIRCLE
5
298
100
AcDbEntity
8
0
100
AcDbCircle
62
0
6
CONTINUOUS
10
-22.5276969180
20
-1.2168705027
40
2.0000000000
0
ARC
5
299
100
AcDbEntity
8
0
100
AcDbCircle
62
0
6
CONTINUOUS
10
-0.0276958963
20
-164.2168692428
40
219.9999959971
100
AcDbArc
50
84.5284486429
51
88.9771965931
0
ARC
5
29A
100
AcDbEntity
8
0
100
AcDbCircle
62
0
6
CONTINUOUS
10
22.6561125100
20
-48.2168720444
40
10.0000000000
100
AcDbArc
50
269.9999999999
51
334.5324398576
0
ARC
5
29B
100
AcDbEntity
8
0
100
AcDbCircle
62
0
6
CONTINUOUS
10
22.6559635383
20
-48.2168667686
40
9.0999999905
100
AcDbArc
50
331.8014825529
51
336.1523416329
0
ARC
5
29C
100
AcDbEntity
8
0
100
AcDbCircle
62
0
6
CONTINUOUS
10
22.6561125103
20
-48.2168720445
40
9.9999997801
100
AcDbArc
50
338.8998088894
51
349.1173310721
0
ARC
5
29D
100
AcDbEntity
8
0
100
AcDbCircle
62
0
6
CONTINUOUS
10
-213.0276904608
20
-2.9052552423
40
249.9999950000
100
AcDbArc
50
349.1173310723
51
10.8826687157
0
ARC
5
29E
100
AcDbEntity
8
0
100
AcDbCircle
62
0
6
CONTINUOUS
10
19.7100650777
20
41.8399654767
40
12.9999990310
100
AcDbArc
50
10.8826687159
51
24.7528479951
0
ARC
5
29F
100
AcDbEntity
8
0
100
AcDbCircle
62
0
6
CONTINUOUS
10
22.6559635401
20
43.6831226806
40
9.0999999884
100
AcDbArc
50
23.8476646279
51
27.6545752625
0
ARC
5
2A0
100
AcDbEntity
8
0
100
AcDbCircle
62
0
6
CONTINUOUS
10
19.7100650772
20
41.8399654767
40
12.9999999999
100
AcDbArc
50
28.2000163427
51
84.5284486435
0
ARC
5
2A1
100
AcDbEntity
8
0
100
AcDbCircle
62
0
6
CONTINUOUS
10
-0.0276958963
20
-164.2168692428
40
219.9999959971
100
AcDbArc
50
91.0228422667
51
95.4715510816
0
ARC
5
2A2
100
AcDbEntity
8
0
100
AcDbCircle
62
0
6
CONTINUOUS
10
-19.7654558786
20
41.8399655714
40
13.0000000002
100
AcDbArc
50
95.4715510821
51
151.7999877937
0
ARC
5
2A3
100
AcDbEntity
8
0
100
AcDbCircle
62
0
6
CONTINUOUS
10
-22.7115045198
20
43.6831226805
40
9.0999999888
100
AcDbArc
50
151.8014706559
51
156.6962898377
0
ARC
5
2A4
100
AcDbEntity
8
0
100
AcDbCircle
62
0
6
CONTINUOUS
10
-19.7654558789
20
41.8399655716
40
12.9999990314
100
AcDbArc
50
155.2471529610
51
169.1173314625
0
ARC
5
2A5
100
AcDbEntity
8
0
100
AcDbCircle
62
0
6
CONTINUOUS
10
212.9723000606
20
-2.9052530579
40
249.9999949997
100
AcDbArc
50
169.1173317812
51
190.8826694502
0
ARC
5
2A6
100
AcDbEntity
8
0
100
AcDbCircle
62
0
6
CONTINUOUS
10
-22.7115024899
20
-48.2168720444
40
9.9999997805
100
AcDbArc
50
190.8826692435
51
201.1001960241
0
ARC
5
2A7
100
AcDbEntity
8
0
100
AcDbCircle
62
0
6
CONTINUOUS
10
-22.7115045179
20
-48.2168667684
40
9.0999999909
100
AcDbArc
50
203.3037043425
51
207.6545740972
0
ARC
5
2A8
100
AcDbEntity
8
0
100
AcDbCircle
62
0
6
CONTINUOUS
10
-22.7115024900
20
-48.2168720444
40
10.0000000000
100
AcDbArc
50
205.4675552881
51
270.0000000000
0
ARC
5
2A9
100
AcDbEntity
8
0
100
AcDbCircle
62
0
6
CONTINUOUS
10
-0.0276958963
20
-164.2168692513
40
216.7834999691
100
AcDbArc
50
84.5284486431
51
95.4715510814
0
ARC
5
2AA
100
AcDbEntity
8
0
100
AcDbCircle
62
0
6
CONTINUOUS
10
22.6561125095
20
-48.2168720443
40
9.7868189733
100
AcDbArc
50
338.4174306392
51
349.1173310719
0
ARC
5
2AB
100
AcDbEntity
8
0
100
AcDbCircle
62
0
6
CONTINUOUS
10
-19.7654558787
20
41.8399655714
40
12.7868192314
100
AcDbArc
50
95.4715510820
51
151.2865571411
0
ARC
5
2AC
100
AcDbEntity
8
0
100
AcDbCircle
62
0
6
CONTINUOUS
10
-0.0276958962
20
-164.2168692533
40
219.7868088752
100
AcDbArc
50
84.5284486432
51
95.4715510813
0
ARC
5
2AD
100
AcDbEntity
8
0
100
AcDbCircle
62
0
6
CONTINUOUS
10
19.7100650772
20
41.8399654767
40
12.7868192311
100
AcDbArc
50
28.7134433434
51
84.5284486434
0
ARC
5
2AE
100
AcDbEntity
8
0
100
AcDbCircle
62
0
6
CONTINUOUS
10
212.9723000606
20
-2.9052530579
40
246.7829154361
100
AcDbArc
50
169.1173317815
51
190.8826694507
0
ARC
5
2AF
100
AcDbEntity
8
0
100
AcDbCircle
62
0
6
CONTINUOUS
10
22.6559635392
20
-48.2168667690
40
7.8514370632
100
AcDbArc
50
326.7927016996
51
332.7087828421
0
ARC
5
2B0
100
AcDbEntity
8
0
100
AcDbCircle
62
0
6
CONTINUOUS
10
-22.7115024900
20
-48.2168720444
40
6.7886467502
100
AcDbArc
50
219.3021754108
51
269.9999999998
0
ARC
5
2B1
100
AcDbEntity
8
0
100
AcDbCircle
62
0
6
CONTINUOUS
10
-22.7115024900
20
-48.2168720444
40
9.7868192312
100
AcDbArc
50
206.0634649978
51
270.0000000000
0
ARC
5
2B2
100
AcDbEntity
8
0
100
AcDbCircle
62
0
6
CONTINUOUS
10
22.6561125100
20
-48.2168720444
40
6.7886467502
100
AcDbArc
50
270.0000000000
51
320.6978245892
0
ARC
5
2B3
100
AcDbEntity
8
0
100
AcDbCircle
62
0
6
CONTINUOUS
10
22.6561125100
20
-48.2168720444
40
9.7868192312
100
AcDbArc
50
270.0000000000
51
333.9365350021
0
ARC
5
2B4
100
AcDbEntity
8
0
100
AcDbCircle
62
0
6
CONTINUOUS
10
22.6559635375
20
43.6831226792
40
8.8508438148
100
AcDbArc
50
24.0003134239
51
29.0668761755
0
ARC
5
2B5
100
AcDbEntity
8
0
100
AcDbCircle
62
0
6
CONTINUOUS
10
-22.7115045197
20
-48.2168667692
40
8.8508438123
100
AcDbArc
50
204.0002915728
51
208.1985234050
0
ARC
5
2B6
100
AcDbEntity
8
0
100
AcDbCircle
62
0
6
CONTINUOUS
10
-22.7115024901
20
-48.2168720445
40
9.7868189726
100
AcDbArc
50
190.8826692432
51
201.5825693610
0
ARC
5
2B7
100
AcDbEntity
8
0
100
AcDbCircle
62
0
6
CONTINUOUS
10
-213.0276904611
20
-2.9052552423
40
246.7829154352
100
AcDbArc
50
349.1173310723
51
10.8826687591
0
ARC
5
2B8
100
AcDbEntity
8
0
100
AcDbCircle
62
0
6
CONTINUOUS
10
212.9723000607
20
-2.9052530579
40
249.7868071556
100
AcDbArc
50
169.1173317810
51
190.8826694502
0
ARC
5
2B9
100
AcDbEntity
8
0
100
AcDbCircle
62
0
6
CONTINUOUS
10
-19.7654558788
20
41.8399655715
40
12.7868181518
100
AcDbArc
50
154.8059446713
51
169.1173314624
0
ARC
5
2BA
100
AcDbEntity
8
0
100
AcDbCircle
62
0
6
CONTINUOUS
10
22.6559635394
20
-48.2168667691
40
8.8508438127
100
AcDbArc
50
331.8014765951
51
335.9997078378
0
ARC
5
2BB
100
AcDbEntity
8
0
100
AcDbCircle
62
0
6
CONTINUOUS
10
-22.7115045154
20
43.6831226784
40
8.8508438234
100
AcDbArc
50
150.9331246316
51
155.9996859877
0
ARC
5
2BC
100
AcDbEntity
8
0
100
AcDbCircle
62
0
6
CONTINUOUS
10
-22.7115045195
20
-48.2168667692
40
7.8514370679
100
AcDbArc
50
207.2912816196
51
213.2068003385
0
ARC
5
2BD
100
AcDbEntity
8
0
100
AcDbCircle
62
0
6
CONTINUOUS
10
22.6559635381
20
43.6831226793
40
7.8514370696
100
AcDbArc
50
27.2913069413
51
33.2068257474
0
ARC
5
2BE
100
AcDbEntity
8
0
100
AcDbCircle
62
0
6
CONTINUOUS
10
19.7100650772
20
41.8399654767
40
9.7886467500
100
AcDbArc
50
38.8718424368
51
84.5284486436
0
ARC
5
2BF
100
AcDbEntity
8
0
100
AcDbCircle
62
0
6
CONTINUOUS
10
19.7100650763
20
41.8399654764
40
12.7868181525
100
AcDbArc
50
10.8826687157
51
25.1940557978
0
ARC
5
2C0
100
AcDbEntity
8
0
100
AcDbCircle
62
0
6
CONTINUOUS
10
-213.0276904608
20
-2.9052552423
40
249.7868071557
100
AcDbArc
50
349.1173310723
51
10.8826687157
0
ARC
5
2C1
100
AcDbEntity
8
0
100
AcDbCircle
62
0
6
CONTINUOUS
10
-19.7654558788
20
41.8399655716
40
9.7886467501
100
AcDbArc
50
95.4715510815
51
141.1281582771
0
ARC
5
2C2
100
AcDbEntity
8
CURVE
100
AcDbCircle
62
0
6
CONTINUOUS
10
3.3897855100
20
-1.2168720444
40
1.7999999246
100
AcDbArc
50
86.8152613297
51
167.9753003079
0
ARC
5
2C3
100
AcDbEntity
8
CURVE
100
AcDbCircle
62
0
6
CONTINUOUS
10
3.3897855100
20
-1.2168720444
40
1.7999968808
100
AcDbArc
50
192.0247203293
51
273.1847440612
0
ARC
5
2C4
100
AcDbEntity
8
CURVE
100
AcDbCircle
62
0
6
CONTINUOUS
10
-0.9953244900
20
-1.2168720444
40
1.7999999246
100
AcDbArc
50
86.8152613297
51
273.1847386703
0
ARC
5
2C5
100
AcDbEntity
8
CURVE
100
AcDbCircle
62
0
6
CONTINUOUS
10
-0.9953244900
20
-1.2168720444
40
2.5499985399
100
AcDbArc
50
87.7525290943
51
272.2474709057
0
ARC
5
2C6
100
AcDbEntity
8
CURVE
100
AcDbCircle
62
0
6
CONTINUOUS
10
3.3897855100
20
-1.2168720444
40
2.5499986575
100
AcDbArc
50
87.7525291980
51
272.2474708020
0
SPLINE
5
2C7
100
AcDbEntity
8
0
100
AcDbSpline
62
0
6
CONTINUOUS
70
0
71
3
72
9
73
5
74
3
42
0.0000001000
43
0.0000001000
44
0.0000000001
12
-0.1918662725
22
0.3709292315
32
0.0000000000
13
-0.1744429714
23
0.3794530224
33
0.0000000000
40
0.0000000000
40
0.0000000000
40
0.0000000000
40
0.0000000000
40
0.2978031860
40
1.0000000000
40
1.0000000000
40
1.0000000000
40
1.0000000000
10
-30.9745657670
20
-52.5168029457
30
0.0000000000
10
-30.9936118961
20
-52.4799816434
30
0.0000000000
10
-31.0569018216
20
-52.3559969432
30
0.0000000000
10
-31.1170056106
20
-52.2304094742
30
0.0000000000
10
-31.1578367101
20
-52.1415925731
30
0.0000000000
11
-30.9745657670
21
-52.5168029457
31
0.0000000000
11
-31.0310252109
21
-52.4059934216
31
0.0000000000
11
-31.1578367101
21
-52.1415925731
31
0.0000000000
0
SPLINE
5
2C8
100
AcDbEntity
8
0
100
AcDbSpline
62
0
6
CONTINUOUS
70
0
71
3
72
8
73
4
74
2
42
0.0000001000
43
0.0000001000
44
0.0000000001
12
-0.0817135774
22
0.1777455616
32
0.0000000000
13
-0.0780293191
23
0.1793855981
33
0.0000000000
40
0.0000000000
40
0.0000000000
40
0.0000000000
40
0.0000000000
40
1.0000000000
40
1.0000000000
40
1.0000000000
40
1.0000000000
10
-31.1578367101
20
-52.1415925731
30
0.0000000000
10
-31.1850745693
20
-52.0823440525
30
0.0000000000
10
-31.2117011758
20
-52.0228152772
30
0.0000000000
10
-31.2377109488
20
-51.9630200779
30
0.0000000000
11
-31.1578367101
21
-52.1415925731
31
0.0000000000
11
-31.2377109488
21
-51.9630200779
31
0.0000000000
0
SPLINE
5
2C9
100
AcDbEntity
8
0
100
AcDbSpline
62
0
6
CONTINUOUS
70
0
71
3
72
8
73
4
74
2
42
0.0000001000
43
0.0000001000
44
0.0000000001
12
-0.0390441951
22
0.0897606999
32
0.0000000000
13
-0.0381154460
23
0.0901557431
33
0.0000000000
40
0.0000000000
40
0.0000000000
40
0.0000000000
40
0.0000000000
40
1.0000000000
40
1.0000000000
40
1.0000000000
40
1.0000000000
10
-31.2377109488
20
-51.9630200779
30
0.0000000000
10
-31.2507256805
20
-51.9330998445
30
0.0000000000
10
-31.2635859703
20
-51.9031129043
30
0.0000000000
10
-31.2762911189
20
-51.8730609900
30
0.0000000000
11
-31.2377109488
21
-51.9630200779
31
0.0000000000
11
-31.2762911189
21
-51.8730609900
31
0.0000000000
0
SPLINE
5
2CA
100
AcDbEntity
8
0
100
AcDbSpline
62
0
6
CONTINUOUS
70
0
71
3
72
9
73
5
74
3
42
0.0000001000
43
0.0000001000
44
0.0000000001
12
-0.1904184387
22
-0.4504128734
32
0.0000000000
13
-0.2138689762
23
-0.4397822929
33
0.0000000000
40
0.0000000000
40
0.0000000000
40
0.0000000000
40
0.0000000000
40
0.6001731074
40
1.0000000000
40
1.0000000000
40
1.0000000000
40
1.0000000000
10
31.2207512114
20
-51.8730610935
30
0.0000000000
10
31.1826565360
20
-51.9631696582
30
0.0000000000
10
31.1168571656
20
-52.1123329893
30
0.0000000000
10
31.0472375873
20
-52.2597444265
30
0.0000000000
10
31.0187340646
20
-52.3183566890
30
0.0000000000
11
31.2207512114
21
-51.8730610935
31
0.0000000000
11
31.1022984423
21
-52.1415862523
31
0.0000000000
11
31.0187340646
21
-52.3183566890
31
0.0000000000
0
SPLINE
5
2CB
100
AcDbEntity
8
0
100
AcDbSpline
62
0
6
CONTINUOUS
70
0
71
3
72
9
73
5
74
3
42
0.0000001000
43
0.0000001000
44
0.0000000001
12
-0.0971307204
22
-0.1997314978
32
0.0000000000
13
-0.1020317953
23
-0.1972708177
33
0.0000000000
40
0.0000000000
40
0.0000000000
40
0.0000000000
40
0.0000000000
40
0.4400016114
40
1.0000000000
40
1.0000000000
40
1.0000000000
40
1.0000000000
10
31.0187340646
20
-52.3183566890
30
0.0000000000
10
31.0044881734
20
-52.3476507493
30
0.0000000000
10
30.9717321810
20
-52.4140423902
30
0.0000000000
10
30.9380778517
20
-52.4799822482
30
0.0000000000
10
30.9190319714
20
-52.5168060282
30
0.0000000000
11
31.0187340646
21
-52.3183566890
31
0.0000000000
11
30.9754888752
21
-52.4059881415
31
0.0000000000
11
30.9190319714
21
-52.5168060282
31
0.0000000000
0
SPLINE
5
2CC
100
AcDbEntity
8
0
100
AcDbSpline
62
0
6
CONTINUOUS
70
0
71
3
72
14
73
10
74
8
42
0.0000001000
43
0.0000001000
44
0.0000000001
12
-7.8535841395
22
-0.1162658646
32
0.0000000000
13
-7.8535842183
23
0.1162605406
33
0.0000000000
40
0.0000000000
40
0.0000000000
40
0.0000000000
40
0.0000000000
40
0.1242340853
40
0.2655880204
40
0.4173125000
40
0.5730553959
40
0.7263586709
40
0.8707210053
40
1.0000000000
40
1.0000000000
40
1.0000000000
40
1.0000000000
10
3.8993786032
20
55.7480741564
30
0.0000000000
10
3.5741509891
20
55.7432594286
30
0.0000000000
10
2.8788275930
20
55.7364815843
30
0.0000000000
10
1.7862532646
20
55.7312248793
30
0.0000000000
10
0.6111733946
20
55.7289337361
30
0.0000000000
10
-0.5951928330
20
55.7288685701
30
0.0000000000
10
-1.7822829541
20
55.7310283790
30
0.0000000000
10
-2.9000759834
20
55.7362097434
30
0.0000000000
10
-3.6164850924
20
55.7430614776
30
0.0000000000
10
-3.9549195832
20
55.7480714929
30
0.0000000000
11
3.8993786032
21
55.7480741564
31
0.0000000000
11
2.9236443226
21
55.7376695127
31
0.0000000000
11
1.8134028227
21
55.7318662718
31
0.0000000000
11
0.6216939956
21
55.7293258608
31
0.0000000000
11
-0.6015799662
21
55.7292531936
31
0.0000000000
11
-1.8056896705
21
55.7316530515
31
0.0000000000
11
-2.9395612037
21
55.7373754985
31
0.0000000000
11
-3.9549195832
21
55.7480714929
31
0.0000000000
0
SPLINE
5
2CD
100
AcDbEntity
8
0
100
AcDbSpline
62
0
6
CONTINUOUS
70
0
71
3
72
10
73
6
74
4
42
0.0000001000
43
0.0000001000
44
0.0000000001
12
0.0000000000
22
0.4121470007
32
0.0000000000
13
0.4268190670
23
-0.0084634596
33
0.0000000000
40
0.0000000000
40
0.0000000000
40
0.0000000000
40
0.0000000000
40
0.1639885694
40
0.6083665044
40
1.0000000000
40
1.0000000000
40
1.0000000000
40
1.0000000000
10
-14.7777704900
20
-58.1383003131
30
0.0000000000
10
-14.7777704900
20
-58.1157711807
30
0.0000000000
10
-14.6436609319
20
-58.1483083824
30
0.0000000000
10
-14.5426429868
20
-58.1170872243
30
0.0000000000
10
-14.4242034372
20
-58.1183715017
30
0.0000000000
10
-14.3684845562
20
-58.1194763598
30
0.0000000000
11
-14.7777704900
21
-58.1383003131
31
0.0000000000
11
-14.7107495644
21
-58.1295680871
31
0.0000000000
11
-14.5277120407
21
-58.1231779981
31
0.0000000000
11
-14.3684845562
21
-58.1194763598
31
0.0000000000
0
SPLINE
5
2CE
100
AcDbEntity
8
0
100
AcDbSpline
62
0
6
CONTINUOUS
70
0
71
3
72
8
73
4
74
2
42
0.0000001000
43
0.0000001000
44
0.0000000001
12
0.0916939289
22
-0.0018182127
32
0.0000000000
13
0.0885419156
23
0.0000000000
33
0.0000000000
40
0.0000000000
40
0.0000000000
40
0.0000000000
40
0.0000000000
40
1.0000000000
40
1.0000000000
40
1.0000000000
40
1.0000000000
10
-14.3684845562
20
-58.1194763598
30
0.0000000000
10
-14.3379199132
20
-58.1200824307
30
0.0000000000
10
-14.3072844618
20
-58.1208399283
30
0.0000000000
10
-14.2777704900
20
-58.1208399283
30
0.0000000000
11
-14.3684845562
21
-58.1194763598
31
0.0000000000
11
-14.2777704900
21
-58.1208399283
31
0.0000000000
0
SPLINE
5
2CF
100
AcDbEntity
8
0
100
AcDbSpline
62
0
6
CONTINUOUS
70
0
71
3
72
10
73
6
74
4
42
0.0000001000
43
0.0000001000
44
0.0000000001
12
0.5006889160
22
0.0000000000
32
0.0000000000
13
0.0000000000
23
-0.5006889160
33
0.0000000000
40
0.0000000000
40
0.0000000000
40
0.0000000000
40
0.0000000000
40
0.4992175806
40
0.8650109415
40
1.0000000000
40
1.0000000000
40
1.0000000000
40
1.0000000000
10
7.2222295100
20
-58.1208399283
30
0.0000000000
10
7.3055470798
20
-58.1208399283
30
0.0000000000
10
7.4654002624
20
-58.1103799493
30
0.0000000000
10
7.5881200418
20
-58.1483083498
30
0.0000000000
10
7.7222295100
20
-58.1157711379
30
0.0000000000
10
7.7222295100
20
-58.1383003131
30
0.0000000000
11
7.2222295100
21
-58.1208399283
31
0.0000000000
11
7.4721712838
21
-58.1231780026
31
0.0000000000
11
7.6552084560
21
-58.1295680793
31
0.0000000000
11
7.7222295100
21
-58.1383003131
31
0.0000000000
0
SPLINE
5
2D0
100
AcDbEntity
8
0
100
AcDbSpline
62
0
6
CONTINUOUS
70
0
71
3
72
10
73
6
74
4
42
0.0000001000
43
0.0000001000
44
0.0000000001
12
-1.3215707480
22
2.1257935853
32
0.0000000000
13
-0.4793158811
23
2.4567873118
33
0.0000000000
40
0.0000000000
40
0.0000000000
40
0.0000000000
40
0.0000000000
40
0.3333285658
40
0.6666714342
40
1.0000000000
40
1.0000000000
40
1.0000000000
40
1.0000000000
10
-28.4667819546
20
-51.8167349757
30
0.0000000000
10
-28.6136210487
20
-51.5805390667
30
0.0000000000
10
-28.8792303496
20
-51.0899507445
30
0.0000000000
10
-29.1850930779
20
-50.3116448405
30
0.0000000000
10
-29.3245537728
20
-49.7714819789
30
0.0000000000
10
-29.3778103312
20
-49.4985095152
30
0.0000000000
11
-28.4667819546
21
-51.8167349757
31
0.0000000000
11
-28.8638004738
21
-51.0828900750
31
0.0000000000
11
-29.1689844489
21
-50.3063113434
31
0.0000000000
11
-29.3778103312
21
-49.4985095152
31
0.0000000000
0
SPLINE
5
2D1
100
AcDbEntity
8
0
100
AcDbSpline
62
0
6
CONTINUOUS
70
0
71
3
72
10
73
6
74
4
42
0.0000001000
43
0.0000001000
44
0.0000000001
12
0.7312722234
22
3.8400395798
32
0.0000000000
13
2.1662639928
23
3.2539150808
33
0.0000000000
40
0.0000000000
40
0.0000000000
40
0.0000000000
40
0.0000000000
40
0.3332906197
40
0.6666537747
40
1.0000000000
40
1.0000000000
40
1.0000000000
40
1.0000000000
10
-29.3743134004
20
43.6873256890
30
0.0000000000
10
-29.2930713429
20
44.1139420794
30
0.0000000000
10
-29.0737540194
20
44.9577259382
30
0.0000000000
10
-28.5765164655
20
46.1659825045
30
0.0000000000
10
-28.1418913416
20
46.9215912448
30
0.0000000000
10
-27.9011860333
20
47.2831513480
30
0.0000000000
11
-29.3743134004
21
43.6873256890
31
0.0000000000
11
-29.0457419920
21
44.9480624488
31
0.0000000000
11
-28.5507286925
21
46.1535155143
31
0.0000000000
11
-27.9011860333
21
47.2831513480
31
0.0000000000
0
SPLINE
5
2D2
100
AcDbEntity
8
0
100
AcDbSpline
62
0
6
CONTINUOUS
70
0
71
3
72
10
73
6
74
4
42
0.0000001000
43
0.0000001000
44
0.0000000001
12
2.1679883152
22
-3.2529388704
32
0.0000000000
13
0.7402158641
23
-3.8384717146
33
0.0000000000
40
0.0000000000
40
0.0000000000
40
0.0000000000
40
0.0000000000
40
0.3322924473
40
0.6656115332
40
1.0000000000
40
1.0000000000
40
1.0000000000
40
1.0000000000
10
27.8457429049
20
47.2831165104
30
0.0000000000
10
28.0858782859
20
46.9228075044
30
0.0000000000
10
28.5198885802
20
46.1684512902
30
0.0000000000
10
29.0174741481
20
44.9603197182
30
0.0000000000
10
29.2382057849
20
44.1155167761
30
0.0000000000
10
29.3207123341
20
43.6876698856
30
0.0000000000
11
27.8457429049
21
47.2831165104
31
0.0000000000
11
28.4935954899
21
46.1572056535
31
0.0000000000
11
28.9891537625
21
44.9521110842
31
0.0000000000
11
29.3207123341
21
43.6876698856
31
0.0000000000
0
SPLINE
5
2D3
100
AcDbEntity
8
0
100
AcDbSpline
62
0
6
CONTINUOUS
70
0
71
3
72
10
73
6
74
4
42
0.0000001000
43
0.0000001000
44
0.0000000001
12
-0.4609658466
22
-2.4600786444
32
0.0000000000
13
-1.3212041512
23
-2.1257695169
33
0.0000000000
40
0.0000000000
40
0.0000000000
40
0.0000000000
40
0.0000000000
40
0.3313539267
40
0.6655286983
40
1.0000000000
40
1.0000000000
40
1.0000000000
40
1.0000000000
10
29.3189224227
20
-49.4978369889
30
0.0000000000
10
29.2680081416
20
-49.7695558952
30
0.0000000000
10
29.1310971822
20
-50.3095044680
30
0.0000000000
10
28.8248174149
20
-51.0876275135
30
0.0000000000
10
28.5586935988
20
-51.5797320099
30
0.0000000000
10
28.4113919747
20
-51.8167349757
30
0.0000000000
11
29.3189224227
21
-49.4978369889
31
0.0000000000
11
29.1150872604
21
-50.3017412611
31
0.0000000000
11
28.8095890695
21
-51.0803569192
31
0.0000000000
11
28.4113919747
21
-51.8167349757
31
0.0000000000
0
SPLINE
5
2D4
100
AcDbEntity
8
0
100
AcDbSpline
62
0
6
CONTINUOUS
70
0
71
3
72
10
73
6
74
4
42
0.0000001000
43
0.0000001000
44
0.0000000001
12
0.3835113792
22
0.7160069185
32
0.0000000000
13
0.4442234137
23
0.6800091500
33
0.0000000000
40
0.0000000000
40
0.0000000000
40
0.0000000000
40
0.0000000000
40
0.3295955478
40
0.6623264934
40
1.0000000000
40
1.0000000000
40
1.0000000000
40
1.0000000000
10
-29.6922999875
20
47.2831188631
30
0.0000000000
10
-29.6501654398
20
47.3617830939
30
0.0000000000
10
-29.5633913612
20
47.5187303204
30
0.0000000000
10
-29.4277288578
20
47.7530827405
30
0.0000000000
10
-29.3307698404
20
47.9065881699
30
0.0000000000
10
-29.2807690145
20
47.9831285280
30
0.0000000000
11
-29.6922999875
21
47.2831188631
31
0.0000000000
11
-29.5630397146
21
47.5175590767
31
0.0000000000
11
-29.4269188839
21
47.7510363119
31
0.0000000000
11
-29.2807690145
21
47.9831285280
31
0.0000000000
0
SPLINE
5
2D5
100
AcDbEntity
8
CURVE
100
AcDbSpline
62
0
6
CONTINUOUS
70
0
71
3
72
9
73
5
74
3
42
0.0000001000
43
0.0000001000
44
0.0000000001
12
1.0188181319
22
0.0000000000
32
0.0000000000
13
0.3579716477
23
-0.9538588393
33
0.0000000000
40
0.0000000000
40
0.0000000000
40
0.0000000000
40
0.0000000000
40
0.1435863572
40
1.0000000000
40
1.0000000000
40
1.0000000000
40
1.0000000000
10
10.5800577083
20
31.4534464303
30
12.3691078681
10
10.6288205030
20
31.4534464303
30
12.3691078681
10
10.9694104007
20
31.4293692770
30
12.3691078681
10
11.2696804871
20
31.1266595663
30
12.3691078681
10
11.3718710881
20
30.8543603252
30
12.3691078681
11
10.5800577083
21
31.4534464303
31
12.3691078681
11
10.7257973532
21
31.4407875497
31
12.3691078681
11
11.3718710881
21
30.8543603252
31
12.3691078681
0
SPLINE
5
2D6
100
AcDbEntity
8
CURVE
100
AcDbSpline
62
0
6
CONTINUOUS
70
0
71
3
72
9
73
5
74
3
42
0.0000001000
43
0.0000001000
44
0.0000000001
12
-3.3088675580
22
1.1954181788
32
0.0000000000
13
-3.4807197858
23
-0.5120731501
33
0.0000000000
40
0.0000000000
40
0.0000000000
40
0.0000000000
40
0.0000000000
40
0.1082046150
40
1.0000000000
40
1.0000000000
40
1.0000000000
40
1.0000000000
10
11.9080404056
20
35.4407596018
30
12.3691078681
10
11.7886954923
20
35.4838761897
30
12.3691078681
10
10.6573073630
20
35.8065119912
30
12.3691078681
10
9.4402502118
20
35.6645655087
30
12.3691078681
10
8.4055535979
20
35.5123440181
30
12.3691078681
11
11.9080404056
21
35.4407596018
31
12.3691078681
11
11.5428496251
21
35.5482581147
31
12.3691078681
11
8.4055535979
21
35.5123440181
31
12.3691078681
0
SPLINE
5
2D7
100
AcDbEntity
8
CURVE
100
AcDbSpline
62
0
6
CONTINUOUS
70
0
71
3
72
14
73
10
74
8
42
0.0000001000
43
0.0000001000
44
0.0000000001
12
4.1874346157
22
0.5403141440
32
0.0000000000
13
-3.9716128380
23
1.4327733598
33
-0.0000000000
40
0.0000000000
40
0.0000000000
40
0.0000000000
40
0.0000000000
40
0.1679713549
40
0.3207210384
40
0.4122881115
40
0.5169671784
40
0.6778897728
40
0.8110635298
40
1.0000000000
40
1.0000000000
40
1.0000000000
40
1.0000000000
10
12.0543703734
20
32.0065941030
30
12.3691078681
10
12.2888267288
20
32.0368465360
30
12.3691078681
10
12.6184365350
20
32.4412826144
30
12.3691078681
10
12.9067933330
20
32.9275881514
30
12.3691078681
10
13.0138208438
20
33.4152282174
30
12.3691078681
10
13.0278288493
20
33.9184485890
30
12.3691078681
10
12.9052913690
20
34.4800911875
30
12.3691078681
10
12.5367987842
20
35.0595256981
30
12.3691078681
10
12.1581679092
20
35.3505252214
30
12.3691078681
10
11.9080404056
20
35.4407596018
30
12.3691078681
11
12.0543703734
21
32.0065941030
31
12.3691078681
11
12.6051981808
21
32.4533083932
31
12.3691078681
11
12.9120784449
21
33.0205489292
31
12.3691078681
11
12.9983729345
21
33.3974049598
31
12.3691078681
11
13.0113275740
21
33.8391857521
31
12.3691078681
11
12.8566486403
21
34.5007839429
31
12.3691078681
11
12.5566212202
21
34.9763276586
31
12.3691078681
11
11.9080404056
21
35.4407596018
31
12.3691078681
0
SPLINE
5
2D8
100
AcDbEntity
8
CURVE
100
AcDbSpline
62
0
6
CONTINUOUS
70
0
71
3
72
8
73
4
74
2
42
0.0000001000
43
0.0000001000
44
0.0000000001
12
-0.4112084609
22
1.5092810380
32
0.0000000000
13
-1.4528341224
23
0.5793176063
33
0.0000000000
40
0.0000000000
40
0.0000000000
40
0.0000000000
40
0.0000000000
40
1.0000000000
40
1.0000000000
40
1.0000000000
40
1.0000000000
10
12.8723378809
20
30.6332575086
30
12.3691078681
10
12.7352683939
20
31.1363511879
30
12.3691078681
10
12.5386484142
20
31.7733112257
30
12.3691078681
10
12.0543703734
20
31.9664170944
30
12.3691078681
11
12.8723378809
21
30.6332575086
31
12.3691078681
11
12.0543703734
21
31.9664170944
31
12.3691078681
0
SPLINE
5
2D9
100
AcDbEntity
8
CURVE
100
AcDbSpline
62
0
6
CONTINUOUS
70
0
71
3
72
9
73
5
74
3
42
0.0000001000
43
0.0000001000
44
0.0000000001
12
-0.4989166779
22
1.8369730522
32
0.0000000000
13
-0.5003807155
23
1.8365748702
33
-0.0000000000
40
0.0000000000
40
0.0000000000
40
0.0000000000
40
0.0000000000
40
0.1979731382
40
1.0000000000
40
1.0000000000
40
1.0000000000
40
1.0000000000
10
13.3576248358
20
28.7926373607
30
12.3691078681
10
13.3247008023
20
28.9138611340
30
12.3691078681
10
13.1635190098
20
29.5275618285
30
12.3691078681
10
13.0061108033
20
30.1422633814
30
12.3691078681
10
12.8723378783
20
30.6332575079
30
12.3691078681
11
13.3576248358
21
28.7926373607
31
12.3691078681
11
13.2610293713
21
29.1568928658
31
12.3691078681
11
12.8723378783
21
30.6332575079
31
12.3691078681
0
SPLINE
5
2DA
100
AcDbEntity
8
CURVE
100
AcDbSpline
62
0
6
CONTINUOUS
70
0
71
3
72
9
73
5
74
3
42
0.0000001000
43
0.0000001000
44
0.0000000001
12
0.0261348117
22
-1.6937326311
32
0.0000000000
13
-1.6935118722
23
-0.0378258214
33
-0.0000000000
40
0.0000000000
40
0.0000000000
40
0.0000000000
40
0.0000000000
40
0.5206208722
40
1.0000000000
40
1.0000000000
40
1.0000000000
40
1.0000000000
10
11.6855882629
20
33.6235657403
30
12.3691078681
10
11.6901237058
20
33.3296348870
30
12.3691078681
10
11.4824758252
20
32.6875458298
30
12.3691078681
10
10.8537282861
20
32.5730260981
30
12.3691078681
10
10.5831168714
20
32.5669817951
30
12.3691078681
11
11.6855882629
21
33.6235657403
31
12.3691078681
11
11.3597746474
21
32.8040605613
31
12.3691078681
11
10.5831168714
21
32.5669817951
31
12.3691078681
0
SPLINE
5
2DB
100
AcDbEntity
8
CURVE
100
AcDbSpline
62
0
6
CONTINUOUS
70
0
71
3
72
11
73
7
74
5
42
0.0000001000
43
0.0000001000
44
0.0000000001
12
2.3351664751
22
0.3984598263
32
0.0000000000
13
0.0370465057
23
-2.3686283491
33
0.0000000000
40
0.0000000000
40
0.0000000000
40
0.0000000000
40
0.0000000000
40
0.2429387748
40
0.4710498328
40
0.7362395484
40
1.0000000000
40
1.0000000000
40
1.0000000000
40
1.0000000000
10
9.7720307641
20
34.4334791683
30
12.3691078681
10
9.9611315916
20
34.4657462823
30
12.3691078681
10
10.3322386577
20
34.5068009912
30
12.3691078681
10
10.9128424568
20
34.5057160448
30
12.3691078681
10
11.5118876591
20
34.2730129822
30
12.3691078681
10
11.6823311286
20
33.8318159013
30
12.3691078681
10
11.6855882629
20
33.6235657403
30
12.3691078681
11
9.7720307641
21
34.4334791683
31
12.3691078681
11
10.3440177829
21
34.4969886687
31
12.3691078681
11
10.8838835892
21
34.4735032188
31
12.3691078681
11
11.4506572842
21
34.2025442213
31
12.3691078681
11
11.6855882629
21
33.6235657403
31
12.3691078681
0
SPLINE
5
2DC
100
AcDbEntity
8
CURVE
100
AcDbSpline
62
0
6
CONTINUOUS
70
0
71
3
72
9
73
5
74
3
42
0.0000001000
43
0.0000001000
44
0.0000000001
12
0.7572598380
22
-2.0156714382
32
0.0000000000
13
0.5949594675
23
-2.0693953322
33
0.0000000000
40
0.0000000000
40
0.0000000000
40
0.0000000000
40
0.0000000000
40
0.2222346949
40
1.0000000000
40
1.0000000000
40
1.0000000000
40
1.0000000000
10
11.3718710881
20
30.8543603252
30
12.3691078681
10
11.4279675578
20
30.7050429495
30
12.3691078681
10
11.6323796177
20
30.0162678201
30
12.3691078681
10
11.8382270297
20
29.3291386580
30
12.3691078681
10
11.9924733069
20
28.7926373607
30
12.3691078681
11
11.3718710881
21
30.8543603252
31
12.3691078681
11
11.5188933509
21
30.3989847795
31
12.3691078681
11
11.9924733069
21
28.7926373607
31
12.3691078681
0
ENDSEC
0
SECTION
2
OBJECTS
0
DICTIONARY
5
C
100
AcDbDictionary
280
0
281
1
3
ACAD_GROUP
350
D
3
ACAD_MLINESTYLE
350
17
3
ACAD_LAYOUT
350
1A
3
ACAD_PLOTSETTINGS
350
19
3
ACAD_PLOTSTYLENAME
350
E
0
DICTIONARY
5
D
102
{ACAD_REACTORS
330
C
102
}
100
AcDbDictionary
280
0
281
1
0
ACDBDICTIONARYWDFLT
5
E
102
{ACAD_REACTORS
330
C
102
}
100
AcDbDictionary
281
1
3
Normal
350
F
100
AcDbDictionaryWithDefault
340
F
0
DICTIONARY
5
17
102
{ACAD_REACTORS
330
C
102
}
100
AcDbDictionary
280
0
281
1
3
Standard
350
18
0
DICTIONARY
5
19
102
{ACAD_REACTORS
330
C
102
}
100
AcDbDictionary
281
1
0
DICTIONARY
5
1A
102
{ACAD_REACTORS
330
C
102
}
100
AcDbDictionary
281
1
3
Layout1
350
1E
3
Model
350
22
0
ACDBPLACEHOLDER
5
F
102
{ACAD_REACTORS
330
E
102
}
0
MLINESTYLE
5
18
102
{ACAD_REACTORS
330
17
102
}
100
AcDbMlineStyle
2
STANDARD
70
0
3

62
256
51
90.0
52
90.0
71
2
49
0.5
62
256
6
BYLAYER
49
-0.5
62
256
6
BYLAYER
0
LAYOUT
5
1E
102
{ACAD_REACTORS
330
1A
102
}
100
AcDbPlotSettings
1

2

4

6

40
0.0
41
0.0
42
0.0
43
0.0
44
0.0
45
0.0
46
0.0
47
0.0
48
0.0
49
0.0
140
0.0
141
0.0
142
1.0
143
1.0
70
0
72
0
73
0
74
0
7

75
0
147
1.0
148
0.0
149
0.0
100
AcDbLayout
1
Layout1
70
0
71
0
10
0.0
20
0.0
11
0.0
21
0.0
12
0.0
22
0.0
32
0.0
14
0.0
24
0.0
34
0.0
15
0.0
25
0.0
35
0.0
146
0.0
13
0.0
23
0.0
33
0.0
16
0.0
26
0.0
36
0.0
17
0.0
27
0.0
37
0.0
76
0
330
1B
331
0
345
0
346
0
0
LAYOUT
5
22
102
{ACAD_REACTORS
330
1A
102
}
100
AcDbPlotSettings
1

2

4

6

40
0.0
41
0.0
42
0.0
43
0.0
44
0.0
45
0.0
46
0.0
47
0.0
48
0.0
49
0.0
140
0.0
141
0.0
142
1.0
143
1.0
70
0
72
0
73
0
74
0
7

75
0
147
1.0
148
0.0
149
0.0
100
AcDbLayout
1
Model
70
0
71
0
10
0.0
20
0.0
11
0.0
21
0.0
12
0.0
22
0.0
32
0.0
14
0.0
24
0.0
34
0.0
15
0.0
25
0.0
35
0.0
146
0.0
13
0.0
23
0.0
33
0.0
16
0.0
26
0.0
36
0.0
17
0.0
27
0.0
37
0.0
76
0
330
1F
331
0
345
0
346
0
0
ENDSEC
0
EOF
