  0
SECTION
  2
HEADER
  9
$ACADVER
  1
AC1015
  9
$DWGCODEPAGE
  3
ANSI_1252
  9
$EXTMAX
 10
297.0
 20
210.0
 30
0.0
  9
$EXTMIN
 10
0.0
 20
0.0
 30
0.0
  9
$LIMMIN
 10
0.0
 20
0.0
  9
$LIMMAX
 10
297.0
 20
210.0
  9
$VIEWCTR
 10
148.5
 20
105.0
  9
$VIEWSIZE
 40
210.0
  9
$CLAYER
  8
0
  9
$LTSCALE
 40
16.335
  9
$CELTYPE
  6
BYLAYER
  9
$DIMSCALE
 40
1.0
  9
$DIMASZ
 40
3.0
  9
$DIMEXO
 40
0.5
  9
$DIMDLI
 40
11.286
  9
$DIMEXE
 40
1.5
  9
$DIMCEN
 40
2.673
  9
$DIMLFAC
 40
1.0
  9
$DIMBLK
  1
_FILLED
  9
$DIMTXT
 40
3.0
  9
$DIMTOL
 70
1
  9
$DIMLIM
 70
0
  9
$DIMTFAC
 40
1.0
  9
$DIMTP
 40
0.01
  9
$DIMTM
 40
0.01
  9
$DIMGAP
 40
0.625
  9
$DIMDSEP
 70
44
  9
$PDMODE
 70
3
  9
$PDSIZE
 40
3.0
  9
$HANDSEED
  5
53B
  9
$TILEMODE
 70
1
  9
$MEASUREMENT
 70
1
  9
$INSUNITS
 70
4
  0
ENDSEC
  0
SECTION
  2
CLASSES
  0
CLASS
  1
ACDBDICTIONARYWDFLT
  2
AcDbDictionaryWithDefault
  3
AutoCAD 2000
 90
0
280
0
281
0
  0
CLASS
  1
ACDBPLACEHOLDER
  2
AcDbPlaceHolder
  3
AutoCAD 2000
 90
0
280
0
281
0
  0
CLASS
  1
LAYOUT
  2
AcDbLayout
  3
AutoCAD 2000
 90
0
280
0
281
0
  0
ENDSEC
  0
SECTION
  2
TABLES
  0
TABLE
  2
VPORT
  5
8
100
AcDbSymbolTable
 70
2
  0
VPORT
  5
1F4
100
AcDbSymbolTableRecord
100
AcDbViewportTableRecord
  2
*ACTIVE
 70
0
 10
0.0
 20
0.0
 11
1.0
 21
1.0
 12
148.5
 22
105.0
 13
0.0
 23
0.0
 14
1.0
 24
1.0
 15
0.0
 25
0.0
 16
0.0
 26
0.0
 36
1.0
 17
0.0
 27
0.0
 37
0.0
 40
210.0
 41
1.4142857143
 42
50.0
 43
0.0
 44
0.0
 50
0.0
 51
0.0
 71
0
 72
100
 73
1
 74
1
 75
0
 76
0
 77
0
 78
0
  0
ENDTAB
  0
TABLE
  2
LTYPE
  5
5
100
AcDbSymbolTable
 70
6
  0
LTYPE
  5
14
100
AcDbSymbolTableRecord
100
AcDbLinetypeTableRecord
  2
BYBLOCK
 70
0
  3

 72
65
 73
0
 40
0.0
  0
LTYPE
  5
15
100
AcDbSymbolTableRecord
100
AcDbLinetypeTableRecord
  2
BYLAYER
 70
0
  3

 72
65
 73
0
 40
0.0
  0
LTYPE
  5
16
100
AcDbSymbolTableRecord
100
AcDbLinetypeTableRecord
  2
CONTINUOUS
 70
64
  3
Solid line
 72
65
 73
0
 40
0.0
  0
LTYPE
  5
1F5
100
AcDbSymbolTableRecord
100
AcDbLinetypeTableRecord
  2
CENTER
 70
64
  3
____ _ ____ _ ____ _ ____ _ ____ _ ____ _ ____
 72
65
 73
4
 40
0.6
 49
0.375
 74
0
 49
-0.075
 74
0
 49
0.075
 74
0
 49
-0.075
 74
0
  0
LTYPE
  5
1F6
100
AcDbSymbolTableRecord
100
AcDbLinetypeTableRecord
  2
HIDDEN
 70
64
  3
- - - - - - - - - - - - - - - - - - - -
 72
65
 73
2
 40
0.2
 49
0.1
 74
0
 49
-0.1
 74
0
  0
LTYPE
  5
1F7
100
AcDbSymbolTableRecord
100
AcDbLinetypeTableRecord
  2
PHANTOM
 70
64
  3
_____ _ _ _____ _ _ _____ _ _ _____
 72
65
 73
6
 40
0.8
 49
0.45
 74
0
 49
-0.05
 74
0
 49
0.1
 74
0
 49
-0.05
 74
0
 49
0.1
 74
0
 49
-0.05
 74
0
  0
LTYPE
  5
1F8
100
AcDbSymbolTableRecord
100
AcDbLinetypeTableRecord
  2
DOT
 70
64
  3
. . . . . . . . . . . . . . . . . . . .
 72
65
 73
2
 40
0.2
 49
0.1
 74
0
 49
-0.1
 74
0
  0
LTYPE
  5
1F9
100
AcDbSymbolTableRecord
100
AcDbLinetypeTableRecord
  2
DASHED
 70
64
  3
- - - - - - - - - - - - - - - - - - - -
 72
65
 73
2
 40
0.2
 49
0.1
 74
0
 49
-0.1
 74
0
  0
ENDTAB
  0
TABLE
  2
LAYER
  5
2
100
AcDbSymbolTable
 70
36
  0
LAYER
  5
10
100
AcDbSymbolTableRecord
100
AcDbLayerTableRecord
  2
0
 70
0
 62
7
  6
CONTINUOUS
370
-3
390
F
  0
LAYER
  5
1FA
100
AcDbSymbolTableRecord
100
AcDbLayerTableRecord
  2
DEFAULT_1
 70
0
 62
7
  6
CENTER
370
-3
390
F
  0
LAYER
  5
1FB
100
AcDbSymbolTableRecord
100
AcDbLayerTableRecord
  2
DEFAULT_2
 70
0
 62
7
  6
HIDDEN
370
-3
390
F
  0
LAYER
  5
1FC
100
AcDbSymbolTableRecord
100
AcDbLayerTableRecord
  2
DEFAULT_3
 70
0
 62
7
  6
PHANTOM
370
-3
390
F
  0
LAYER
  5
1FD
100
AcDbSymbolTableRecord
100
AcDbLayerTableRecord
  2
ASSI
 70
0
 62
7
  6
CONTINUOUS
370
-3
390
F
  0
LAYER
  5
1FE
100
AcDbSymbolTableRecord
100
AcDbLayerTableRecord
  2
COLOR5
 70
0
 62
7
  6
CONTINUOUS
370
-3
390
F
  0
LAYER
  5
1FF
100
AcDbSymbolTableRecord
100
AcDbLayerTableRecord
  2
COLORE_MATERIALE
 70
0
 62
7
  6
CONTINUOUS
370
-3
390
F
  0
LAYER
  5
200
100
AcDbSymbolTableRecord
100
AcDbLayerTableRecord
  2
COORDINATE
 70
0
 62
7
  6
CONTINUOUS
370
-3
390
F
  0
LAYER
  5
201
100
AcDbSymbolTableRecord
100
AcDbLayerTableRecord
  2
COORD_ORIGINE
 70
0
 62
7
  6
CONTINUOUS
370
-3
390
F
  0
LAYER
  5
202
100
AcDbSymbolTableRecord
100
AcDbLayerTableRecord
  2
COPY
 70
0
 62
7
  6
CONTINUOUS
370
-3
390
F
  0
LAYER
  5
203
100
AcDbSymbolTableRecord
100
AcDbLayerTableRecord
  2
COPY_PUBLISH
 70
0
 62
7
  6
CONTINUOUS
370
-3
390
F
  0
LAYER
  5
204
100
AcDbSymbolTableRecord
100
AcDbLayerTableRecord
  2
COSMETICI
 70
0
 62
7
  6
CONTINUOUS
370
-3
390
F
  0
LAYER
  5
205
100
AcDbSymbolTableRecord
100
AcDbLayerTableRecord
  2
CURVE
 70
0
 62
7
  6
CONTINUOUS
370
-3
390
F
  0
LAYER
  5
206
100
AcDbSymbolTableRecord
100
AcDbLayerTableRecord
  2
DRAFT
 70
0
 62
7
  6
CONTINUOUS
370
-3
390
F
  0
LAYER
  5
207
100
AcDbSymbolTableRecord
100
AcDbLayerTableRecord
  2
IMPORT
 70
0
 62
7
  6
CONTINUOUS
370
-3
390
F
  0
LAYER
  5
208
100
AcDbSymbolTableRecord
100
AcDbLayerTableRecord
  2
IMPORT_COPY
 70
0
 62
7
  6
CONTINUOUS
370
-3
390
F
  0
LAYER
  5
209
100
AcDbSymbolTableRecord
100
AcDbLayerTableRecord
  2
IMPORT_IGES
 70
0
 62
7
  6
CONTINUOUS
370
-3
390
F
  0
LAYER
  5
20A
100
AcDbSymbolTableRecord
100
AcDbLayerTableRecord
  2
INTFCLR_1
 70
0
 62
7
  6
CONTINUOUS
370
-3
390
F
  0
LAYER
  5
20B
100
AcDbSymbolTableRecord
100
AcDbLayerTableRecord
  2
NOTE
 70
0
 62
7
  6
CONTINUOUS
370
-3
390
F
  0
LAYER
  5
20C
100
AcDbSymbolTableRecord
100
AcDbLayerTableRecord
  2
PIANI
 70
0
 62
7
  6
CONTINUOUS
370
-3
390
F
  0
LAYER
  5
20D
100
AcDbSymbolTableRecord
100
AcDbLayerTableRecord
  2
PIANI_MOLLE
 70
0
 62
7
  6
CONTINUOUS
370
-3
390
F
  0
LAYER
  5
20E
100
AcDbSymbolTableRecord
100
AcDbLayerTableRecord
  2
PIANI_ORIGINE
 70
0
 62
7
  6
CONTINUOUS
370
-3
390
F
  0
LAYER
  5
20F
100
AcDbSymbolTableRecord
100
AcDbLayerTableRecord
  2
PIANI_RIFERIMENTO
 70
0
 62
7
  6
CONTINUOUS
370
-3
390
F
  0
LAYER
  5
210
100
AcDbSymbolTableRecord
100
AcDbLayerTableRecord
  2
PUNTI
 70
0
 62
7
  6
CONTINUOUS
370
-3
390
F
  0
LAYER
  5
211
100
AcDbSymbolTableRecord
100
AcDbLayerTableRecord
  2
RACCORDO
 70
0
 62
7
  6
CONTINUOUS
370
-3
390
F
  0
LAYER
  5
212
100
AcDbSymbolTableRecord
100
AcDbLayerTableRecord
  2
SIMBOLI
 70
0
 62
7
  6
CONTINUOUS
370
-3
390
F
  0
LAYER
  5
213
100
AcDbSymbolTableRecord
100
AcDbLayerTableRecord
  2
SMUSSO
 70
0
 62
7
  6
CONTINUOUS
370
-3
390
F
  0
LAYER
  5
214
100
AcDbSymbolTableRecord
100
AcDbLayerTableRecord
  2
SNAPLINE
 70
0
 62
7
  6
CONTINUOUS
370
-3
390
F
  0
LAYER
  5
215
100
AcDbSymbolTableRecord
100
AcDbLayerTableRecord
  2
SUPERFICI
 70
0
 62
7
  6
CONTINUOUS
370
-3
390
F
  0
LAYER
  5
216
100
AcDbSymbolTableRecord
100
AcDbLayerTableRecord
  2
TRASH
 70
0
 62
7
  6
CONTINUOUS
370
-3
390
F
  0
LAYER
  5
217
100
AcDbSymbolTableRecord
100
AcDbLayerTableRecord
  2
XSEC_DATUMS
 70
0
 62
7
  6
CONTINUOUS
370
-3
390
F
  0
ENDTAB
  0
TABLE
  2
STYLE
  5
3
100
AcDbSymbolTable
 70
1
  0
STYLE
  5
11
100
AcDbSymbolTableRecord
100
AcDbTextStyleTableRecord
  2
STANDARD
 70
0
 40
0.0
 41
0.8
 50
0.0
 71
0
 42
0.2
  3
txt
  4

  0
STYLE
  5
218
100
AcDbSymbolTableRecord
100
AcDbTextStyleTableRecord
  2
TEXTSTYLE_1
 70
0
 40
0.0
 41
0.8
 50
0.0
 71
0
 42
0.2
  3
gdt
  4

  0
ENDTAB
  0
TABLE
  2
VIEW
  5
6
100
AcDbSymbolTable
 70
0
  0
ENDTAB
  0
TABLE
  2
UCS
  5
7
100
AcDbSymbolTable
 70
0
  0
ENDTAB
  0
TABLE
  2
APPID
  5
9
100
AcDbSymbolTable
 70
1
  0
APPID
  5
219
100
AcDbSymbolTableRecord
100
AcDbRegAppTableRecord
  2
ACAD
 70
0
  0
ENDTAB
  0
TABLE
  2
BLOCK_RECORD
  5
1
100
AcDbSymbolTable
 70
0
  0
BLOCK_RECORD
  5
21A
100
AcDbSymbolTableRecord
100
AcDbBlockTableRecord
  2
*Model_Space
  0
BLOCK_RECORD
  5
21B
100
AcDbSymbolTableRecord
100
AcDbBlockTableRecord
  2
*Paper_Space
  0
ENDTAB
  0
TABLE
  2
DIMSTYLE
  5
A
100
AcDbSymbolTable
 70
1
100
AcDbDimStyleTable
 71
0
  0
DIMSTYLE
105
21C
100
AcDbSymbolTableRecord
100
AcDbDimStyleTableRecord
  2
STANDARD
 70
0
  3

  4

 40
1.0
 41
3.0
 42
0.5
 43
0.38
 44
1.5
 45
0.0
 46
0.0
 47
0.01
 48
0.01
140
3.0
141
0.09
142
0.0
143
25.4
144
1.0
145
0.0
146
1.0
147
0.625
 71
1.0
 72
0.0
 73
0
 74
0
 75
0
 76
0
 77
1
 78
8
170
0
171
2
172
0
173
0
174
0
175
0
176
0
177
0
178
0
270
2
271
2
272
2
273
2
274
2
275
0
280
0
281
0
282
0
283
1
284
8
285
0
286
0
287
3
288
0
340
11
278
44
  0
ENDTAB
  0
ENDSEC
  0
SECTION
  2
BLOCKS
  0
BLOCK
  5
20
100
AcDbEntity
  8
0
100
AcDbBlockBegin
  2
*Model_Space
 70
0
 10
0.0
 20
0.0
 30
0.0
  3
*Model_Space
  1

  0
ENDBLK
  5
21
100
AcDbEntity
  8
0
100
AcDbBlockEnd
  0
BLOCK
  5
1C
100
AcDbEntity
  8
0
100
AcDbBlockBegin
  2
*Paper_Space
 70
0
 10
0.0
 20
0.0
 30
0.0
  3
*Paper_Space
  1

  0
ENDBLK
  5
1D
100
AcDbEntity
  8
0
100
AcDbBlockEnd
  0
ENDSEC
  0
SECTION
  2
ENTITIES
  0
LWPOLYLINE
  5
21D
100
AcDbEntity
  8
RACCORDO
100
AcDbPolyline
 62
253
  6
CONTINUOUS
 90
16
 70
0
 10
60.2357984205
 20
-86.119394067
 10
60.4133612137
 20
-86.0917142317
 10
60.5863108291
 20
-86.0483796534
 10
60.7534467139
 20
-85.9900311201
 10
60.9133170237
 20
-85.9176152621
 10
61.0651590749
 20
-85.8317583614
 10
61.2087891474
 20
-85.7325158374
 10
61.3435067564
 20
-85.6202311085
 10
61.4678177926
 20
-85.4960581142
 10
61.5803722472
 20
-85.3612475441
 10
61.6800536503
 20
-85.2170595714
 10
61.7663612956
 20
-85.0643704578
 10
61.8389547057
 20
-84.9039492636
 10
61.8972149417
 20
-84.7367970441
 10
61.9403645736
 20
-84.5641935356
 10
61.967849228
 20
-84.3873432594
  0
LINE
  5
21E
100
AcDbEntity
  8
SUPERFICI
100
AcDbLine
 62
7
  6
CONTINUOUS
 10
-52.8911621381
 20
75.2577379562
 11
-51.2238699729
 21
78.0616511972
  0
LWPOLYLINE
  5
21F
100
AcDbEntity
  8
RACCORDO
100
AcDbPolyline
 62
253
  6
CONTINUOUS
 90
16
 70
0
 10
60.2357984205
 20
-85.2533686632
 10
60.3345496195
 20
-85.2484284293
 10
60.4286564088
 20
-85.2350295579
 10
60.5181187883
 20
-85.2131720489
 10
60.6034046417
 20
-85.1826109698
 10
60.6840460852
 20
-85.143591253
 10
60.7586394679
 20
-85.0968476969
 10
60.8272617333
 20
-85.0421110201
 10
60.8898359379
 20
-84.979650504
 10
60.9447275994
 20
-84.9110087907
 10
60.9916752749
 20
-84.8361480719
 10
61.0309404074
 20
-84.7551061559
 10
61.0616728439
 20
-84.66953911
 10
61.0835892001
 20
-84.5799989565
 10
61.0969728602
 20
-84.4859336729
 10
61.1018238242
 20
-84.3873432594
  0
LINE
  5
220
100
AcDbEntity
  8
ASSI
100
AcDbLine
 62
7
  6
CONTINUOUS
 10
63.355285924
 20
-89.5061454129
 11
-62.6460847761
 21
-89.5061454129
  0
LINE
  5
221
100
AcDbEntity
  8
COPY
100
AcDbLine
 62
7
  6
CONTINUOUS
 10
63.355285924
 20
-89.5061454129
 11
-62.6460847761
 21
-89.5061454129
  0
LINE
  5
222
100
AcDbEntity
  8
RACCORDO
100
AcDbLine
 62
7
  6
CONTINUOUS
 10
63.1225497664
 20
-89.0061454129
 11
-62.4133486185
 21
-89.0061454129
  0
LINE
  5
223
100
AcDbEntity
  8
RACCORDO
100
AcDbLine
 62
253
  6
CONTINUOUS
 10
-59.5265972725
 20
-86.119394067
 11
60.2357984205
 21
-86.119394067
  0
LINE
  5
224
100
AcDbEntity
  8
RACCORDO
100
AcDbLine
 62
253
  6
CONTINUOUS
 10
-59.5265972725
 20
-85.2533686632
 11
60.2357984205
 21
-85.2533686632
  0
LINE
  5
225
100
AcDbEntity
  8
RACCORDO
100
AcDbLine
 62
7
  6
CONTINUOUS
 10
-55.5098062057
 20
-75.7338263252
 11
-53.7605160712
 21
-78.6756369291
  0
LWPOLYLINE
  5
226
100
AcDbEntity
  8
SUPERFICI
100
AcDbPolyline
 62
253
  6
CONTINUOUS
 90
16
 70
0
 10
-61.2586480801
 20
85.3750524335
 10
-61.2309682447
 20
85.5526152268
 10
-61.1876336665
 20
85.7255648422
 10
-61.1292851332
 20
85.892700727
 10
-61.0568692752
 20
86.0525710368
 10
-60.9710123745
 20
86.204413088
 10
-60.8717698505
 20
86.3480431605
 10
-60.7594851215
 20
86.4827607695
 10
-60.6353121273
 20
86.6070718056
 10
-60.5005015571
 20
86.7196262603
 10
-60.3563135845
 20
86.8193076634
 10
-60.2036244709
 20
86.9056153087
 10
-60.0432032767
 20
86.9782087188
 10
-59.8760510572
 20
87.0364689548
 10
-59.7034475487
 20
87.0796185867
 10
-59.5265972725
 20
87.1071032411
  0
LINE
  5
227
100
AcDbEntity
  8
SUPERFICI
100
AcDbLine
 62
7
  6
CONTINUOUS
 10
-46.780992641
 20
71.8422103663
 11
-45.3050290905
 21
74.3243630616
  0
LINE
  5
228
100
AcDbEntity
  8
RACCORDO
100
AcDbLine
 62
253
  6
CONTINUOUS
 10
61.1018238242
 20
-84.3873432594
 11
61.967849228
 21
-84.3873432594
  0
LINE
  5
229
100
AcDbEntity
  8
RACCORDO
100
AcDbLine
 62
253
  6
CONTINUOUS
 10
-60.3926226763
 20
-84.3873432594
 11
-61.25864808
 21
-84.3873432583
  0
LINE
  5
22A
100
AcDbEntity
  8
RACCORDO
100
AcDbLine
 62
7
  6
CONTINUOUS
 10
-49.3996367142
 20
-72.3182987254
 11
-47.8416751828
 21
-74.9383488031
  0
LINE
  5
22B
100
AcDbEntity
  8
RACCORDO
100
AcDbLine
 62
7
  6
CONTINUOUS
 10
-19.345399426
 20
-76.0061454129
 11
20.054600574
 21
-76.0061454129
  0
LINE
  5
22C
100
AcDbEntity
  8
RACCORDO
100
AcDbLine
 62
253
  6
CONTINUOUS
 10
-19.645399426
 20
-75.7061454129
 11
20.354600574
 21
-75.7061454129
  0
LINE
  5
22D
100
AcDbEntity
  8
RACCORDO
100
AcDbLine
 62
253
  6
CONTINUOUS
 10
-19.645399426
 20
-71.3061454129
 11
20.354600574
 21
-71.3061454129
  0
LINE
  5
22E
100
AcDbEntity
  8
RACCORDO
100
AcDbLine
 62
7
  6
CONTINUOUS
 10
20.054600574
 20
-71.0061454129
 11
-19.345399426
 21
-71.0061454129
  0
LINE
  5
22F
100
AcDbEntity
  8
RACCORDO
100
AcDbLine
 62
253
  6
CONTINUOUS
 10
14.354600574
 20
-69.8035387761
 11
-13.645399426
 21
-69.8035387761
  0
LINE
  5
230
100
AcDbEntity
  8
RACCORDO
100
AcDbLine
 62
7
  6
CONTINUOUS
 10
14.354600574
 20
-69.5035501992
 11
-13.645399426
 21
-69.5035501992
  0
LWPOLYLINE
  5
231
100
AcDbEntity
  8
RACCORDO
100
AcDbPolyline
 62
253
  6
CONTINUOUS
 90
16
 70
0
 10
-61.2586480801
 20
-84.3873432594
 10
-61.2309682447
 20
-84.5649060527
 10
-61.1876336665
 20
-84.7378556681
 10
-61.1292851332
 20
-84.9049915529
 10
-61.0568692752
 20
-85.0648618626
 10
-60.9710123745
 20
-85.2167039138
 10
-60.8717698505
 20
-85.3603339864
 10
-60.7594851215
 20
-85.4950515954
 10
-60.6353121273
 20
-85.6193626315
 10
-60.5005015571
 20
-85.7319170862
 10
-60.3563135845
 20
-85.8315984893
 10
-60.2036244709
 20
-85.9179061346
 10
-60.0432032767
 20
-85.9904995446
 10
-59.8760510572
 20
-86.0487597807
 10
-59.7034475487
 20
-86.0919094125
 10
-59.5265972725
 20
-86.119394067
  0
LWPOLYLINE
  5
232
100
AcDbEntity
  8
RACCORDO
100
AcDbPolyline
 62
253
  6
CONTINUOUS
 90
16
 70
0
 10
-60.3926226763
 20
-84.3873432594
 10
-60.3876824424
 20
-84.4860944585
 10
-60.374283571
 20
-84.5802012478
 10
-60.352426062
 20
-84.6696636273
 10
-60.3218649828
 20
-84.7549494806
 10
-60.2828452661
 20
-84.8355909242
 10
-60.23610171
 20
-84.9101843068
 10
-60.1813650332
 20
-84.9788065723
 10
-60.1189045171
 20
-85.0413807768
 10
-60.0502628038
 20
-85.0962724384
 10
-59.975402085
 20
-85.1432201139
 10
-59.894360169
 20
-85.1824852464
 10
-59.8087931231
 20
-85.2132176829
 10
-59.7192529696
 20
-85.235134039
 10
-59.625187686
 20
-85.2485176991
 10
-59.5265972725
 20
-85.2533686632
  0
LINE
  5
233
100
AcDbEntity
  8
ASSI
100
AcDbLine
 62
7
  6
CONTINUOUS
 10
-64.645399426
 20
-87.506830763
 11
-64.645399426
 21
-1.5054600629
  0
LINE
  5
234
100
AcDbEntity
  8
COPY
100
AcDbLine
 62
7
  6
CONTINUOUS
 10
-64.645399426
 20
-87.506830763
 11
-64.645399426
 21
-1.5054600629
  0
LINE
  5
235
100
AcDbEntity
  8
ASSI
100
AcDbLine
 62
7
  6
CONTINUOUS
 10
-64.645399426
 20
2.493169237
 11
-64.645399426
 21
88.4945399371
  0
LINE
  5
236
100
AcDbEntity
  8
RACCORDO
100
AcDbLine
 62
7
  6
CONTINUOUS
 10
-64.645399426
 20
2.493169237
 11
-64.645399426
 21
88.4945399371
  0
LINE
  5
237
100
AcDbEntity
  8
SUPERFICI
100
AcDbLine
 62
7
  6
CONTINUOUS
 10
-64.145399426
 20
88.2618037795
 11
-64.145399426
 21
2.4938545871
  0
LINE
  5
238
100
AcDbEntity
  8
0
100
AcDbLine
 62
7
  6
CONTINUOUS
 10
-64.145399426
 20
-87.2740946054
 11
-64.145399426
 21
-1.5061454129
  0
LINE
  5
239
100
AcDbEntity
  8
0
100
AcDbLine
 62
7
  6
CONTINUOUS
 10
-62.954032338
 20
0.2438545871
 11
-62.954032338
 21
0.7438545871
  0
LINE
  5
23A
100
AcDbEntity
  8
RACCORDO
100
AcDbLine
 62
253
  6
CONTINUOUS
 10
-61.2586480801
 20
-1.5061454129
 11
-61.2586480801
 21
-84.3873432594
  0
LINE
  5
23B
100
AcDbEntity
  8
SUPERFICI
100
AcDbLine
 62
253
  6
CONTINUOUS
 10
-61.2586480801
 20
2.4938545871
 11
-61.2586480801
 21
85.3750524335
  0
LINE
  5
23C
100
AcDbEntity
  8
RACCORDO
100
AcDbLine
 62
253
  6
CONTINUOUS
 10
-60.3926226763
 20
-1.5074675956
 11
-60.3926226763
 21
-84.3873432594
  0
LINE
  5
23D
100
AcDbEntity
  8
SUPERFICI
100
AcDbLine
 62
253
  6
CONTINUOUS
 10
-60.3926226763
 20
2.4951767697
 11
-60.3926226763
 21
85.3750524335
  0
LINE
  5
23E
100
AcDbEntity
  8
0
100
AcDbLine
 62
7
  6
CONTINUOUS
 10
-59.7786058575
 20
1.6102550745
 11
-59.7786058575
 21
-0.6225459004
  0
LINE
  5
23F
100
AcDbEntity
  8
RACCORDO
100
AcDbLine
 62
253
  6
CONTINUOUS
 10
-59.5265972725
 20
-85.2533686632
 11
-59.5265972725
 21
-86.119394067
  0
LINE
  5
240
100
AcDbEntity
  8
SUPERFICI
100
AcDbLine
 62
253
  6
CONTINUOUS
 10
-59.5265972725
 20
86.2410778373
 11
-59.5265972725
 21
87.1071032411
  0
LWPOLYLINE
  5
241
100
AcDbEntity
  8
SUPERFICI
100
AcDbPolyline
 62
253
  6
CONTINUOUS
 90
16
 70
0
 10
-60.3926226763
 20
85.3750524335
 10
-60.3876824424
 20
85.4738036326
 10
-60.374283571
 20
85.5679104219
 10
-60.352426062
 20
85.6573728014
 10
-60.3218649828
 20
85.7426586547
 10
-60.2828452661
 20
85.8233000983
 10
-60.23610171
 20
85.8978934809
 10
-60.1813650332
 20
85.9665157464
 10
-60.1189045171
 20
86.029089951
 10
-60.0502628038
 20
86.0839816125
 10
-59.975402085
 20
86.130929288
 10
-59.894360169
 20
86.1701944205
 10
-59.8087931231
 20
86.200926857
 10
-59.7192529696
 20
86.2228432131
 10
-59.625187686
 20
86.2362268732
 10
-59.5265972725
 20
86.2410778373
  0
LINE
  5
242
100
AcDbEntity
  8
RACCORDO
100
AcDbLine
 62
7
  6
CONTINUOUS
 10
-49.645399426
 20
-37.3061454129
 11
-49.645399426
 21
-51.7061454129
  0
LINE
  5
243
100
AcDbEntity
  8
SUPERFICI
100
AcDbLine
 62
7
  6
CONTINUOUS
 10
-49.645399426
 20
38.2938545871
 11
-49.645399426
 21
52.6938545871
  0
LINE
  5
244
100
AcDbEntity
  8
RACCORDO
100
AcDbLine
 62
253
  6
CONTINUOUS
 10
-49.345399426
 20
-37.0061454129
 11
-49.345399426
 21
-52.0061454129
  0
LINE
  5
245
100
AcDbEntity
  8
SUPERFICI
100
AcDbLine
 62
253
  6
CONTINUOUS
 10
-49.345399426
 20
37.9938545871
 11
-49.345399426
 21
52.9938545871
  0
LINE
  5
246
100
AcDbEntity
  8
RACCORDO
100
AcDbLine
 62
253
  6
CONTINUOUS
 10
-23.9427927892
 20
-59.5061454129
 11
-23.6428042123
 21
-59.5061454129
  0
LINE
  5
247
100
AcDbEntity
  8
RACCORDO
100
AcDbLine
 62
253
  6
CONTINUOUS
 10
24.6519939372
 20
-59.5061454129
 11
24.3520053602
 21
-59.5061454023
  0
LINE
  5
248
100
AcDbEntity
  8
RACCORDO
100
AcDbLine
 62
7
  6
CONTINUOUS
 10
-49.345399426
 20
-52.0061454129
 11
-46.945399426
 21
-52.0061454129
  0
LINE
  5
249
100
AcDbEntity
  8
RACCORDO
100
AcDbLine
 62
7
  6
CONTINUOUS
 10
47.654600574
 20
-52.0061454129
 11
50.054600574
 21
-52.0061454129
  0
LINE
  5
24A
100
AcDbEntity
  8
RACCORDO
100
AcDbLine
 62
253
  6
CONTINUOUS
 10
-46.645399426
 20
-51.7061454129
 11
-49.645399426
 21
-51.7061454129
  0
LINE
  5
24B
100
AcDbEntity
  8
RACCORDO
100
AcDbLine
 62
253
  6
CONTINUOUS
 10
47.354600574
 20
-51.7061454129
 11
50.354600574
 21
-51.7061454129
  0
LINE
  5
24C
100
AcDbEntity
  8
SUPERFICI
100
AcDbLine
 62
7
  6
CONTINUOUS
 10
-40.9523298573
 20
2.6438545871
 11
-40.9520661833
 21
2.2985064674
  0
LINE
  5
24D
100
AcDbEntity
  8
RACCORDO
100
AcDbLine
 62
253
  6
CONTINUOUS
 10
-46.945399426
 20
-37.0061454129
 11
-46.945399426
 21
-52.0061454129
  0
LINE
  5
24E
100
AcDbEntity
  8
SUPERFICI
100
AcDbLine
 62
253
  6
CONTINUOUS
 10
-46.945399426
 20
37.9938545871
 11
-46.945399426
 21
52.9938545871
  0
LINE
  5
24F
100
AcDbEntity
  8
SUPERFICI
100
AcDbLine
 62
7
  6
CONTINUOUS
 10
-46.645399426
 20
52.6938545871
 11
-46.645399426
 21
38.2938545871
  0
LINE
  5
250
100
AcDbEntity
  8
RACCORDO
100
AcDbLine
 62
7
  6
CONTINUOUS
 10
-46.645399426
 20
-51.7061454129
 11
-46.645399426
 21
-37.3061454129
  0
LINE
  5
251
100
AcDbEntity
  8
RACCORDO
100
AcDbLine
 62
7
  6
CONTINUOUS
 10
-44.795399426
 20
-42.0061454129
 11
-44.795399426
 21
-47.0061454129
  0
LINE
  5
252
100
AcDbEntity
  8
SUPERFICI
100
AcDbLine
 62
7
  6
CONTINUOUS
 10
-44.795399426
 20
42.9938545871
 11
-44.795399426
 21
47.9938545871
  0
LINE
  5
253
100
AcDbEntity
  8
RACCORDO
100
AcDbLine
 62
253
  6
CONTINUOUS
 10
-44.495399426
 20
-42.0061454129
 11
-44.495399426
 21
-47.0061454129
  0
LINE
  5
254
100
AcDbEntity
  8
SUPERFICI
100
AcDbLine
 62
253
  6
CONTINUOUS
 10
-44.495399426
 20
42.9938545871
 11
-44.495399426
 21
47.9938545871
  0
LINE
  5
255
100
AcDbEntity
  8
SUPERFICI
100
AcDbLine
 62
253
  6
CONTINUOUS
 10
-43.4971562231
 20
47.9938545871
 11
-43.4971562231
 21
42.9938545871
  0
LINE
  5
256
100
AcDbEntity
  8
RACCORDO
100
AcDbLine
 62
253
  6
CONTINUOUS
 10
-43.4971562231
 20
-47.0061454129
 11
-43.4971562231
 21
-42.0061454129
  0
LINE
  5
257
100
AcDbEntity
  8
SUPERFICI
100
AcDbLine
 62
7
  6
CONTINUOUS
 10
-43.1971676462
 20
47.9938545871
 11
-43.1971676462
 21
42.9938545871
  0
LINE
  5
258
100
AcDbEntity
  8
RACCORDO
100
AcDbLine
 62
7
  6
CONTINUOUS
 10
-43.1971676462
 20
-47.0061454129
 11
-43.1971676462
 21
-42.0061454129
  0
LINE
  5
259
100
AcDbEntity
  8
0
100
AcDbLine
 62
7
  6
CONTINUOUS
 10
-41.1164022831
 20
-1.6561454129
 11
-41.1164022831
 21
2.6438545871
  0
LINE
  5
25A
100
AcDbEntity
  8
DRAFT
100
AcDbLine
 62
7
  6
CONTINUOUS
 10
-41.0797466468
 20
-0.1026546658
 11
-41.0797466468
 21
-1.6561454129
  0
LINE
  5
25B
100
AcDbEntity
  8
SUPERFICI
100
AcDbLine
 62
7
  6
CONTINUOUS
 10
-41.0797466468
 20
1.0903638399
 11
-41.0797466468
 21
2.6438545871
  0
LINE
  5
25C
100
AcDbEntity
  8
0
100
AcDbLine
 62
7
  6
CONTINUOUS
 10
-41.020399426
 20
0.7632991263
 11
-41.020399426
 21
0.2244100478
  0
LINE
  5
25D
100
AcDbEntity
  8
RACCORDO
100
AcDbLine
 62
7
  6
CONTINUOUS
 10
-40.9523298573
 20
-1.6561454129
 11
-40.9520661833
 21
-1.3107972932
  0
LINE
  5
25E
100
AcDbEntity
  8
RACCORDO
100
AcDbLine
 62
7
  6
CONTINUOUS
 10
-53.7605160654
 20
-10.3366538875
 11
-55.5098062003
 21
-13.2784644912
  0
LINE
  5
25F
100
AcDbEntity
  8
SUPERFICI
100
AcDbLine
 62
253
  6
CONTINUOUS
 10
52.1867357301
 20
78.2218206888
 11
51.9330711207
 21
78.0616511975
  0
LINE
  5
260
100
AcDbEntity
  8
SUPERFICI
100
AcDbLine
 62
253
  6
CONTINUOUS
 10
-51.4775345822
 20
12.7658884854
 11
-51.2238699727
 21
12.9260579766
  0
LINE
  5
261
100
AcDbEntity
  8
SUPERFICI
100
AcDbLine
 62
253
  6
CONTINUOUS
 10
-45.5586936997
 20
16.503176621
 11
-45.3050290963
 21
16.6633461217
  0
LINE
  5
262
100
AcDbEntity
  8
SUPERFICI
100
AcDbLine
 62
253
  6
CONTINUOUS
 10
-47.5880105737
 20
15.2218206888
 11
-47.841675183
 21
15.0616511972
  0
LINE
  5
263
100
AcDbEntity
  8
SUPERFICI
100
AcDbLine
 62
253
  6
CONTINUOUS
 10
-53.5068514562
 20
11.4845325532
 11
-53.7605160654
 21
11.3243630616
  0
LINE
  5
264
100
AcDbEntity
  8
SUPERFICI
100
AcDbLine
 62
253
  6
CONTINUOUS
 10
48.2972117217
 20
75.7658884854
 11
48.5508763309
 21
75.9260579769
  0
LINE
  5
265
100
AcDbEntity
  8
SUPERFICI
100
AcDbLine
 62
253
  6
CONTINUOUS
 10
54.2160526041
 20
79.503176621
 11
54.4697172134
 21
79.6633461125
  0
LINE
  5
266
100
AcDbEntity
  8
SUPERFICI
100
AcDbLine
 62
253
  6
CONTINUOUS
 10
46.2678948477
 20
74.4845325532
 11
46.0142302443
 21
74.3243630524
  0
LINE
  5
267
100
AcDbEntity
  8
SUPERFICI
100
AcDbLine
 62
253
  6
CONTINUOUS
 10
53.8622276926
 20
75.4041177108
 11
53.6003632858
 21
75.2577379565
  0
LINE
  5
268
100
AcDbEntity
  8
SUPERFICI
100
AcDbLine
 62
253
  6
CONTINUOUS
 10
47.7520582011
 20
71.988590111
 11
47.4901937943
 21
71.8422103568
  0
LINE
  5
269
100
AcDbEntity
  8
SUPERFICI
100
AcDbLine
 62
253
  6
CONTINUOUS
 10
-53.1530265447
 20
15.5835914633
 11
-52.8911621379
 21
15.7299712176
  0
LINE
  5
26A
100
AcDbEntity
  8
SUPERFICI
100
AcDbLine
 62
253
  6
CONTINUOUS
 10
-47.0428570531
 20
18.9991190631
 11
-46.7809926464
 21
19.1454988174
  0
LINE
  5
26B
100
AcDbEntity
  8
SUPERFICI
100
AcDbLine
 62
253
  6
CONTINUOUS
 10
-49.1377723074
 20
17.8280810289
 11
-49.3996367143
 21
17.6817012749
  0
LINE
  5
26C
100
AcDbEntity
  8
SUPERFICI
100
AcDbLine
 62
253
  6
CONTINUOUS
 10
-55.2479417989
 20
14.4125534291
 11
-55.5098062004
 21
14.2661736653
  0
LINE
  5
26D
100
AcDbEntity
  8
SUPERFICI
100
AcDbLine
 62
253
  6
CONTINUOUS
 10
49.8469734554
 20
73.1596281452
 11
50.1088378623
 21
73.3060078992
  0
LINE
  5
26E
100
AcDbEntity
  8
SUPERFICI
100
AcDbLine
 62
253
  6
CONTINUOUS
 10
55.9571429469
 20
76.575155745
 11
56.2190073483
 21
76.7215355088
  0
LINE
  5
26F
100
AcDbEntity
  8
RACCORDO
100
AcDbLine
 62
253
  6
CONTINUOUS
 10
44.2063573711
 20
-47.0061454129
 11
43.9063687941
 21
-47.0061454168
  0
LINE
  5
270
100
AcDbEntity
  8
RACCORDO
100
AcDbLine
 62
253
  6
CONTINUOUS
 10
39.004600574
 20
-47.0061454129
 11
38.704600574
 21
-47.0061454162
  0
LINE
  5
271
100
AcDbEntity
  8
RACCORDO
100
AcDbLine
 62
253
  6
CONTINUOUS
 10
32.4563573711
 20
-47.0061454129
 11
32.1563687941
 21
-47.0061454168
  0
LINE
  5
272
100
AcDbEntity
  8
RACCORDO
100
AcDbLine
 62
253
  6
CONTINUOUS
 10
-43.4971562231
 20
-47.0061454129
 11
-43.1971676462
 21
-47.0061454129
  0
LINE
  5
273
100
AcDbEntity
  8
RACCORDO
100
AcDbLine
 62
253
  6
CONTINUOUS
 10
-38.295399426
 20
-47.0061454129
 11
-37.995399426
 21
-47.0061454129
  0
LINE
  5
274
100
AcDbEntity
  8
RACCORDO
100
AcDbLine
 62
253
  6
CONTINUOUS
 10
-31.7471562231
 20
-47.0061454129
 11
-31.4471676462
 21
-47.0061454129
  0
LINE
  5
275
100
AcDbEntity
  8
RACCORDO
100
AcDbLine
 62
253
  6
CONTINUOUS
 10
27.254600574
 20
-47.0061454129
 11
26.954600574
 21
-47.0061454162
  0
LINE
  5
276
100
AcDbEntity
  8
RACCORDO
100
AcDbLine
 62
253
  6
CONTINUOUS
 10
-26.545399426
 20
-47.0061454129
 11
-26.245399426
 21
-47.0061454129
  0
LINE
  5
277
100
AcDbEntity
  8
RACCORDO
100
AcDbLine
 62
253
  6
CONTINUOUS
 10
-27.5436426289
 20
-47.0061454129
 11
-27.8436312059
 21
-47.0061454168
  0
LINE
  5
278
100
AcDbEntity
  8
RACCORDO
100
AcDbLine
 62
253
  6
CONTINUOUS
 10
28.2528437769
 20
-47.0061454129
 11
28.5528323538
 21
-47.0061454129
  0
LINE
  5
279
100
AcDbEntity
  8
RACCORDO
100
AcDbLine
 62
253
  6
CONTINUOUS
 10
-32.745399426
 20
-47.0061454129
 11
-33.045399426
 21
-47.0061454162
  0
LINE
  5
27A
100
AcDbEntity
  8
RACCORDO
100
AcDbLine
 62
253
  6
CONTINUOUS
 10
33.454600574
 20
-47.0061454129
 11
33.754600574
 21
-47.0061454129
  0
LINE
  5
27B
100
AcDbEntity
  8
RACCORDO
100
AcDbLine
 62
253
  6
CONTINUOUS
 10
-39.2936426289
 20
-47.0061454129
 11
-39.5936312059
 21
-47.0061454168
  0
LINE
  5
27C
100
AcDbEntity
  8
RACCORDO
100
AcDbLine
 62
253
  6
CONTINUOUS
 10
40.0028437769
 20
-47.0061454129
 11
40.3028323538
 21
-47.0061454129
  0
LINE
  5
27D
100
AcDbEntity
  8
RACCORDO
100
AcDbLine
 62
253
  6
CONTINUOUS
 10
-44.495399426
 20
-47.0061454129
 11
-44.795399426
 21
-47.0061454162
  0
LINE
  5
27E
100
AcDbEntity
  8
RACCORDO
100
AcDbLine
 62
253
  6
CONTINUOUS
 10
45.204600574
 20
-47.0061454129
 11
45.504600574
 21
-47.0061454129
  0
LINE
  5
27F
100
AcDbEntity
  8
RACCORDO
100
AcDbLine
 62
7
  6
CONTINUOUS
 10
-39.5936312059
 20
-42.0061454129
 11
-39.5936312059
 21
-47.0061454129
  0
LINE
  5
280
100
AcDbEntity
  8
SUPERFICI
100
AcDbLine
 62
7
  6
CONTINUOUS
 10
-39.5936312059
 20
42.9938545871
 11
-39.5936312059
 21
47.9938545871
  0
LINE
  5
281
100
AcDbEntity
  8
RACCORDO
100
AcDbLine
 62
253
  6
CONTINUOUS
 10
-39.2936426289
 20
-42.0061454129
 11
-39.2936426289
 21
-47.0061454129
  0
LINE
  5
282
100
AcDbEntity
  8
SUPERFICI
100
AcDbLine
 62
253
  6
CONTINUOUS
 10
-39.2936426289
 20
42.9938545871
 11
-39.2936426289
 21
47.9938545871
  0
LINE
  5
283
100
AcDbEntity
  8
SUPERFICI
100
AcDbLine
 62
253
  6
CONTINUOUS
 10
-38.295399426
 20
47.9938545871
 11
-38.295399426
 21
42.9938545871
  0
LINE
  5
284
100
AcDbEntity
  8
RACCORDO
100
AcDbLine
 62
253
  6
CONTINUOUS
 10
-38.295399426
 20
-47.0061454129
 11
-38.295399426
 21
-42.0061454129
  0
LINE
  5
285
100
AcDbEntity
  8
SUPERFICI
100
AcDbLine
 62
7
  6
CONTINUOUS
 10
-37.995399426
 20
47.9938545871
 11
-37.995399426
 21
42.9938545871
  0
LINE
  5
286
100
AcDbEntity
  8
RACCORDO
100
AcDbLine
 62
7
  6
CONTINUOUS
 10
-37.995399426
 20
-47.0061454129
 11
-37.995399426
 21
-42.0061454129
  0
LINE
  5
287
100
AcDbEntity
  8
RACCORDO
100
AcDbLine
 62
7
  6
CONTINUOUS
 10
-33.045399426
 20
-42.0061454129
 11
-33.045399426
 21
-47.0061454129
  0
LINE
  5
288
100
AcDbEntity
  8
SUPERFICI
100
AcDbLine
 62
7
  6
CONTINUOUS
 10
-33.045399426
 20
42.9938545871
 11
-33.045399426
 21
47.9938545871
  0
LINE
  5
289
100
AcDbEntity
  8
RACCORDO
100
AcDbLine
 62
253
  6
CONTINUOUS
 10
-32.745399426
 20
-42.0061454129
 11
-32.745399426
 21
-47.0061454129
  0
LINE
  5
28A
100
AcDbEntity
  8
SUPERFICI
100
AcDbLine
 62
253
  6
CONTINUOUS
 10
-32.745399426
 20
42.9938545871
 11
-32.745399426
 21
47.9938545871
  0
LINE
  5
28B
100
AcDbEntity
  8
RACCORDO
100
AcDbLine
 62
7
  6
CONTINUOUS
 10
-47.841675183
 20
-14.0739420231
 11
-49.3996367143
 21
-16.6939921008
  0
LWPOLYLINE
  5
28C
100
AcDbEntity
  8
RACCORDO
100
AcDbPolyline
 62
253
  6
CONTINUOUS
 90
13
 70
0
 10
-60.2161624901
 20
0.2438545871
 10
-60.367780451
 20
0.1521662264
 10
-60.51058149
 20
0.0475236342
 10
-60.6435826798
 20
-0.0693200137
 10
-60.7659532891
 20
-0.1974584854
 10
-60.8767456623
 20
-0.3359870884
 10
-60.9748613006
 20
-0.4840469442
 10
-61.0595206067
 20
-0.6406213702
 10
-61.1300727143
 20
-0.8044665366
 10
-61.1857069354
 20
-0.9742897826
 10
-61.2258728894
 20
-1.1487585582
 10
-61.2502755724
 20
-1.326515287
 10
-61.2586483876
 20
-1.5061454129
  0
LINE
  5
28D
100
AcDbEntity
  8
RACCORDO
100
AcDbLine
 62
253
  6
CONTINUOUS
 10
44.2063573711
 20
-42.0061454129
 11
43.9063687941
 21
-42.0061454129
  0
LINE
  5
28E
100
AcDbEntity
  8
RACCORDO
100
AcDbLine
 62
253
  6
CONTINUOUS
 10
-43.4971562231
 20
-42.0061454129
 11
-43.1971676462
 21
-42.0061454091
  0
LINE
  5
28F
100
AcDbEntity
  8
RACCORDO
100
AcDbLine
 62
253
  6
CONTINUOUS
 10
39.004600574
 20
-42.0061454129
 11
38.704600574
 21
-42.0061454129
  0
LINE
  5
290
100
AcDbEntity
  8
RACCORDO
100
AcDbLine
 62
253
  6
CONTINUOUS
 10
-38.295399426
 20
-42.0061454129
 11
-37.995399426
 21
-42.0061454096
  0
LINE
  5
291
100
AcDbEntity
  8
RACCORDO
100
AcDbLine
 62
253
  6
CONTINUOUS
 10
32.4563573711
 20
-42.0061454129
 11
32.1563687941
 21
-42.0061454129
  0
LINE
  5
292
100
AcDbEntity
  8
RACCORDO
100
AcDbLine
 62
253
  6
CONTINUOUS
 10
-31.7471562231
 20
-42.0061454129
 11
-31.4471676462
 21
-42.0061454091
  0
LINE
  5
293
100
AcDbEntity
  8
RACCORDO
100
AcDbLine
 62
253
  6
CONTINUOUS
 10
27.254600574
 20
-42.0061454129
 11
26.954600574
 21
-42.0061454129
  0
LINE
  5
294
100
AcDbEntity
  8
RACCORDO
100
AcDbLine
 62
253
  6
CONTINUOUS
 10
-26.545399426
 20
-42.0061454129
 11
-26.245399426
 21
-42.0061454096
  0
LINE
  5
295
100
AcDbEntity
  8
RACCORDO
100
AcDbLine
 62
253
  6
CONTINUOUS
 10
-27.5436426289
 20
-42.0061454129
 11
-27.8436312059
 21
-42.0061454129
  0
LINE
  5
296
100
AcDbEntity
  8
RACCORDO
100
AcDbLine
 62
253
  6
CONTINUOUS
 10
28.2528437769
 20
-42.0061454129
 11
28.5528323538
 21
-42.0061454091
  0
LINE
  5
297
100
AcDbEntity
  8
RACCORDO
100
AcDbLine
 62
253
  6
CONTINUOUS
 10
-32.745399426
 20
-42.0061454129
 11
-33.045399426
 21
-42.0061454129
  0
LINE
  5
298
100
AcDbEntity
  8
RACCORDO
100
AcDbLine
 62
253
  6
CONTINUOUS
 10
33.454600574
 20
-42.0061454129
 11
33.754600574
 21
-42.0061454096
  0
LINE
  5
299
100
AcDbEntity
  8
RACCORDO
100
AcDbLine
 62
253
  6
CONTINUOUS
 10
-39.2936426289
 20
-42.0061454129
 11
-39.5936312059
 21
-42.0061454129
  0
LINE
  5
29A
100
AcDbEntity
  8
RACCORDO
100
AcDbLine
 62
253
  6
CONTINUOUS
 10
40.0028437769
 20
-42.0061454129
 11
40.3028323538
 21
-42.0061454091
  0
LINE
  5
29B
100
AcDbEntity
  8
RACCORDO
100
AcDbLine
 62
253
  6
CONTINUOUS
 10
-44.495399426
 20
-42.0061454129
 11
-44.795399426
 21
-42.0061454129
  0
LINE
  5
29C
100
AcDbEntity
  8
RACCORDO
100
AcDbLine
 62
253
  6
CONTINUOUS
 10
45.204600574
 20
-42.0061454129
 11
45.504600574
 21
-42.0061454096
  0
LINE
  5
29D
100
AcDbEntity
  8
RACCORDO
100
AcDbLine
 62
253
  6
CONTINUOUS
 10
-46.645399426
 20
-37.3061454129
 11
-49.645399426
 21
-37.3061454129
  0
LINE
  5
29E
100
AcDbEntity
  8
RACCORDO
100
AcDbLine
 62
253
  6
CONTINUOUS
 10
47.354600574
 20
-37.3061454129
 11
50.354600574
 21
-37.3061454129
  0
LINE
  5
29F
100
AcDbEntity
  8
RACCORDO
100
AcDbLine
 62
7
  6
CONTINUOUS
 10
50.054600574
 20
-37.0061454129
 11
47.654600574
 21
-37.0061454129
  0
LINE
  5
2A0
100
AcDbEntity
  8
RACCORDO
100
AcDbLine
 62
7
  6
CONTINUOUS
 10
-46.945399426
 20
-37.0061454129
 11
-49.345399426
 21
-37.0061454129
  0
LINE
  5
2A1
100
AcDbEntity
  8
0
100
AcDbLine
 62
7
  6
CONTINUOUS
 10
-8.045399426
 20
-36.0061454129
 11
9.354600574
 21
-36.0061454129
  0
LINE
  5
2A2
100
AcDbEntity
  8
RACCORDO
100
AcDbLine
 62
253
  6
CONTINUOUS
 10
53.8622276926
 20
-74.4164085367
 11
53.6003632858
 21
-74.2700287824
  0
LINE
  5
2A3
100
AcDbEntity
  8
RACCORDO
100
AcDbLine
 62
253
  6
CONTINUOUS
 10
47.7520582011
 20
-71.0008809369
 11
47.4901937943
 21
-70.8545011826
  0
LINE
  5
2A4
100
AcDbEntity
  8
RACCORDO
100
AcDbLine
 62
253
  6
CONTINUOUS
 10
-53.1530265447
 20
-14.5958822892
 11
-52.8911621379
 21
-14.7422620435
  0
LINE
  5
2A5
100
AcDbEntity
  8
RACCORDO
100
AcDbLine
 62
253
  6
CONTINUOUS
 10
-47.0428570531
 20
-18.011409889
 11
-46.7809926464
 21
-18.1577896432
  0
LINE
  5
2A6
100
AcDbEntity
  8
RACCORDO
100
AcDbLine
 62
253
  6
CONTINUOUS
 10
-49.1377723074
 20
-16.8403718548
 11
-49.3996367143
 21
-16.6939921008
  0
LINE
  5
2A7
100
AcDbEntity
  8
RACCORDO
100
AcDbLine
 62
253
  6
CONTINUOUS
 10
-55.2479417989
 20
-13.424844255
 11
-55.5098062004
 21
-13.2784644912
  0
LINE
  5
2A8
100
AcDbEntity
  8
RACCORDO
100
AcDbLine
 62
253
  6
CONTINUOUS
 10
49.8469734554
 20
-72.1719189711
 11
50.1088378623
 21
-72.3182987251
  0
LINE
  5
2A9
100
AcDbEntity
  8
RACCORDO
100
AcDbLine
 62
253
  6
CONTINUOUS
 10
55.9571429469
 20
-75.5874465709
 11
56.2190073483
 21
-75.7338263347
  0
LINE
  5
2AA
100
AcDbEntity
  8
RACCORDO
100
AcDbLine
 62
253
  6
CONTINUOUS
 10
-45.5586936997
 20
-15.5154674468
 11
-45.3050290963
 21
-15.6756369476
  0
LINE
  5
2AB
100
AcDbEntity
  8
RACCORDO
100
AcDbLine
 62
253
  6
CONTINUOUS
 10
52.1867357301
 20
-77.2341115146
 11
51.9330711207
 21
-77.0739420234
  0
LINE
  5
2AC
100
AcDbEntity
  8
RACCORDO
100
AcDbLine
 62
253
  6
CONTINUOUS
 10
-51.4775345822
 20
-11.7781793112
 11
-51.2238699727
 21
-11.9383488025
  0
LINE
  5
2AD
100
AcDbEntity
  8
RACCORDO
100
AcDbLine
 62
253
  6
CONTINUOUS
 10
-47.5880105737
 20
-14.2341115146
 11
-47.841675183
 21
-14.0739420231
  0
LINE
  5
2AE
100
AcDbEntity
  8
RACCORDO
100
AcDbLine
 62
253
  6
CONTINUOUS
 10
-53.5068514562
 20
-10.496823379
 11
-53.7605160654
 21
-10.3366538875
  0
LINE
  5
2AF
100
AcDbEntity
  8
RACCORDO
100
AcDbLine
 62
253
  6
CONTINUOUS
 10
48.2972117217
 20
-74.7781793112
 11
48.5508763309
 21
-74.9383488028
  0
LINE
  5
2B0
100
AcDbEntity
  8
RACCORDO
100
AcDbLine
 62
253
  6
CONTINUOUS
 10
54.2160526041
 20
-78.5154674468
 11
54.4697172134
 21
-78.6756369384
  0
LINE
  5
2B1
100
AcDbEntity
  8
RACCORDO
100
AcDbLine
 62
253
  6
CONTINUOUS
 10
46.2678948477
 20
-73.496823379
 11
46.0142302443
 21
-73.3366538783
  0
LINE
  5
2B2
100
AcDbEntity
  8
SUPERFICI
100
AcDbLine
 62
7
  6
CONTINUOUS
 10
-51.2238699727
 20
12.9260579766
 11
-52.8911621379
 21
15.7299712176
  0
LINE
  5
2B3
100
AcDbEntity
  8
RACCORDO
100
AcDbLine
 62
7
  6
CONTINUOUS
 10
-30.0884689948
 20
-1.6561454129
 11
-30.0887326688
 21
-1.3107972932
  0
LINE
  5
2B4
100
AcDbEntity
  8
SUPERFICI
100
AcDbLine
 62
253
  6
CONTINUOUS
 10
-31.7471562231
 20
47.9938545871
 11
-31.7471562231
 21
42.9938545871
  0
LINE
  5
2B5
100
AcDbEntity
  8
RACCORDO
100
AcDbLine
 62
253
  6
CONTINUOUS
 10
-31.7471562231
 20
-47.0061454129
 11
-31.7471562231
 21
-42.0061454129
  0
LINE
  5
2B6
100
AcDbEntity
  8
SUPERFICI
100
AcDbLine
 62
7
  6
CONTINUOUS
 10
-31.4471676462
 20
47.9938545871
 11
-31.4471676462
 21
42.9938545871
  0
LINE
  5
2B7
100
AcDbEntity
  8
RACCORDO
100
AcDbLine
 62
7
  6
CONTINUOUS
 10
-31.4471676462
 20
-47.0061454129
 11
-31.4471676462
 21
-42.0061454129
  0
LINE
  5
2B8
100
AcDbEntity
  8
0
100
AcDbLine
 62
7
  6
CONTINUOUS
 10
-30.020399426
 20
0.2244100478
 11
-30.020399426
 21
0.7632991263
  0
LINE
  5
2B9
100
AcDbEntity
  8
DRAFT
100
AcDbLine
 62
7
  6
CONTINUOUS
 10
-29.9610522053
 20
-0.1026546658
 11
-29.9610522053
 21
-1.6561454129
  0
LINE
  5
2BA
100
AcDbEntity
  8
SUPERFICI
100
AcDbLine
 62
7
  6
CONTINUOUS
 10
-29.9610522053
 20
1.0903638399
 11
-29.9610522053
 21
2.6438545871
  0
LINE
  5
2BB
100
AcDbEntity
  8
0
100
AcDbLine
 62
7
  6
CONTINUOUS
 10
-29.9243965689
 20
2.6438545871
 11
-29.9243965689
 21
-1.6561454129
  0
LINE
  5
2BC
100
AcDbEntity
  8
RACCORDO
100
AcDbLine
 62
7
  6
CONTINUOUS
 10
-27.8436312059
 20
-42.0061454129
 11
-27.8436312059
 21
-47.0061454129
  0
LINE
  5
2BD
100
AcDbEntity
  8
SUPERFICI
100
AcDbLine
 62
7
  6
CONTINUOUS
 10
-27.8436312059
 20
42.9938545871
 11
-27.8436312059
 21
47.9938545871
  0
LINE
  5
2BE
100
AcDbEntity
  8
RACCORDO
100
AcDbLine
 62
253
  6
CONTINUOUS
 10
-27.5436426289
 20
-42.0061454129
 11
-27.5436426289
 21
-47.0061454129
  0
LINE
  5
2BF
100
AcDbEntity
  8
SUPERFICI
100
AcDbLine
 62
253
  6
CONTINUOUS
 10
-27.5436426289
 20
42.9938545871
 11
-27.5436426289
 21
47.9938545871
  0
LINE
  5
2C0
100
AcDbEntity
  8
SUPERFICI
100
AcDbLine
 62
253
  6
CONTINUOUS
 10
-26.545399426
 20
47.9938545871
 11
-26.545399426
 21
42.9938545871
  0
LINE
  5
2C1
100
AcDbEntity
  8
RACCORDO
100
AcDbLine
 62
253
  6
CONTINUOUS
 10
-26.545399426
 20
-47.0061454129
 11
-26.545399426
 21
-42.0061454129
  0
LINE
  5
2C2
100
AcDbEntity
  8
SUPERFICI
100
AcDbLine
 62
7
  6
CONTINUOUS
 10
-26.245399426
 20
47.9938545871
 11
-26.245399426
 21
42.9938545871
  0
LINE
  5
2C3
100
AcDbEntity
  8
RACCORDO
100
AcDbLine
 62
7
  6
CONTINUOUS
 10
-26.245399426
 20
-47.0061454129
 11
-26.245399426
 21
-42.0061454129
  0
LINE
  5
2C4
100
AcDbEntity
  8
SUPERFICI
100
AcDbLine
 62
253
  6
CONTINUOUS
 10
-23.9427927892
 20
60.4938545871
 11
-23.9427927892
 21
30.4938545871
  0
LINE
  5
2C5
100
AcDbEntity
  8
RACCORDO
100
AcDbLine
 62
253
  6
CONTINUOUS
 10
-23.9427927892
 20
-59.5061454129
 11
-23.9427927892
 21
-29.5061454129
  0
LINE
  5
2C6
100
AcDbEntity
  8
SUPERFICI
100
AcDbLine
 62
7
  6
CONTINUOUS
 10
-23.6428042123
 20
60.4938545871
 11
-23.6428042123
 21
30.4938545871
  0
LINE
  5
2C7
100
AcDbEntity
  8
RACCORDO
100
AcDbLine
 62
7
  6
CONTINUOUS
 10
-23.6428042123
 20
-59.5061454129
 11
-23.6428042123
 21
-29.5061454129
  0
LINE
  5
2C8
100
AcDbEntity
  8
SUPERFICI
100
AcDbLine
 62
7
  6
CONTINUOUS
 10
-30.0884689948
 20
2.6438545871
 11
-30.0887326688
 21
2.2985064674
  0
LWPOLYLINE
  5
2C9
100
AcDbEntity
  8
RACCORDO
100
AcDbPolyline
 62
253
  6
CONTINUOUS
 90
13
 70
0
 10
-59.7786058575
 20
-0.62250212
 10
-59.8689166569
 20
-0.6688517532
 10
-59.9528532614
 20
-0.7209705844
 10
-60.0304156711
 20
-0.7788586137
 10
-60.102070735
 20
-0.8429698314
 10
-60.167351604
 20
-0.9128502471
 10
-60.2248577314
 20
-0.9871378899
 10
-60.2745371258
 20
-1.0659426207
 10
-60.3164417787
 20
-1.1491545785
 10
-60.3493271174
 20
-1.2350822102
 10
-60.3727782845
 20
-1.3231616648
 10
-60.3872101375
 20
-1.4139567932
 10
-60.3926226763
 20
-1.5074675956
  0
LINE
  5
2CA
100
AcDbEntity
  8
RACCORDO
100
AcDbLine
 62
253
  6
CONTINUOUS
 10
-23.9427927892
 20
-29.5061454129
 11
-23.6428042123
 21
-29.5061454236
  0
LINE
  5
2CB
100
AcDbEntity
  8
RACCORDO
100
AcDbLine
 62
253
  6
CONTINUOUS
 10
24.6519939372
 20
-29.5061454129
 11
24.3520053602
 21
-29.5061454129
  0
LINE
  5
2CC
100
AcDbEntity
  8
0
100
AcDbLine
 62
7
  6
CONTINUOUS
 10
9.354600574
 20
-27.2561454129
 11
-8.045399426
 21
-27.2561454129
  0
LWPOLYLINE
  5
2CD
100
AcDbEntity
  8
SUPERFICI
100
AcDbPolyline
 62
253
  6
CONTINUOUS
 90
13
 70
0
 10
-59.7786058575
 20
1.6102112941
 10
-59.8689166569
 20
1.6565609273
 10
-59.9528532614
 20
1.7086797586
 10
-60.0304156711
 20
1.7665677879
 10
-60.102070735
 20
1.8306790055
 10
-60.167351604
 20
1.9005594212
 10
-60.2248577314
 20
1.9748470641
 10
-60.2745371258
 20
2.0536517948
 10
-60.3164417787
 20
2.1368637526
 10
-60.3493271174
 20
2.2227913843
 10
-60.3727782845
 20
2.3108708389
 10
-60.3872101375
 20
2.4016659674
 10
-60.3926226763
 20
2.4951767697
  0
LWPOLYLINE
  5
2CE
100
AcDbEntity
  8
SUPERFICI
100
AcDbPolyline
 62
253
  6
CONTINUOUS
 90
13
 70
0
 10
-60.2161624901
 20
0.7438545871
 10
-60.367780451
 20
0.8355429478
 10
-60.51058149
 20
0.9401855399
 10
-60.6435826798
 20
1.0570291878
 10
-60.7659532891
 20
1.1851676596
 10
-60.8767456623
 20
1.3236962625
 10
-60.9748613006
 20
1.4717561183
 10
-61.0595206067
 20
1.6283305443
 10
-61.1300727143
 20
1.7921757107
 10
-61.1857069354
 20
1.9619989568
 10
-61.2258728894
 20
2.1364677323
 10
-61.2502755724
 20
2.3142244612
 10
-61.2586483876
 20
2.4938545871
  0
LINE
  5
2CF
100
AcDbEntity
  8
SUPERFICI
100
AcDbLine
 62
7
  6
CONTINUOUS
 10
-45.3050290963
 20
16.6633461217
 11
-46.7809926464
 21
19.1454988174
  0
LINE
  5
2D0
100
AcDbEntity
  8
0
100
AcDbLine
 62
7
  6
CONTINUOUS
 10
-22.045399426
 20
62.8938545871
 11
-22.045399426
 21
55.8938545871
  0
LINE
  5
2D1
100
AcDbEntity
  8
0
100
AcDbLine
 62
7
  6
CONTINUOUS
 10
-19.945399426
 20
27.4938545871
 11
-19.945399426
 21
42.4938545871
  0
LINE
  5
2D2
100
AcDbEntity
  8
RACCORDO
100
AcDbLine
 62
7
  6
CONTINUOUS
 10
-19.645399426
 20
-13.3061454129
 11
-19.645399426
 21
-17.7061454129
  0
LINE
  5
2D3
100
AcDbEntity
  8
SUPERFICI
100
AcDbLine
 62
7
  6
CONTINUOUS
 10
-19.645399426
 20
14.2938545871
 11
-19.645399426
 21
18.6938545871
  0
LINE
  5
2D4
100
AcDbEntity
  8
RACCORDO
100
AcDbLine
 62
7
  6
CONTINUOUS
 10
-19.645399426
 20
-71.3061454129
 11
-19.645399426
 21
-75.7061454129
  0
LINE
  5
2D5
100
AcDbEntity
  8
SUPERFICI
100
AcDbLine
 62
7
  6
CONTINUOUS
 10
-19.645399426
 20
72.2938545871
 11
-19.645399426
 21
76.6938545871
  0
LINE
  5
2D6
100
AcDbEntity
  8
RACCORDO
100
AcDbLine
 62
253
  6
CONTINUOUS
 10
-19.345399426
 20
-18.0061454129
 11
-19.345399426
 21
-13.0061454129
  0
LINE
  5
2D7
100
AcDbEntity
  8
SUPERFICI
100
AcDbLine
 62
253
  6
CONTINUOUS
 10
-19.345399426
 20
13.9938545871
 11
-19.345399426
 21
18.9938545871
  0
LINE
  5
2D8
100
AcDbEntity
  8
RACCORDO
100
AcDbLine
 62
253
  6
CONTINUOUS
 10
-19.345399426
 20
-71.0061454129
 11
-19.345399426
 21
-76.0061454129
  0
LINE
  5
2D9
100
AcDbEntity
  8
SUPERFICI
100
AcDbLine
 62
253
  6
CONTINUOUS
 10
-19.345399426
 20
71.9938545871
 11
-19.345399426
 21
76.9938545871
  0
LINE
  5
2DA
100
AcDbEntity
  8
SUPERFICI
100
AcDbLine
 62
253
  6
CONTINUOUS
 10
63.1225497664
 20
89.9938545871
 11
60.2357984205
 21
87.1071032411
  0
LINE
  5
2DB
100
AcDbEntity
  8
SUPERFICI
100
AcDbLine
 62
253
  6
CONTINUOUS
 10
64.854600574
 20
88.2618037795
 11
61.967849228
 21
85.3750524335
  0
LINE
  5
2DC
100
AcDbEntity
  8
RACCORDO
100
AcDbLine
 62
7
  6
CONTINUOUS
 10
-41.0255902488
 20
-0.0755785291
 11
-41.0797466468
 21
-0.1026546658
  0
LINE
  5
2DD
100
AcDbEntity
  8
SUPERFICI
100
AcDbLine
 62
7
  6
CONTINUOUS
 10
-30.0152086032
 20
1.0632877032
 11
-29.9610522053
 21
1.0903638399
  0
LINE
  5
2DE
100
AcDbEntity
  8
RACCORDO
100
AcDbLine
 62
7
  6
CONTINUOUS
 10
-13.645399426
 20
-19.5087406267
 11
14.354600574
 21
-19.5087406267
  0
LINE
  5
2DF
100
AcDbEntity
  8
RACCORDO
100
AcDbLine
 62
253
  6
CONTINUOUS
 10
-13.645399426
 20
-19.2087520498
 11
14.354600574
 21
-19.2087520498
  0
LINE
  5
2E0
100
AcDbEntity
  8
RACCORDO
100
AcDbLine
 62
7
  6
CONTINUOUS
 10
-19.345399426
 20
-18.0061454129
 11
20.054600574
 21
-18.0061454129
  0
LINE
  5
2E1
100
AcDbEntity
  8
RACCORDO
100
AcDbLine
 62
253
  6
CONTINUOUS
 10
63.1225497664
 20
-89.0061454129
 11
60.2357984205
 21
-86.119394067
  0
LINE
  5
2E2
100
AcDbEntity
  8
RACCORDO
100
AcDbLine
 62
253
  6
CONTINUOUS
 10
-13.645399426
 20
-19.2087520498
 11
-13.645399426
 21
-19.5087406267
  0
LINE
  5
2E3
100
AcDbEntity
  8
SUPERFICI
100
AcDbLine
 62
253
  6
CONTINUOUS
 10
-13.645399426
 20
20.1964612239
 11
-13.645399426
 21
20.4964498008
  0
LINE
  5
2E4
100
AcDbEntity
  8
SUPERFICI
100
AcDbLine
 62
253
  6
CONTINUOUS
 10
-13.645399426
 20
70.7912479502
 11
-13.6453994153
 21
70.4912593733
  0
LINE
  5
2E5
100
AcDbEntity
  8
RACCORDO
100
AcDbLine
 62
253
  6
CONTINUOUS
 10
-13.645399426
 20
-69.8035387761
 11
-13.6453994153
 21
-69.5035501992
  0
LINE
  5
2E6
100
AcDbEntity
  8
0
100
AcDbLine
 62
7
  6
CONTINUOUS
 10
-10.345399426
 20
54.9938545871
 11
-10.345399426
 21
44.9938545871
  0
LINE
  5
2E7
100
AcDbEntity
  8
0
100
AcDbLine
 62
7
  6
CONTINUOUS
 10
-8.045399426
 20
-27.2561454129
 11
-8.045399426
 21
-36.0061454129
  0
LINE
  5
2E8
100
AcDbEntity
  8
RACCORDO
100
AcDbLine
 62
253
  6
CONTINUOUS
 10
-19.645399426
 20
-17.7061454129
 11
20.354600574
 21
-17.7061454129
  0
LINE
  5
2E9
100
AcDbEntity
  8
RACCORDO
100
AcDbLine
 62
253
  6
CONTINUOUS
 10
-19.645399426
 20
-13.3061454129
 11
20.354600574
 21
-13.3061454129
  0
LINE
  5
2EA
100
AcDbEntity
  8
RACCORDO
100
AcDbLine
 62
7
  6
CONTINUOUS
 10
20.054600574
 20
-13.0061454129
 11
-19.345399426
 21
-13.0061454129
  0
LINE
  5
2EB
100
AcDbEntity
  8
SUPERFICI
100
AcDbLine
 62
7
  6
CONTINUOUS
 10
-41.0255902488
 20
1.0632877032
 11
-41.0797466468
 21
1.0903638399
  0
LINE
  5
2EC
100
AcDbEntity
  8
RACCORDO
100
AcDbLine
 62
7
  6
CONTINUOUS
 10
-30.0152086032
 20
-0.0755785291
 11
-29.9610522053
 21
-0.1026546658
  0
LINE
  5
2ED
100
AcDbEntity
  8
RACCORDO
100
AcDbLine
 62
253
  6
CONTINUOUS
 10
64.854600574
 20
-87.2740946054
 11
61.967849228
 21
-84.3873432594
  0
LINE
  5
2EE
100
AcDbEntity
  8
0
100
AcDbLine
 62
7
  6
CONTINUOUS
 10
-4.445399426
 20
27.4938545871
 11
-4.445399426
 21
23.7938545871
  0
LINE
  5
2EF
100
AcDbEntity
  8
0
100
AcDbLine
 62
7
  6
CONTINUOUS
 10
-3.945399426
 20
54.9938545871
 11
-3.945399426
 21
44.9938545871
  0
LWPOLYLINE
  5
2F0
100
AcDbEntity
  8
RACCORDO
100
AcDbPolyline
 62
253
  6
CONTINUOUS
 90
3
 70
0
 10
61.967849228
 20
-1.5061457668
 10
61.9034974862
 20
-1.5072106144
 10
61.8282669225
 20
-1.5079478477
  0
LWPOLYLINE
  5
2F1
100
AcDbEntity
  8
RACCORDO
100
AcDbPolyline
 62
253
  6
CONTINUOUS
 90
7
 70
0
 10
61.8282669225
 20
-1.5079478477
 10
61.6495251654
 20
-1.5087601035
 10
61.5485070402
 20
-1.508835126
 10
61.4417121145
 20
-1.5076206369
 10
61.3306733455
 20
-1.5047960038
 10
61.2168648549
 20
-1.500681859
 10
61.1018238242
 20
-1.4952782026
  0
LINE
  5
2F2
100
AcDbEntity
  8
COPY
100
AcDbLine
 62
253
  6
CONTINUOUS
 10
41.7888868224
 20
-1.5727051799
 11
41.6614701009
 21
-1.5727982872
  0
LINE
  5
2F3
100
AcDbEntity
  8
ASSI
100
AcDbLine
 62
253
  6
CONTINUOUS
 10
41.7889477947
 20
-1.5731186898
 11
41.6614676817
 21
-1.5732071897
  0
LINE
  5
2F4
100
AcDbEntity
  8
ASSI
100
AcDbLine
 62
253
  6
CONTINUOUS
 10
30.7977282675
 20
-1.580016225
 11
30.6702533532
 21
-1.5800860873
  0
LINE
  5
2F5
100
AcDbEntity
  8
COPY
100
AcDbLine
 62
253
  6
CONTINUOUS
 10
30.7976329002
 20
-1.5796857651
 11
30.6702161409
 21
-1.5797478282
  0
LWPOLYLINE
  5
2F6
100
AcDbEntity
  8
RACCORDO
100
AcDbPolyline
 62
253
  6
CONTINUOUS
 90
3
 70
0
 10
-60.6214929008
 20
-1.5056726043
 10
-60.839330119
 20
-1.5059972323
 10
-64.145399426
 20
-1.5061454129
  0
LINE
  5
2F7
100
AcDbEntity
  8
DRAFT
100
AcDbLine
 62
7
  6
CONTINUOUS
 10
-41.1164022831
 20
-1.6561454129
 11
-29.9243965689
 21
-1.6561454129
  0
LINE
  5
2F8
100
AcDbEntity
  8
DRAFT
100
AcDbLine
 62
7
  6
CONTINUOUS
 10
30.6335977169
 20
-1.6561454129
 11
41.8256034311
 21
-1.6561454129
  0
LINE
  5
2F9
100
AcDbEntity
  8
RACCORDO
100
AcDbLine
 62
253
  6
CONTINUOUS
 10
61.967849228
 20
-1.5061454129
 11
64.854600574
 21
-1.5061454129
  0
LINE
  5
2FA
100
AcDbEntity
  8
ASSI
100
AcDbLine
 62
7
  6
CONTINUOUS
 10
-29.9610522053
 20
-1.3755528076
 11
-30.0886832278
 21
-1.3755528076
  0
LINE
  5
2FB
100
AcDbEntity
  8
COPY
100
AcDbLine
 62
7
  6
CONTINUOUS
 10
-29.9610522053
 20
-1.3755528076
 11
-30.0886832278
 21
-1.3755528076
  0
LINE
  5
2FC
100
AcDbEntity
  8
ASSI
100
AcDbLine
 62
7
  6
CONTINUOUS
 10
30.6702533532
 20
-1.3755528076
 11
30.7978843758
 21
-1.3755528076
  0
LINE
  5
2FD
100
AcDbEntity
  8
COPY
100
AcDbLine
 62
7
  6
CONTINUOUS
 10
30.6702533532
 20
-1.3755528076
 11
30.7978843758
 21
-1.3755528076
  0
LINE
  5
2FE
100
AcDbEntity
  8
ASSI
100
AcDbLine
 62
7
  6
CONTINUOUS
 10
-40.9521156242
 20
-1.3755528076
 11
-41.0797466468
 21
-1.3755528076
  0
LINE
  5
2FF
100
AcDbEntity
  8
COPY
100
AcDbLine
 62
7
  6
CONTINUOUS
 10
-40.9521156242
 20
-1.3755528076
 11
-41.0797466468
 21
-1.3755528076
  0
LINE
  5
300
100
AcDbEntity
  8
ASSI
100
AcDbLine
 62
7
  6
CONTINUOUS
 10
41.6613167722
 20
-1.3755528076
 11
41.7889477947
 21
-1.3755528076
  0
LINE
  5
301
100
AcDbEntity
  8
COPY
100
AcDbLine
 62
7
  6
CONTINUOUS
 10
41.6613167722
 20
-1.3755528076
 11
41.7889477947
 21
-1.3755528076
  0
LINE
  5
302
100
AcDbEntity
  8
ASSI
100
AcDbLine
 62
7
  6
CONTINUOUS
 10
-29.9610522053
 20
-1.3106496829
 11
-41.0797466468
 21
-1.3106496829
  0
LINE
  5
303
100
AcDbEntity
  8
COPY
100
AcDbLine
 62
7
  6
CONTINUOUS
 10
-29.9610522053
 20
-1.3106496829
 11
-41.0797466468
 21
-1.3106496829
  0
LINE
  5
304
100
AcDbEntity
  8
ASSI
100
AcDbLine
 62
7
  6
CONTINUOUS
 10
30.6702533532
 20
-1.3106496829
 11
41.7889477947
 21
-1.3106496829
  0
LINE
  5
305
100
AcDbEntity
  8
COPY
100
AcDbLine
 62
7
  6
CONTINUOUS
 10
30.6702533532
 20
-1.3106496829
 11
41.7889477947
 21
-1.3106496829
  0
LINE
  5
306
100
AcDbEntity
  8
ASSI
100
AcDbLine
 62
253
  6
CONTINUOUS
 10
-29.9610522053
 20
-1.5800860871
 11
-30.0885271196
 21
-1.5800162248
  0
LINE
  5
307
100
AcDbEntity
  8
COPY
100
AcDbLine
 62
253
  6
CONTINUOUS
 10
-29.9610149929
 20
-1.5797478263
 11
-30.0884317522
 21
-1.5796857632
  0
LINE
  5
308
100
AcDbEntity
  8
COPY
100
AcDbLine
 62
253
  6
CONTINUOUS
 10
-40.952268953
 20
-1.5727982818
 11
-41.0796856745
 21
-1.5727051746
  0
LINE
  5
309
100
AcDbEntity
  8
ASSI
100
AcDbLine
 62
253
  6
CONTINUOUS
 10
-40.9522665338
 20
-1.5732071897
 11
-41.0797466468
 21
-1.5731186897
  0
LWPOLYLINE
  5
30A
100
AcDbEntity
  8
RACCORDO
100
AcDbPolyline
 62
7
  6
CONTINUOUS
 90
13
 70
0
 10
-60.2162018781
 20
0.2438545871
 10
-60.1506276544
 20
0.2334118574
 10
-60.0894977844
 20
0.2087811842
 10
-60.032812268
 20
0.1699625673
 10
-59.9798948011
 20
0.1152117223
 10
-59.9314216878
 20
0.0462729337
 10
-59.8894218405
 20
-0.031620945
 10
-59.8545276118
 20
-0.1187267221
 10
-59.826106649
 20
-0.2147875893
 10
-59.8042908068
 20
-0.3138002685
 10
-59.7891240365
 20
-0.4137636671
 10
-59.7805623867
 20
-0.5166788777
 10
-59.7786058575
 20
-0.6225459004
  0
LINE
  5
30B
100
AcDbEntity
  8
0
100
AcDbLine
 62
7
  6
CONTINUOUS
 10
4.654600574
 20
54.9938545871
 11
4.654600574
 21
44.9938545871
  0
LINE
  5
30C
100
AcDbEntity
  8
0
100
AcDbLine
 62
7
  6
CONTINUOUS
 10
9.354600574
 20
-36.0061454129
 11
9.354600574
 21
-27.2561454129
  0
LWPOLYLINE
  5
30D
100
AcDbEntity
  8
SUPERFICI
100
AcDbPolyline
 62
253
  6
CONTINUOUS
 90
5
 70
0
 10
61.5485070402
 20
2.4965443001
 10
61.4417121145
 20
2.495329811
 10
61.3306733455
 20
2.4925051779
 10
61.2168648549
 20
2.4883910331
 10
61.1018238242
 20
2.4829873767
  0
LINE
  5
30E
100
AcDbEntity
  8
RACCORDO
100
AcDbLine
 62
253
  6
CONTINUOUS
 10
-60.3926226763
 20
-1.5046877891
 11
-60.6214929008
 21
-1.5056726043
  0
LINE
  5
30F
100
AcDbEntity
  8
ASSI
100
AcDbLine
 62
253
  6
CONTINUOUS
 10
-41.0797466468
 20
2.5608278639
 11
-40.9522665338
 21
2.5609163638
  0
LINE
  5
310
100
AcDbEntity
  8
RACCORDO
100
AcDbLine
 62
253
  6
CONTINUOUS
 10
-41.0796856744
 20
2.5604143508
 11
-40.952268953
 21
2.5605074581
  0
LINE
  5
311
100
AcDbEntity
  8
RACCORDO
100
AcDbLine
 62
253
  6
CONTINUOUS
 10
-30.0884317522
 20
2.5673949381
 11
-29.9610149929
 21
2.5674570013
  0
LINE
  5
312
100
AcDbEntity
  8
ASSI
100
AcDbLine
 62
253
  6
CONTINUOUS
 10
-30.0885271196
 20
2.5677253991
 11
-29.9610522053
 21
2.5677952614
  0
LINE
  5
313
100
AcDbEntity
  8
ASSI
100
AcDbLine
 62
7
  6
CONTINUOUS
 10
-41.0797466468
 20
-1.2061454129
 11
-29.9610522053
 21
-1.2061454129
  0
LINE
  5
314
100
AcDbEntity
  8
COPY
100
AcDbLine
 62
7
  6
CONTINUOUS
 10
-41.0797466468
 20
-1.2061454129
 11
-29.9610522053
 21
-1.2061454129
  0
LINE
  5
315
100
AcDbEntity
  8
ASSI
100
AcDbLine
 62
7
  6
CONTINUOUS
 10
30.6702533532
 20
-1.2061454129
 11
41.7889477947
 21
-1.2061454129
  0
LINE
  5
316
100
AcDbEntity
  8
COPY
100
AcDbLine
 62
7
  6
CONTINUOUS
 10
30.6702533532
 20
-1.2061454129
 11
41.7889477947
 21
-1.2061454129
  0
LINE
  5
317
100
AcDbEntity
  8
RACCORDO
100
AcDbLine
 62
7
  6
CONTINUOUS
 10
-60.2162018781
 20
0.2438545871
 11
-62.954032338
 21
0.2438545871
  0
LINE
  5
318
100
AcDbEntity
  8
RACCORDO
100
AcDbLine
 62
7
  6
CONTINUOUS
 10
60.925403026
 20
0.2438545871
 11
63.663233486
 21
0.2438545871
  0
LINE
  5
319
100
AcDbEntity
  8
ASSI
100
AcDbLine
 62
7
  6
CONTINUOUS
 10
-41.020399426
 20
0.4938545871
 11
-30.020399426
 21
0.4938545871
  0
LINE
  5
31A
100
AcDbEntity
  8
COPY
100
AcDbLine
 62
7
  6
CONTINUOUS
 10
-41.020399426
 20
0.4938545871
 11
-30.020399426
 21
0.4938545871
  0
LINE
  5
31B
100
AcDbEntity
  8
ASSI
100
AcDbLine
 62
7
  6
CONTINUOUS
 10
41.729600574
 20
0.4938545871
 11
30.729600574
 21
0.4938545871
  0
LINE
  5
31C
100
AcDbEntity
  8
RACCORDO
100
AcDbLine
 62
7
  6
CONTINUOUS
 10
41.729600574
 20
0.4938545871
 11
30.729600574
 21
0.4938545871
  0
LINE
  5
31D
100
AcDbEntity
  8
COPY
100
AcDbLine
 62
7
  6
CONTINUOUS
 10
30.729600574
 20
0.4938545871
 11
41.729600574
 21
0.4938545871
  0
LINE
  5
31E
100
AcDbEntity
  8
RACCORDO
100
AcDbLine
 62
7
  6
CONTINUOUS
 10
-30.020399426
 20
0.4938545871
 11
-41.020399426
 21
0.4938545871
  0
LINE
  5
31F
100
AcDbEntity
  8
SUPERFICI
100
AcDbLine
 62
7
  6
CONTINUOUS
 10
-60.2162018781
 20
0.7438545871
 11
-62.954032338
 21
0.7438545871
  0
LINE
  5
320
100
AcDbEntity
  8
SUPERFICI
100
AcDbLine
 62
7
  6
CONTINUOUS
 10
60.925403026
 20
0.7438545871
 11
63.663233486
 21
0.7438545871
  0
LINE
  5
321
100
AcDbEntity
  8
ASSI
100
AcDbLine
 62
7
  6
CONTINUOUS
 10
41.7889477947
 20
2.1938545871
 11
30.6702533532
 21
2.1938545871
  0
LINE
  5
322
100
AcDbEntity
  8
RACCORDO
100
AcDbLine
 62
7
  6
CONTINUOUS
 10
41.7889477947
 20
2.1938545871
 11
30.6702533532
 21
2.1938545871
  0
LINE
  5
323
100
AcDbEntity
  8
ASSI
100
AcDbLine
 62
7
  6
CONTINUOUS
 10
-29.9610522053
 20
2.1938545871
 11
-41.0797466468
 21
2.1938545871
  0
LINE
  5
324
100
AcDbEntity
  8
RACCORDO
100
AcDbLine
 62
7
  6
CONTINUOUS
 10
-29.9610522053
 20
2.1938545871
 11
-41.0797466468
 21
2.1938545871
  0
LINE
  5
325
100
AcDbEntity
  8
ASSI
100
AcDbLine
 62
7
  6
CONTINUOUS
 10
-29.9610522053
 20
2.2983588571
 11
-41.0797466468
 21
2.2983588571
  0
LINE
  5
326
100
AcDbEntity
  8
DRAFT
100
AcDbLine
 62
7
  6
CONTINUOUS
 10
-29.9610522053
 20
2.2983588571
 11
-41.0797466468
 21
2.2983588571
  0
LINE
  5
327
100
AcDbEntity
  8
ASSI
100
AcDbLine
 62
7
  6
CONTINUOUS
 10
30.6702533532
 20
2.2983588571
 11
41.7889477947
 21
2.2983588571
  0
LINE
  5
328
100
AcDbEntity
  8
DRAFT
100
AcDbLine
 62
7
  6
CONTINUOUS
 10
30.6702533532
 20
2.2983588571
 11
41.7889477947
 21
2.2983588571
  0
LINE
  5
329
100
AcDbEntity
  8
ASSI
100
AcDbLine
 62
7
  6
CONTINUOUS
 10
-29.9610522053
 20
2.3632619817
 11
-30.0886832278
 21
2.3632619817
  0
LINE
  5
32A
100
AcDbEntity
  8
DRAFT
100
AcDbLine
 62
7
  6
CONTINUOUS
 10
-29.9610522053
 20
2.3632619817
 11
-30.0886832278
 21
2.3632619817
  0
LINE
  5
32B
100
AcDbEntity
  8
ASSI
100
AcDbLine
 62
7
  6
CONTINUOUS
 10
30.6702533532
 20
2.3632619817
 11
30.7978843758
 21
2.3632619817
  0
LINE
  5
32C
100
AcDbEntity
  8
DRAFT
100
AcDbLine
 62
7
  6
CONTINUOUS
 10
30.6702533532
 20
2.3632619817
 11
30.7978843758
 21
2.3632619817
  0
LINE
  5
32D
100
AcDbEntity
  8
ASSI
100
AcDbLine
 62
7
  6
CONTINUOUS
 10
-40.9521156242
 20
2.3632619817
 11
-41.0797466468
 21
2.3632619817
  0
LINE
  5
32E
100
AcDbEntity
  8
DRAFT
100
AcDbLine
 62
7
  6
CONTINUOUS
 10
-40.9521156242
 20
2.3632619817
 11
-41.0797466468
 21
2.3632619817
  0
LINE
  5
32F
100
AcDbEntity
  8
ASSI
100
AcDbLine
 62
7
  6
CONTINUOUS
 10
41.6613167722
 20
2.3632619817
 11
41.7889477947
 21
2.3632619817
  0
LINE
  5
330
100
AcDbEntity
  8
DRAFT
100
AcDbLine
 62
7
  6
CONTINUOUS
 10
41.6613167722
 20
2.3632619817
 11
41.7889477947
 21
2.3632619817
  0
LINE
  5
331
100
AcDbEntity
  8
SUPERFICI
100
AcDbLine
 62
253
  6
CONTINUOUS
 10
61.967849228
 20
2.4938545871
 11
64.854600574
 21
2.4938545871
  0
LINE
  5
332
100
AcDbEntity
  8
SUPERFICI
100
AcDbLine
 62
7
  6
CONTINUOUS
 10
-41.1164022831
 20
2.6438545871
 11
-29.9243965689
 21
2.6438545871
  0
LINE
  5
333
100
AcDbEntity
  8
SUPERFICI
100
AcDbLine
 62
7
  6
CONTINUOUS
 10
30.6335977169
 20
2.6438545871
 11
41.8256034311
 21
2.6438545871
  0
LINE
  5
334
100
AcDbEntity
  8
RACCORDO
100
AcDbLine
 62
253
  6
CONTINUOUS
 10
30.6702161409
 20
2.5674570015
 11
30.7976329002
 21
2.5673949384
  0
LINE
  5
335
100
AcDbEntity
  8
ASSI
100
AcDbLine
 62
253
  6
CONTINUOUS
 10
30.6702533532
 20
2.5677952612
 11
30.7977282675
 21
2.5677253989
  0
LINE
  5
336
100
AcDbEntity
  8
SUPERFICI
100
AcDbLine
 62
253
  6
CONTINUOUS
 10
-60.7325357806
 20
2.4936505398
 11
-61.1190757757
 21
2.4936173941
  0
LINE
  5
337
100
AcDbEntity
  8
ASSI
100
AcDbLine
 62
253
  6
CONTINUOUS
 10
41.6614676817
 20
2.5609163638
 11
41.7889477947
 21
2.5608278639
  0
LINE
  5
338
100
AcDbEntity
  8
RACCORDO
100
AcDbLine
 62
253
  6
CONTINUOUS
 10
41.6614701009
 20
2.5605074592
 11
41.7888868224
 21
2.5604143519
  0
LINE
  5
339
100
AcDbEntity
  8
SUPERFICI
100
AcDbLine
 62
253
  6
CONTINUOUS
 10
-61.1190757757
 20
2.4936173941
 11
-64.145399426
 21
2.4938545871
  0
LINE
  5
33A
100
AcDbEntity
  8
SUPERFICI
100
AcDbLine
 62
253
  6
CONTINUOUS
 10
-60.3926226763
 20
2.4923969633
 11
-60.7325357806
 21
2.4936505398
  0
LWPOLYLINE
  5
33B
100
AcDbEntity
  8
SUPERFICI
100
AcDbPolyline
 62
253
  6
CONTINUOUS
 90
5
 70
0
 10
61.967849228
 20
2.4938549409
 10
61.9034974862
 20
2.4949197886
 10
61.8282669225
 20
2.4956570218
 10
61.7432254737
 20
2.4960666407
 10
61.5485070402
 20
2.4965443001
  0
LINE
  5
33C
100
AcDbEntity
  8
0
100
AcDbLine
 62
7
  6
CONTINUOUS
 10
12.954600574
 20
23.7938545871
 11
12.954600574
 21
27.4938545871
  0
LINE
  5
33D
100
AcDbEntity
  8
SUPERFICI
100
AcDbLine
 62
253
  6
CONTINUOUS
 10
14.354600574
 20
70.7912479502
 11
14.354600574
 21
70.4912593733
  0
LINE
  5
33E
100
AcDbEntity
  8
RACCORDO
100
AcDbLine
 62
253
  6
CONTINUOUS
 10
14.354600574
 20
-69.8035387761
 11
14.354600574
 21
-69.5035501992
  0
LINE
  5
33F
100
AcDbEntity
  8
RACCORDO
100
AcDbLine
 62
253
  6
CONTINUOUS
 10
14.354600574
 20
-19.2087520498
 11
14.3546005633
 21
-19.5087406267
  0
LINE
  5
340
100
AcDbEntity
  8
SUPERFICI
100
AcDbLine
 62
253
  6
CONTINUOUS
 10
14.354600574
 20
20.1964612239
 11
14.3546005633
 21
20.4964498008
  0
LINE
  5
341
100
AcDbEntity
  8
RACCORDO
100
AcDbLine
 62
253
  6
CONTINUOUS
 10
-64.145399426
 20
-87.2740946054
 11
-61.2586480801
 21
-84.3873432594
  0
LINE
  5
342
100
AcDbEntity
  8
RACCORDO
100
AcDbLine
 62
253
  6
CONTINUOUS
 10
-62.4133486185
 20
-89.0061454129
 11
-59.5265972725
 21
-86.119394067
  0
LINE
  5
343
100
AcDbEntity
  8
RACCORDO
100
AcDbLine
 62
7
  6
CONTINUOUS
 10
30.7244097512
 20
-0.0755785291
 11
30.6702533532
 21
-0.1026546658
  0
LINE
  5
344
100
AcDbEntity
  8
SUPERFICI
100
AcDbLine
 62
7
  6
CONTINUOUS
 10
41.7347913968
 20
1.0632877032
 11
41.7889477947
 21
1.0903638399
  0
LWPOLYLINE
  5
345
100
AcDbEntity
  8
SUPERFICI
100
AcDbPolyline
 62
7
  6
CONTINUOUS
 90
13
 70
0
 10
-60.2162018781
 20
0.7438545871
 10
-60.1506276544
 20
0.7542973167
 10
-60.0894977844
 20
0.7789279899
 10
-60.032812268
 20
0.8177466068
 10
-59.9798948011
 20
0.8724974518
 10
-59.9314216878
 20
0.9414362404
 10
-59.8894218405
 20
1.0193301191
 10
-59.8545276118
 20
1.1064358962
 10
-59.826106649
 20
1.2024967634
 10
-59.8042908068
 20
1.3015094426
 10
-59.7891240365
 20
1.4014728412
 10
-59.7805623867
 20
1.5043880518
 10
-59.7786058575
 20
1.6102550745
  0
LINE
  5
346
100
AcDbEntity
  8
SUPERFICI
100
AcDbLine
 62
7
  6
CONTINUOUS
 10
20.054600574
 20
13.9938545871
 11
-19.345399426
 21
13.9938545871
  0
LINE
  5
347
100
AcDbEntity
  8
SUPERFICI
100
AcDbLine
 62
253
  6
CONTINUOUS
 10
-19.645399426
 20
14.2938545871
 11
20.354600574
 21
14.2938545871
  0
LINE
  5
348
100
AcDbEntity
  8
SUPERFICI
100
AcDbLine
 62
7
  6
CONTINUOUS
 10
30.7244097512
 20
1.0632877032
 11
30.6702533532
 21
1.0903638399
  0
LINE
  5
349
100
AcDbEntity
  8
RACCORDO
100
AcDbLine
 62
253
  6
CONTINUOUS
 10
20.054600574
 20
-18.0061454129
 11
20.054600574
 21
-13.0061454129
  0
LINE
  5
34A
100
AcDbEntity
  8
SUPERFICI
100
AcDbLine
 62
253
  6
CONTINUOUS
 10
20.054600574
 20
13.9938545871
 11
20.054600574
 21
18.9938545871
  0
LINE
  5
34B
100
AcDbEntity
  8
RACCORDO
100
AcDbLine
 62
253
  6
CONTINUOUS
 10
20.054600574
 20
-71.0061454129
 11
20.054600574
 21
-76.0061454129
  0
LINE
  5
34C
100
AcDbEntity
  8
SUPERFICI
100
AcDbLine
 62
253
  6
CONTINUOUS
 10
20.054600574
 20
71.9938545871
 11
20.054600574
 21
76.9938545871
  0
LINE
  5
34D
100
AcDbEntity
  8
SUPERFICI
100
AcDbLine
 62
7
  6
CONTINUOUS
 10
20.354600574
 20
76.6938545871
 11
20.354600574
 21
72.2938545871
  0
LINE
  5
34E
100
AcDbEntity
  8
RACCORDO
100
AcDbLine
 62
7
  6
CONTINUOUS
 10
20.354600574
 20
-75.7061454129
 11
20.354600574
 21
-71.3061454129
  0
LINE
  5
34F
100
AcDbEntity
  8
SUPERFICI
100
AcDbLine
 62
7
  6
CONTINUOUS
 10
20.354600574
 20
18.6938545871
 11
20.354600574
 21
14.2938545871
  0
LINE
  5
350
100
AcDbEntity
  8
RACCORDO
100
AcDbLine
 62
7
  6
CONTINUOUS
 10
20.354600574
 20
-17.7061454129
 11
20.354600574
 21
-13.3061454129
  0
LINE
  5
351
100
AcDbEntity
  8
0
100
AcDbLine
 62
7
  6
CONTINUOUS
 10
20.654600574
 20
27.4938545871
 11
20.654600574
 21
42.4938545871
  0
LINE
  5
352
100
AcDbEntity
  8
0
100
AcDbLine
 62
7
  6
CONTINUOUS
 10
22.754600574
 20
55.8938545871
 11
22.754600574
 21
62.8938545871
  0
LINE
  5
353
100
AcDbEntity
  8
RACCORDO
100
AcDbLine
 62
7
  6
CONTINUOUS
 10
24.3520053602
 20
-29.5061454129
 11
24.3520053602
 21
-59.5061454129
  0
LINE
  5
354
100
AcDbEntity
  8
SUPERFICI
100
AcDbLine
 62
7
  6
CONTINUOUS
 10
24.3520053602
 20
30.4938545871
 11
24.3520053602
 21
60.4938545871
  0
LINE
  5
355
100
AcDbEntity
  8
RACCORDO
100
AcDbLine
 62
253
  6
CONTINUOUS
 10
24.6519939372
 20
-29.5061454129
 11
24.6519939372
 21
-59.5061454129
  0
LINE
  5
356
100
AcDbEntity
  8
SUPERFICI
100
AcDbLine
 62
253
  6
CONTINUOUS
 10
24.6519939372
 20
30.4938545871
 11
24.6519939372
 21
60.4938545871
  0
LINE
  5
357
100
AcDbEntity
  8
SUPERFICI
100
AcDbLine
 62
253
  6
CONTINUOUS
 10
-19.645399426
 20
18.6938545871
 11
20.354600574
 21
18.6938545871
  0
LINE
  5
358
100
AcDbEntity
  8
SUPERFICI
100
AcDbLine
 62
7
  6
CONTINUOUS
 10
-19.345399426
 20
18.9938545871
 11
20.054600574
 21
18.9938545871
  0
LINE
  5
359
100
AcDbEntity
  8
SUPERFICI
100
AcDbLine
 62
253
  6
CONTINUOUS
 10
-13.645399426
 20
20.1964612239
 11
14.354600574
 21
20.1964612239
  0
LINE
  5
35A
100
AcDbEntity
  8
SUPERFICI
100
AcDbLine
 62
7
  6
CONTINUOUS
 10
-13.645399426
 20
20.4964498008
 11
14.354600574
 21
20.4964498008
  0
LINE
  5
35B
100
AcDbEntity
  8
RACCORDO
100
AcDbLine
 62
7
  6
CONTINUOUS
 10
41.7347913968
 20
-0.0755785291
 11
41.7889477947
 21
-0.1026546658
  0
LINE
  5
35C
100
AcDbEntity
  8
SUPERFICI
100
AcDbLine
 62
253
  6
CONTINUOUS
 10
-64.145399426
 20
88.2618037795
 11
-61.2586480801
 21
85.3750524335
  0
LINE
  5
35D
100
AcDbEntity
  8
SUPERFICI
100
AcDbLine
 62
253
  6
CONTINUOUS
 10
-62.4133486185
 20
89.9938545871
 11
-59.5265972725
 21
87.1071032411
  0
LINE
  5
35E
100
AcDbEntity
  8
SUPERFICI
100
AcDbLine
 62
7
  6
CONTINUOUS
 10
30.7976701427
 20
2.6438545871
 11
30.7979338167
 21
2.2985064674
  0
LINE
  5
35F
100
AcDbEntity
  8
RACCORDO
100
AcDbLine
 62
7
  6
CONTINUOUS
 10
26.954600574
 20
-42.0061454129
 11
26.954600574
 21
-47.0061454129
  0
LINE
  5
360
100
AcDbEntity
  8
SUPERFICI
100
AcDbLine
 62
7
  6
CONTINUOUS
 10
26.954600574
 20
42.9938545871
 11
26.954600574
 21
47.9938545871
  0
LINE
  5
361
100
AcDbEntity
  8
RACCORDO
100
AcDbLine
 62
253
  6
CONTINUOUS
 10
27.254600574
 20
-42.0061454129
 11
27.254600574
 21
-47.0061454129
  0
LINE
  5
362
100
AcDbEntity
  8
SUPERFICI
100
AcDbLine
 62
253
  6
CONTINUOUS
 10
27.254600574
 20
42.9938545871
 11
27.254600574
 21
47.9938545871
  0
LINE
  5
363
100
AcDbEntity
  8
SUPERFICI
100
AcDbLine
 62
253
  6
CONTINUOUS
 10
28.2528437769
 20
47.9938545871
 11
28.2528437769
 21
42.9938545871
  0
LINE
  5
364
100
AcDbEntity
  8
RACCORDO
100
AcDbLine
 62
253
  6
CONTINUOUS
 10
28.2528437769
 20
-47.0061454129
 11
28.2528437769
 21
-42.0061454129
  0
LINE
  5
365
100
AcDbEntity
  8
SUPERFICI
100
AcDbLine
 62
7
  6
CONTINUOUS
 10
28.5528323538
 20
47.9938545871
 11
28.5528323538
 21
42.9938545871
  0
LINE
  5
366
100
AcDbEntity
  8
RACCORDO
100
AcDbLine
 62
7
  6
CONTINUOUS
 10
28.5528323538
 20
-47.0061454129
 11
28.5528323538
 21
-42.0061454129
  0
LINE
  5
367
100
AcDbEntity
  8
0
100
AcDbLine
 62
7
  6
CONTINUOUS
 10
30.6335977169
 20
-1.6561454129
 11
30.6335977169
 21
2.6438545871
  0
LINE
  5
368
100
AcDbEntity
  8
DRAFT
100
AcDbLine
 62
7
  6
CONTINUOUS
 10
30.6702533532
 20
-0.1026546658
 11
30.6702533532
 21
-1.6561454129
  0
LINE
  5
369
100
AcDbEntity
  8
SUPERFICI
100
AcDbLine
 62
7
  6
CONTINUOUS
 10
30.6702533532
 20
1.0903638399
 11
30.6702533532
 21
2.6438545871
  0
LINE
  5
36A
100
AcDbEntity
  8
0
100
AcDbLine
 62
7
  6
CONTINUOUS
 10
30.729600574
 20
0.7632991263
 11
30.729600574
 21
0.2244100478
  0
LINE
  5
36B
100
AcDbEntity
  8
RACCORDO
100
AcDbLine
 62
7
  6
CONTINUOUS
 10
32.1563687941
 20
-42.0061454129
 11
32.1563687941
 21
-47.0061454129
  0
LINE
  5
36C
100
AcDbEntity
  8
SUPERFICI
100
AcDbLine
 62
7
  6
CONTINUOUS
 10
32.1563687941
 20
42.9938545871
 11
32.1563687941
 21
47.9938545871
  0
LINE
  5
36D
100
AcDbEntity
  8
RACCORDO
100
AcDbLine
 62
253
  6
CONTINUOUS
 10
32.4563573711
 20
-42.0061454129
 11
32.4563573711
 21
-47.0061454129
  0
LINE
  5
36E
100
AcDbEntity
  8
SUPERFICI
100
AcDbLine
 62
253
  6
CONTINUOUS
 10
32.4563573711
 20
42.9938545871
 11
32.4563573711
 21
47.9938545871
  0
LINE
  5
36F
100
AcDbEntity
  8
SUPERFICI
100
AcDbLine
 62
253
  6
CONTINUOUS
 10
33.454600574
 20
47.9938545871
 11
33.454600574
 21
42.9938545871
  0
LINE
  5
370
100
AcDbEntity
  8
RACCORDO
100
AcDbLine
 62
253
  6
CONTINUOUS
 10
33.454600574
 20
-47.0061454129
 11
33.454600574
 21
-42.0061454129
  0
LINE
  5
371
100
AcDbEntity
  8
SUPERFICI
100
AcDbLine
 62
7
  6
CONTINUOUS
 10
33.754600574
 20
47.9938545871
 11
33.754600574
 21
42.9938545871
  0
LINE
  5
372
100
AcDbEntity
  8
RACCORDO
100
AcDbLine
 62
7
  6
CONTINUOUS
 10
33.754600574
 20
-47.0061454129
 11
33.754600574
 21
-42.0061454129
  0
LINE
  5
373
100
AcDbEntity
  8
RACCORDO
100
AcDbLine
 62
7
  6
CONTINUOUS
 10
30.7976701427
 20
-1.6561454129
 11
30.7979338167
 21
-1.3107972932
  0
LINE
  5
374
100
AcDbEntity
  8
SUPERFICI
100
AcDbLine
 62
7
  6
CONTINUOUS
 10
47.490193789
 20
19.1454988078
 11
46.0142302385
 21
16.6633461125
  0
LINE
  5
375
100
AcDbEntity
  8
0
100
AcDbLine
 62
7
  6
CONTINUOUS
 10
-4.445399426
 20
23.7938545871
 11
12.954600574
 21
23.7938545871
  0
LINE
  5
376
100
AcDbEntity
  8
0
100
AcDbLine
 62
7
  6
CONTINUOUS
 10
20.654600574
 20
27.4938545871
 11
-19.945399426
 21
27.4938545871
  0
LINE
  5
377
100
AcDbEntity
  8
SUPERFICI
100
AcDbLine
 62
253
  6
CONTINUOUS
 10
24.6519939372
 20
30.4938545871
 11
24.3520053602
 21
30.4938545871
  0
LINE
  5
378
100
AcDbEntity
  8
SUPERFICI
100
AcDbLine
 62
253
  6
CONTINUOUS
 10
-23.9427927892
 20
30.4938545871
 11
-23.6428042123
 21
30.4938545977
  0
LINE
  5
379
100
AcDbEntity
  8
RACCORDO
100
AcDbLine
 62
7
  6
CONTINUOUS
 10
41.6615310052
 20
-1.6561454129
 11
41.6612673312
 21
-1.3107972932
  0
LINE
  5
37A
100
AcDbEntity
  8
RACCORDO
100
AcDbLine
 62
7
  6
CONTINUOUS
 10
38.704600574
 20
-42.0061454129
 11
38.704600574
 21
-47.0061454129
  0
LINE
  5
37B
100
AcDbEntity
  8
SUPERFICI
100
AcDbLine
 62
7
  6
CONTINUOUS
 10
38.704600574
 20
42.9938545871
 11
38.704600574
 21
47.9938545871
  0
LINE
  5
37C
100
AcDbEntity
  8
RACCORDO
100
AcDbLine
 62
253
  6
CONTINUOUS
 10
39.004600574
 20
-42.0061454129
 11
39.004600574
 21
-47.0061454129
  0
LINE
  5
37D
100
AcDbEntity
  8
SUPERFICI
100
AcDbLine
 62
253
  6
CONTINUOUS
 10
39.004600574
 20
42.9938545871
 11
39.004600574
 21
47.9938545871
  0
LINE
  5
37E
100
AcDbEntity
  8
SUPERFICI
100
AcDbLine
 62
253
  6
CONTINUOUS
 10
40.0028437769
 20
47.9938545871
 11
40.0028437769
 21
42.9938545871
  0
LINE
  5
37F
100
AcDbEntity
  8
RACCORDO
100
AcDbLine
 62
253
  6
CONTINUOUS
 10
40.0028437769
 20
-47.0061454129
 11
40.0028437769
 21
-42.0061454129
  0
LINE
  5
380
100
AcDbEntity
  8
SUPERFICI
100
AcDbLine
 62
7
  6
CONTINUOUS
 10
40.3028323538
 20
47.9938545871
 11
40.3028323538
 21
42.9938545871
  0
LINE
  5
381
100
AcDbEntity
  8
RACCORDO
100
AcDbLine
 62
7
  6
CONTINUOUS
 10
40.3028323538
 20
-47.0061454129
 11
40.3028323538
 21
-42.0061454129
  0
LINE
  5
382
100
AcDbEntity
  8
0
100
AcDbLine
 62
7
  6
CONTINUOUS
 10
41.729600574
 20
0.2244100478
 11
41.729600574
 21
0.7632991263
  0
LINE
  5
383
100
AcDbEntity
  8
DRAFT
100
AcDbLine
 62
7
  6
CONTINUOUS
 10
41.7889477947
 20
-0.1026546658
 11
41.7889477947
 21
-1.6561454129
  0
LINE
  5
384
100
AcDbEntity
  8
SUPERFICI
100
AcDbLine
 62
7
  6
CONTINUOUS
 10
41.7889477947
 20
1.0903638399
 11
41.7889477947
 21
2.6438545871
  0
LINE
  5
385
100
AcDbEntity
  8
0
100
AcDbLine
 62
7
  6
CONTINUOUS
 10
41.8256034311
 20
2.6438545871
 11
41.8256034311
 21
-1.6561454129
  0
LINE
  5
386
100
AcDbEntity
  8
SUPERFICI
100
AcDbLine
 62
7
  6
CONTINUOUS
 10
41.6615310052
 20
2.6438545871
 11
41.6612673312
 21
2.2985064674
  0
LINE
  5
387
100
AcDbEntity
  8
SUPERFICI
100
AcDbLine
 62
7
  6
CONTINUOUS
 10
53.600363286
 20
15.7299712179
 11
51.9330711209
 21
12.9260579769
  0
LINE
  5
388
100
AcDbEntity
  8
RACCORDO
100
AcDbLine
 62
253
  6
CONTINUOUS
 10
-51.4775345822
 20
-77.2341115146
 11
-51.2238699729
 21
-77.0739420231
  0
LINE
  5
389
100
AcDbEntity
  8
RACCORDO
100
AcDbLine
 62
253
  6
CONTINUOUS
 10
-45.5586936997
 20
-73.496823379
 11
-45.3050290905
 21
-73.3366538875
  0
LINE
  5
38A
100
AcDbEntity
  8
RACCORDO
100
AcDbLine
 62
253
  6
CONTINUOUS
 10
52.1867357301
 20
-11.7781793112
 11
51.9330711209
 21
-11.9383488028
  0
LINE
  5
38B
100
AcDbEntity
  8
RACCORDO
100
AcDbLine
 62
253
  6
CONTINUOUS
 10
46.2678948477
 20
-15.5154674468
 11
46.0142302385
 21
-15.6756369384
  0
LINE
  5
38C
100
AcDbEntity
  8
RACCORDO
100
AcDbLine
 62
253
  6
CONTINUOUS
 10
48.2972117217
 20
-14.2341115146
 11
48.5508763307
 21
-14.0739420228
  0
LINE
  5
38D
100
AcDbEntity
  8
RACCORDO
100
AcDbLine
 62
253
  6
CONTINUOUS
 10
54.2160526041
 20
-10.496823379
 11
54.4697172192
 21
-10.3366538967
  0
LINE
  5
38E
100
AcDbEntity
  8
RACCORDO
100
AcDbLine
 62
253
  6
CONTINUOUS
 10
-47.5880105737
 20
-74.7781793113
 11
-47.8416751828
 21
-74.9383488031
  0
LINE
  5
38F
100
AcDbEntity
  8
RACCORDO
100
AcDbLine
 62
253
  6
CONTINUOUS
 10
-53.5068514562
 20
-78.5154674468
 11
-53.7605160712
 21
-78.6756369291
  0
LINE
  5
390
100
AcDbEntity
  8
RACCORDO
100
AcDbLine
 62
253
  6
CONTINUOUS
 10
47.7520582011
 20
-18.011409889
 11
47.490193789
 21
-18.1577896337
  0
LINE
  5
391
100
AcDbEntity
  8
RACCORDO
100
AcDbLine
 62
253
  6
CONTINUOUS
 10
-53.1530265447
 20
-74.4164085367
 11
-52.8911621381
 21
-74.2700287821
  0
LINE
  5
392
100
AcDbEntity
  8
RACCORDO
100
AcDbLine
 62
253
  6
CONTINUOUS
 10
53.8622276926
 20
-14.5958822892
 11
53.600363286
 21
-14.7422620438
  0
LINE
  5
393
100
AcDbEntity
  8
RACCORDO
100
AcDbLine
 62
253
  6
CONTINUOUS
 10
49.8469734553
 20
-16.8403718547
 11
50.1088378621
 21
-16.6939921005
  0
LINE
  5
394
100
AcDbEntity
  8
RACCORDO
100
AcDbLine
 62
253
  6
CONTINUOUS
 10
55.9571429469
 20
-13.424844255
 11
56.2190073536
 21
-13.2784645007
  0
LINE
  5
395
100
AcDbEntity
  8
RACCORDO
100
AcDbLine
 62
253
  6
CONTINUOUS
 10
-49.1377723074
 20
-72.1719189711
 11
-49.3996367142
 21
-72.3182987254
  0
LINE
  5
396
100
AcDbEntity
  8
RACCORDO
100
AcDbLine
 62
253
  6
CONTINUOUS
 10
-55.2479417989
 20
-75.5874465709
 11
-55.5098062057
 21
-75.7338263252
  0
LINE
  5
397
100
AcDbEntity
  8
RACCORDO
100
AcDbLine
 62
253
  6
CONTINUOUS
 10
-47.0428570531
 20
-71.0008809369
 11
-46.780992641
 21
-70.8545011922
  0
LINE
  5
398
100
AcDbEntity
  8
0
100
AcDbLine
 62
7
  6
CONTINUOUS
 10
20.654600574
 20
33.8938545871
 11
-19.945399426
 21
33.8938545871
  0
LINE
  5
399
100
AcDbEntity
  8
SUPERFICI
100
AcDbLine
 62
7
  6
CONTINUOUS
 10
50.054600574
 20
37.9938545871
 11
47.654600574
 21
37.9938545871
  0
LINE
  5
39A
100
AcDbEntity
  8
SUPERFICI
100
AcDbLine
 62
7
  6
CONTINUOUS
 10
-46.945399426
 20
37.9938545871
 11
-49.345399426
 21
37.9938545871
  0
LINE
  5
39B
100
AcDbEntity
  8
SUPERFICI
100
AcDbLine
 62
253
  6
CONTINUOUS
 10
-46.645399426
 20
38.2938545871
 11
-49.645399426
 21
38.2938545871
  0
LINE
  5
39C
100
AcDbEntity
  8
SUPERFICI
100
AcDbLine
 62
253
  6
CONTINUOUS
 10
47.354600574
 20
38.2938545871
 11
50.354600574
 21
38.2938545871
  0
LINE
  5
39D
100
AcDbEntity
  8
SUPERFICI
100
AcDbLine
 62
253
  6
CONTINUOUS
 10
-53.1530265447
 20
75.4041177108
 11
-52.8911621381
 21
75.2577379562
  0
LINE
  5
39E
100
AcDbEntity
  8
SUPERFICI
100
AcDbLine
 62
253
  6
CONTINUOUS
 10
-47.0428570531
 20
71.988590111
 11
-46.780992641
 21
71.8422103663
  0
LINE
  5
39F
100
AcDbEntity
  8
SUPERFICI
100
AcDbLine
 62
253
  6
CONTINUOUS
 10
53.8622276926
 20
15.5835914633
 11
53.600363286
 21
15.7299712179
  0
LINE
  5
3A0
100
AcDbEntity
  8
SUPERFICI
100
AcDbLine
 62
253
  6
CONTINUOUS
 10
47.7520582011
 20
18.9991190631
 11
47.490193789
 21
19.1454988078
  0
LINE
  5
3A1
100
AcDbEntity
  8
SUPERFICI
100
AcDbLine
 62
253
  6
CONTINUOUS
 10
49.8469734553
 20
17.8280810289
 11
50.1088378621
 21
17.6817012746
  0
LINE
  5
3A2
100
AcDbEntity
  8
SUPERFICI
100
AcDbLine
 62
253
  6
CONTINUOUS
 10
55.9571429469
 20
14.4125534291
 11
56.2190073536
 21
14.2661736748
  0
LINE
  5
3A3
100
AcDbEntity
  8
SUPERFICI
100
AcDbLine
 62
253
  6
CONTINUOUS
 10
-49.1377723074
 20
73.1596281453
 11
-49.3996367142
 21
73.3060078995
  0
LINE
  5
3A4
100
AcDbEntity
  8
SUPERFICI
100
AcDbLine
 62
253
  6
CONTINUOUS
 10
-55.2479417989
 20
76.575155745
 11
-55.5098062057
 21
76.7215354993
  0
LINE
  5
3A5
100
AcDbEntity
  8
SUPERFICI
100
AcDbLine
 62
253
  6
CONTINUOUS
 10
-51.4775345822
 20
78.2218206888
 11
-51.2238699729
 21
78.0616511972
  0
LINE
  5
3A6
100
AcDbEntity
  8
SUPERFICI
100
AcDbLine
 62
253
  6
CONTINUOUS
 10
-45.5586936997
 20
74.4845325532
 11
-45.3050290905
 21
74.3243630616
  0
LINE
  5
3A7
100
AcDbEntity
  8
SUPERFICI
100
AcDbLine
 62
253
  6
CONTINUOUS
 10
52.1867357301
 20
12.7658884854
 11
51.9330711209
 21
12.9260579769
  0
LINE
  5
3A8
100
AcDbEntity
  8
SUPERFICI
100
AcDbLine
 62
253
  6
CONTINUOUS
 10
46.2678948477
 20
16.503176621
 11
46.0142302385
 21
16.6633461125
  0
LINE
  5
3A9
100
AcDbEntity
  8
SUPERFICI
100
AcDbLine
 62
253
  6
CONTINUOUS
 10
48.2972117217
 20
15.2218206887
 11
48.5508763307
 21
15.0616511969
  0
LINE
  5
3AA
100
AcDbEntity
  8
SUPERFICI
100
AcDbLine
 62
253
  6
CONTINUOUS
 10
54.2160526041
 20
11.4845325532
 11
54.4697172192
 21
11.3243630709
  0
LINE
  5
3AB
100
AcDbEntity
  8
SUPERFICI
100
AcDbLine
 62
253
  6
CONTINUOUS
 10
-47.5880105737
 20
75.7658884854
 11
-47.8416751828
 21
75.9260579772
  0
LINE
  5
3AC
100
AcDbEntity
  8
SUPERFICI
100
AcDbLine
 62
253
  6
CONTINUOUS
 10
-53.5068514562
 20
79.503176621
 11
-53.7605160712
 21
79.6633461033
  0
LINE
  5
3AD
100
AcDbEntity
  8
RACCORDO
100
AcDbLine
 62
7
  6
CONTINUOUS
 10
50.1088378621
 20
-16.6939921005
 11
48.5508763307
 21
-14.0739420228
  0
LINE
  5
3AE
100
AcDbEntity
  8
RACCORDO
100
AcDbLine
 62
7
  6
CONTINUOUS
 10
56.2190073536
 20
-13.2784645007
 11
54.4697172192
 21
-10.3366538968
  0
LINE
  5
3AF
100
AcDbEntity
  8
RACCORDO
100
AcDbLine
 62
7
  6
CONTINUOUS
 10
43.9063687941
 20
-42.0061454129
 11
43.9063687941
 21
-47.0061454129
  0
LINE
  5
3B0
100
AcDbEntity
  8
SUPERFICI
100
AcDbLine
 62
7
  6
CONTINUOUS
 10
43.9063687941
 20
42.9938545871
 11
43.9063687941
 21
47.9938545871
  0
LINE
  5
3B1
100
AcDbEntity
  8
RACCORDO
100
AcDbLine
 62
253
  6
CONTINUOUS
 10
44.2063573711
 20
-42.0061454129
 11
44.2063573711
 21
-47.0061454129
  0
LINE
  5
3B2
100
AcDbEntity
  8
SUPERFICI
100
AcDbLine
 62
253
  6
CONTINUOUS
 10
44.2063573711
 20
42.9938545871
 11
44.2063573711
 21
47.9938545871
  0
LINE
  5
3B3
100
AcDbEntity
  8
SUPERFICI
100
AcDbLine
 62
253
  6
CONTINUOUS
 10
45.204600574
 20
47.9938545871
 11
45.204600574
 21
42.9938545871
  0
LINE
  5
3B4
100
AcDbEntity
  8
RACCORDO
100
AcDbLine
 62
253
  6
CONTINUOUS
 10
45.204600574
 20
-47.0061454129
 11
45.204600574
 21
-42.0061454129
  0
LINE
  5
3B5
100
AcDbEntity
  8
SUPERFICI
100
AcDbLine
 62
7
  6
CONTINUOUS
 10
45.504600574
 20
47.9938545871
 11
45.504600574
 21
42.9938545871
  0
LINE
  5
3B6
100
AcDbEntity
  8
RACCORDO
100
AcDbLine
 62
7
  6
CONTINUOUS
 10
45.504600574
 20
-47.0061454129
 11
45.504600574
 21
-42.0061454129
  0
LINE
  5
3B7
100
AcDbEntity
  8
RACCORDO
100
AcDbLine
 62
7
  6
CONTINUOUS
 10
47.354600574
 20
-37.3061454129
 11
47.354600574
 21
-51.7061454129
  0
LINE
  5
3B8
100
AcDbEntity
  8
SUPERFICI
100
AcDbLine
 62
7
  6
CONTINUOUS
 10
47.354600574
 20
38.2938545871
 11
47.354600574
 21
52.6938545871
  0
LINE
  5
3B9
100
AcDbEntity
  8
RACCORDO
100
AcDbLine
 62
253
  6
CONTINUOUS
 10
47.654600574
 20
-37.0061454129
 11
47.654600574
 21
-52.0061454129
  0
LINE
  5
3BA
100
AcDbEntity
  8
SUPERFICI
100
AcDbLine
 62
253
  6
CONTINUOUS
 10
47.654600574
 20
37.9938545871
 11
47.654600574
 21
52.9938545871
  0
LINE
  5
3BB
100
AcDbEntity
  8
RACCORDO
100
AcDbLine
 62
253
  6
CONTINUOUS
 10
50.054600574
 20
-37.0061454129
 11
50.054600574
 21
-52.0061454129
  0
LINE
  5
3BC
100
AcDbEntity
  8
SUPERFICI
100
AcDbLine
 62
253
  6
CONTINUOUS
 10
50.054600574
 20
37.9938545871
 11
50.054600574
 21
52.9938545871
  0
LINE
  5
3BD
100
AcDbEntity
  8
SUPERFICI
100
AcDbLine
 62
7
  6
CONTINUOUS
 10
50.354600574
 20
52.6938545871
 11
50.354600574
 21
38.2938545871
  0
LINE
  5
3BE
100
AcDbEntity
  8
RACCORDO
100
AcDbLine
 62
7
  6
CONTINUOUS
 10
50.354600574
 20
-51.7061454129
 11
50.354600574
 21
-37.3061454129
  0
LINE
  5
3BF
100
AcDbEntity
  8
0
100
AcDbLine
 62
7
  6
CONTINUOUS
 10
20.654600574
 20
42.4938545871
 11
-19.945399426
 21
42.4938545871
  0
LINE
  5
3C0
100
AcDbEntity
  8
SUPERFICI
100
AcDbLine
 62
253
  6
CONTINUOUS
 10
-43.4971562231
 20
42.9938545871
 11
-43.1971676462
 21
42.9938545832
  0
LINE
  5
3C1
100
AcDbEntity
  8
SUPERFICI
100
AcDbLine
 62
253
  6
CONTINUOUS
 10
-38.295399426
 20
42.9938545871
 11
-37.995399426
 21
42.9938545838
  0
LINE
  5
3C2
100
AcDbEntity
  8
SUPERFICI
100
AcDbLine
 62
253
  6
CONTINUOUS
 10
-31.7471562231
 20
42.9938545871
 11
-31.4471676462
 21
42.9938545832
  0
LINE
  5
3C3
100
AcDbEntity
  8
SUPERFICI
100
AcDbLine
 62
253
  6
CONTINUOUS
 10
-26.545399426
 20
42.9938545871
 11
-26.245399426
 21
42.9938545838
  0
LINE
  5
3C4
100
AcDbEntity
  8
SUPERFICI
100
AcDbLine
 62
253
  6
CONTINUOUS
 10
44.2063573711
 20
42.9938545871
 11
43.9063687941
 21
42.9938545871
  0
LINE
  5
3C5
100
AcDbEntity
  8
SUPERFICI
100
AcDbLine
 62
253
  6
CONTINUOUS
 10
39.004600574
 20
42.9938545871
 11
38.704600574
 21
42.9938545871
  0
LINE
  5
3C6
100
AcDbEntity
  8
SUPERFICI
100
AcDbLine
 62
253
  6
CONTINUOUS
 10
32.4563573711
 20
42.9938545871
 11
32.1563687941
 21
42.9938545871
  0
LINE
  5
3C7
100
AcDbEntity
  8
SUPERFICI
100
AcDbLine
 62
253
  6
CONTINUOUS
 10
27.254600574
 20
42.9938545871
 11
26.954600574
 21
42.9938545871
  0
LINE
  5
3C8
100
AcDbEntity
  8
SUPERFICI
100
AcDbLine
 62
253
  6
CONTINUOUS
 10
-27.5436426289
 20
42.9938545871
 11
-27.8436312059
 21
42.9938545871
  0
LINE
  5
3C9
100
AcDbEntity
  8
SUPERFICI
100
AcDbLine
 62
253
  6
CONTINUOUS
 10
28.2528437769
 20
42.9938545871
 11
28.5528323538
 21
42.9938545832
  0
LINE
  5
3CA
100
AcDbEntity
  8
SUPERFICI
100
AcDbLine
 62
253
  6
CONTINUOUS
 10
-32.745399426
 20
42.9938545871
 11
-33.045399426
 21
42.9938545871
  0
LINE
  5
3CB
100
AcDbEntity
  8
SUPERFICI
100
AcDbLine
 62
253
  6
CONTINUOUS
 10
33.454600574
 20
42.9938545871
 11
33.754600574
 21
42.9938545838
  0
LINE
  5
3CC
100
AcDbEntity
  8
SUPERFICI
100
AcDbLine
 62
253
  6
CONTINUOUS
 10
-39.2936426289
 20
42.9938545871
 11
-39.5936312059
 21
42.9938545871
  0
LINE
  5
3CD
100
AcDbEntity
  8
SUPERFICI
100
AcDbLine
 62
253
  6
CONTINUOUS
 10
40.0028437769
 20
42.9938545871
 11
40.3028323538
 21
42.9938545832
  0
LINE
  5
3CE
100
AcDbEntity
  8
SUPERFICI
100
AcDbLine
 62
253
  6
CONTINUOUS
 10
-44.495399426
 20
42.9938545871
 11
-44.795399426
 21
42.9938545871
  0
LINE
  5
3CF
100
AcDbEntity
  8
SUPERFICI
100
AcDbLine
 62
253
  6
CONTINUOUS
 10
45.204600574
 20
42.9938545871
 11
45.504600574
 21
42.9938545838
  0
LINE
  5
3D0
100
AcDbEntity
  8
0
100
AcDbLine
 62
7
  6
CONTINUOUS
 10
4.654600574
 20
44.9938545871
 11
-10.345399426
 21
44.9938545871
  0
LINE
  5
3D1
100
AcDbEntity
  8
SUPERFICI
100
AcDbLine
 62
253
  6
CONTINUOUS
 10
44.2063573711
 20
47.9938545871
 11
43.9063687941
 21
47.9938545909
  0
LINE
  5
3D2
100
AcDbEntity
  8
SUPERFICI
100
AcDbLine
 62
253
  6
CONTINUOUS
 10
-43.4971562231
 20
47.9938545871
 11
-43.1971676462
 21
47.9938545871
  0
LINE
  5
3D3
100
AcDbEntity
  8
SUPERFICI
100
AcDbLine
 62
253
  6
CONTINUOUS
 10
39.004600574
 20
47.9938545871
 11
38.704600574
 21
47.9938545904
  0
LINE
  5
3D4
100
AcDbEntity
  8
SUPERFICI
100
AcDbLine
 62
253
  6
CONTINUOUS
 10
-38.295399426
 20
47.9938545871
 11
-37.995399426
 21
47.9938545871
  0
LINE
  5
3D5
100
AcDbEntity
  8
SUPERFICI
100
AcDbLine
 62
253
  6
CONTINUOUS
 10
32.4563573711
 20
47.9938545871
 11
32.1563687941
 21
47.9938545909
  0
LINE
  5
3D6
100
AcDbEntity
  8
SUPERFICI
100
AcDbLine
 62
253
  6
CONTINUOUS
 10
-31.7471562231
 20
47.9938545871
 11
-31.4471676462
 21
47.9938545871
  0
LINE
  5
3D7
100
AcDbEntity
  8
SUPERFICI
100
AcDbLine
 62
253
  6
CONTINUOUS
 10
27.254600574
 20
47.9938545871
 11
26.954600574
 21
47.9938545904
  0
LINE
  5
3D8
100
AcDbEntity
  8
SUPERFICI
100
AcDbLine
 62
253
  6
CONTINUOUS
 10
-26.545399426
 20
47.9938545871
 11
-26.245399426
 21
47.9938545871
  0
LINE
  5
3D9
100
AcDbEntity
  8
SUPERFICI
100
AcDbLine
 62
253
  6
CONTINUOUS
 10
-27.5436426289
 20
47.9938545871
 11
-27.8436312059
 21
47.9938545909
  0
LINE
  5
3DA
100
AcDbEntity
  8
SUPERFICI
100
AcDbLine
 62
253
  6
CONTINUOUS
 10
28.2528437769
 20
47.9938545871
 11
28.5528323538
 21
47.9938545871
  0
LINE
  5
3DB
100
AcDbEntity
  8
SUPERFICI
100
AcDbLine
 62
253
  6
CONTINUOUS
 10
-32.745399426
 20
47.9938545871
 11
-33.045399426
 21
47.9938545904
  0
LINE
  5
3DC
100
AcDbEntity
  8
SUPERFICI
100
AcDbLine
 62
253
  6
CONTINUOUS
 10
33.454600574
 20
47.9938545871
 11
33.754600574
 21
47.9938545871
  0
LINE
  5
3DD
100
AcDbEntity
  8
SUPERFICI
100
AcDbLine
 62
253
  6
CONTINUOUS
 10
-39.2936426289
 20
47.9938545871
 11
-39.5936312059
 21
47.9938545909
  0
LINE
  5
3DE
100
AcDbEntity
  8
SUPERFICI
100
AcDbLine
 62
253
  6
CONTINUOUS
 10
40.0028437769
 20
47.9938545871
 11
40.3028323538
 21
47.9938545871
  0
LINE
  5
3DF
100
AcDbEntity
  8
SUPERFICI
100
AcDbLine
 62
253
  6
CONTINUOUS
 10
-44.495399426
 20
47.9938545871
 11
-44.795399426
 21
47.9938545904
  0
LINE
  5
3E0
100
AcDbEntity
  8
SUPERFICI
100
AcDbLine
 62
253
  6
CONTINUOUS
 10
45.204600574
 20
47.9938545871
 11
45.504600574
 21
47.9938545871
  0
LINE
  5
3E1
100
AcDbEntity
  8
SUPERFICI
100
AcDbLine
 62
253
  6
CONTINUOUS
 10
-46.645399426
 20
52.6938545871
 11
-49.645399426
 21
52.6938545871
  0
LINE
  5
3E2
100
AcDbEntity
  8
SUPERFICI
100
AcDbLine
 62
253
  6
CONTINUOUS
 10
47.354600574
 20
52.6938545871
 11
50.354600574
 21
52.6938545871
  0
LINE
  5
3E3
100
AcDbEntity
  8
SUPERFICI
100
AcDbLine
 62
7
  6
CONTINUOUS
 10
-49.345399426
 20
52.9938545871
 11
-46.945399426
 21
52.9938545871
  0
LINE
  5
3E4
100
AcDbEntity
  8
SUPERFICI
100
AcDbLine
 62
7
  6
CONTINUOUS
 10
47.654600574
 20
52.9938545871
 11
50.054600574
 21
52.9938545871
  0
LINE
  5
3E5
100
AcDbEntity
  8
0
100
AcDbLine
 62
7
  6
CONTINUOUS
 10
-10.345399426
 20
54.9938545871
 11
4.654600574
 21
54.9938545871
  0
LINE
  5
3E6
100
AcDbEntity
  8
0
100
AcDbLine
 62
7
  6
CONTINUOUS
 10
-22.045399426
 20
55.8938545871
 11
22.754600574
 21
55.8938545871
  0
LWPOLYLINE
  5
3E7
100
AcDbEntity
  8
RACCORDO
100
AcDbPolyline
 62
253
  6
CONTINUOUS
 90
13
 70
0
 10
61.1018238242
 20
-1.4973112378
 10
61.095122953
 20
-1.4037048872
 10
61.0796815809
 20
-1.3131941249
 10
61.0554997078
 20
-1.2257789507
 10
61.0222213134
 20
-1.1410881061
 10
60.9802024181
 20
-1.0594928497
 10
60.9305110827
 20
-0.9821069573
 10
60.8729689178
 20
-0.908780561
 10
60.8077543127
 20
-0.8396635288
 10
60.736470496
 20
-0.7763192406
 10
60.6596518774
 20
-0.7192688233
 10
60.5767640472
 20
-0.66799115
 10
60.4878070054
 20
-0.6224862209
  0
LWPOLYLINE
  5
3E8
100
AcDbEntity
  8
RACCORDO
100
AcDbPolyline
 62
253
  6
CONTINUOUS
 90
13
 70
0
 10
61.9677939694
 20
-1.5061454129
 10
61.9594262537
 20
-1.3259543686
 10
61.9349451284
 20
-1.1478217547
 10
61.8946591746
 20
-0.973164987
 10
61.8389146103
 20
-0.803412113
 10
61.7683025871
 20
-0.639800101
 10
61.6836055126
 20
-0.4833888615
 10
61.5854009238
 20
-0.335306391
 10
61.4744947359
 20
-0.1967153827
 10
61.3520937634
 20
-0.0686307438
 10
61.2192115924
 20
0.0480247095
 10
61.0766610051
 20
0.1524264318
 10
60.9254380348
 20
0.2438545871
  0
LWPOLYLINE
  5
3E9
100
AcDbEntity
  8
SUPERFICI
100
AcDbPolyline
 62
7
  6
CONTINUOUS
 90
13
 70
0
 10
60.4878070054
 20
1.610258045
 10
60.4898493803
 20
1.5039037528
 10
60.498463492
 20
1.4006936812
 10
60.5136493407
 20
1.3006278302
 10
60.5354458344
 20
1.2017906304
 10
60.5638140651
 20
1.1060976512
 10
60.5986373082
 20
1.0192956007
 10
60.640524639
 20
0.9415530718
 10
60.6888669822
 20
0.8727014716
 10
60.7417203875
 20
0.8179817301
 10
60.7984368716
 20
0.7791408238
 10
60.8596644177
 20
0.7544317761
 10
60.925403026
 20
0.7438545871
  0
LINE
  5
3EA
100
AcDbEntity
  8
RACCORDO
100
AcDbLine
 62
253
  6
CONTINUOUS
 10
60.2357984205
 20
-85.2533686632
 11
60.2357984193
 21
-86.1193940669
  0
LINE
  5
3EB
100
AcDbEntity
  8
SUPERFICI
100
AcDbLine
 62
253
  6
CONTINUOUS
 10
60.2357984205
 20
86.2410778373
 11
60.2357984193
 21
87.107103241
  0
LINE
  5
3EC
100
AcDbEntity
  8
0
100
AcDbLine
 62
7
  6
CONTINUOUS
 10
60.4878070054
 20
-0.6225488709
 11
60.4878070054
 21
1.610258045
  0
LINE
  5
3ED
100
AcDbEntity
  8
SUPERFICI
100
AcDbLine
 62
253
  6
CONTINUOUS
 10
61.1018238242
 20
85.3750524335
 11
61.1018238242
 21
2.4850204119
  0
LINE
  5
3EE
100
AcDbEntity
  8
RACCORDO
100
AcDbLine
 62
253
  6
CONTINUOUS
 10
61.1018238242
 20
-84.3873432594
 11
61.1018238242
 21
-1.4973112378
  0
LINE
  5
3EF
100
AcDbEntity
  8
SUPERFICI
100
AcDbLine
 62
253
  6
CONTINUOUS
 10
61.967849228
 20
85.3750524335
 11
61.967849228
 21
2.4938545871
  0
LINE
  5
3F0
100
AcDbEntity
  8
RACCORDO
100
AcDbLine
 62
253
  6
CONTINUOUS
 10
61.967849228
 20
-84.3873432594
 11
61.967849228
 21
-1.5061454129
  0
LINE
  5
3F1
100
AcDbEntity
  8
0
100
AcDbLine
 62
7
  6
CONTINUOUS
 10
63.663233486
 20
0.7438545871
 11
63.663233486
 21
0.2438545871
  0
LINE
  5
3F2
100
AcDbEntity
  8
0
100
AcDbLine
 62
7
  6
CONTINUOUS
 10
64.854600574
 20
-1.5061454129
 11
64.854600574
 21
-87.2740946054
  0
LINE
  5
3F3
100
AcDbEntity
  8
SUPERFICI
100
AcDbLine
 62
7
  6
CONTINUOUS
 10
64.854600574
 20
2.4938545871
 11
64.854600574
 21
88.2618037795
  0
LINE
  5
3F4
100
AcDbEntity
  8
ASSI
100
AcDbLine
 62
7
  6
CONTINUOUS
 10
65.354600574
 20
88.4945399371
 11
65.354600574
 21
2.493169237
  0
LINE
  5
3F5
100
AcDbEntity
  8
RACCORDO
100
AcDbLine
 62
7
  6
CONTINUOUS
 10
65.354600574
 20
88.4945399371
 11
65.354600574
 21
2.493169237
  0
LINE
  5
3F6
100
AcDbEntity
  8
ASSI
100
AcDbLine
 62
7
  6
CONTINUOUS
 10
65.354600574
 20
-1.5054600629
 11
65.354600574
 21
-87.506830763
  0
LINE
  5
3F7
100
AcDbEntity
  8
COPY
100
AcDbLine
 62
7
  6
CONTINUOUS
 10
65.354600574
 20
-1.5054600629
 11
65.354600574
 21
-87.506830763
  0
LWPOLYLINE
  5
3F8
100
AcDbEntity
  8
RACCORDO
100
AcDbPolyline
 62
7
  6
CONTINUOUS
 90
13
 70
0
 10
60.4878070054
 20
-0.6225488709
 10
60.4898493803
 20
-0.5161945787
 10
60.498463492
 20
-0.4129845071
 10
60.5136493407
 20
-0.3129186561
 10
60.5354458344
 20
-0.2140814563
 10
60.5638140651
 20
-0.118388477
 10
60.5986373082
 20
-0.0315864266
 10
60.640524639
 20
0.0461561023
 10
60.6888669822
 20
0.1150077025
 10
60.7417203875
 20
0.169727444
 10
60.7984368716
 20
0.2085683503
 10
60.8596644177
 20
0.233277398
 10
60.925403026
 20
0.2438545871
  0
LWPOLYLINE
  5
3F9
100
AcDbEntity
  8
SUPERFICI
100
AcDbPolyline
 62
253
  6
CONTINUOUS
 90
13
 70
0
 10
61.9677939694
 20
2.4938545871
 10
61.9594262537
 20
2.3136635427
 10
61.9349451284
 20
2.1355309288
 10
61.8946591746
 20
1.9608741611
 10
61.8389146103
 20
1.7911212871
 10
61.7683025871
 20
1.6275092751
 10
61.6836055126
 20
1.4710980356
 10
61.5854009238
 20
1.3230155652
 10
61.4744947359
 20
1.1844245568
 10
61.3520937634
 20
1.0563399179
 10
61.2192115924
 20
0.9396844646
 10
61.0766610051
 20
0.8352827423
 10
60.9254380348
 20
0.7438545871
  0
LWPOLYLINE
  5
3FA
100
AcDbEntity
  8
SUPERFICI
100
AcDbPolyline
 62
253
  6
CONTINUOUS
 90
13
 70
0
 10
61.1018238242
 20
2.4850204119
 10
61.095122953
 20
2.3914140614
 10
61.0796815809
 20
2.300903299
 10
61.0554997078
 20
2.2134881248
 10
61.0222213134
 20
2.1287972802
 10
60.9802024181
 20
2.0472020238
 10
60.9305110827
 20
1.9698161314
 10
60.8729689178
 20
1.8964897351
 10
60.8077543127
 20
1.8273727029
 10
60.736470496
 20
1.7640284147
 10
60.6596518774
 20
1.7069779974
 10
60.5767640472
 20
1.6557003242
 10
60.4878070054
 20
1.610195395
  0
LINE
  5
3FB
100
AcDbEntity
  8
SUPERFICI
100
AcDbLine
 62
253
  6
CONTINUOUS
 10
24.6519939372
 20
60.4938545871
 11
24.3520053602
 21
60.4938545764
  0
LINE
  5
3FC
100
AcDbEntity
  8
SUPERFICI
100
AcDbLine
 62
253
  6
CONTINUOUS
 10
-23.9427927892
 20
60.4938545871
 11
-23.6428042123
 21
60.4938545871
  0
LINE
  5
3FD
100
AcDbEntity
  8
0
100
AcDbLine
 62
7
  6
CONTINUOUS
 10
22.754600574
 20
62.8938545871
 11
-22.045399426
 21
62.8938545871
  0
LINE
  5
3FE
100
AcDbEntity
  8
SUPERFICI
100
AcDbLine
 62
7
  6
CONTINUOUS
 10
14.354600574
 20
70.4912593733
 11
-13.645399426
 21
70.4912593733
  0
LINE
  5
3FF
100
AcDbEntity
  8
SUPERFICI
100
AcDbLine
 62
253
  6
CONTINUOUS
 10
14.354600574
 20
70.7912479502
 11
-13.645399426
 21
70.7912479502
  0
LINE
  5
400
100
AcDbEntity
  8
SUPERFICI
100
AcDbLine
 62
7
  6
CONTINUOUS
 10
20.054600574
 20
71.9938545871
 11
-19.345399426
 21
71.9938545871
  0
LINE
  5
401
100
AcDbEntity
  8
SUPERFICI
100
AcDbLine
 62
253
  6
CONTINUOUS
 10
-19.645399426
 20
72.2938545871
 11
20.354600574
 21
72.2938545871
  0
LINE
  5
402
100
AcDbEntity
  8
RACCORDO
100
AcDbLine
 62
7
  6
CONTINUOUS
 10
48.5508763309
 20
-74.9383488028
 11
50.1088378623
 21
-72.3182987251
  0
LINE
  5
403
100
AcDbEntity
  8
SUPERFICI
100
AcDbLine
 62
253
  6
CONTINUOUS
 10
-19.645399426
 20
76.6938545871
 11
20.354600574
 21
76.6938545871
  0
LINE
  5
404
100
AcDbEntity
  8
SUPERFICI
100
AcDbLine
 62
7
  6
CONTINUOUS
 10
-19.345399426
 20
76.9938545871
 11
20.054600574
 21
76.9938545871
  0
LINE
  5
405
100
AcDbEntity
  8
SUPERFICI
100
AcDbLine
 62
7
  6
CONTINUOUS
 10
46.0142302443
 20
74.3243630524
 11
47.4901937943
 21
71.8422103568
  0
LINE
  5
406
100
AcDbEntity
  8
RACCORDO
100
AcDbLine
 62
7
  6
CONTINUOUS
 10
54.4697172134
 20
-78.6756369384
 11
56.2190073483
 21
-75.7338263347
  0
LINE
  5
407
100
AcDbEntity
  8
SUPERFICI
100
AcDbLine
 62
253
  6
CONTINUOUS
 10
61.1018238242
 20
85.3750524335
 11
61.967849228
 21
85.3750524335
  0
LINE
  5
408
100
AcDbEntity
  8
SUPERFICI
100
AcDbLine
 62
253
  6
CONTINUOUS
 10
-60.3926226763
 20
85.3750524335
 11
-61.25864808
 21
85.3750524324
  0
LINE
  5
409
100
AcDbEntity
  8
SUPERFICI
100
AcDbLine
 62
253
  6
CONTINUOUS
 10
-59.5265972725
 20
86.2410778373
 11
60.2357984205
 21
86.2410778373
  0
LINE
  5
40A
100
AcDbEntity
  8
SUPERFICI
100
AcDbLine
 62
253
  6
CONTINUOUS
 10
-59.5265972725
 20
87.1071032411
 11
60.2357984205
 21
87.1071032411
  0
LINE
  5
40B
100
AcDbEntity
  8
SUPERFICI
100
AcDbLine
 62
7
  6
CONTINUOUS
 10
63.1225497664
 20
89.9938545871
 11
-62.4133486185
 21
89.9938545871
  0
LWPOLYLINE
  5
40C
100
AcDbEntity
  8
SUPERFICI
100
AcDbPolyline
 62
253
  6
CONTINUOUS
 90
16
 70
0
 10
60.2357984205
 20
86.2410778373
 10
60.3345496195
 20
86.2361376034
 10
60.4286564088
 20
86.222738732
 10
60.5181187883
 20
86.2008812231
 10
60.6034046417
 20
86.1703201439
 10
60.6840460852
 20
86.1313004272
 10
60.7586394679
 20
86.0845568711
 10
60.8272617333
 20
86.0298201943
 10
60.8898359379
 20
85.9673596781
 10
60.9447275994
 20
85.8987179648
 10
60.9916752749
 20
85.823857246
 10
61.0309404074
 20
85.7428153301
 10
61.0616728439
 20
85.6572482841
 10
61.0835892001
 20
85.5677081306
 10
61.0969728602
 20
85.4736428471
 10
61.1018238242
 20
85.3750524335
  0
LINE
  5
40D
100
AcDbEntity
  8
SUPERFICI
100
AcDbLine
 62
7
  6
CONTINUOUS
 10
51.9330711207
 20
78.0616511975
 11
53.6003632858
 21
75.2577379565
  0
LINE
  5
40E
100
AcDbEntity
  8
ASSI
100
AcDbLine
 62
7
  6
CONTINUOUS
 10
-62.6460847761
 20
90.4938545871
 11
63.355285924
 21
90.4938545871
  0
LINE
  5
40F
100
AcDbEntity
  8
RACCORDO
100
AcDbLine
 62
7
  6
CONTINUOUS
 10
-62.6460847761
 20
90.4938545871
 11
63.355285924
 21
90.4938545871
  0
LWPOLYLINE
  5
410
100
AcDbEntity
  8
SUPERFICI
100
AcDbPolyline
 62
253
  6
CONTINUOUS
 90
16
 70
0
 10
60.2357984205
 20
87.1071032411
 10
60.4133612137
 20
87.0794234058
 10
60.5863108291
 20
87.0360888276
 10
60.7534467139
 20
86.9777402942
 10
60.9133170237
 20
86.9053244362
 10
61.0651590749
 20
86.8194675355
 10
61.2087891474
 20
86.7202250116
 10
61.3435067564
 20
86.6079402826
 10
61.4678177926
 20
86.4837672883
 10
61.5803722472
 20
86.3489567182
 10
61.6800536503
 20
86.2047687456
 10
61.7663612956
 20
86.0520796319
 10
61.8389547057
 20
85.8916584377
 10
61.8972149417
 20
85.7245062183
 10
61.9403645736
 20
85.5519027097
 10
61.967849228
 20
85.3750524335
  0
ARC
  5
411
100
AcDbEntity
  8
RACCORDO
100
AcDbCircle
 62
7
  6
CONTINUOUS
 10
-51.145399426
 20
-73.2941637539
 40
5.0
100
AcDbArc
 50
29.2047820855
 51
209.2047820855
  0
ARC
  5
412
100
AcDbEntity
  8
RACCORDO
100
AcDbCircle
 62
253
  6
CONTINUOUS
 10
-51.145399426
 20
-73.2941637539
 40
4.6999831917
100
AcDbArc
 50
29.2047820855
 51
209.2047820855
  0
ARC
  5
413
100
AcDbEntity
  8
RACCORDO
100
AcDbCircle
 62
253
  6
CONTINUOUS
 10
-51.145399426
 20
-73.2941637539
 40
2.2999949992
100
AcDbArc
 50
29.2047820855
 51
209.2047820855
  0
ARC
  5
414
100
AcDbEntity
  8
RACCORDO
100
AcDbCircle
 62
7
  6
CONTINUOUS
 10
-51.145399426
 20
-73.2941637539
 40
2.0
100
AcDbArc
 50
29.2047820855
 51
209.2047820855
  0
ARC
  5
415
100
AcDbEntity
  8
RACCORDO
100
AcDbCircle
 62
7
  6
CONTINUOUS
 10
-49.532772578
 20
-76.0061454129
 40
5.0
100
AcDbArc
 50
212.2692279871
 51
32.2692279871
  0
ARC
  5
416
100
AcDbEntity
  8
RACCORDO
100
AcDbCircle
 62
253
  6
CONTINUOUS
 10
-49.532772578
 20
-76.0061454129
 40
4.6999831917
100
AcDbArc
 50
212.2692279871
 51
32.2692279871
  0
ARC
  5
417
100
AcDbEntity
  8
RACCORDO
100
AcDbCircle
 62
253
  6
CONTINUOUS
 10
-49.532772578
 20
-76.0061454129
 40
2.2999949992
100
AcDbArc
 50
212.2692279871
 51
32.2692279871
  0
ARC
  5
418
100
AcDbEntity
  8
RACCORDO
100
AcDbCircle
 62
7
  6
CONTINUOUS
 10
-49.532772578
 20
-76.0061454129
 40
2.0
100
AcDbArc
 50
212.2692279871
 51
32.2692279871
  0
ARC
  5
419
100
AcDbEntity
  8
RACCORDO
100
AcDbCircle
 62
7
  6
CONTINUOUS
 10
-46.945399426
 20
-51.7061454129
 40
0.3
100
AcDbArc
 50
270.0
 51
360.0
  0
ARC
  5
41A
100
AcDbEntity
  8
RACCORDO
100
AcDbCircle
 62
7
  6
CONTINUOUS
 10
-49.345399426
 20
-51.7061454129
 40
0.3
100
AcDbArc
 50
180.0
 51
270.0
  0
ARC
  5
41B
100
AcDbEntity
  8
RACCORDO
100
AcDbCircle
 62
7
  6
CONTINUOUS
 10
-41.395399426
 20
-47.0061454129
 40
3.4
100
AcDbArc
 50
180.0
 51
360.0
  0
ARC
  5
41C
100
AcDbEntity
  8
RACCORDO
100
AcDbCircle
 62
253
  6
CONTINUOUS
 10
-41.395399426
 20
-47.0061454129
 40
3.0999668348
100
AcDbArc
 50
180.0
 51
360.0
  0
ARC
  5
41D
100
AcDbEntity
  8
RACCORDO
100
AcDbCircle
 62
253
  6
CONTINUOUS
 10
-41.395399426
 20
-47.0061454129
 40
2.1017513292
100
AcDbArc
 50
180.0
 51
360.0
  0
ARC
  5
41E
100
AcDbEntity
  8
RACCORDO
100
AcDbCircle
 62
7
  6
CONTINUOUS
 10
-41.395399426
 20
-47.0061454129
 40
1.8017682197
100
AcDbArc
 50
180.0
 51
360.0
  0
ARC
  5
41F
100
AcDbEntity
  8
DRAFT
100
AcDbCircle
 62
7
  6
CONTINUOUS
 10
-41.395399426
 20
-47.0061454129
 40
1.7851643248
100
AcDbArc
 50
180.0
 51
360.0
  0
ARC
  5
420
100
AcDbEntity
  8
RACCORDO
100
AcDbCircle
 62
7
  6
CONTINUOUS
 10
-46.945399426
 20
-37.3061454129
 40
0.3
100
AcDbArc
 50
0.0
 51
90.0
  0
ARC
  5
421
100
AcDbEntity
  8
RACCORDO
100
AcDbCircle
 62
7
  6
CONTINUOUS
 10
-49.345399426
 20
-37.3061454129
 40
0.3
100
AcDbArc
 50
90.0
 51
180.0
  0
ARC
  5
422
100
AcDbEntity
  8
RACCORDO
100
AcDbCircle
 62
7
  6
CONTINUOUS
 10
-49.532772578
 20
-13.0061454129
 40
5.0
100
AcDbArc
 50
327.7307720129
 51
147.7307720129
  0
ARC
  5
423
100
AcDbEntity
  8
RACCORDO
100
AcDbCircle
 62
7
  6
CONTINUOUS
 10
-51.145399426
 20
-15.718127072
 40
5.0
100
AcDbArc
 50
150.7952179145
 51
330.7952179145
  0
ARC
  5
424
100
AcDbEntity
  8
RACCORDO
100
AcDbCircle
 62
253
  6
CONTINUOUS
 10
-49.532772578
 20
-13.0061454129
 40
4.6999831917
100
AcDbArc
 50
327.7307720129
 51
147.7307720129
  0
ARC
  5
425
100
AcDbEntity
  8
RACCORDO
100
AcDbCircle
 62
253
  6
CONTINUOUS
 10
-51.145399426
 20
-15.718127072
 40
4.6999831917
100
AcDbArc
 50
150.7952179145
 51
330.7952179145
  0
ARC
  5
426
100
AcDbEntity
  8
RACCORDO
100
AcDbCircle
 62
253
  6
CONTINUOUS
 10
-51.145399426
 20
-15.718127072
 40
2.2999949992
100
AcDbArc
 50
150.7952179145
 51
330.7952179145
  0
ARC
  5
427
100
AcDbEntity
  8
RACCORDO
100
AcDbCircle
 62
253
  6
CONTINUOUS
 10
-49.532772578
 20
-13.0061454129
 40
2.2999949992
100
AcDbArc
 50
327.7307720129
 51
147.7307720129
  0
ARC
  5
428
100
AcDbEntity
  8
RACCORDO
100
AcDbCircle
 62
7
  6
CONTINUOUS
 10
-51.145399426
 20
-15.718127072
 40
2.0
100
AcDbArc
 50
150.7952179145
 51
330.7952179145
  0
ARC
  5
429
100
AcDbEntity
  8
RACCORDO
100
AcDbCircle
 62
7
  6
CONTINUOUS
 10
-49.532772578
 20
-13.0061454129
 40
2.0
100
AcDbArc
 50
327.7307720129
 51
147.7307720129
  0
ARC
  5
42A
100
AcDbEntity
  8
RACCORDO
100
AcDbCircle
 62
7
  6
CONTINUOUS
 10
-41.395399426
 20
-42.0061454129
 40
3.4
100
AcDbArc
 50
0.0
 51
180.0
  0
ARC
  5
42B
100
AcDbEntity
  8
RACCORDO
100
AcDbCircle
 62
253
  6
CONTINUOUS
 10
-41.395399426
 20
-42.0061454129
 40
3.0999668348
100
AcDbArc
 50
0.0
 51
180.0
  0
ARC
  5
42C
100
AcDbEntity
  8
RACCORDO
100
AcDbCircle
 62
253
  6
CONTINUOUS
 10
-41.395399426
 20
-42.0061454129
 40
2.1017513292
100
AcDbArc
 50
0.0
 51
180.0
  0
ARC
  5
42D
100
AcDbEntity
  8
RACCORDO
100
AcDbCircle
 62
7
  6
CONTINUOUS
 10
-41.395399426
 20
-42.0061454129
 40
1.8017682197
100
AcDbArc
 50
0.0
 51
180.0
  0
ARC
  5
42E
100
AcDbEntity
  8
DRAFT
100
AcDbCircle
 62
7
  6
CONTINUOUS
 10
-41.395399426
 20
-42.0061454129
 40
1.7851643248
100
AcDbArc
 50
0.0
 51
180.0
  0
ARC
  5
42F
100
AcDbEntity
  8
RACCORDO
100
AcDbCircle
 62
253
  6
CONTINUOUS
 10
-13.645399426
 20
-59.5061454129
 40
10.2973884964
100
AcDbArc
 50
180.0
 51
270.0
  0
ARC
  5
430
100
AcDbEntity
  8
RACCORDO
100
AcDbCircle
 62
7
  6
CONTINUOUS
 10
-13.645399426
 20
-59.5061454129
 40
9.9974047859
100
AcDbArc
 50
180.0
 51
270.0
  0
ARC
  5
431
100
AcDbEntity
  8
RACCORDO
100
AcDbCircle
 62
7
  6
CONTINUOUS
 10
-13.645399426
 20
-59.5061454129
 40
9.9747035069
100
AcDbArc
 50
179.9999999461
 51
270.0000000589
  0
ARC
  5
432
100
AcDbEntity
  8
RACCORDO
100
AcDbCircle
 62
7
  6
CONTINUOUS
 10
-29.645399426
 20
-47.0061454129
 40
3.4
100
AcDbArc
 50
180.0
 51
360.0
  0
ARC
  5
433
100
AcDbEntity
  8
RACCORDO
100
AcDbCircle
 62
253
  6
CONTINUOUS
 10
-29.645399426
 20
-47.0061454129
 40
3.0999668348
100
AcDbArc
 50
180.0
 51
360.0
  0
ARC
  5
434
100
AcDbEntity
  8
RACCORDO
100
AcDbCircle
 62
253
  6
CONTINUOUS
 10
-29.645399426
 20
-47.0061454129
 40
2.1017513292
100
AcDbArc
 50
180.0
 51
360.0
  0
ARC
  5
435
100
AcDbEntity
  8
RACCORDO
100
AcDbCircle
 62
7
  6
CONTINUOUS
 10
-29.645399426
 20
-47.0061454129
 40
1.8017682197
100
AcDbArc
 50
180.0
 51
360.0
  0
ARC
  5
436
100
AcDbEntity
  8
DRAFT
100
AcDbCircle
 62
7
  6
CONTINUOUS
 10
-29.645399426
 20
-47.0061454129
 40
1.7851643248
100
AcDbArc
 50
180.0
 51
360.0
  0
ARC
  5
437
100
AcDbEntity
  8
RACCORDO
100
AcDbCircle
 62
7
  6
CONTINUOUS
 10
-19.345399426
 20
-71.3061454129
 40
0.3
100
AcDbArc
 50
90.0
 51
180.0
  0
ARC
  5
438
100
AcDbEntity
  8
RACCORDO
100
AcDbCircle
 62
7
  6
CONTINUOUS
 10
-19.345399426
 20
-75.7061454129
 40
0.3
100
AcDbArc
 50
180.0
 51
270.0
  0
ARC
  5
439
100
AcDbEntity
  8
RACCORDO
100
AcDbCircle
 62
253
  6
CONTINUOUS
 10
-13.645399426
 20
-29.5061454129
 40
10.2973884964
100
AcDbArc
 50
90.0
 51
180.0
  0
ARC
  5
43A
100
AcDbEntity
  8
RACCORDO
100
AcDbCircle
 62
7
  6
CONTINUOUS
 10
-13.645399426
 20
-29.5061454129
 40
9.9974047859
100
AcDbArc
 50
90.0
 51
180.0
  0
ARC
  5
43B
100
AcDbEntity
  8
RACCORDO
100
AcDbCircle
 62
7
  6
CONTINUOUS
 10
-13.645399426
 20
-29.5061454129
 40
9.9747035069
100
AcDbArc
 50
89.9999999461
 51
180.0000000589
  0
ARC
  5
43C
100
AcDbEntity
  8
RACCORDO
100
AcDbCircle
 62
7
  6
CONTINUOUS
 10
-29.645399426
 20
-42.0061454129
 40
3.4
100
AcDbArc
 50
0.0
 51
180.0
  0
ARC
  5
43D
100
AcDbEntity
  8
RACCORDO
100
AcDbCircle
 62
253
  6
CONTINUOUS
 10
-29.645399426
 20
-42.0061454129
 40
3.0999668348
100
AcDbArc
 50
0.0
 51
180.0
  0
ARC
  5
43E
100
AcDbEntity
  8
RACCORDO
100
AcDbCircle
 62
253
  6
CONTINUOUS
 10
-29.645399426
 20
-42.0061454129
 40
2.1017513292
100
AcDbArc
 50
0.0
 51
180.0
  0
ARC
  5
43F
100
AcDbEntity
  8
RACCORDO
100
AcDbCircle
 62
7
  6
CONTINUOUS
 10
-29.645399426
 20
-42.0061454129
 40
1.8017682197
100
AcDbArc
 50
0.0
 51
180.0
  0
ARC
  5
440
100
AcDbEntity
  8
DRAFT
100
AcDbCircle
 62
7
  6
CONTINUOUS
 10
-29.645399426
 20
-42.0061454129
 40
1.7851643248
100
AcDbArc
 50
0.0
 51
180.0
  0
ARC
  5
441
100
AcDbEntity
  8
RACCORDO
100
AcDbCircle
 62
7
  6
CONTINUOUS
 10
-19.345399426
 20
-17.7061454129
 40
0.3
100
AcDbArc
 50
180.0
 51
270.0
  0
ARC
  5
442
100
AcDbEntity
  8
RACCORDO
100
AcDbCircle
 62
7
  6
CONTINUOUS
 10
-19.345399426
 20
-13.3061454129
 40
0.3
100
AcDbArc
 50
90.0
 51
180.0
  0
ARC
  5
443
100
AcDbEntity
  8
SUPERFICI
100
AcDbCircle
 62
7
  6
CONTINUOUS
 10
-51.145399426
 20
16.7058362461
 40
5.0
100
AcDbArc
 50
29.2047820855
 51
209.2047820855
  0
ARC
  5
444
100
AcDbEntity
  8
SUPERFICI
100
AcDbCircle
 62
253
  6
CONTINUOUS
 10
-51.145399426
 20
16.7058362461
 40
4.6999831917
100
AcDbArc
 50
29.2047820855
 51
209.2047820855
  0
ARC
  5
445
100
AcDbEntity
  8
SUPERFICI
100
AcDbCircle
 62
253
  6
CONTINUOUS
 10
-51.145399426
 20
16.7058362461
 40
2.2999949992
100
AcDbArc
 50
29.2047820855
 51
209.2047820855
  0
ARC
  5
446
100
AcDbEntity
  8
SUPERFICI
100
AcDbCircle
 62
7
  6
CONTINUOUS
 10
-51.145399426
 20
16.7058362461
 40
2.0
100
AcDbArc
 50
29.2047820855
 51
209.2047820855
  0
ARC
  5
447
100
AcDbEntity
  8
SUPERFICI
100
AcDbCircle
 62
7
  6
CONTINUOUS
 10
-49.532772578
 20
13.9938545871
 40
5.0
100
AcDbArc
 50
212.2692279871
 51
32.2692279871
  0
ARC
  5
448
100
AcDbEntity
  8
SUPERFICI
100
AcDbCircle
 62
253
  6
CONTINUOUS
 10
-49.532772578
 20
13.9938545871
 40
4.6999831917
100
AcDbArc
 50
212.2692279871
 51
32.2692279871
  0
ARC
  5
449
100
AcDbEntity
  8
SUPERFICI
100
AcDbCircle
 62
253
  6
CONTINUOUS
 10
-49.532772578
 20
13.9938545871
 40
2.2999949992
100
AcDbArc
 50
212.2692279871
 51
32.2692279871
  0
ARC
  5
44A
100
AcDbEntity
  8
SUPERFICI
100
AcDbCircle
 62
7
  6
CONTINUOUS
 10
-49.532772578
 20
13.9938545871
 40
2.0
100
AcDbArc
 50
212.2692279871
 51
32.2692279871
  0
ARC
  5
44B
100
AcDbEntity
  8
SUPERFICI
100
AcDbCircle
 62
7
  6
CONTINUOUS
 10
-46.945399426
 20
38.2938545871
 40
0.3
100
AcDbArc
 50
270.0
 51
360.0
  0
ARC
  5
44C
100
AcDbEntity
  8
SUPERFICI
100
AcDbCircle
 62
7
  6
CONTINUOUS
 10
-49.345399426
 20
38.2938545871
 40
0.3
100
AcDbArc
 50
180.0
 51
270.0
  0
ARC
  5
44D
100
AcDbEntity
  8
SUPERFICI
100
AcDbCircle
 62
7
  6
CONTINUOUS
 10
-41.395399426
 20
42.9938545871
 40
3.4
100
AcDbArc
 50
180.0
 51
360.0
  0
ARC
  5
44E
100
AcDbEntity
  8
SUPERFICI
100
AcDbCircle
 62
253
  6
CONTINUOUS
 10
-41.395399426
 20
42.9938545871
 40
3.0999668348
100
AcDbArc
 50
180.0
 51
360.0
  0
ARC
  5
44F
100
AcDbEntity
  8
SUPERFICI
100
AcDbCircle
 62
253
  6
CONTINUOUS
 10
-41.395399426
 20
42.9938545871
 40
2.1017513292
100
AcDbArc
 50
180.0
 51
360.0
  0
ARC
  5
450
100
AcDbEntity
  8
SUPERFICI
100
AcDbCircle
 62
7
  6
CONTINUOUS
 10
-41.395399426
 20
42.9938545871
 40
1.8017682197
100
AcDbArc
 50
180.0
 51
360.0
  0
ARC
  5
451
100
AcDbEntity
  8
SUPERFICI
100
AcDbCircle
 62
7
  6
CONTINUOUS
 10
-41.395399426
 20
42.9938545871
 40
1.7851643248
100
AcDbArc
 50
180.0
 51
360.0
  0
ARC
  5
452
100
AcDbEntity
  8
SUPERFICI
100
AcDbCircle
 62
7
  6
CONTINUOUS
 10
-46.945399426
 20
52.6938545871
 40
0.3
100
AcDbArc
 50
0.0
 51
90.0
  0
ARC
  5
453
100
AcDbEntity
  8
SUPERFICI
100
AcDbCircle
 62
7
  6
CONTINUOUS
 10
-49.345399426
 20
52.6938545871
 40
0.3
100
AcDbArc
 50
90.0
 51
180.0
  0
ARC
  5
454
100
AcDbEntity
  8
SUPERFICI
100
AcDbCircle
 62
7
  6
CONTINUOUS
 10
-51.145399426
 20
74.281872928
 40
5.0
100
AcDbArc
 50
150.7952179145
 51
330.7952179145
  0
ARC
  5
455
100
AcDbEntity
  8
SUPERFICI
100
AcDbCircle
 62
7
  6
CONTINUOUS
 10
-49.532772578
 20
76.9938545871
 40
5.0
100
AcDbArc
 50
327.7307720129
 51
147.7307720129
  0
ARC
  5
456
100
AcDbEntity
  8
SUPERFICI
100
AcDbCircle
 62
253
  6
CONTINUOUS
 10
-51.145399426
 20
74.281872928
 40
4.6999831917
100
AcDbArc
 50
150.7952179145
 51
330.7952179145
  0
ARC
  5
457
100
AcDbEntity
  8
SUPERFICI
100
AcDbCircle
 62
253
  6
CONTINUOUS
 10
-49.532772578
 20
76.9938545871
 40
4.6999831917
100
AcDbArc
 50
327.7307720129
 51
147.7307720129
  0
ARC
  5
458
100
AcDbEntity
  8
SUPERFICI
100
AcDbCircle
 62
253
  6
CONTINUOUS
 10
-51.145399426
 20
74.281872928
 40
2.2999949992
100
AcDbArc
 50
150.7952179145
 51
330.7952179145
  0
ARC
  5
459
100
AcDbEntity
  8
SUPERFICI
100
AcDbCircle
 62
253
  6
CONTINUOUS
 10
-49.532772578
 20
76.9938545871
 40
2.2999949992
100
AcDbArc
 50
327.7307720129
 51
147.7307720129
  0
ARC
  5
45A
100
AcDbEntity
  8
SUPERFICI
100
AcDbCircle
 62
7
  6
CONTINUOUS
 10
-49.532772578
 20
76.9938545871
 40
2.0
100
AcDbArc
 50
327.7307720129
 51
147.7307720129
  0
ARC
  5
45B
100
AcDbEntity
  8
SUPERFICI
100
AcDbCircle
 62
7
  6
CONTINUOUS
 10
-51.145399426
 20
74.281872928
 40
2.0
100
AcDbArc
 50
150.7952179145
 51
330.7952179145
  0
ARC
  5
45C
100
AcDbEntity
  8
SUPERFICI
100
AcDbCircle
 62
7
  6
CONTINUOUS
 10
-41.395399426
 20
47.9938545871
 40
3.4
100
AcDbArc
 50
0.0
 51
180.0
  0
ARC
  5
45D
100
AcDbEntity
  8
SUPERFICI
100
AcDbCircle
 62
253
  6
CONTINUOUS
 10
-41.395399426
 20
47.9938545871
 40
3.0999668348
100
AcDbArc
 50
0.0
 51
180.0
  0
ARC
  5
45E
100
AcDbEntity
  8
SUPERFICI
100
AcDbCircle
 62
253
  6
CONTINUOUS
 10
-41.395399426
 20
47.9938545871
 40
2.1017513292
100
AcDbArc
 50
0.0
 51
180.0
  0
ARC
  5
45F
100
AcDbEntity
  8
SUPERFICI
100
AcDbCircle
 62
7
  6
CONTINUOUS
 10
-41.395399426
 20
47.9938545871
 40
1.8017682197
100
AcDbArc
 50
0.0
 51
180.0
  0
ARC
  5
460
100
AcDbEntity
  8
SUPERFICI
100
AcDbCircle
 62
7
  6
CONTINUOUS
 10
-41.395399426
 20
47.9938545871
 40
1.7851643248
100
AcDbArc
 50
0.0
 51
180.0
  0
ARC
  5
461
100
AcDbEntity
  8
SUPERFICI
100
AcDbCircle
 62
253
  6
CONTINUOUS
 10
-13.645399426
 20
30.4938545871
 40
10.2973884964
100
AcDbArc
 50
180.0
 51
270.0
  0
ARC
  5
462
100
AcDbEntity
  8
SUPERFICI
100
AcDbCircle
 62
7
  6
CONTINUOUS
 10
-13.645399426
 20
30.4938545871
 40
9.9974047859
100
AcDbArc
 50
180.0
 51
270.0
  0
ARC
  5
463
100
AcDbEntity
  8
SUPERFICI
100
AcDbCircle
 62
7
  6
CONTINUOUS
 10
-13.645399426
 20
30.4938545871
 40
9.9747035069
100
AcDbArc
 50
179.9999999411
 51
270.0000000539
  0
ARC
  5
464
100
AcDbEntity
  8
SUPERFICI
100
AcDbCircle
 62
7
  6
CONTINUOUS
 10
-29.645399426
 20
42.9938545871
 40
3.4
100
AcDbArc
 50
180.0
 51
360.0
  0
ARC
  5
465
100
AcDbEntity
  8
SUPERFICI
100
AcDbCircle
 62
253
  6
CONTINUOUS
 10
-29.645399426
 20
42.9938545871
 40
3.0999668348
100
AcDbArc
 50
180.0
 51
360.0
  0
ARC
  5
466
100
AcDbEntity
  8
SUPERFICI
100
AcDbCircle
 62
253
  6
CONTINUOUS
 10
-29.645399426
 20
42.9938545871
 40
2.1017513292
100
AcDbArc
 50
180.0
 51
360.0
  0
ARC
  5
467
100
AcDbEntity
  8
SUPERFICI
100
AcDbCircle
 62
7
  6
CONTINUOUS
 10
-29.645399426
 20
42.9938545871
 40
1.8017682197
100
AcDbArc
 50
180.0
 51
360.0
  0
ARC
  5
468
100
AcDbEntity
  8
SUPERFICI
100
AcDbCircle
 62
7
  6
CONTINUOUS
 10
-29.645399426
 20
42.9938545871
 40
1.7851643248
100
AcDbArc
 50
180.0
 51
360.0
  0
ARC
  5
469
100
AcDbEntity
  8
SUPERFICI
100
AcDbCircle
 62
7
  6
CONTINUOUS
 10
-19.345399426
 20
18.6938545871
 40
0.3
100
AcDbArc
 50
90.0
 51
180.0
  0
ARC
  5
46A
100
AcDbEntity
  8
SUPERFICI
100
AcDbCircle
 62
7
  6
CONTINUOUS
 10
-19.345399426
 20
14.2938545871
 40
0.3
100
AcDbArc
 50
180.0
 51
270.0
  0
ARC
  5
46B
100
AcDbEntity
  8
SUPERFICI
100
AcDbCircle
 62
253
  6
CONTINUOUS
 10
-13.645399426
 20
60.4938545871
 40
10.2973884964
100
AcDbArc
 50
90.0
 51
180.0
  0
ARC
  5
46C
100
AcDbEntity
  8
SUPERFICI
100
AcDbCircle
 62
7
  6
CONTINUOUS
 10
-13.645399426
 20
60.4938545871
 40
9.9974047859
100
AcDbArc
 50
90.0
 51
180.0
  0
ARC
  5
46D
100
AcDbEntity
  8
SUPERFICI
100
AcDbCircle
 62
7
  6
CONTINUOUS
 10
-13.645399426
 20
60.4938545871
 40
9.9747035069
100
AcDbArc
 50
89.9999999411
 51
180.0000000539
  0
ARC
  5
46E
100
AcDbEntity
  8
SUPERFICI
100
AcDbCircle
 62
7
  6
CONTINUOUS
 10
-29.645399426
 20
47.9938545871
 40
3.4
100
AcDbArc
 50
0.0
 51
180.0
  0
ARC
  5
46F
100
AcDbEntity
  8
SUPERFICI
100
AcDbCircle
 62
253
  6
CONTINUOUS
 10
-29.645399426
 20
47.9938545871
 40
3.0999668348
100
AcDbArc
 50
0.0
 51
180.0
  0
ARC
  5
470
100
AcDbEntity
  8
SUPERFICI
100
AcDbCircle
 62
253
  6
CONTINUOUS
 10
-29.645399426
 20
47.9938545871
 40
2.1017513292
100
AcDbArc
 50
0.0
 51
180.0
  0
ARC
  5
471
100
AcDbEntity
  8
SUPERFICI
100
AcDbCircle
 62
7
  6
CONTINUOUS
 10
-29.645399426
 20
47.9938545871
 40
1.8017682197
100
AcDbArc
 50
0.0
 51
180.0
  0
ARC
  5
472
100
AcDbEntity
  8
SUPERFICI
100
AcDbCircle
 62
7
  6
CONTINUOUS
 10
-29.645399426
 20
47.9938545871
 40
1.7851643248
100
AcDbArc
 50
0.0
 51
180.0
  0
ARC
  5
473
100
AcDbEntity
  8
SUPERFICI
100
AcDbCircle
 62
7
  6
CONTINUOUS
 10
-19.345399426
 20
72.2938545871
 40
0.3
100
AcDbArc
 50
180.0
 51
270.0
  0
ARC
  5
474
100
AcDbEntity
  8
SUPERFICI
100
AcDbCircle
 62
7
  6
CONTINUOUS
 10
-19.345399426
 20
76.6938545871
 40
0.3
100
AcDbArc
 50
90.0
 51
180.0
  0
ARC
  5
475
100
AcDbEntity
  8
RACCORDO
100
AcDbCircle
 62
253
  6
CONTINUOUS
 10
14.354600574
 20
-59.5061454129
 40
10.2973884964
100
AcDbArc
 50
270.0
 51
360.0
  0
ARC
  5
476
100
AcDbEntity
  8
RACCORDO
100
AcDbCircle
 62
7
  6
CONTINUOUS
 10
14.354600574
 20
-59.5061454129
 40
9.9974047859
100
AcDbArc
 50
270.0
 51
360.0
  0
ARC
  5
477
100
AcDbEntity
  8
RACCORDO
100
AcDbCircle
 62
7
  6
CONTINUOUS
 10
14.354600574
 20
-59.5061454129
 40
9.9747035069
100
AcDbArc
 50
269.9999999461
 51
0.0000000589
  0
ARC
  5
478
100
AcDbEntity
  8
RACCORDO
100
AcDbCircle
 62
7
  6
CONTINUOUS
 10
20.054600574
 20
-71.3061454129
 40
0.3
100
AcDbArc
 50
0.0
 51
90.0
  0
ARC
  5
479
100
AcDbEntity
  8
RACCORDO
100
AcDbCircle
 62
7
  6
CONTINUOUS
 10
20.054600574
 20
-75.7061454129
 40
0.3
100
AcDbArc
 50
270.0
 51
360.0
  0
ARC
  5
47A
100
AcDbEntity
  8
RACCORDO
100
AcDbCircle
 62
7
  6
CONTINUOUS
 10
0.354600574
 20
-44.5061454129
 40
64.0
100
AcDbArc
 50
147.7307720129
 51
150.7952179145
  0
ARC
  5
47B
100
AcDbEntity
  8
RACCORDO
100
AcDbCircle
 62
7
  6
CONTINUOUS
 10
0.354600574
 20
-44.5061454129
 40
64.0
100
AcDbArc
 50
209.2047820855
 51
212.2692279871
  0
ARC
  5
47C
100
AcDbEntity
  8
RACCORDO
100
AcDbCircle
 62
7
  6
CONTINUOUS
 10
0.354600574
 20
-44.5061454129
 40
64.0
100
AcDbArc
 50
327.7307720129
 51
330.7952179145
  0
ARC
  5
47D
100
AcDbEntity
  8
RACCORDO
100
AcDbCircle
 62
7
  6
CONTINUOUS
 10
0.354600574
 20
-44.5061454129
 40
64.0
100
AcDbArc
 50
29.2047820855
 51
32.2692279871
  0
ARC
  5
47E
100
AcDbEntity
  8
RACCORDO
100
AcDbCircle
 62
253
  6
CONTINUOUS
 10
0.354600574
 20
-44.5061454129
 40
63.7000000218
100
AcDbArc
 50
209.2047820855
 51
212.2692279871
  0
ARC
  5
47F
100
AcDbEntity
  8
RACCORDO
100
AcDbCircle
 62
253
  6
CONTINUOUS
 10
0.354600574
 20
-44.5061454129
 40
63.7000000218
100
AcDbArc
 50
147.7307720129
 51
150.7952179145
  0
ARC
  5
480
100
AcDbEntity
  8
RACCORDO
100
AcDbCircle
 62
253
  6
CONTINUOUS
 10
0.354600574
 20
-44.5061454129
 40
63.7000000218
100
AcDbArc
 50
29.2047820855
 51
32.2692279871
  0
ARC
  5
481
100
AcDbEntity
  8
RACCORDO
100
AcDbCircle
 62
253
  6
CONTINUOUS
 10
0.354600574
 20
-44.5061454129
 40
63.7000000218
100
AcDbArc
 50
327.7307720129
 51
330.7952179145
  0
ARC
  5
482
100
AcDbEntity
  8
RACCORDO
100
AcDbCircle
 62
253
  6
CONTINUOUS
 10
0.354600574
 20
-44.5061454129
 40
61.3000000224
100
AcDbArc
 50
327.7307720129
 51
330.7952179145
  0
ARC
  5
483
100
AcDbEntity
  8
RACCORDO
100
AcDbCircle
 62
253
  6
CONTINUOUS
 10
0.354600574
 20
-44.5061454129
 40
61.3000000224
100
AcDbArc
 50
29.2047820855
 51
32.2692279871
  0
ARC
  5
484
100
AcDbEntity
  8
RACCORDO
100
AcDbCircle
 62
253
  6
CONTINUOUS
 10
0.354600574
 20
-44.5061454129
 40
61.3000000224
100
AcDbArc
 50
147.7307720129
 51
150.7952179145
  0
ARC
  5
485
100
AcDbEntity
  8
RACCORDO
100
AcDbCircle
 62
253
  6
CONTINUOUS
 10
0.354600574
 20
-44.5061454129
 40
61.3000000224
100
AcDbArc
 50
209.2047820855
 51
212.2692279871
  0
ARC
  5
486
100
AcDbEntity
  8
RACCORDO
100
AcDbCircle
 62
7
  6
CONTINUOUS
 10
0.354600574
 20
-44.5061454129
 40
61.0
100
AcDbArc
 50
209.2047820855
 51
212.2692279871
  0
ARC
  5
487
100
AcDbEntity
  8
RACCORDO
100
AcDbCircle
 62
7
  6
CONTINUOUS
 10
0.354600574
 20
-44.5061454129
 40
61.0
100
AcDbArc
 50
147.7307720129
 51
150.7952179145
  0
ARC
  5
488
100
AcDbEntity
  8
RACCORDO
100
AcDbCircle
 62
7
  6
CONTINUOUS
 10
0.354600574
 20
-44.5061454129
 40
61.0
100
AcDbArc
 50
327.7307720129
 51
330.7952179145
  0
ARC
  5
489
100
AcDbEntity
  8
RACCORDO
100
AcDbCircle
 62
7
  6
CONTINUOUS
 10
0.354600574
 20
-44.5061454129
 40
61.0
100
AcDbArc
 50
29.2047820855
 51
32.2692279871
  0
ARC
  5
48A
100
AcDbEntity
  8
RACCORDO
100
AcDbCircle
 62
7
  6
CONTINUOUS
 10
0.354600574
 20
-44.5061454129
 40
57.0
100
AcDbArc
 50
209.2047820855
 51
212.2692279871
  0
ARC
  5
48B
100
AcDbEntity
  8
RACCORDO
100
AcDbCircle
 62
7
  6
CONTINUOUS
 10
0.354600574
 20
-44.5061454129
 40
57.0
100
AcDbArc
 50
147.7307720129
 51
150.7952179145
  0
ARC
  5
48C
100
AcDbEntity
  8
RACCORDO
100
AcDbCircle
 62
7
  6
CONTINUOUS
 10
0.354600574
 20
-44.5061454129
 40
57.0
100
AcDbArc
 50
327.7307720129
 51
330.7952179145
  0
ARC
  5
48D
100
AcDbEntity
  8
RACCORDO
100
AcDbCircle
 62
7
  6
CONTINUOUS
 10
0.354600574
 20
-44.5061454129
 40
57.0
100
AcDbArc
 50
29.2047820855
 51
32.2692279871
  0
ARC
  5
48E
100
AcDbEntity
  8
RACCORDO
100
AcDbCircle
 62
253
  6
CONTINUOUS
 10
0.354600574
 20
-44.5061454129
 40
56.7000000229
100
AcDbArc
 50
327.7307720129
 51
330.7952179145
  0
ARC
  5
48F
100
AcDbEntity
  8
RACCORDO
100
AcDbCircle
 62
253
  6
CONTINUOUS
 10
0.354600574
 20
-44.5061454129
 40
56.7000000229
100
AcDbArc
 50
29.2047820855
 51
32.2692279871
  0
ARC
  5
490
100
AcDbEntity
  8
RACCORDO
100
AcDbCircle
 62
253
  6
CONTINUOUS
 10
0.354600574
 20
-44.5061454129
 40
56.7000000229
100
AcDbArc
 50
147.7307720129
 51
150.7952179145
  0
ARC
  5
491
100
AcDbEntity
  8
RACCORDO
100
AcDbCircle
 62
253
  6
CONTINUOUS
 10
0.354600574
 20
-44.5061454129
 40
56.7000000229
100
AcDbArc
 50
209.2047820855
 51
212.2692279871
  0
ARC
  5
492
100
AcDbEntity
  8
RACCORDO
100
AcDbCircle
 62
253
  6
CONTINUOUS
 10
0.354600574
 20
-44.5061454129
 40
54.3000000237
100
AcDbArc
 50
209.2047820855
 51
212.2692279871
  0
ARC
  5
493
100
AcDbEntity
  8
RACCORDO
100
AcDbCircle
 62
253
  6
CONTINUOUS
 10
0.354600574
 20
-44.5061454129
 40
54.3000000237
100
AcDbArc
 50
147.7307720129
 51
150.7952179145
  0
ARC
  5
494
100
AcDbEntity
  8
RACCORDO
100
AcDbCircle
 62
253
  6
CONTINUOUS
 10
0.354600574
 20
-44.5061454129
 40
54.3000000237
100
AcDbArc
 50
29.2047820855
 51
32.2692279871
  0
ARC
  5
495
100
AcDbEntity
  8
RACCORDO
100
AcDbCircle
 62
253
  6
CONTINUOUS
 10
0.354600574
 20
-44.5061454129
 40
54.3000000237
100
AcDbArc
 50
327.7307720129
 51
330.7952179145
  0
ARC
  5
496
100
AcDbEntity
  8
RACCORDO
100
AcDbCircle
 62
7
  6
CONTINUOUS
 10
0.354600574
 20
-44.5061454129
 40
54.0
100
AcDbArc
 50
147.7307720129
 51
150.7952179145
  0
ARC
  5
497
100
AcDbEntity
  8
RACCORDO
100
AcDbCircle
 62
7
  6
CONTINUOUS
 10
0.354600574
 20
-44.5061454129
 40
54.0
100
AcDbArc
 50
209.2047820855
 51
212.2692279871
  0
ARC
  5
498
100
AcDbEntity
  8
RACCORDO
100
AcDbCircle
 62
7
  6
CONTINUOUS
 10
0.354600574
 20
-44.5061454129
 40
54.0
100
AcDbArc
 50
327.7307720129
 51
330.7952179145
  0
ARC
  5
499
100
AcDbEntity
  8
RACCORDO
100
AcDbCircle
 62
7
  6
CONTINUOUS
 10
0.354600574
 20
-44.5061454129
 40
54.0
100
AcDbArc
 50
29.2047820855
 51
32.2692279871
  0
ARC
  5
49A
100
AcDbEntity
  8
RACCORDO
100
AcDbCircle
 62
253
  6
CONTINUOUS
 10
14.354600574
 20
-29.5061454129
 40
10.2973884964
100
AcDbArc
 50
0.0
 51
90.0
  0
ARC
  5
49B
100
AcDbEntity
  8
RACCORDO
100
AcDbCircle
 62
7
  6
CONTINUOUS
 10
14.354600574
 20
-29.5061454129
 40
9.9974047859
100
AcDbArc
 50
0.0
 51
90.0
  0
ARC
  5
49C
100
AcDbEntity
  8
RACCORDO
100
AcDbCircle
 62
7
  6
CONTINUOUS
 10
14.354600574
 20
-29.5061454129
 40
9.9747035069
100
AcDbArc
 50
0.0
 51
90.0000000589
  0
ARC
  5
49D
100
AcDbEntity
  8
RACCORDO
100
AcDbCircle
 62
7
  6
CONTINUOUS
 10
20.054600574
 20
-17.7061454129
 40
0.3
100
AcDbArc
 50
270.0
 51
360.0
  0
ARC
  5
49E
100
AcDbEntity
  8
RACCORDO
100
AcDbCircle
 62
7
  6
CONTINUOUS
 10
20.054600574
 20
-13.3061454129
 40
0.3
100
AcDbArc
 50
0.0
 51
90.0
  0
ARC
  5
49F
100
AcDbEntity
  8
RACCORDO
100
AcDbCircle
 62
7
  6
CONTINUOUS
 10
30.354600574
 20
-47.0061454129
 40
3.4
100
AcDbArc
 50
180.0
 51
360.0
  0
ARC
  5
4A0
100
AcDbEntity
  8
RACCORDO
100
AcDbCircle
 62
253
  6
CONTINUOUS
 10
30.354600574
 20
-47.0061454129
 40
3.0999668348
100
AcDbArc
 50
180.0
 51
360.0
  0
ARC
  5
4A1
100
AcDbEntity
  8
RACCORDO
100
AcDbCircle
 62
253
  6
CONTINUOUS
 10
30.354600574
 20
-47.0061454129
 40
2.1017513292
100
AcDbArc
 50
180.0
 51
360.0
  0
ARC
  5
4A2
100
AcDbEntity
  8
RACCORDO
100
AcDbCircle
 62
7
  6
CONTINUOUS
 10
30.354600574
 20
-47.0061454129
 40
1.8017682197
100
AcDbArc
 50
180.0
 51
360.0
  0
ARC
  5
4A3
100
AcDbEntity
  8
DRAFT
100
AcDbCircle
 62
7
  6
CONTINUOUS
 10
30.354600574
 20
-47.0061454129
 40
1.7851643248
100
AcDbArc
 50
180.0
 51
360.0
  0
ARC
  5
4A4
100
AcDbEntity
  8
RACCORDO
100
AcDbCircle
 62
7
  6
CONTINUOUS
 10
50.2419737259
 20
-76.0061454129
 40
5.0
100
AcDbArc
 50
147.7307720129
 51
327.7307720129
  0
ARC
  5
4A5
100
AcDbEntity
  8
RACCORDO
100
AcDbCircle
 62
253
  6
CONTINUOUS
 10
50.2419737259
 20
-76.0061454129
 40
4.6999831917
100
AcDbArc
 50
147.7307720129
 51
327.7307720129
  0
ARC
  5
4A6
100
AcDbEntity
  8
RACCORDO
100
AcDbCircle
 62
253
  6
CONTINUOUS
 10
50.2419737259
 20
-76.0061454129
 40
2.2999949992
100
AcDbArc
 50
147.7307720129
 51
327.7307720129
  0
ARC
  5
4A7
100
AcDbEntity
  8
RACCORDO
100
AcDbCircle
 62
7
  6
CONTINUOUS
 10
50.2419737259
 20
-76.0061454129
 40
2.0
100
AcDbArc
 50
147.7307720129
 51
327.7307720129
  0
ARC
  5
4A8
100
AcDbEntity
  8
RACCORDO
100
AcDbCircle
 62
7
  6
CONTINUOUS
 10
51.854600574
 20
-73.2941637539
 40
5.0
100
AcDbArc
 50
330.7952179145
 51
150.7952179145
  0
ARC
  5
4A9
100
AcDbEntity
  8
RACCORDO
100
AcDbCircle
 62
253
  6
CONTINUOUS
 10
51.854600574
 20
-73.2941637539
 40
4.6999831917
100
AcDbArc
 50
330.7952179145
 51
150.7952179145
  0
ARC
  5
4AA
100
AcDbEntity
  8
RACCORDO
100
AcDbCircle
 62
253
  6
CONTINUOUS
 10
51.854600574
 20
-73.2941637539
 40
2.2999949992
100
AcDbArc
 50
330.7952179145
 51
150.7952179145
  0
ARC
  5
4AB
100
AcDbEntity
  8
RACCORDO
100
AcDbCircle
 62
7
  6
CONTINUOUS
 10
51.854600574
 20
-73.2941637539
 40
2.0
100
AcDbArc
 50
330.7952179145
 51
150.7952179145
  0
ARC
  5
4AC
100
AcDbEntity
  8
RACCORDO
100
AcDbCircle
 62
7
  6
CONTINUOUS
 10
42.104600574
 20
-47.0061454129
 40
3.4
100
AcDbArc
 50
180.0
 51
360.0
  0
ARC
  5
4AD
100
AcDbEntity
  8
RACCORDO
100
AcDbCircle
 62
253
  6
CONTINUOUS
 10
42.104600574
 20
-47.0061454129
 40
3.0999668348
100
AcDbArc
 50
180.0
 51
360.0
  0
ARC
  5
4AE
100
AcDbEntity
  8
RACCORDO
100
AcDbCircle
 62
253
  6
CONTINUOUS
 10
42.104600574
 20
-47.0061454129
 40
2.1017513292
100
AcDbArc
 50
180.0
 51
360.0
  0
ARC
  5
4AF
100
AcDbEntity
  8
RACCORDO
100
AcDbCircle
 62
7
  6
CONTINUOUS
 10
42.104600574
 20
-47.0061454129
 40
1.8017682197
100
AcDbArc
 50
180.0
 51
360.0
  0
ARC
  5
4B0
100
AcDbEntity
  8
DRAFT
100
AcDbCircle
 62
7
  6
CONTINUOUS
 10
42.104600574
 20
-47.0061454129
 40
1.7851643248
100
AcDbArc
 50
180.0
 51
360.0
  0
ARC
  5
4B1
100
AcDbEntity
  8
RACCORDO
100
AcDbCircle
 62
7
  6
CONTINUOUS
 10
50.054600574
 20
-51.7061454129
 40
0.3
100
AcDbArc
 50
270.0
 51
360.0
  0
ARC
  5
4B2
100
AcDbEntity
  8
RACCORDO
100
AcDbCircle
 62
7
  6
CONTINUOUS
 10
47.654600574
 20
-51.7061454129
 40
0.3
100
AcDbArc
 50
180.0
 51
270.0
  0
ARC
  5
4B3
100
AcDbEntity
  8
RACCORDO
100
AcDbCircle
 62
7
  6
CONTINUOUS
 10
30.354600574
 20
-42.0061454129
 40
3.4
100
AcDbArc
 50
0.0
 51
180.0
  0
ARC
  5
4B4
100
AcDbEntity
  8
RACCORDO
100
AcDbCircle
 62
253
  6
CONTINUOUS
 10
30.354600574
 20
-42.0061454129
 40
3.0999668348
100
AcDbArc
 50
0.0
 51
180.0
  0
ARC
  5
4B5
100
AcDbEntity
  8
RACCORDO
100
AcDbCircle
 62
253
  6
CONTINUOUS
 10
30.354600574
 20
-42.0061454129
 40
2.1017513292
100
AcDbArc
 50
0.0
 51
180.0
  0
ARC
  5
4B6
100
AcDbEntity
  8
RACCORDO
100
AcDbCircle
 62
7
  6
CONTINUOUS
 10
30.354600574
 20
-42.0061454129
 40
1.8017682197
100
AcDbArc
 50
0.0
 51
180.0
  0
ARC
  5
4B7
100
AcDbEntity
  8
DRAFT
100
AcDbCircle
 62
7
  6
CONTINUOUS
 10
30.354600574
 20
-42.0061454129
 40
1.7851643248
100
AcDbArc
 50
0.0
 51
180.0
  0
ARC
  5
4B8
100
AcDbEntity
  8
RACCORDO
100
AcDbCircle
 62
7
  6
CONTINUOUS
 10
42.104600574
 20
-42.0061454129
 40
3.4
100
AcDbArc
 50
0.0
 51
180.0
  0
ARC
  5
4B9
100
AcDbEntity
  8
RACCORDO
100
AcDbCircle
 62
253
  6
CONTINUOUS
 10
42.104600574
 20
-42.0061454129
 40
3.0999668348
100
AcDbArc
 50
0.0
 51
180.0
  0
ARC
  5
4BA
100
AcDbEntity
  8
RACCORDO
100
AcDbCircle
 62
253
  6
CONTINUOUS
 10
42.104600574
 20
-42.0061454129
 40
2.1017513292
100
AcDbArc
 50
0.0
 51
180.0
  0
ARC
  5
4BB
100
AcDbEntity
  8
RACCORDO
100
AcDbCircle
 62
7
  6
CONTINUOUS
 10
42.104600574
 20
-42.0061454129
 40
1.8017682197
100
AcDbArc
 50
0.0
 51
180.0
  0
ARC
  5
4BC
100
AcDbEntity
  8
DRAFT
100
AcDbCircle
 62
7
  6
CONTINUOUS
 10
42.104600574
 20
-42.0061454129
 40
1.7851643248
100
AcDbArc
 50
0.0
 51
180.0
  0
ARC
  5
4BD
100
AcDbEntity
  8
RACCORDO
100
AcDbCircle
 62
7
  6
CONTINUOUS
 10
47.654600574
 20
-37.3061454129
 40
0.3
100
AcDbArc
 50
90.0
 51
180.0
  0
ARC
  5
4BE
100
AcDbEntity
  8
RACCORDO
100
AcDbCircle
 62
7
  6
CONTINUOUS
 10
50.054600574
 20
-37.3061454129
 40
0.3
100
AcDbArc
 50
0.0
 51
90.0
  0
ARC
  5
4BF
100
AcDbEntity
  8
RACCORDO
100
AcDbCircle
 62
7
  6
CONTINUOUS
 10
50.2419737259
 20
-13.0061454129
 40
5.0
100
AcDbArc
 50
32.2692279871
 51
212.2692279871
  0
ARC
  5
4C0
100
AcDbEntity
  8
RACCORDO
100
AcDbCircle
 62
253
  6
CONTINUOUS
 10
50.2419737259
 20
-13.0061454129
 40
4.6999831917
100
AcDbArc
 50
32.2692279871
 51
212.2692279871
  0
ARC
  5
4C1
100
AcDbEntity
  8
RACCORDO
100
AcDbCircle
 62
253
  6
CONTINUOUS
 10
50.2419737259
 20
-13.0061454129
 40
2.2999949992
100
AcDbArc
 50
32.2692279871
 51
212.2692279871
  0
ARC
  5
4C2
100
AcDbEntity
  8
RACCORDO
100
AcDbCircle
 62
7
  6
CONTINUOUS
 10
50.2419737259
 20
-13.0061454129
 40
2.0
100
AcDbArc
 50
32.2692279871
 51
212.2692279871
  0
ARC
  5
4C3
100
AcDbEntity
  8
RACCORDO
100
AcDbCircle
 62
7
  6
CONTINUOUS
 10
51.854600574
 20
-15.718127072
 40
5.0
100
AcDbArc
 50
209.2047820855
 51
29.2047820855
  0
ARC
  5
4C4
100
AcDbEntity
  8
RACCORDO
100
AcDbCircle
 62
253
  6
CONTINUOUS
 10
51.854600574
 20
-15.718127072
 40
4.6999831917
100
AcDbArc
 50
209.2047820855
 51
29.2047820855
  0
ARC
  5
4C5
100
AcDbEntity
  8
RACCORDO
100
AcDbCircle
 62
253
  6
CONTINUOUS
 10
51.854600574
 20
-15.718127072
 40
2.2999949992
100
AcDbArc
 50
209.2047820855
 51
29.2047820855
  0
ARC
  5
4C6
100
AcDbEntity
  8
RACCORDO
100
AcDbCircle
 62
7
  6
CONTINUOUS
 10
51.854600574
 20
-15.718127072
 40
2.0
100
AcDbArc
 50
209.2047820855
 51
29.2047820855
  0
ARC
  5
4C7
100
AcDbEntity
  8
SUPERFICI
100
AcDbCircle
 62
253
  6
CONTINUOUS
 10
14.354600574
 20
30.4938545871
 40
10.2973884964
100
AcDbArc
 50
270.0
 51
360.0
  0
ARC
  5
4C8
100
AcDbEntity
  8
SUPERFICI
100
AcDbCircle
 62
7
  6
CONTINUOUS
 10
14.354600574
 20
30.4938545871
 40
9.9974047859
100
AcDbArc
 50
270.0
 51
360.0
  0
ARC
  5
4C9
100
AcDbEntity
  8
SUPERFICI
100
AcDbCircle
 62
7
  6
CONTINUOUS
 10
14.354600574
 20
30.4938545871
 40
9.9747035069
100
AcDbArc
 50
269.9999999411
 51
360.0
  0
ARC
  5
4CA
100
AcDbEntity
  8
SUPERFICI
100
AcDbCircle
 62
7
  6
CONTINUOUS
 10
20.054600574
 20
18.6938545871
 40
0.3
100
AcDbArc
 50
0.0
 51
90.0
  0
ARC
  5
4CB
100
AcDbEntity
  8
SUPERFICI
100
AcDbCircle
 62
7
  6
CONTINUOUS
 10
20.054600574
 20
14.2938545871
 40
0.3
100
AcDbArc
 50
270.0
 51
360.0
  0
ARC
  5
4CC
100
AcDbEntity
  8
SUPERFICI
100
AcDbCircle
 62
7
  6
CONTINUOUS
 10
0.354600574
 20
45.4938545871
 40
64.0
100
AcDbArc
 50
209.2047820855
 51
212.2692279871
  0
ARC
  5
4CD
100
AcDbEntity
  8
SUPERFICI
100
AcDbCircle
 62
7
  6
CONTINUOUS
 10
0.354600574
 20
45.4938545871
 40
64.0
100
AcDbArc
 50
147.7307720129
 51
150.7952179145
  0
ARC
  5
4CE
100
AcDbEntity
  8
SUPERFICI
100
AcDbCircle
 62
7
  6
CONTINUOUS
 10
0.354600574
 20
45.4938545871
 40
64.0
100
AcDbArc
 50
29.2047820855
 51
32.2692279871
  0
ARC
  5
4CF
100
AcDbEntity
  8
SUPERFICI
100
AcDbCircle
 62
7
  6
CONTINUOUS
 10
0.354600574
 20
45.4938545871
 40
64.0
100
AcDbArc
 50
327.7307720129
 51
330.7952179145
  0
ARC
  5
4D0
100
AcDbEntity
  8
SUPERFICI
100
AcDbCircle
 62
253
  6
CONTINUOUS
 10
0.354600574
 20
45.4938545871
 40
63.7000000218
100
AcDbArc
 50
147.7307720129
 51
150.7952179145
  0
ARC
  5
4D1
100
AcDbEntity
  8
SUPERFICI
100
AcDbCircle
 62
253
  6
CONTINUOUS
 10
0.354600574
 20
45.4938545871
 40
63.7000000218
100
AcDbArc
 50
209.2047820855
 51
212.2692279871
  0
ARC
  5
4D2
100
AcDbEntity
  8
SUPERFICI
100
AcDbCircle
 62
253
  6
CONTINUOUS
 10
0.354600574
 20
45.4938545871
 40
63.7000000218
100
AcDbArc
 50
327.7307720129
 51
330.7952179145
  0
ARC
  5
4D3
100
AcDbEntity
  8
SUPERFICI
100
AcDbCircle
 62
253
  6
CONTINUOUS
 10
0.354600574
 20
45.4938545871
 40
63.7000000218
100
AcDbArc
 50
29.2047820855
 51
32.2692279871
  0
ARC
  5
4D4
100
AcDbEntity
  8
SUPERFICI
100
AcDbCircle
 62
253
  6
CONTINUOUS
 10
0.354600574
 20
45.4938545871
 40
61.3000000224
100
AcDbArc
 50
29.2047820855
 51
32.2692279871
  0
ARC
  5
4D5
100
AcDbEntity
  8
SUPERFICI
100
AcDbCircle
 62
253
  6
CONTINUOUS
 10
0.354600574
 20
45.4938545871
 40
61.3000000224
100
AcDbArc
 50
327.7307720129
 51
330.7952179145
  0
ARC
  5
4D6
100
AcDbEntity
  8
SUPERFICI
100
AcDbCircle
 62
253
  6
CONTINUOUS
 10
0.354600574
 20
45.4938545871
 40
61.3000000224
100
AcDbArc
 50
209.2047820855
 51
212.2692279871
  0
ARC
  5
4D7
100
AcDbEntity
  8
SUPERFICI
100
AcDbCircle
 62
253
  6
CONTINUOUS
 10
0.354600574
 20
45.4938545871
 40
61.3000000224
100
AcDbArc
 50
147.7307720129
 51
150.7952179145
  0
ARC
  5
4D8
100
AcDbEntity
  8
SUPERFICI
100
AcDbCircle
 62
7
  6
CONTINUOUS
 10
0.354600574
 20
45.4938545871
 40
61.0
100
AcDbArc
 50
147.7307720129
 51
150.7952179145
  0
ARC
  5
4D9
100
AcDbEntity
  8
SUPERFICI
100
AcDbCircle
 62
7
  6
CONTINUOUS
 10
0.354600574
 20
45.4938545871
 40
61.0
100
AcDbArc
 50
209.2047820855
 51
212.2692279871
  0
ARC
  5
4DA
100
AcDbEntity
  8
SUPERFICI
100
AcDbCircle
 62
7
  6
CONTINUOUS
 10
0.354600574
 20
45.4938545871
 40
61.0
100
AcDbArc
 50
29.2047820855
 51
32.2692279871
  0
ARC
  5
4DB
100
AcDbEntity
  8
SUPERFICI
100
AcDbCircle
 62
7
  6
CONTINUOUS
 10
0.354600574
 20
45.4938545871
 40
61.0
100
AcDbArc
 50
327.7307720129
 51
330.7952179145
  0
ARC
  5
4DC
100
AcDbEntity
  8
SUPERFICI
100
AcDbCircle
 62
7
  6
CONTINUOUS
 10
0.354600574
 20
45.4938545871
 40
57.0
100
AcDbArc
 50
147.7307720129
 51
150.7952179145
  0
ARC
  5
4DD
100
AcDbEntity
  8
SUPERFICI
100
AcDbCircle
 62
7
  6
CONTINUOUS
 10
0.354600574
 20
45.4938545871
 40
57.0
100
AcDbArc
 50
209.2047820855
 51
212.2692279871
  0
ARC
  5
4DE
100
AcDbEntity
  8
SUPERFICI
100
AcDbCircle
 62
7
  6
CONTINUOUS
 10
0.354600574
 20
45.4938545871
 40
57.0
100
AcDbArc
 50
29.2047820855
 51
32.2692279871
  0
ARC
  5
4DF
100
AcDbEntity
  8
SUPERFICI
100
AcDbCircle
 62
7
  6
CONTINUOUS
 10
0.354600574
 20
45.4938545871
 40
57.0
100
AcDbArc
 50
327.7307720129
 51
330.7952179145
  0
ARC
  5
4E0
100
AcDbEntity
  8
SUPERFICI
100
AcDbCircle
 62
253
  6
CONTINUOUS
 10
0.354600574
 20
45.4938545871
 40
56.7000000229
100
AcDbArc
 50
29.2047820855
 51
32.2692279871
  0
ARC
  5
4E1
100
AcDbEntity
  8
SUPERFICI
100
AcDbCircle
 62
253
  6
CONTINUOUS
 10
0.354600574
 20
45.4938545871
 40
56.7000000229
100
AcDbArc
 50
327.7307720129
 51
330.7952179145
  0
ARC
  5
4E2
100
AcDbEntity
  8
SUPERFICI
100
AcDbCircle
 62
253
  6
CONTINUOUS
 10
0.354600574
 20
45.4938545871
 40
56.7000000229
100
AcDbArc
 50
209.2047820855
 51
212.2692279871
  0
ARC
  5
4E3
100
AcDbEntity
  8
SUPERFICI
100
AcDbCircle
 62
253
  6
CONTINUOUS
 10
0.354600574
 20
45.4938545871
 40
56.7000000229
100
AcDbArc
 50
147.7307720129
 51
150.7952179145
  0
ARC
  5
4E4
100
AcDbEntity
  8
SUPERFICI
100
AcDbCircle
 62
253
  6
CONTINUOUS
 10
0.354600574
 20
45.4938545871
 40
54.3000000237
100
AcDbArc
 50
147.7307720129
 51
150.7952179145
  0
ARC
  5
4E5
100
AcDbEntity
  8
SUPERFICI
100
AcDbCircle
 62
253
  6
CONTINUOUS
 10
0.354600574
 20
45.4938545871
 40
54.3000000237
100
AcDbArc
 50
209.2047820855
 51
212.2692279871
  0
ARC
  5
4E6
100
AcDbEntity
  8
SUPERFICI
100
AcDbCircle
 62
253
  6
CONTINUOUS
 10
0.354600574
 20
45.4938545871
 40
54.3000000237
100
AcDbArc
 50
327.7307720129
 51
330.7952179145
  0
ARC
  5
4E7
100
AcDbEntity
  8
SUPERFICI
100
AcDbCircle
 62
253
  6
CONTINUOUS
 10
0.354600574
 20
45.4938545871
 40
54.3000000237
100
AcDbArc
 50
29.2047820855
 51
32.2692279871
  0
ARC
  5
4E8
100
AcDbEntity
  8
SUPERFICI
100
AcDbCircle
 62
7
  6
CONTINUOUS
 10
0.354600574
 20
45.4938545871
 40
54.0
100
AcDbArc
 50
209.2047820855
 51
212.2692279871
  0
ARC
  5
4E9
100
AcDbEntity
  8
SUPERFICI
100
AcDbCircle
 62
7
  6
CONTINUOUS
 10
0.354600574
 20
45.4938545871
 40
54.0
100
AcDbArc
 50
147.7307720129
 51
150.7952179145
  0
ARC
  5
4EA
100
AcDbEntity
  8
SUPERFICI
100
AcDbCircle
 62
7
  6
CONTINUOUS
 10
0.354600574
 20
45.4938545871
 40
54.0
100
AcDbArc
 50
29.2047820855
 51
32.2692279871
  0
ARC
  5
4EB
100
AcDbEntity
  8
SUPERFICI
100
AcDbCircle
 62
7
  6
CONTINUOUS
 10
0.354600574
 20
45.4938545871
 40
54.0
100
AcDbArc
 50
327.7307720129
 51
330.7952179145
  0
ARC
  5
4EC
100
AcDbEntity
  8
SUPERFICI
100
AcDbCircle
 62
253
  6
CONTINUOUS
 10
14.354600574
 20
60.4938545871
 40
10.2973884964
100
AcDbArc
 50
0.0
 51
90.0
  0
ARC
  5
4ED
100
AcDbEntity
  8
SUPERFICI
100
AcDbCircle
 62
7
  6
CONTINUOUS
 10
14.354600574
 20
60.4938545871
 40
9.9974047859
100
AcDbArc
 50
0.0
 51
90.0
  0
ARC
  5
4EE
100
AcDbEntity
  8
SUPERFICI
100
AcDbCircle
 62
7
  6
CONTINUOUS
 10
14.354600574
 20
60.4938545871
 40
9.9747035069
100
AcDbArc
 50
359.9999999411
 51
90.0000000539
  0
ARC
  5
4EF
100
AcDbEntity
  8
SUPERFICI
100
AcDbCircle
 62
7
  6
CONTINUOUS
 10
20.054600574
 20
72.2938545871
 40
0.3
100
AcDbArc
 50
270.0
 51
360.0
  0
ARC
  5
4F0
100
AcDbEntity
  8
SUPERFICI
100
AcDbCircle
 62
7
  6
CONTINUOUS
 10
20.054600574
 20
76.6938545871
 40
0.3
100
AcDbArc
 50
0.0
 51
90.0
  0
ARC
  5
4F1
100
AcDbEntity
  8
SUPERFICI
100
AcDbCircle
 62
7
  6
CONTINUOUS
 10
30.354600574
 20
42.9938545871
 40
3.4
100
AcDbArc
 50
180.0
 51
360.0
  0
ARC
  5
4F2
100
AcDbEntity
  8
SUPERFICI
100
AcDbCircle
 62
253
  6
CONTINUOUS
 10
30.354600574
 20
42.9938545871
 40
3.0999668348
100
AcDbArc
 50
180.0
 51
360.0
  0
ARC
  5
4F3
100
AcDbEntity
  8
SUPERFICI
100
AcDbCircle
 62
253
  6
CONTINUOUS
 10
30.354600574
 20
42.9938545871
 40
2.1017513292
100
AcDbArc
 50
180.0
 51
360.0
  0
ARC
  5
4F4
100
AcDbEntity
  8
SUPERFICI
100
AcDbCircle
 62
7
  6
CONTINUOUS
 10
30.354600574
 20
42.9938545871
 40
1.8017682197
100
AcDbArc
 50
180.0
 51
360.0
  0
ARC
  5
4F5
100
AcDbEntity
  8
SUPERFICI
100
AcDbCircle
 62
7
  6
CONTINUOUS
 10
30.354600574
 20
42.9938545871
 40
1.7851643248
100
AcDbArc
 50
180.0
 51
360.0
  0
ARC
  5
4F6
100
AcDbEntity
  8
SUPERFICI
100
AcDbCircle
 62
7
  6
CONTINUOUS
 10
50.2419737259
 20
13.9938545871
 40
5.0
100
AcDbArc
 50
147.7307720129
 51
327.7307720129
  0
ARC
  5
4F7
100
AcDbEntity
  8
SUPERFICI
100
AcDbCircle
 62
7
  6
CONTINUOUS
 10
51.854600574
 20
16.7058362461
 40
5.0
100
AcDbArc
 50
330.7952179145
 51
150.7952179145
  0
ARC
  5
4F8
100
AcDbEntity
  8
SUPERFICI
100
AcDbCircle
 62
253
  6
CONTINUOUS
 10
51.854600574
 20
16.7058362461
 40
4.6999831917
100
AcDbArc
 50
330.7952179145
 51
150.7952179145
  0
ARC
  5
4F9
100
AcDbEntity
  8
SUPERFICI
100
AcDbCircle
 62
253
  6
CONTINUOUS
 10
50.2419737259
 20
13.9938545871
 40
4.6999831917
100
AcDbArc
 50
147.7307720129
 51
327.7307720129
  0
ARC
  5
4FA
100
AcDbEntity
  8
SUPERFICI
100
AcDbCircle
 62
253
  6
CONTINUOUS
 10
50.2419737259
 20
13.9938545871
 40
2.2999949992
100
AcDbArc
 50
147.7307720129
 51
327.7307720129
  0
ARC
  5
4FB
100
AcDbEntity
  8
SUPERFICI
100
AcDbCircle
 62
253
  6
CONTINUOUS
 10
51.854600574
 20
16.7058362461
 40
2.2999949992
100
AcDbArc
 50
330.7952179145
 51
150.7952179145
  0
ARC
  5
4FC
100
AcDbEntity
  8
SUPERFICI
100
AcDbCircle
 62
7
  6
CONTINUOUS
 10
50.2419737259
 20
13.9938545871
 40
2.0
100
AcDbArc
 50
147.7307720129
 51
327.7307720129
  0
ARC
  5
4FD
100
AcDbEntity
  8
SUPERFICI
100
AcDbCircle
 62
7
  6
CONTINUOUS
 10
51.854600574
 20
16.7058362461
 40
2.0
100
AcDbArc
 50
330.7952179145
 51
150.7952179145
  0
ARC
  5
4FE
100
AcDbEntity
  8
SUPERFICI
100
AcDbCircle
 62
7
  6
CONTINUOUS
 10
42.104600574
 20
42.9938545871
 40
3.4
100
AcDbArc
 50
180.0
 51
360.0
  0
ARC
  5
4FF
100
AcDbEntity
  8
SUPERFICI
100
AcDbCircle
 62
253
  6
CONTINUOUS
 10
42.104600574
 20
42.9938545871
 40
3.0999668348
100
AcDbArc
 50
180.0
 51
360.0
  0
ARC
  5
500
100
AcDbEntity
  8
SUPERFICI
100
AcDbCircle
 62
253
  6
CONTINUOUS
 10
42.104600574
 20
42.9938545871
 40
2.1017513292
100
AcDbArc
 50
180.0
 51
360.0
  0
ARC
  5
501
100
AcDbEntity
  8
SUPERFICI
100
AcDbCircle
 62
7
  6
CONTINUOUS
 10
42.104600574
 20
42.9938545871
 40
1.8017682197
100
AcDbArc
 50
180.0
 51
360.0
  0
ARC
  5
502
100
AcDbEntity
  8
SUPERFICI
100
AcDbCircle
 62
7
  6
CONTINUOUS
 10
42.104600574
 20
42.9938545871
 40
1.7851643248
100
AcDbArc
 50
180.0
 51
360.0
  0
ARC
  5
503
100
AcDbEntity
  8
SUPERFICI
100
AcDbCircle
 62
7
  6
CONTINUOUS
 10
47.654600574
 20
38.2938545871
 40
0.3
100
AcDbArc
 50
180.0
 51
270.0
  0
ARC
  5
504
100
AcDbEntity
  8
SUPERFICI
100
AcDbCircle
 62
7
  6
CONTINUOUS
 10
50.054600574
 20
38.2938545871
 40
0.3
100
AcDbArc
 50
270.0
 51
360.0
  0
ARC
  5
505
100
AcDbEntity
  8
SUPERFICI
100
AcDbCircle
 62
7
  6
CONTINUOUS
 10
30.354600574
 20
47.9938545871
 40
3.4
100
AcDbArc
 50
0.0
 51
180.0
  0
ARC
  5
506
100
AcDbEntity
  8
SUPERFICI
100
AcDbCircle
 62
253
  6
CONTINUOUS
 10
30.354600574
 20
47.9938545871
 40
3.0999668348
100
AcDbArc
 50
0.0
 51
180.0
  0
ARC
  5
507
100
AcDbEntity
  8
SUPERFICI
100
AcDbCircle
 62
253
  6
CONTINUOUS
 10
30.354600574
 20
47.9938545871
 40
2.1017513292
100
AcDbArc
 50
0.0
 51
180.0
  0
ARC
  5
508
100
AcDbEntity
  8
SUPERFICI
100
AcDbCircle
 62
7
  6
CONTINUOUS
 10
30.354600574
 20
47.9938545871
 40
1.8017682197
100
AcDbArc
 50
0.0
 51
180.0
  0
ARC
  5
509
100
AcDbEntity
  8
SUPERFICI
100
AcDbCircle
 62
7
  6
CONTINUOUS
 10
30.354600574
 20
47.9938545871
 40
1.7851643248
100
AcDbArc
 50
0.0
 51
180.0
  0
ARC
  5
50A
100
AcDbEntity
  8
SUPERFICI
100
AcDbCircle
 62
7
  6
CONTINUOUS
 10
42.104600574
 20
47.9938545871
 40
3.4
100
AcDbArc
 50
0.0
 51
180.0
  0
ARC
  5
50B
100
AcDbEntity
  8
SUPERFICI
100
AcDbCircle
 62
253
  6
CONTINUOUS
 10
42.104600574
 20
47.9938545871
 40
3.0999668348
100
AcDbArc
 50
0.0
 51
180.0
  0
ARC
  5
50C
100
AcDbEntity
  8
SUPERFICI
100
AcDbCircle
 62
253
  6
CONTINUOUS
 10
42.104600574
 20
47.9938545871
 40
2.1017513292
100
AcDbArc
 50
0.0
 51
180.0
  0
ARC
  5
50D
100
AcDbEntity
  8
SUPERFICI
100
AcDbCircle
 62
7
  6
CONTINUOUS
 10
42.104600574
 20
47.9938545871
 40
1.8017682197
100
AcDbArc
 50
0.0
 51
180.0
  0
ARC
  5
50E
100
AcDbEntity
  8
SUPERFICI
100
AcDbCircle
 62
7
  6
CONTINUOUS
 10
42.104600574
 20
47.9938545871
 40
1.7851643248
100
AcDbArc
 50
0.0
 51
180.0
  0
ARC
  5
50F
100
AcDbEntity
  8
SUPERFICI
100
AcDbCircle
 62
7
  6
CONTINUOUS
 10
50.054600574
 20
52.6938545871
 40
0.3
100
AcDbArc
 50
0.0
 51
90.0
  0
ARC
  5
510
100
AcDbEntity
  8
SUPERFICI
100
AcDbCircle
 62
7
  6
CONTINUOUS
 10
47.654600574
 20
52.6938545871
 40
0.3
100
AcDbArc
 50
90.0
 51
180.0
  0
ARC
  5
511
100
AcDbEntity
  8
SUPERFICI
100
AcDbCircle
 62
7
  6
CONTINUOUS
 10
50.2419737259
 20
76.9938545871
 40
5.0
100
AcDbArc
 50
32.2692279871
 51
212.2692279871
  0
ARC
  5
512
100
AcDbEntity
  8
SUPERFICI
100
AcDbCircle
 62
253
  6
CONTINUOUS
 10
50.2419737259
 20
76.9938545871
 40
4.6999831917
100
AcDbArc
 50
32.2692279871
 51
212.2692279871
  0
ARC
  5
513
100
AcDbEntity
  8
SUPERFICI
100
AcDbCircle
 62
253
  6
CONTINUOUS
 10
50.2419737259
 20
76.9938545871
 40
2.2999949992
100
AcDbArc
 50
32.2692279871
 51
212.2692279871
  0
ARC
  5
514
100
AcDbEntity
  8
SUPERFICI
100
AcDbCircle
 62
7
  6
CONTINUOUS
 10
50.2419737259
 20
76.9938545871
 40
2.0
100
AcDbArc
 50
32.2692279871
 51
212.2692279871
  0
ARC
  5
515
100
AcDbEntity
  8
SUPERFICI
100
AcDbCircle
 62
7
  6
CONTINUOUS
 10
51.854600574
 20
74.281872928
 40
5.0
100
AcDbArc
 50
209.2047820855
 51
29.2047820855
  0
ARC
  5
516
100
AcDbEntity
  8
SUPERFICI
100
AcDbCircle
 62
253
  6
CONTINUOUS
 10
51.854600574
 20
74.281872928
 40
4.6999831917
100
AcDbArc
 50
209.2047820855
 51
29.2047820855
  0
ARC
  5
517
100
AcDbEntity
  8
SUPERFICI
100
AcDbCircle
 62
253
  6
CONTINUOUS
 10
51.854600574
 20
74.281872928
 40
2.2999949992
100
AcDbArc
 50
209.2047820855
 51
29.2047820855
  0
ARC
  5
518
100
AcDbEntity
  8
SUPERFICI
100
AcDbCircle
 62
7
  6
CONTINUOUS
 10
51.854600574
 20
74.281872928
 40
2.0
100
AcDbArc
 50
209.2047820855
 51
29.2047820855
  0
ELLIPSE
  5
519
100
AcDbEntity
  8
ASSI
100
AcDbEllipse
 62
7
  6
CONTINUOUS
 10
-62.644713841
 20
2.494540172
 30
0.0
 11
1.4151829599
 21
1.4151829599
 31
0.0
 40
0.999315002
 41
8.6397224137
 42
10.0552753508
  0
ELLIPSE
  5
51A
100
AcDbEntity
  8
ASSI
100
AcDbEllipse
 62
7
  6
CONTINUOUS
 10
-62.644713841
 20
88.4931690021
 30
0.0
 11
1.4151829599
 21
-1.4151829599
 31
0.0
 40
0.999315002
 41
8.6397224137
 42
10.2098335078
  0
ELLIPSE
  5
51B
100
AcDbEntity
  8
ASSI
100
AcDbEllipse
 62
7
  6
CONTINUOUS
 10
63.353914989
 20
88.4931690021
 30
0.0
 11
-1.4151829599
 21
-1.4151829599
 31
0.0
 40
0.999315002
 41
8.6397224137
 42
10.2098335078
  0
ELLIPSE
  5
51C
100
AcDbEntity
  8
ASSI
100
AcDbEllipse
 62
7
  6
CONTINUOUS
 10
63.353914989
 20
2.494540172
 30
0.0
 11
-1.4151829599
 21
1.4151829599
 31
0.0
 40
0.999315002
 41
8.7942805811
 42
10.2098335078
  0
ELLIPSE
  5
51D
100
AcDbEntity
  8
ASSI
100
AcDbEllipse
 62
7
  6
CONTINUOUS
 10
-62.644713841
 20
-87.505459828
 30
0.0
 11
1.4151829599
 21
1.4151829599
 31
0.0
 40
0.999315002
 41
8.6397224137
 42
10.2098335078
  0
ELLIPSE
  5
51E
100
AcDbEntity
  8
ASSI
100
AcDbEllipse
 62
7
  6
CONTINUOUS
 10
-62.644713841
 20
-1.5068309979
 30
0.0
 11
1.4151829599
 21
-1.4151829599
 31
0.0
 40
0.999315002
 41
8.7942837288
 42
10.2098335078
  0
ELLIPSE
  5
51F
100
AcDbEntity
  8
ASSI
100
AcDbEllipse
 62
7
  6
CONTINUOUS
 10
63.353914989
 20
-1.5068309979
 30
0.0
 11
-1.4151829599
 21
-1.4151829599
 31
0.0
 40
0.999315002
 41
8.6397224137
 42
10.0552727026
  0
ELLIPSE
  5
520
100
AcDbEntity
  8
ASSI
100
AcDbEllipse
 62
7
  6
CONTINUOUS
 10
63.353914989
 20
-87.505459828
 30
0.0
 11
-1.4151829599
 21
1.4151829599
 31
0.0
 40
0.999315002
 41
8.6397224137
 42
10.2098335078
  0
ELLIPSE
  5
521
100
AcDbEntity
  8
COPY
100
AcDbEllipse
 62
7
  6
CONTINUOUS
 10
-62.644713841
 20
-87.505459828
 30
0.0
 11
1.4151829599
 21
1.4151829599
 31
0.0
 40
0.999315002
 41
2.3565371065
 42
3.9266482006
  0
ELLIPSE
  5
522
100
AcDbEntity
  8
COPY
100
AcDbEllipse
 62
7
  6
CONTINUOUS
 10
-62.644713841
 20
-1.5068309979
 30
0.0
 11
1.4151829599
 21
-1.4151829599
 31
0.0
 40
0.999315002
 41
8.7945071548
 42
10.2098335078
  0
ELLIPSE
  5
523
100
AcDbEntity
  8
COPY
100
AcDbEllipse
 62
7
  6
CONTINUOUS
 10
63.353914989
 20
-1.5068309979
 30
0.0
 11
-1.4151829599
 21
-1.4151829599
 31
0.0
 40
0.999315002
 41
8.6397224137
 42
10.1372866971
  0
ELLIPSE
  5
524
100
AcDbEntity
  8
COPY
100
AcDbEllipse
 62
7
  6
CONTINUOUS
 10
63.353914989
 20
-87.505459828
 30
0.0
 11
-1.4151829599
 21
1.4151829599
 31
0.0
 40
0.999315002
 41
2.3565371065
 42
3.9266482006
  0
ELLIPSE
  5
525
100
AcDbEntity
  8
RACCORDO
100
AcDbEllipse
 62
7
  6
CONTINUOUS
 10
-62.644713841
 20
2.494540172
 30
0.0
 11
1.4151829599
 21
1.4151829599
 31
0.0
 40
0.999315002
 41
8.6397224137
 42
10.1372866971
  0
ELLIPSE
  5
526
100
AcDbEntity
  8
RACCORDO
100
AcDbEllipse
 62
7
  6
CONTINUOUS
 10
-62.644713841
 20
88.4931690021
 30
0.0
 11
1.4151829599
 21
-1.4151829599
 31
0.0
 40
0.999315002
 41
2.3565371065
 42
3.9266482006
  0
ELLIPSE
  5
527
100
AcDbEntity
  8
RACCORDO
100
AcDbEllipse
 62
7
  6
CONTINUOUS
 10
63.353914989
 20
88.4931690021
 30
0.0
 11
-1.4151829599
 21
-1.4151829599
 31
0.0
 40
0.999315002
 41
2.3565371065
 42
3.9266482006
  0
ELLIPSE
  5
528
100
AcDbEntity
  8
RACCORDO
100
AcDbEllipse
 62
7
  6
CONTINUOUS
 10
63.353914989
 20
2.494540172
 30
0.0
 11
-1.4151829599
 21
1.4151829599
 31
0.0
 40
0.999315002
 41
8.7945071548
 42
10.2098335078
  0
ELLIPSE
  5
529
100
AcDbEntity
  8
SUPERFICI
100
AcDbEllipse
 62
7
  6
CONTINUOUS
 10
62.5451994972
 20
2.4938545871
 30
0.0
 11
2.3094010768
 21
0.0
 31
0.0
 40
0.8660254038
 41
5.2177494907
 42
6.2831853072
  0
ELLIPSE
  5
52A
100
AcDbEntity
  8
SUPERFICI
100
AcDbEllipse
 62
7
  6
CONTINUOUS
 10
62.5451994972
 20
87.6844535103
 30
0.0
 11
-1.8257418584
 21
-1.8257418584
 31
0.0
 40
0.7745966692
 41
2.4825346178
 42
3.8006506894
  0
ELLIPSE
  5
52B
100
AcDbEntity
  8
SUPERFICI
100
AcDbEllipse
 62
7
  6
CONTINUOUS
 10
-61.8359983493
 20
87.6844535103
 30
0.0
 11
1.8257418584
 21
-1.8257418584
 31
0.0
 40
0.7745966692
 41
2.4825346178
 42
3.8006506894
  0
ELLIPSE
  5
52C
100
AcDbEntity
  8
SUPERFICI
100
AcDbEllipse
 62
7
  6
CONTINUOUS
 10
-61.8359983493
 20
2.4938545871
 30
0.0
 11
-2.3094010768
 21
0.0
 31
0.0
 40
0.8660254038
 41
6.2831853072
 42
7.3486211237
  0
ELLIPSE
  5
52D
100
AcDbEntity
  8
0
100
AcDbEllipse
 62
7
  6
CONTINUOUS
 10
-61.8359983493
 20
-1.5061454129
 30
0.0
 11
2.3094010768
 21
-0.0
 31
0.0
 40
0.8660254038
 41
2.0761568371
 42
3.1415926536
  0
ELLIPSE
  5
52E
100
AcDbEntity
  8
RACCORDO
100
AcDbEllipse
 62
7
  6
CONTINUOUS
 10
-61.8359983493
 20
-86.6967443362
 30
0.0
 11
1.8257418584
 21
1.8257418584
 31
0.0
 40
0.7745966692
 41
-3.8006506894
 42
-2.4825346178
  0
ELLIPSE
  5
52F
100
AcDbEntity
  8
RACCORDO
100
AcDbEllipse
 62
7
  6
CONTINUOUS
 10
62.5451994972
 20
-86.6967443362
 30
0.0
 11
1.8257418584
 21
-1.8257418584
 31
0.0
 40
0.7745966692
 41
-0.6590580358
 42
0.6590580358
  0
ELLIPSE
  5
530
100
AcDbEntity
  8
0
100
AcDbEllipse
 62
7
  6
CONTINUOUS
 10
62.5451994972
 20
-1.5061454129
 30
0.0
 11
2.3094010768
 21
-0.0
 31
0.0
 40
0.8660254038
 41
0.0
 42
1.0654358165
  0
ELLIPSE
  5
531
100
AcDbEntity
  8
RACCORDO
100
AcDbEllipse
 62
7
  6
CONTINUOUS
 10
30.7243640545
 20
0.2244100478
 30
0.0
 11
0.0
 21
0.3
 31
0.0
 40
0.0174550649
 41
-3.1328660073
 42
-1.5707963268
  0
ELLIPSE
  5
532
100
AcDbEntity
  8
SUPERFICI
100
AcDbEllipse
 62
7
  6
CONTINUOUS
 10
30.7243640545
 20
0.7632991263
 30
0.0
 11
0.0
 21
0.3
 31
0.0
 40
0.0174550649
 41
-1.5707963268
 42
-0.0087266463
  0
ELLIPSE
  5
533
100
AcDbEntity
  8
RACCORDO
100
AcDbEllipse
 62
7
  6
CONTINUOUS
 10
41.7348370935
 20
0.2244100478
 30
0.0
 11
0.0
 21
0.3
 31
0.0
 40
0.0174550649
 41
-4.7123889804
 42
-3.1503192998
  0
ELLIPSE
  5
534
100
AcDbEntity
  8
SUPERFICI
100
AcDbEllipse
 62
7
  6
CONTINUOUS
 10
41.7348370935
 20
0.7632991263
 30
0.0
 11
-0.0
 21
0.3
 31
0.0
 40
0.0174550649
 41
0.0087266463
 42
1.5707963268
  0
ELLIPSE
  5
535
100
AcDbEntity
  8
RACCORDO
100
AcDbEllipse
 62
7
  6
CONTINUOUS
 10
-41.0256359455
 20
0.2244100478
 30
0.0
 11
0.0
 21
0.3
 31
0.0
 40
0.0174550649
 41
-3.1328660073
 42
-1.5707963268
  0
ELLIPSE
  5
536
100
AcDbEntity
  8
SUPERFICI
100
AcDbEllipse
 62
7
  6
CONTINUOUS
 10
-41.0256359455
 20
0.7632991263
 30
0.0
 11
-0.0
 21
0.3
 31
0.0
 40
0.0174550649
 41
-1.5707963268
 42
-0.0087266463
  0
ELLIPSE
  5
537
100
AcDbEntity
  8
RACCORDO
100
AcDbEllipse
 62
7
  6
CONTINUOUS
 10
-30.0151629065
 20
0.2244100478
 30
0.0
 11
0.0
 21
0.3
 31
0.0
 40
0.0174550649
 41
-4.7123889804
 42
-3.1503192998
  0
ELLIPSE
  5
538
100
AcDbEntity
  8
SUPERFICI
100
AcDbEllipse
 62
7
  6
CONTINUOUS
 10
-30.0151629065
 20
0.7632991263
 30
0.0
 11
-0.0
 21
0.3
 31
0.0
 40
0.0174550649
 41
0.0087266463
 42
1.5707963268
  0
ENDSEC
  0
SECTION
  2
OBJECTS
  0
DICTIONARY
  5
C
100
AcDbDictionary
280
0
281
1
  3
ACAD_GROUP
350
D
  3
ACAD_MLINESTYLE
350
17
  3
ACAD_LAYOUT
350
1A
  3
ACAD_PLOTSETTINGS
350
19
  3
ACAD_PLOTSTYLENAME
350
E
  0
DICTIONARY
  5
D
102
{ACAD_REACTORS
330
C
102
}
100
AcDbDictionary
280
0
281
1
  0
ACDBDICTIONARYWDFLT
  5
E
102
{ACAD_REACTORS
330
C
102
}
100
AcDbDictionary
281
1
  3
Normal
350
F
100
AcDbDictionaryWithDefault
340
F
  0
DICTIONARY
  5
17
102
{ACAD_REACTORS
330
C
102
}
100
AcDbDictionary
280
0
281
1
  3
Standard
350
18
  0
DICTIONARY
  5
19
102
{ACAD_REACTORS
330
C
102
}
100
AcDbDictionary
281
1
  0
DICTIONARY
  5
1A
102
{ACAD_REACTORS
330
C
102
}
100
AcDbDictionary
281
1
  3
Model
350
539
  3
Layout1
350
53A
  0
ACDBPLACEHOLDER
  5
F
102
{ACAD_REACTORS
330
E
102
}
  0
MLINESTYLE
  5
18
102
{ACAD_REACTORS
330
17
102
}
100
AcDbMlineStyle
  2
STANDARD
 70
0
  3

 62
256
 51
90.0
 52
90.0
 71
2
 49
0.5
 62
256
  6
BYLAYER
 49
-0.5
 62
256
  6
BYLAYER
  0
LAYOUT
  5
539
102
{ACAD_REACTORS
330
1A
102
}
100
AcDbPlotSettings
  1

  2
none_device
  4
ISO_A4_(297.00_x_210.00_MM)
  6

 40
0.0
 41
0.0
 42
0.0
 43
0.0
 44
297.0
 45
210.0
 46
0.0
 47
0.0
 48
0.0
 49
0.0
140
0.0
141
0.0
142
1.0
143
1.0
 70
1024
 72
1
 73
0
 74
0
  7

 75
0
147
1.0
148
0.0
149
0.0
100
AcDbLayout
  1
Model
 70
0
 71
0
 10
0.0
 20
0.0
 11
297.0
 21
210.0
 12
0.0
 22
0.0
 32
0.0
 14
0.0
 24
0.0
 34
0.0
 15
0.0
 25
0.0
 35
0.0
146
0.0
 13
0.0
 23
0.0
 33
0.0
 16
1.0
 26
0.0
 36
0.0
 17
0.0
 27
1.0
 37
0.0
 76
0
330
21A
345
0
346
0
  0
LAYOUT
  5
53A
102
{ACAD_REACTORS
330
1A
102
}
100
AcDbPlotSettings
  1

  2
none_device
  4
ISO_A4_(297.00_x_210.00_MM)
  6

 40
0.0
 41
0.0
 42
0.0
 43
0.0
 44
297.0
 45
210.0
 46
0.0
 47
0.0
 48
0.0
 49
0.0
140
0.0
141
0.0
142
1.0
143
1.0
 70
0
 72
1
 73
0
 74
0
  7

 75
0
147
1.0
148
0.0
149
0.0
100
AcDbLayout
  1
Layout1
 70
0
 71
1
 10
0.0
 20
0.0
 11
297.0
 21
210.0
 12
0.0
 22
0.0
 32
0.0
 14
0.0
 24
0.0
 34
0.0
 15
0.0
 25
0.0
 35
0.0
146
0.0
 13
0.0
 23
0.0
 33
0.0
 16
1.0
 26
0.0
 36
0.0
 17
0.0
 27
1.0
 37
0.0
 76
0
330
21B
345
0
346
0
  0
ENDSEC
  0
EOF
