  0
SECTION
  2
HEADER
  9
$ACADVER
  1
AC1015
  9
$DWGCODEPAGE
  3
ANSI_1252
  9
$EXTMAX
 10
297.0
 20
210.0
 30
0.0
  9
$EXTMIN
 10
0.0
 20
0.0
 30
0.0
  9
$LIMMIN
 10
0.0
 20
0.0
  9
$LIMMAX
 10
297.0
 20
210.0
  9
$VIEWCTR
 10
148.5
 20
105.0
  9
$VIEWSIZE
 40
210.0
  9
$CLAYER
  8
0
  9
$LTSCALE
 40
16.335
  9
$CELTYPE
  6
BYLAYER
  9
$DIMSCALE
 40
1.0
  9
$DIMASZ
 40
3.0
  9
$DIMEXO
 40
0.5
  9
$DIMDLI
 40
11.286
  9
$DIMEXE
 40
1.5
  9
$DIMCEN
 40
2.673
  9
$DIMLFAC
 40
1.0
  9
$DIMBLK
  1
_FILLED
  9
$DIMTXT
 40
3.0
  9
$DIMTOL
 70
1
  9
$DIMLIM
 70
0
  9
$DIMTFAC
 40
1.0
  9
$DIMTP
 40
0.01
  9
$DIMTM
 40
0.01
  9
$DIMGAP
 40
0.625
  9
$DIMDSEP
 70
44
  9
$PDMODE
 70
3
  9
$PDSIZE
 40
3.0
  9
$HANDSEED
  5
37B
  9
$TILEMODE
 70
1
  9
$MEASUREMENT
 70
1
  9
$INSUNITS
 70
4
  0
ENDSEC
  0
SECTION
  2
CLASSES
  0
CLASS
  1
ACDBDICTIONARYWDFLT
  2
AcDbDictionaryWithDefault
  3
AutoCAD 2000
 90
0
280
0
281
0
  0
CLASS
  1
ACDBPLACEHOLDER
  2
AcDbPlaceHolder
  3
AutoCAD 2000
 90
0
280
0
281
0
  0
CLASS
  1
LAYOUT
  2
AcDbLayout
  3
AutoCAD 2000
 90
0
280
0
281
0
  0
ENDSEC
  0
SECTION
  2
TABLES
  0
TABLE
  2
VPORT
  5
8
100
AcDbSymbolTable
 70
2
  0
VPORT
  5
1F4
100
AcDbSymbolTableRecord
100
AcDbViewportTableRecord
  2
*ACTIVE
 70
0
 10
0.0
 20
0.0
 11
1.0
 21
1.0
 12
148.5
 22
105.0
 13
0.0
 23
0.0
 14
1.0
 24
1.0
 15
0.0
 25
0.0
 16
0.0
 26
0.0
 36
1.0
 17
0.0
 27
0.0
 37
0.0
 40
210.0
 41
1.4142857143
 42
50.0
 43
0.0
 44
0.0
 50
0.0
 51
0.0
 71
0
 72
100
 73
1
 74
1
 75
0
 76
0
 77
0
 78
0
  0
ENDTAB
  0
TABLE
  2
LTYPE
  5
5
100
AcDbSymbolTable
 70
6
  0
LTYPE
  5
14
100
AcDbSymbolTableRecord
100
AcDbLinetypeTableRecord
  2
BYBLOCK
 70
0
  3

 72
65
 73
0
 40
0.0
  0
LTYPE
  5
15
100
AcDbSymbolTableRecord
100
AcDbLinetypeTableRecord
  2
BYLAYER
 70
0
  3

 72
65
 73
0
 40
0.0
  0
LTYPE
  5
16
100
AcDbSymbolTableRecord
100
AcDbLinetypeTableRecord
  2
CONTINUOUS
 70
64
  3
Solid line
 72
65
 73
0
 40
0.0
  0
LTYPE
  5
1F5
100
AcDbSymbolTableRecord
100
AcDbLinetypeTableRecord
  2
CENTER
 70
64
  3
____ _ ____ _ ____ _ ____ _ ____ _ ____ _ ____
 72
65
 73
4
 40
0.6
 49
0.375
 74
0
 49
-0.075
 74
0
 49
0.075
 74
0
 49
-0.075
 74
0
  0
LTYPE
  5
1F6
100
AcDbSymbolTableRecord
100
AcDbLinetypeTableRecord
  2
HIDDEN
 70
64
  3
- - - - - - - - - - - - - - - - - - - -
 72
65
 73
2
 40
0.2
 49
0.1
 74
0
 49
-0.1
 74
0
  0
LTYPE
  5
1F7
100
AcDbSymbolTableRecord
100
AcDbLinetypeTableRecord
  2
PHANTOM
 70
64
  3
_____ _ _ _____ _ _ _____ _ _ _____
 72
65
 73
6
 40
0.8
 49
0.45
 74
0
 49
-0.05
 74
0
 49
0.1
 74
0
 49
-0.05
 74
0
 49
0.1
 74
0
 49
-0.05
 74
0
  0
LTYPE
  5
1F8
100
AcDbSymbolTableRecord
100
AcDbLinetypeTableRecord
  2
DOT
 70
64
  3
. . . . . . . . . . . . . . . . . . . .
 72
65
 73
2
 40
0.2
 49
0.1
 74
0
 49
-0.1
 74
0
  0
LTYPE
  5
1F9
100
AcDbSymbolTableRecord
100
AcDbLinetypeTableRecord
  2
DASHED
 70
64
  3
- - - - - - - - - - - - - - - - - - - -
 72
65
 73
2
 40
0.2
 49
0.1
 74
0
 49
-0.1
 74
0
  0
ENDTAB
  0
TABLE
  2
LAYER
  5
2
100
AcDbSymbolTable
 70
36
  0
LAYER
  5
10
100
AcDbSymbolTableRecord
100
AcDbLayerTableRecord
  2
0
 70
0
 62
7
  6
CONTINUOUS
370
-3
390
F
  0
LAYER
  5
1FA
100
AcDbSymbolTableRecord
100
AcDbLayerTableRecord
  2
DEFAULT_1
 70
0
 62
7
  6
CENTER
370
-3
390
F
  0
LAYER
  5
1FB
100
AcDbSymbolTableRecord
100
AcDbLayerTableRecord
  2
DEFAULT_2
 70
0
 62
7
  6
HIDDEN
370
-3
390
F
  0
LAYER
  5
1FC
100
AcDbSymbolTableRecord
100
AcDbLayerTableRecord
  2
DEFAULT_3
 70
0
 62
7
  6
PHANTOM
370
-3
390
F
  0
LAYER
  5
1FD
100
AcDbSymbolTableRecord
100
AcDbLayerTableRecord
  2
ASSI
 70
0
 62
7
  6
CONTINUOUS
370
-3
390
F
  0
LAYER
  5
1FE
100
AcDbSymbolTableRecord
100
AcDbLayerTableRecord
  2
COLOR5
 70
0
 62
7
  6
CONTINUOUS
370
-3
390
F
  0
LAYER
  5
1FF
100
AcDbSymbolTableRecord
100
AcDbLayerTableRecord
  2
COLORE_MATERIALE
 70
0
 62
7
  6
CONTINUOUS
370
-3
390
F
  0
LAYER
  5
200
100
AcDbSymbolTableRecord
100
AcDbLayerTableRecord
  2
COORDINATE
 70
0
 62
7
  6
CONTINUOUS
370
-3
390
F
  0
LAYER
  5
201
100
AcDbSymbolTableRecord
100
AcDbLayerTableRecord
  2
COORD_ORIGINE
 70
0
 62
7
  6
CONTINUOUS
370
-3
390
F
  0
LAYER
  5
202
100
AcDbSymbolTableRecord
100
AcDbLayerTableRecord
  2
COPY_PUBLISH
 70
0
 62
7
  6
CONTINUOUS
370
-3
390
F
  0
LAYER
  5
203
100
AcDbSymbolTableRecord
100
AcDbLayerTableRecord
  2
COSMETICI
 70
0
 62
7
  6
CONTINUOUS
370
-3
390
F
  0
LAYER
  5
204
100
AcDbSymbolTableRecord
100
AcDbLayerTableRecord
  2
CURVE
 70
0
 62
7
  6
CONTINUOUS
370
-3
390
F
  0
LAYER
  5
205
100
AcDbSymbolTableRecord
100
AcDbLayerTableRecord
  2
DRAFT
 70
0
 62
7
  6
CONTINUOUS
370
-3
390
F
  0
LAYER
  5
206
100
AcDbSymbolTableRecord
100
AcDbLayerTableRecord
  2
IMPORT
 70
0
 62
7
  6
CONTINUOUS
370
-3
390
F
  0
LAYER
  5
207
100
AcDbSymbolTableRecord
100
AcDbLayerTableRecord
  2
IMPORT_COPY
 70
0
 62
7
  6
CONTINUOUS
370
-3
390
F
  0
LAYER
  5
208
100
AcDbSymbolTableRecord
100
AcDbLayerTableRecord
  2
IMPORT_IGES
 70
0
 62
7
  6
CONTINUOUS
370
-3
390
F
  0
LAYER
  5
209
100
AcDbSymbolTableRecord
100
AcDbLayerTableRecord
  2
INTFCLR_1
 70
0
 62
7
  6
CONTINUOUS
370
-3
390
F
  0
LAYER
  5
20A
100
AcDbSymbolTableRecord
100
AcDbLayerTableRecord
  2
NOTE
 70
0
 62
7
  6
CONTINUOUS
370
-3
390
F
  0
LAYER
  5
20B
100
AcDbSymbolTableRecord
100
AcDbLayerTableRecord
  2
PIANI
 70
0
 62
7
  6
CONTINUOUS
370
-3
390
F
  0
LAYER
  5
20C
100
AcDbSymbolTableRecord
100
AcDbLayerTableRecord
  2
PIANI_MOLLE
 70
0
 62
7
  6
CONTINUOUS
370
-3
390
F
  0
LAYER
  5
20D
100
AcDbSymbolTableRecord
100
AcDbLayerTableRecord
  2
PIANI_ORIGINE
 70
0
 62
7
  6
CONTINUOUS
370
-3
390
F
  0
LAYER
  5
20E
100
AcDbSymbolTableRecord
100
AcDbLayerTableRecord
  2
PIANI_RIFERIMENTO
 70
0
 62
7
  6
CONTINUOUS
370
-3
390
F
  0
LAYER
  5
20F
100
AcDbSymbolTableRecord
100
AcDbLayerTableRecord
  2
PUNTI
 70
0
 62
7
  6
CONTINUOUS
370
-3
390
F
  0
LAYER
  5
210
100
AcDbSymbolTableRecord
100
AcDbLayerTableRecord
  2
RACCORDO
 70
0
 62
7
  6
CONTINUOUS
370
-3
390
F
  0
LAYER
  5
211
100
AcDbSymbolTableRecord
100
AcDbLayerTableRecord
  2
SIMBOLI
 70
0
 62
7
  6
CONTINUOUS
370
-3
390
F
  0
LAYER
  5
212
100
AcDbSymbolTableRecord
100
AcDbLayerTableRecord
  2
SMUSSO
 70
0
 62
7
  6
CONTINUOUS
370
-3
390
F
  0
LAYER
  5
213
100
AcDbSymbolTableRecord
100
AcDbLayerTableRecord
  2
SNAPLINE
 70
0
 62
7
  6
CONTINUOUS
370
-3
390
F
  0
LAYER
  5
214
100
AcDbSymbolTableRecord
100
AcDbLayerTableRecord
  2
SUPERFICI
 70
0
 62
7
  6
CONTINUOUS
370
-3
390
F
  0
LAYER
  5
215
100
AcDbSymbolTableRecord
100
AcDbLayerTableRecord
  2
TRASH
 70
0
 62
7
  6
CONTINUOUS
370
-3
390
F
  0
LAYER
  5
216
100
AcDbSymbolTableRecord
100
AcDbLayerTableRecord
  2
XSEC_DATUMS
 70
0
 62
7
  6
CONTINUOUS
370
-3
390
F
  0
ENDTAB
  0
TABLE
  2
STYLE
  5
3
100
AcDbSymbolTable
 70
1
  0
STYLE
  5
11
100
AcDbSymbolTableRecord
100
AcDbTextStyleTableRecord
  2
STANDARD
 70
0
 40
0.0
 41
0.8
 50
0.0
 71
0
 42
0.2
  3
txt
  4

  0
STYLE
  5
217
100
AcDbSymbolTableRecord
100
AcDbTextStyleTableRecord
  2
TEXTSTYLE_1
 70
0
 40
0.0
 41
0.8
 50
0.0
 71
0
 42
0.2
  3
gdt
  4

  0
ENDTAB
  0
TABLE
  2
VIEW
  5
6
100
AcDbSymbolTable
 70
0
  0
ENDTAB
  0
TABLE
  2
UCS
  5
7
100
AcDbSymbolTable
 70
0
  0
ENDTAB
  0
TABLE
  2
APPID
  5
9
100
AcDbSymbolTable
 70
1
  0
APPID
  5
218
100
AcDbSymbolTableRecord
100
AcDbRegAppTableRecord
  2
ACAD
 70
0
  0
ENDTAB
  0
TABLE
  2
BLOCK_RECORD
  5
1
100
AcDbSymbolTable
 70
0
  0
BLOCK_RECORD
  5
219
100
AcDbSymbolTableRecord
100
AcDbBlockTableRecord
  2
*Model_Space
  0
BLOCK_RECORD
  5
21A
100
AcDbSymbolTableRecord
100
AcDbBlockTableRecord
  2
*Paper_Space
  0
ENDTAB
  0
TABLE
  2
DIMSTYLE
  5
A
100
AcDbSymbolTable
 70
1
100
AcDbDimStyleTable
 71
0
  0
DIMSTYLE
105
21B
100
AcDbSymbolTableRecord
100
AcDbDimStyleTableRecord
  2
STANDARD
 70
0
  3

  4

 40
1.0
 41
3.0
 42
0.5
 43
0.38
 44
1.5
 45
0.0
 46
0.0
 47
0.01
 48
0.01
140
3.0
141
0.09
142
0.0
143
25.4
144
1.0
145
0.0
146
1.0
147
0.625
 71
1.0
 72
0.0
 73
0
 74
0
 75
0
 76
0
 77
1
 78
8
170
0
171
2
172
0
173
0
174
0
175
0
176
0
177
0
178
0
270
2
271
2
272
2
273
2
274
2
275
0
280
0
281
0
282
0
283
1
284
8
285
0
286
0
287
3
288
0
340
11
278
44
  0
ENDTAB
  0
ENDSEC
  0
SECTION
  2
BLOCKS
  0
BLOCK
  5
20
100
AcDbEntity
  8
0
100
AcDbBlockBegin
  2
*Model_Space
 70
0
 10
0.0
 20
0.0
 30
0.0
  3
*Model_Space
  1

  0
ENDBLK
  5
21
100
AcDbEntity
  8
0
100
AcDbBlockEnd
  0
BLOCK
  5
1C
100
AcDbEntity
  8
0
100
AcDbBlockBegin
  2
*Paper_Space
 70
0
 10
0.0
 20
0.0
 30
0.0
  3
*Paper_Space
  1

  0
ENDBLK
  5
1D
100
AcDbEntity
  8
0
100
AcDbBlockEnd
  0
ENDSEC
  0
SECTION
  2
ENTITIES
  0
LWPOLYLINE
  5
21C
100
AcDbEntity
  8
RACCORDO
100
AcDbPolyline
 62
253
  6
CONTINUOUS
 90
16
 70
0
 10
-61.2896460181
 20
-40.1462562649
 10
-61.2846984268
 20
-40.2450397459
 10
-61.2712928538
 20
-40.3391693285
 10
-61.2494292993
 20
-40.4286450126
 10
-61.2188619335
 20
-40.5139322766
 10
-61.1798365862
 20
-40.5945656421
 10
-61.1330907459
 20
-40.6691486736
 10
-61.0783554283
 20
-40.7377596014
 10
-61.0158996177
 20
-40.8003201952
 10
-60.9472677568
 20
-40.8551993286
 10
-60.8724282819
 20
-40.9021354979
 10
-60.7914127567
 20
-40.9413902069
 10
-60.705860314
 20
-40.97211684
 10
-60.6163173315
 20
-40.9940331921
 10
-60.5222374316
 20
-41.0074214683
 10
-60.4236206143
 20
-41.0122816686
  0
LINE
  5
21D
100
AcDbEntity
  8
ASSI
100
AcDbLine
 62
7
  6
CONTINUOUS
 10
-65.5424227679
 20
-43.2657437684
 11
-65.5424227679
 21
42.7356269317
  0
LINE
  5
21E
100
AcDbEntity
  8
RACCORDO
100
AcDbLine
 62
7
  6
CONTINUOUS
 10
-65.0424227679
 20
-43.0330076108
 11
-65.0424227679
 21
42.5028907741
  0
LINE
  5
21F
100
AcDbEntity
  8
RACCORDO
100
AcDbLine
 62
7
  6
CONTINUOUS
 10
-54.6575394072
 20
33.9044331071
 11
-56.4068295417
 21
30.9626225043
  0
LINE
  5
220
100
AcDbEntity
  8
RACCORDO
100
AcDbLine
 62
7
  6
CONTINUOUS
 10
-56.4068295475
 20
-31.4927393306
 11
-54.6575394136
 21
-34.4345499337
  0
LWPOLYLINE
  5
221
100
AcDbEntity
  8
RACCORDO
100
AcDbPolyline
 62
253
  6
CONTINUOUS
 90
16
 70
0
 10
-62.1556714219
 20
-40.1462562649
 10
-62.1279777327
 20
-40.3238702255
 10
-62.0846268238
 20
-40.4968549104
 10
-62.0262634463
 20
-40.6640095017
 10
-61.9538396242
 20
-40.8238800109
 10
-61.8679837026
 20
-40.9757076066
 10
-61.7687478288
 20
-41.1193174176
 10
-61.6564735574
 20
-41.2540113521
 10
-61.5323181026
 20
-41.3782951641
 10
-61.3975343717
 20
-41.4908232492
 10
-61.2533952759
 20
-41.5904750734
 10
-61.1007650963
 20
-41.6767588068
 10
-60.9403738553
 20
-41.7493502811
 10
-60.7732065434
 20
-41.8076278574
 10
-60.6005539507
 20
-41.8508009231
 10
-60.4236206143
 20
-41.8783070724
  0
LINE
  5
222
100
AcDbEntity
  8
RACCORDO
100
AcDbLine
 62
253
  6
CONTINUOUS
 10
-62.1556714219
 20
39.6161394281
 11
-62.1556714219
 21
-40.1462562649
  0
LINE
  5
223
100
AcDbEntity
  8
RACCORDO
100
AcDbLine
 62
253
  6
CONTINUOUS
 10
-61.2896460181
 20
39.6161394281
 11
-61.2896460181
 21
-40.1462562649
  0
LINE
  5
224
100
AcDbEntity
  8
RACCORDO
100
AcDbLine
 62
253
  6
CONTINUOUS
 10
-60.4236206143
 20
-41.0122816686
 11
-60.4236206143
 21
-41.8783070724
  0
LINE
  5
225
100
AcDbEntity
  8
RACCORDO
100
AcDbLine
 62
253
  6
CONTINUOUS
 10
-60.4236206143
 20
40.4821648319
 11
-60.4236206135
 21
41.3481902356
  0
LINE
  5
226
100
AcDbEntity
  8
RACCORDO
100
AcDbLine
 62
7
  6
CONTINUOUS
 10
-48.7386985248
 20
30.1671449715
 11
-50.2966600561
 21
27.5470948939
  0
LINE
  5
227
100
AcDbEntity
  8
RACCORDO
100
AcDbLine
 62
7
  6
CONTINUOUS
 10
-50.296660056
 20
-28.0772117308
 11
-48.7386985247
 21
-30.6972618084
  0
LINE
  5
228
100
AcDbEntity
  8
RACCORDO
100
AcDbLine
 62
7
  6
CONTINUOUS
 10
-50.5424227679
 20
6.9349415816
 11
-50.5424227679
 21
-7.4650584184
  0
LINE
  5
229
100
AcDbEntity
  8
RACCORDO
100
AcDbLine
 62
253
  6
CONTINUOUS
 10
-50.2424227679
 20
-7.7650584184
 11
-50.2424227679
 21
7.2349415816
  0
LWPOLYLINE
  5
22A
100
AcDbEntity
  8
RACCORDO
100
AcDbPolyline
 62
253
  6
CONTINUOUS
 90
16
 70
0
 10
59.3387750786
 20
-41.8783070724
 10
59.5163890392
 20
-41.8506133832
 10
59.6893737241
 20
-41.8072624743
 10
59.8565283155
 20
-41.7488990968
 10
60.0163988247
 20
-41.6764752747
 10
60.1682264204
 20
-41.5906193531
 10
60.3118362313
 20
-41.4913834793
 10
60.4465301659
 20
-41.3791092079
 10
60.5708139779
 20
-41.2549537531
 10
60.6833420629
 20
-41.1201700222
 10
60.7829938871
 20
-40.9760309264
 10
60.8692776206
 20
-40.8234007468
 10
60.9418690949
 20
-40.6630095058
 10
61.0001466712
 20
-40.4958421939
 10
61.0433197368
 20
-40.3231896012
 10
61.0708258862
 20
-40.1462562649
  0
LINE
  5
22B
100
AcDbEntity
  8
RACCORDO
100
AcDbLine
 62
253
  6
CONTINUOUS
 10
-47.8424227679
 20
-7.7650584184
 11
-47.8424227679
 21
7.2349415816
  0
LINE
  5
22C
100
AcDbEntity
  8
RACCORDO
100
AcDbLine
 62
7
  6
CONTINUOUS
 10
-47.5424227679
 20
-7.4650584184
 11
-47.5424227679
 21
6.9349415816
  0
LINE
  5
22D
100
AcDbEntity
  8
RACCORDO
100
AcDbLine
 62
7
  6
CONTINUOUS
 10
-45.6924227679
 20
2.2349415816
 11
-45.6924227679
 21
-2.7650584184
  0
LINE
  5
22E
100
AcDbEntity
  8
RACCORDO
100
AcDbLine
 62
253
  6
CONTINUOUS
 10
-45.3924227679
 20
2.2349415816
 11
-45.3924227679
 21
-2.7650584184
  0
LINE
  5
22F
100
AcDbEntity
  8
RACCORDO
100
AcDbLine
 62
253
  6
CONTINUOUS
 10
-44.3941795649
 20
-2.7650584184
 11
-44.3941795649
 21
2.2349415816
  0
LINE
  5
230
100
AcDbEntity
  8
RACCORDO
100
AcDbLine
 62
7
  6
CONTINUOUS
 10
-44.094190988
 20
-2.7650584184
 11
-44.094190988
 21
2.2349415816
  0
LWPOLYLINE
  5
231
100
AcDbEntity
  8
RACCORDO
100
AcDbPolyline
 62
253
  6
CONTINUOUS
 90
16
 70
0
 10
59.3387750786
 20
-41.0122816686
 10
59.4375585597
 20
-41.0073340773
 10
59.5316881423
 20
-40.9939285043
 10
59.6211638263
 20
-40.9720649498
 10
59.7064510904
 20
-40.941497584
 10
59.7870844559
 20
-40.9024722367
 10
59.8616674874
 20
-40.8557263964
 10
59.9302784152
 20
-40.8009910788
 10
59.992839009
 20
-40.7385352682
 10
60.0477181424
 20
-40.6699034073
 10
60.0946543117
 20
-40.5950639324
 10
60.1339090207
 20
-40.5140484072
 10
60.1646356538
 20
-40.4284959645
 10
60.1865520059
 20
-40.338952982
 10
60.1999402821
 20
-40.2448730821
 10
60.2048004824
 20
-40.1462562649
  0
LINE
  5
232
100
AcDbEntity
  8
ASSI
100
AcDbLine
 62
7
  6
CONTINUOUS
 10
62.4582625822
 20
-45.2650584184
 11
-63.5431081179
 21
-45.2650584184
  0
LINE
  5
233
100
AcDbEntity
  8
RACCORDO
100
AcDbLine
 62
7
  6
CONTINUOUS
 10
62.2255264246
 20
-44.7650584184
 11
-63.3103719603
 21
-44.7650584184
  0
LINE
  5
234
100
AcDbEntity
  8
RACCORDO
100
AcDbLine
 62
7
  6
CONTINUOUS
 10
-40.4906545477
 20
2.2349415816
 11
-40.4906545477
 21
-2.7650584184
  0
LINE
  5
235
100
AcDbEntity
  8
RACCORDO
100
AcDbLine
 62
253
  6
CONTINUOUS
 10
-40.1906659708
 20
2.2349415816
 11
-40.1906659708
 21
-2.7650584184
  0
LINE
  5
236
100
AcDbEntity
  8
RACCORDO
100
AcDbLine
 62
253
  6
CONTINUOUS
 10
-39.1924227679
 20
-2.7650584184
 11
-39.1924227679
 21
2.2349415816
  0
LINE
  5
237
100
AcDbEntity
  8
RACCORDO
100
AcDbLine
 62
7
  6
CONTINUOUS
 10
-38.8924227679
 20
-2.7650584184
 11
-38.8924227679
 21
2.2349415816
  0
LINE
  5
238
100
AcDbEntity
  8
RACCORDO
100
AcDbLine
 62
253
  6
CONTINUOUS
 10
-60.4236206143
 20
-41.8783070724
 11
59.3387750786
 21
-41.8783070724
  0
LINE
  5
239
100
AcDbEntity
  8
RACCORDO
100
AcDbLine
 62
253
  6
CONTINUOUS
 10
-60.4236206143
 20
-41.0122816686
 11
59.3387750786
 21
-41.0122816686
  0
LINE
  5
23A
100
AcDbEntity
  8
RACCORDO
100
AcDbLine
 62
253
  6
CONTINUOUS
 10
60.2048004824
 20
-40.1462562649
 11
61.0708258862
 21
-40.1462562649
  0
LINE
  5
23B
100
AcDbEntity
  8
RACCORDO
100
AcDbLine
 62
253
  6
CONTINUOUS
 10
-61.2896460181
 20
-40.1462562649
 11
-62.1556714218
 21
-40.146256264
  0
LINE
  5
23C
100
AcDbEntity
  8
RACCORDO
100
AcDbLine
 62
7
  6
CONTINUOUS
 10
-33.9424227679
 20
2.2349415816
 11
-33.9424227679
 21
-2.7650584184
  0
LINE
  5
23D
100
AcDbEntity
  8
RACCORDO
100
AcDbLine
 62
253
  6
CONTINUOUS
 10
-33.6424227679
 20
2.2349415816
 11
-33.6424227679
 21
-2.7650584184
  0
LINE
  5
23E
100
AcDbEntity
  8
RACCORDO
100
AcDbLine
 62
253
  6
CONTINUOUS
 10
-32.6441795649
 20
-2.7650584184
 11
-32.6441795649
 21
2.2349415816
  0
LINE
  5
23F
100
AcDbEntity
  8
RACCORDO
100
AcDbLine
 62
7
  6
CONTINUOUS
 10
-32.344190988
 20
-2.7650584184
 11
-32.344190988
 21
2.2349415816
  0
LINE
  5
240
100
AcDbEntity
  8
RACCORDO
100
AcDbLine
 62
7
  6
CONTINUOUS
 10
-20.2424227679
 20
-31.7650584184
 11
19.1575772321
 21
-31.7650584184
  0
LINE
  5
241
100
AcDbEntity
  8
RACCORDO
100
AcDbLine
 62
253
  6
CONTINUOUS
 10
19.4575772321
 20
-31.4650584184
 11
-20.5424227679
 21
-31.4650584184
  0
LINE
  5
242
100
AcDbEntity
  8
RACCORDO
100
AcDbLine
 62
7
  6
CONTINUOUS
 10
-28.7406545477
 20
2.2349415816
 11
-28.7406545477
 21
-2.7650584184
  0
LINE
  5
243
100
AcDbEntity
  8
RACCORDO
100
AcDbLine
 62
253
  6
CONTINUOUS
 10
-28.4406659708
 20
2.2349415816
 11
-28.4406659708
 21
-2.7650584184
  0
LINE
  5
244
100
AcDbEntity
  8
RACCORDO
100
AcDbLine
 62
253
  6
CONTINUOUS
 10
-27.4424227679
 20
-2.7650584184
 11
-27.4424227679
 21
2.2349415816
  0
LINE
  5
245
100
AcDbEntity
  8
RACCORDO
100
AcDbLine
 62
7
  6
CONTINUOUS
 10
-27.1424227679
 20
-2.7650584184
 11
-27.1424227679
 21
2.2349415816
  0
LINE
  5
246
100
AcDbEntity
  8
RACCORDO
100
AcDbLine
 62
253
  6
CONTINUOUS
 10
-24.839816131
 20
-15.2650584184
 11
-24.839816131
 21
14.7349415816
  0
LINE
  5
247
100
AcDbEntity
  8
RACCORDO
100
AcDbLine
 62
253
  6
CONTINUOUS
 10
19.4575772321
 20
-27.0650584184
 11
-20.5424227679
 21
-27.0650584184
  0
LINE
  5
248
100
AcDbEntity
  8
RACCORDO
100
AcDbLine
 62
7
  6
CONTINUOUS
 10
19.1575772321
 20
-26.7650584184
 11
-20.2424227679
 21
-26.7650584184
  0
LINE
  5
249
100
AcDbEntity
  8
RACCORDO
100
AcDbLine
 62
253
  6
CONTINUOUS
 10
13.4575772321
 20
-25.5624517815
 11
-14.5424227679
 21
-25.5624517815
  0
LINE
  5
24A
100
AcDbEntity
  8
RACCORDO
100
AcDbLine
 62
7
  6
CONTINUOUS
 10
13.4575772321
 20
-25.2624632046
 11
-14.5424227679
 21
-25.2624632046
  0
LINE
  5
24B
100
AcDbEntity
  8
RACCORDO
100
AcDbLine
 62
7
  6
CONTINUOUS
 10
-24.5398275541
 20
-15.2650584184
 11
-24.5398275541
 21
14.7349415816
  0
LINE
  5
24C
100
AcDbEntity
  8
0
100
AcDbLine
 62
7
  6
CONTINUOUS
 10
-22.9424227679
 20
17.1349415816
 11
-22.9424227679
 21
10.1349415816
  0
LINE
  5
24D
100
AcDbEntity
  8
0
100
AcDbLine
 62
7
  6
CONTINUOUS
 10
-20.8424227679
 20
-18.2650584184
 11
-20.8424227679
 21
-3.2650584184
  0
LINE
  5
24E
100
AcDbEntity
  8
RACCORDO
100
AcDbLine
 62
7
  6
CONTINUOUS
 10
-20.5424227679
 20
30.9349415816
 11
-20.5424227679
 21
26.5349415816
  0
LINE
  5
24F
100
AcDbEntity
  8
RACCORDO
100
AcDbLine
 62
7
  6
CONTINUOUS
 10
-20.5424227679
 20
-27.0650584184
 11
-20.5424227679
 21
-31.4650584184
  0
LINE
  5
250
100
AcDbEntity
  8
RACCORDO
100
AcDbLine
 62
253
  6
CONTINUOUS
 10
-20.2424227679
 20
-26.7650584184
 11
-20.2424227679
 21
-31.7650584184
  0
LINE
  5
251
100
AcDbEntity
  8
RACCORDO
100
AcDbLine
 62
253
  6
CONTINUOUS
 10
-20.2424227679
 20
26.2349415816
 11
-20.2424227679
 21
31.2349415816
  0
LINE
  5
252
100
AcDbEntity
  8
0
100
AcDbLine
 62
7
  6
CONTINUOUS
 10
-5.3424227679
 20
-21.9650584184
 11
12.0575772321
 21
-21.9650584184
  0
LINE
  5
253
100
AcDbEntity
  8
0
100
AcDbLine
 62
7
  6
CONTINUOUS
 10
19.7575772321
 20
-18.2650584184
 11
-20.8424227679
 21
-18.2650584184
  0
LINE
  5
254
100
AcDbEntity
  8
RACCORDO
100
AcDbLine
 62
253
  6
CONTINUOUS
 10
-14.5424227679
 20
25.0323349448
 11
-14.5424227679
 21
24.7323463679
  0
LINE
  5
255
100
AcDbEntity
  8
RACCORDO
100
AcDbLine
 62
253
  6
CONTINUOUS
 10
-14.5424227679
 20
-25.5624517815
 11
-14.5424227579
 21
-25.2624632046
  0
LINE
  5
256
100
AcDbEntity
  8
RACCORDO
100
AcDbLine
 62
253
  6
CONTINUOUS
 10
-65.0424227679
 20
-43.0330076108
 11
-62.1556714219
 21
-40.1462562649
  0
LINE
  5
257
100
AcDbEntity
  8
RACCORDO
100
AcDbLine
 62
253
  6
CONTINUOUS
 10
-63.3103719603
 20
-44.7650584184
 11
-60.4236206143
 21
-41.8783070724
  0
LINE
  5
258
100
AcDbEntity
  8
RACCORDO
100
AcDbLine
 62
253
  6
CONTINUOUS
 10
-24.839816131
 20
-15.2650584184
 11
-24.5398275541
 21
-15.2650584184
  0
LINE
  5
259
100
AcDbEntity
  8
RACCORDO
100
AcDbLine
 62
253
  6
CONTINUOUS
 10
23.7549705953
 20
-15.2650584184
 11
23.4549820184
 21
-15.2650584084
  0
LINE
  5
25A
100
AcDbEntity
  8
RACCORDO
100
AcDbLine
 62
253
  6
CONTINUOUS
 10
-65.0424227679
 20
42.5028907741
 11
-62.1556714219
 21
39.6161394281
  0
LINE
  5
25B
100
AcDbEntity
  8
RACCORDO
100
AcDbLine
 62
253
  6
CONTINUOUS
 10
-63.3103719603
 20
44.2349415816
 11
-60.4236206143
 21
41.3481902357
  0
LINE
  5
25C
100
AcDbEntity
  8
0
100
AcDbLine
 62
7
  6
CONTINUOUS
 10
-11.2424227679
 20
9.2349415816
 11
-11.2424227679
 21
-0.7650584184
  0
LINE
  5
25D
100
AcDbEntity
  8
0
100
AcDbLine
 62
7
  6
CONTINUOUS
 10
19.7575772321
 20
-11.8650584184
 11
-20.8424227679
 21
-11.8650584184
  0
LINE
  5
25E
100
AcDbEntity
  8
RACCORDO
100
AcDbLine
 62
7
  6
CONTINUOUS
 10
-50.2424227679
 20
-7.7650584184
 11
-47.8424227679
 21
-7.7650584184
  0
LINE
  5
25F
100
AcDbEntity
  8
RACCORDO
100
AcDbLine
 62
7
  6
CONTINUOUS
 10
46.7575772321
 20
-7.7650584184
 11
49.1575772321
 21
-7.7650584184
  0
LINE
  5
260
100
AcDbEntity
  8
RACCORDO
100
AcDbLine
 62
253
  6
CONTINUOUS
 10
46.4575772321
 20
-7.4650584184
 11
49.4575772321
 21
-7.4650584184
  0
LINE
  5
261
100
AcDbEntity
  8
RACCORDO
100
AcDbLine
 62
253
  6
CONTINUOUS
 10
-47.5424227679
 20
-7.4650584184
 11
-50.5424227679
 21
-7.4650584184
  0
LINE
  5
262
100
AcDbEntity
  8
0
100
AcDbLine
 62
7
  6
CONTINUOUS
 10
-5.3424227679
 20
-18.2650584184
 11
-5.3424227679
 21
-21.9650584184
  0
LINE
  5
263
100
AcDbEntity
  8
0
100
AcDbLine
 62
7
  6
CONTINUOUS
 10
-4.8424227679
 20
9.2349415816
 11
-4.8424227679
 21
-0.7650584184
  0
LINE
  5
264
100
AcDbEntity
  8
RACCORDO
100
AcDbLine
 62
253
  6
CONTINUOUS
 10
53.3190292623
 20
33.7442636155
 11
53.5726938779
 21
33.904433097
  0
LINE
  5
265
100
AcDbEntity
  8
RACCORDO
100
AcDbLine
 62
253
  6
CONTINUOUS
 10
-48.4850339156
 20
-30.5370923167
 11
-48.7386985247
 21
-30.6972618084
  0
LINE
  5
266
100
AcDbEntity
  8
RACCORDO
100
AcDbLine
 62
253
  6
CONTINUOUS
 10
51.2897123883
 20
32.4629076833
 11
51.0360477791
 21
32.3027381918
  0
LINE
  5
267
100
AcDbEntity
  8
RACCORDO
100
AcDbLine
 62
253
  6
CONTINUOUS
 10
45.3708715059
 20
28.7256195477
 11
45.1172068966
 21
28.5654500562
  0
LINE
  5
268
100
AcDbEntity
  8
RACCORDO
100
AcDbLine
 62
253
  6
CONTINUOUS
 10
-52.374557924
 20
-32.9930245201
 11
-52.1208933148
 21
-32.8328550285
  0
LINE
  5
269
100
AcDbEntity
  8
RACCORDO
100
AcDbLine
 62
253
  6
CONTINUOUS
 10
-46.4557170416
 20
-29.2557363845
 11
-46.2020524323
 21
-29.0955668929
  0
LINE
  5
26A
100
AcDbEntity
  8
RACCORDO
100
AcDbLine
 62
253
  6
CONTINUOUS
 10
47.4001883799
 20
30.00697548
 11
47.653852989
 21
30.1671449716
  0
LINE
  5
26B
100
AcDbEntity
  8
RACCORDO
100
AcDbLine
 62
253
  6
CONTINUOUS
 10
-54.403874798
 20
-34.2743804523
 11
-54.6575394136
 21
-34.4345499337
  0
LINE
  5
26C
100
AcDbEntity
  8
RACCORDO
100
AcDbLine
 62
253
  6
CONTINUOUS
 10
46.8550348593
 20
26.2296771056
 11
46.5931704467
 21
26.0832973617
  0
LINE
  5
26D
100
AcDbEntity
  8
RACCORDO
100
AcDbLine
 62
253
  6
CONTINUOUS
 10
-54.0500498865
 20
-30.1753215421
 11
-53.7881854798
 21
-30.0289417877
  0
LINE
  5
26E
100
AcDbEntity
  8
RACCORDO
100
AcDbLine
 62
253
  6
CONTINUOUS
 10
-50.0347956492
 20
-27.9308319766
 11
-50.296660056
 21
-28.0772117308
  0
LINE
  5
26F
100
AcDbEntity
  8
RACCORDO
100
AcDbLine
 62
253
  6
CONTINUOUS
 10
-56.1449651407
 20
-31.3463595763
 11
-56.4068295475
 21
-31.4927393306
  0
LINE
  5
270
100
AcDbEntity
  8
RACCORDO
100
AcDbLine
 62
253
  6
CONTINUOUS
 10
48.9499501135
 20
27.4007151398
 11
49.2118145203
 21
27.5470948941
  0
LINE
  5
271
100
AcDbEntity
  8
RACCORDO
100
AcDbLine
 62
253
  6
CONTINUOUS
 10
55.060119605
 20
30.8162427396
 11
55.3219840118
 21
30.9626224939
  0
LINE
  5
272
100
AcDbEntity
  8
RACCORDO
100
AcDbLine
 62
253
  6
CONTINUOUS
 10
52.9652043508
 20
29.6452047054
 11
52.7033399441
 21
29.4988249509
  0
LINE
  5
273
100
AcDbEntity
  8
RACCORDO
100
AcDbLine
 62
253
  6
CONTINUOUS
 10
-47.939880395
 20
-26.7597939423
 11
-47.6780159824
 21
-26.6134141985
  0
LINE
  5
274
100
AcDbEntity
  8
0
100
AcDbLine
 62
7
  6
CONTINUOUS
 10
19.7575772321
 20
-3.2650584184
 11
-20.8424227679
 21
-3.2650584184
  0
LINE
  5
275
100
AcDbEntity
  8
RACCORDO
100
AcDbLine
 62
253
  6
CONTINUOUS
 10
43.3093340292
 20
-2.7650584184
 11
43.0093454523
 21
-2.7650584251
  0
LINE
  5
276
100
AcDbEntity
  8
RACCORDO
100
AcDbLine
 62
253
  6
CONTINUOUS
 10
31.5593340292
 20
-2.7650584184
 11
31.2593454523
 21
-2.7650584251
  0
LINE
  5
277
100
AcDbEntity
  8
RACCORDO
100
AcDbLine
 62
253
  6
CONTINUOUS
 10
-45.3924227679
 20
-2.7650584184
 11
-45.6924227679
 21
-2.7650584179
  0
LINE
  5
278
100
AcDbEntity
  8
RACCORDO
100
AcDbLine
 62
253
  6
CONTINUOUS
 10
-44.3941795649
 20
-2.7650584184
 11
-44.094190988
 21
-2.7650584184
  0
LINE
  5
279
100
AcDbEntity
  8
RACCORDO
100
AcDbLine
 62
253
  6
CONTINUOUS
 10
-39.1924227679
 20
-2.7650584184
 11
-38.8924227679
 21
-2.7650584184
  0
LINE
  5
27A
100
AcDbEntity
  8
RACCORDO
100
AcDbLine
 62
253
  6
CONTINUOUS
 10
38.1075772321
 20
-2.7650584184
 11
37.8075772321
 21
-2.7650584179
  0
LINE
  5
27B
100
AcDbEntity
  8
RACCORDO
100
AcDbLine
 62
253
  6
CONTINUOUS
 10
-32.6441795649
 20
-2.7650584184
 11
-32.344190988
 21
-2.7650584184
  0
LINE
  5
27C
100
AcDbEntity
  8
RACCORDO
100
AcDbLine
 62
253
  6
CONTINUOUS
 10
-27.4424227679
 20
-2.7650584184
 11
-27.1424227679
 21
-2.7650584184
  0
LINE
  5
27D
100
AcDbEntity
  8
RACCORDO
100
AcDbLine
 62
253
  6
CONTINUOUS
 10
26.3575772321
 20
-2.7650584184
 11
26.0575772321
 21
-2.7650584179
  0
LINE
  5
27E
100
AcDbEntity
  8
RACCORDO
100
AcDbLine
 62
253
  6
CONTINUOUS
 10
27.3558204351
 20
-2.7650584184
 11
27.655809012
 21
-2.7650584184
  0
LINE
  5
27F
100
AcDbEntity
  8
RACCORDO
100
AcDbLine
 62
253
  6
CONTINUOUS
 10
32.5575772321
 20
-2.7650584184
 11
32.8575772321
 21
-2.7650584184
  0
LINE
  5
280
100
AcDbEntity
  8
RACCORDO
100
AcDbLine
 62
253
  6
CONTINUOUS
 10
-33.6424227679
 20
-2.7650584184
 11
-33.9424227679
 21
-2.7650584179
  0
LINE
  5
281
100
AcDbEntity
  8
RACCORDO
100
AcDbLine
 62
253
  6
CONTINUOUS
 10
39.1058204351
 20
-2.7650584184
 11
39.405809012
 21
-2.7650584184
  0
LINE
  5
282
100
AcDbEntity
  8
RACCORDO
100
AcDbLine
 62
253
  6
CONTINUOUS
 10
44.3075772321
 20
-2.7650584184
 11
44.6075772321
 21
-2.7650584184
  0
LINE
  5
283
100
AcDbEntity
  8
RACCORDO
100
AcDbLine
 62
253
  6
CONTINUOUS
 10
-28.4406659708
 20
-2.7650584184
 11
-28.7406545477
 21
-2.7650584251
  0
LINE
  5
284
100
AcDbEntity
  8
RACCORDO
100
AcDbLine
 62
253
  6
CONTINUOUS
 10
-40.1906659708
 20
-2.7650584184
 11
-40.4906545477
 21
-2.7650584251
  0
LINE
  5
285
100
AcDbEntity
  8
0
100
AcDbLine
 62
7
  6
CONTINUOUS
 10
3.7575772321
 20
-0.7650584184
 11
-11.2424227679
 21
-0.7650584184
  0
LINE
  5
286
100
AcDbEntity
  8
RACCORDO
100
AcDbLine
 62
253
  6
CONTINUOUS
 10
-56.1449651407
 20
30.8162427396
 11
-56.4068295417
 21
30.9626225043
  0
LINE
  5
287
100
AcDbEntity
  8
RACCORDO
100
AcDbLine
 62
253
  6
CONTINUOUS
 10
48.9499501135
 20
-27.9308319766
 11
49.2118145204
 21
-28.0772117307
  0
LINE
  5
288
100
AcDbEntity
  8
RACCORDO
100
AcDbLine
 62
253
  6
CONTINUOUS
 10
-54.0500498865
 20
29.6452047054
 11
-53.7881854797
 21
29.4988249511
  0
LINE
  5
289
100
AcDbEntity
  8
RACCORDO
100
AcDbLine
 62
253
  6
CONTINUOUS
 10
-47.939880395
 20
26.2296771056
 11
-47.6780159882
 21
26.0832973513
  0
LINE
  5
28A
100
AcDbEntity
  8
RACCORDO
100
AcDbLine
 62
253
  6
CONTINUOUS
 10
52.9652043508
 20
-30.1753215421
 11
52.703339944
 21
-30.0289417878
  0
LINE
  5
28B
100
AcDbEntity
  8
RACCORDO
100
AcDbLine
 62
253
  6
CONTINUOUS
 10
46.8550348593
 20
-26.7597939423
 11
46.5931704525
 21
-26.6134141881
  0
LINE
  5
28C
100
AcDbEntity
  8
RACCORDO
100
AcDbLine
 62
253
  6
CONTINUOUS
 10
-50.0347956493
 20
27.4007151398
 11
-50.2966600561
 21
27.5470948939
  0
LINE
  5
28D
100
AcDbEntity
  8
RACCORDO
100
AcDbLine
 62
253
  6
CONTINUOUS
 10
55.060119605
 20
-31.3463595763
 11
55.321984006
 21
-31.492739341
  0
LINE
  5
28E
100
AcDbEntity
  8
RACCORDO
100
AcDbLine
 62
253
  6
CONTINUOUS
 10
-46.4557170416
 20
28.7256195477
 11
-46.2020524387
 21
28.5654500461
  0
LINE
  5
28F
100
AcDbEntity
  8
RACCORDO
100
AcDbLine
 62
253
  6
CONTINUOUS
 10
51.2897123883
 20
-32.9930245201
 11
51.0360477789
 21
-32.8328550287
  0
LINE
  5
290
100
AcDbEntity
  8
RACCORDO
100
AcDbLine
 62
253
  6
CONTINUOUS
 10
47.4001883798
 20
-30.5370923167
 11
47.6538529891
 21
-30.6972618082
  0
LINE
  5
291
100
AcDbEntity
  8
RACCORDO
100
AcDbLine
 62
253
  6
CONTINUOUS
 10
53.3190292623
 20
-34.2743804523
 11
53.5726938715
 21
-34.4345499438
  0
LINE
  5
292
100
AcDbEntity
  8
RACCORDO
100
AcDbLine
 62
253
  6
CONTINUOUS
 10
-48.4850339156
 20
30.0069754799
 11
-48.7386985248
 21
30.1671449715
  0
LINE
  5
293
100
AcDbEntity
  8
RACCORDO
100
AcDbLine
 62
253
  6
CONTINUOUS
 10
-54.403874798
 20
33.7442636155
 11
-54.6575394072
 21
33.9044331071
  0
LINE
  5
294
100
AcDbEntity
  8
RACCORDO
100
AcDbLine
 62
253
  6
CONTINUOUS
 10
-52.374557924
 20
32.4629076833
 11
-52.1208933147
 21
32.302738192
  0
LINE
  5
295
100
AcDbEntity
  8
RACCORDO
100
AcDbLine
 62
253
  6
CONTINUOUS
 10
45.3708715059
 20
-29.2557363845
 11
45.117206903
 21
-29.0955668829
  0
LINE
  5
296
100
AcDbEntity
  8
0
100
AcDbLine
 62
7
  6
CONTINUOUS
 10
3.7575772321
 20
9.2349415816
 11
3.7575772321
 21
-0.7650584184
  0
LINE
  5
297
100
AcDbEntity
  8
RACCORDO
100
AcDbLine
 62
253
  6
CONTINUOUS
 10
39.1058204351
 20
2.2349415816
 11
39.405809012
 21
2.2349415884
  0
LINE
  5
298
100
AcDbEntity
  8
RACCORDO
100
AcDbLine
 62
253
  6
CONTINUOUS
 10
27.3558204351
 20
2.2349415816
 11
27.655809012
 21
2.2349415884
  0
LINE
  5
299
100
AcDbEntity
  8
RACCORDO
100
AcDbLine
 62
253
  6
CONTINUOUS
 10
43.3093340292
 20
2.2349415816
 11
43.0093454523
 21
2.2349415816
  0
LINE
  5
29A
100
AcDbEntity
  8
RACCORDO
100
AcDbLine
 62
253
  6
CONTINUOUS
 10
-39.1924227679
 20
2.2349415816
 11
-38.8924227679
 21
2.2349415812
  0
LINE
  5
29B
100
AcDbEntity
  8
RACCORDO
100
AcDbLine
 62
253
  6
CONTINUOUS
 10
38.1075772321
 20
2.2349415816
 11
37.8075772321
 21
2.2349415816
  0
LINE
  5
29C
100
AcDbEntity
  8
RACCORDO
100
AcDbLine
 62
253
  6
CONTINUOUS
 10
31.5593340292
 20
2.2349415816
 11
31.2593454523
 21
2.2349415816
  0
LINE
  5
29D
100
AcDbEntity
  8
RACCORDO
100
AcDbLine
 62
253
  6
CONTINUOUS
 10
-27.4424227679
 20
2.2349415816
 11
-27.1424227679
 21
2.2349415812
  0
LINE
  5
29E
100
AcDbEntity
  8
RACCORDO
100
AcDbLine
 62
253
  6
CONTINUOUS
 10
26.3575772321
 20
2.2349415816
 11
26.0575772321
 21
2.2349415816
  0
LINE
  5
29F
100
AcDbEntity
  8
RACCORDO
100
AcDbLine
 62
253
  6
CONTINUOUS
 10
-28.4406659708
 20
2.2349415816
 11
-28.7406545477
 21
2.2349415816
  0
LINE
  5
2A0
100
AcDbEntity
  8
RACCORDO
100
AcDbLine
 62
253
  6
CONTINUOUS
 10
32.5575772321
 20
2.2349415816
 11
32.8575772321
 21
2.2349415812
  0
LINE
  5
2A1
100
AcDbEntity
  8
RACCORDO
100
AcDbLine
 62
253
  6
CONTINUOUS
 10
-33.6424227679
 20
2.2349415816
 11
-33.9424227679
 21
2.2349415816
  0
LINE
  5
2A2
100
AcDbEntity
  8
RACCORDO
100
AcDbLine
 62
253
  6
CONTINUOUS
 10
-40.1906659708
 20
2.2349415816
 11
-40.4906545477
 21
2.2349415816
  0
LINE
  5
2A3
100
AcDbEntity
  8
RACCORDO
100
AcDbLine
 62
253
  6
CONTINUOUS
 10
-45.3924227679
 20
2.2349415816
 11
-45.6924227679
 21
2.2349415816
  0
LINE
  5
2A4
100
AcDbEntity
  8
RACCORDO
100
AcDbLine
 62
253
  6
CONTINUOUS
 10
44.3075772321
 20
2.2349415816
 11
44.6075772321
 21
2.2349415812
  0
LINE
  5
2A5
100
AcDbEntity
  8
RACCORDO
100
AcDbLine
 62
253
  6
CONTINUOUS
 10
-32.6441795649
 20
2.2349415816
 11
-32.344190988
 21
2.2349415884
  0
LINE
  5
2A6
100
AcDbEntity
  8
RACCORDO
100
AcDbLine
 62
253
  6
CONTINUOUS
 10
-44.3941795649
 20
2.2349415816
 11
-44.094190988
 21
2.2349415884
  0
LINE
  5
2A7
100
AcDbEntity
  8
0
100
AcDbLine
 62
7
  6
CONTINUOUS
 10
12.0575772321
 20
-21.9650584184
 11
12.0575772321
 21
-18.2650584184
  0
LINE
  5
2A8
100
AcDbEntity
  8
RACCORDO
100
AcDbLine
 62
253
  6
CONTINUOUS
 10
62.2255264246
 20
44.2349415816
 11
59.3387750786
 21
41.3481902357
  0
LINE
  5
2A9
100
AcDbEntity
  8
RACCORDO
100
AcDbLine
 62
253
  6
CONTINUOUS
 10
46.4575772321
 20
6.9349415816
 11
49.4575772321
 21
6.9349415816
  0
LINE
  5
2AA
100
AcDbEntity
  8
RACCORDO
100
AcDbLine
 62
253
  6
CONTINUOUS
 10
-47.5424227679
 20
6.9349415816
 11
-50.5424227679
 21
6.9349415816
  0
LINE
  5
2AB
100
AcDbEntity
  8
RACCORDO
100
AcDbLine
 62
7
  6
CONTINUOUS
 10
49.1575772321
 20
7.2349415816
 11
46.7575772321
 21
7.2349415816
  0
LINE
  5
2AC
100
AcDbEntity
  8
RACCORDO
100
AcDbLine
 62
7
  6
CONTINUOUS
 10
-47.8424227679
 20
7.2349415816
 11
-50.2424227679
 21
7.2349415816
  0
LINE
  5
2AD
100
AcDbEntity
  8
0
100
AcDbLine
 62
7
  6
CONTINUOUS
 10
-11.2424227679
 20
9.2349415816
 11
3.7575772321
 21
9.2349415816
  0
LINE
  5
2AE
100
AcDbEntity
  8
0
100
AcDbLine
 62
7
  6
CONTINUOUS
 10
-22.9424227679
 20
10.1349415816
 11
21.8575772321
 21
10.1349415816
  0
LINE
  5
2AF
100
AcDbEntity
  8
RACCORDO
100
AcDbLine
 62
253
  6
CONTINUOUS
 10
62.2255264246
 20
-44.7650584184
 11
59.3387750786
 21
-41.8783070724
  0
LINE
  5
2B0
100
AcDbEntity
  8
RACCORDO
100
AcDbLine
 62
253
  6
CONTINUOUS
 10
13.4575772321
 20
25.0323349448
 11
13.4575772222
 21
24.7323463679
  0
LINE
  5
2B1
100
AcDbEntity
  8
RACCORDO
100
AcDbLine
 62
253
  6
CONTINUOUS
 10
13.4575772321
 20
-25.5624517815
 11
13.4575772321
 21
-25.2624632046
  0
LINE
  5
2B2
100
AcDbEntity
  8
RACCORDO
100
AcDbLine
 62
253
  6
CONTINUOUS
 10
63.9575772321
 20
42.5028907741
 11
61.0708258862
 21
39.6161394281
  0
LINE
  5
2B3
100
AcDbEntity
  8
RACCORDO
100
AcDbLine
 62
253
  6
CONTINUOUS
 10
-24.839816131
 20
14.7349415816
 11
-24.5398275541
 21
14.7349415717
  0
LINE
  5
2B4
100
AcDbEntity
  8
RACCORDO
100
AcDbLine
 62
253
  6
CONTINUOUS
 10
23.7549705953
 20
14.7349415816
 11
23.4549820184
 21
14.7349415816
  0
LINE
  5
2B5
100
AcDbEntity
  8
0
100
AcDbLine
 62
7
  6
CONTINUOUS
 10
21.8575772321
 20
17.1349415816
 11
-22.9424227679
 21
17.1349415816
  0
LINE
  5
2B6
100
AcDbEntity
  8
RACCORDO
100
AcDbLine
 62
253
  6
CONTINUOUS
 10
63.9575772321
 20
-43.0330076108
 11
61.0708258862
 21
-40.1462562649
  0
LINE
  5
2B7
100
AcDbEntity
  8
RACCORDO
100
AcDbLine
 62
253
  6
CONTINUOUS
 10
19.1575772321
 20
-26.7650584184
 11
19.1575772321
 21
-31.7650584184
  0
LINE
  5
2B8
100
AcDbEntity
  8
RACCORDO
100
AcDbLine
 62
253
  6
CONTINUOUS
 10
19.1575772321
 20
26.2349415816
 11
19.1575772321
 21
31.2349415816
  0
LINE
  5
2B9
100
AcDbEntity
  8
RACCORDO
100
AcDbLine
 62
7
  6
CONTINUOUS
 10
19.4575772321
 20
-31.4650584184
 11
19.4575772321
 21
-27.0650584184
  0
LINE
  5
2BA
100
AcDbEntity
  8
RACCORDO
100
AcDbLine
 62
7
  6
CONTINUOUS
 10
19.4575772321
 20
26.5349415816
 11
19.4575772321
 21
30.9349415816
  0
LINE
  5
2BB
100
AcDbEntity
  8
0
100
AcDbLine
 62
7
  6
CONTINUOUS
 10
19.7575772321
 20
-18.2650584184
 11
19.7575772321
 21
-3.2650584184
  0
LINE
  5
2BC
100
AcDbEntity
  8
0
100
AcDbLine
 62
7
  6
CONTINUOUS
 10
21.8575772321
 20
10.1349415816
 11
21.8575772321
 21
17.1349415816
  0
LINE
  5
2BD
100
AcDbEntity
  8
RACCORDO
100
AcDbLine
 62
7
  6
CONTINUOUS
 10
23.4549820184
 20
14.7349415816
 11
23.4549820184
 21
-15.2650584184
  0
LINE
  5
2BE
100
AcDbEntity
  8
RACCORDO
100
AcDbLine
 62
253
  6
CONTINUOUS
 10
23.7549705953
 20
14.7349415816
 11
23.7549705953
 21
-15.2650584184
  0
LINE
  5
2BF
100
AcDbEntity
  8
RACCORDO
100
AcDbLine
 62
7
  6
CONTINUOUS
 10
-14.5424227679
 20
24.7323463679
 11
13.4575772321
 21
24.7323463679
  0
LINE
  5
2C0
100
AcDbEntity
  8
RACCORDO
100
AcDbLine
 62
253
  6
CONTINUOUS
 10
-14.5424227679
 20
25.0323349448
 11
13.4575772321
 21
25.0323349448
  0
LINE
  5
2C1
100
AcDbEntity
  8
RACCORDO
100
AcDbLine
 62
7
  6
CONTINUOUS
 10
26.0575772321
 20
2.2349415816
 11
26.0575772321
 21
-2.7650584184
  0
LINE
  5
2C2
100
AcDbEntity
  8
RACCORDO
100
AcDbLine
 62
253
  6
CONTINUOUS
 10
26.3575772321
 20
2.2349415816
 11
26.3575772321
 21
-2.7650584184
  0
LINE
  5
2C3
100
AcDbEntity
  8
RACCORDO
100
AcDbLine
 62
253
  6
CONTINUOUS
 10
27.3558204351
 20
-2.7650584184
 11
27.3558204351
 21
2.2349415816
  0
LINE
  5
2C4
100
AcDbEntity
  8
RACCORDO
100
AcDbLine
 62
7
  6
CONTINUOUS
 10
27.655809012
 20
-2.7650584184
 11
27.655809012
 21
2.2349415816
  0
LINE
  5
2C5
100
AcDbEntity
  8
RACCORDO
100
AcDbLine
 62
7
  6
CONTINUOUS
 10
31.2593454523
 20
2.2349415816
 11
31.2593454523
 21
-2.7650584184
  0
LINE
  5
2C6
100
AcDbEntity
  8
RACCORDO
100
AcDbLine
 62
253
  6
CONTINUOUS
 10
31.5593340292
 20
2.2349415816
 11
31.5593340292
 21
-2.7650584184
  0
LINE
  5
2C7
100
AcDbEntity
  8
RACCORDO
100
AcDbLine
 62
7
  6
CONTINUOUS
 10
-20.2424227679
 20
26.2349415816
 11
19.1575772321
 21
26.2349415816
  0
LINE
  5
2C8
100
AcDbEntity
  8
RACCORDO
100
AcDbLine
 62
253
  6
CONTINUOUS
 10
19.4575772321
 20
26.5349415816
 11
-20.5424227679
 21
26.5349415816
  0
LINE
  5
2C9
100
AcDbEntity
  8
RACCORDO
100
AcDbLine
 62
253
  6
CONTINUOUS
 10
19.4575772321
 20
30.9349415816
 11
-20.5424227679
 21
30.9349415816
  0
LINE
  5
2CA
100
AcDbEntity
  8
RACCORDO
100
AcDbLine
 62
7
  6
CONTINUOUS
 10
19.1575772321
 20
31.2349415816
 11
-20.2424227679
 21
31.2349415816
  0
LINE
  5
2CB
100
AcDbEntity
  8
RACCORDO
100
AcDbLine
 62
253
  6
CONTINUOUS
 10
32.5575772321
 20
-2.7650584184
 11
32.5575772321
 21
2.2349415816
  0
LINE
  5
2CC
100
AcDbEntity
  8
RACCORDO
100
AcDbLine
 62
7
  6
CONTINUOUS
 10
32.8575772321
 20
-2.7650584184
 11
32.8575772321
 21
2.2349415816
  0
LINE
  5
2CD
100
AcDbEntity
  8
RACCORDO
100
AcDbLine
 62
7
  6
CONTINUOUS
 10
37.8075772321
 20
2.2349415816
 11
37.8075772321
 21
-2.7650584184
  0
LINE
  5
2CE
100
AcDbEntity
  8
RACCORDO
100
AcDbLine
 62
253
  6
CONTINUOUS
 10
38.1075772321
 20
2.2349415816
 11
38.1075772321
 21
-2.7650584184
  0
LINE
  5
2CF
100
AcDbEntity
  8
RACCORDO
100
AcDbLine
 62
253
  6
CONTINUOUS
 10
39.1058204351
 20
-2.7650584184
 11
39.1058204351
 21
2.2349415816
  0
LINE
  5
2D0
100
AcDbEntity
  8
RACCORDO
100
AcDbLine
 62
7
  6
CONTINUOUS
 10
39.405809012
 20
-2.7650584184
 11
39.405809012
 21
2.2349415816
  0
LINE
  5
2D1
100
AcDbEntity
  8
RACCORDO
100
AcDbLine
 62
7
  6
CONTINUOUS
 10
43.0093454523
 20
2.2349415816
 11
43.0093454523
 21
-2.7650584184
  0
LINE
  5
2D2
100
AcDbEntity
  8
RACCORDO
100
AcDbLine
 62
253
  6
CONTINUOUS
 10
43.3093340292
 20
2.2349415816
 11
43.3093340292
 21
-2.7650584184
  0
LWPOLYLINE
  5
2D3
100
AcDbEntity
  8
RACCORDO
100
AcDbPolyline
 62
253
  6
CONTINUOUS
 90
16
 70
0
 10
-60.4236206143
 20
40.4821648319
 10
-60.5224040954
 20
40.4772172406
 10
-60.616533678
 20
40.4638116676
 10
-60.706009362
 20
40.4419481131
 10
-60.7912966261
 20
40.4113807473
 10
-60.8719299916
 20
40.3723553999
 10
-60.9465130231
 20
40.3256095597
 10
-61.0151239509
 20
40.270874242
 10
-61.0776845447
 20
40.2084184315
 10
-61.1325636781
 20
40.1397865706
 10
-61.1794998474
 20
40.0649470957
 10
-61.2187545564
 20
39.9839315704
 10
-61.2494811895
 20
39.8983791277
 10
-61.2713975416
 20
39.8088361453
 10
-61.2847858178
 20
39.7147562454
 10
-61.2896460181
 20
39.6161394281
  0
LINE
  5
2D4
100
AcDbEntity
  8
RACCORDO
100
AcDbLine
 62
253
  6
CONTINUOUS
 10
60.2048004824
 20
39.6161394281
 11
61.0708258861
 21
39.6161394273
  0
LINE
  5
2D5
100
AcDbEntity
  8
RACCORDO
100
AcDbLine
 62
253
  6
CONTINUOUS
 10
-61.2896460181
 20
39.6161394281
 11
-62.1556714219
 21
39.6161394281
  0
LINE
  5
2D6
100
AcDbEntity
  8
RACCORDO
100
AcDbLine
 62
253
  6
CONTINUOUS
 10
59.3387750786
 20
40.4821648319
 11
-60.4236206143
 21
40.4821648319
  0
LINE
  5
2D7
100
AcDbEntity
  8
RACCORDO
100
AcDbLine
 62
253
  6
CONTINUOUS
 10
59.3387750786
 20
41.3481902357
 11
-60.4236206143
 21
41.3481902357
  0
LINE
  5
2D8
100
AcDbEntity
  8
RACCORDO
100
AcDbLine
 62
7
  6
CONTINUOUS
 10
-63.3103719603
 20
44.2349415816
 11
62.2255264246
 21
44.2349415816
  0
LINE
  5
2D9
100
AcDbEntity
  8
RACCORDO
100
AcDbLine
 62
253
  6
CONTINUOUS
 10
44.3075772321
 20
-2.7650584184
 11
44.3075772321
 21
2.2349415816
  0
LINE
  5
2DA
100
AcDbEntity
  8
RACCORDO
100
AcDbLine
 62
7
  6
CONTINUOUS
 10
44.6075772321
 20
-2.7650584184
 11
44.6075772321
 21
2.2349415816
  0
LINE
  5
2DB
100
AcDbEntity
  8
RACCORDO
100
AcDbLine
 62
7
  6
CONTINUOUS
 10
46.4575772321
 20
6.9349415816
 11
46.4575772321
 21
-7.4650584184
  0
LINE
  5
2DC
100
AcDbEntity
  8
RACCORDO
100
AcDbLine
 62
253
  6
CONTINUOUS
 10
46.7575772321
 20
-7.7650584184
 11
46.7575772321
 21
7.2349415816
  0
LINE
  5
2DD
100
AcDbEntity
  8
RACCORDO
100
AcDbLine
 62
253
  6
CONTINUOUS
 10
49.1575772321
 20
-7.7650584184
 11
49.1575772321
 21
7.2349415816
  0
LINE
  5
2DE
100
AcDbEntity
  8
RACCORDO
100
AcDbLine
 62
7
  6
CONTINUOUS
 10
49.4575772321
 20
-7.4650584184
 11
49.4575772321
 21
6.9349415816
  0
LWPOLYLINE
  5
2DF
100
AcDbEntity
  8
RACCORDO
100
AcDbPolyline
 62
253
  6
CONTINUOUS
 90
16
 70
0
 10
-60.4236206143
 20
41.3481902357
 10
-60.6012345749
 20
41.3204965464
 10
-60.7742192598
 20
41.2771456376
 10
-60.9413738512
 20
41.2187822601
 10
-61.1012443604
 20
41.146358438
 10
-61.2530719561
 20
41.0605025164
 10
-61.396681767
 20
40.9612666426
 10
-61.5313757016
 20
40.8489923712
 10
-61.6556595136
 20
40.7248369164
 10
-61.7681875986
 20
40.5900531854
 10
-61.8678394228
 20
40.4459140897
 10
-61.9541231563
 20
40.29328391
 10
-62.0267146306
 20
40.1328926691
 10
-62.0849922069
 20
39.9657253572
 10
-62.1281652725
 20
39.7930727644
 10
-62.1556714219
 20
39.6161394281
  0
LINE
  5
2E0
100
AcDbEntity
  8
ASSI
100
AcDbLine
 62
7
  6
CONTINUOUS
 10
-63.5431081179
 20
44.7349415816
 11
62.4582625822
 21
44.7349415816
  0
LINE
  5
2E1
100
AcDbEntity
  8
RACCORDO
100
AcDbLine
 62
7
  6
CONTINUOUS
 10
47.6538529891
 20
-30.6972618082
 11
49.2118145204
 21
-28.0772117307
  0
LINE
  5
2E2
100
AcDbEntity
  8
RACCORDO
100
AcDbLine
 62
7
  6
CONTINUOUS
 10
49.2118145203
 20
27.5470948941
 11
47.653852989
 21
30.1671449716
  0
LWPOLYLINE
  5
2E3
100
AcDbEntity
  8
RACCORDO
100
AcDbPolyline
 62
253
  6
CONTINUOUS
 90
16
 70
0
 10
60.2048004824
 20
39.6161394281
 10
60.1998528911
 20
39.7149229092
 10
60.1864473181
 20
39.8090524918
 10
60.1645837636
 20
39.8985281758
 10
60.1340163978
 20
39.9838154399
 10
60.0949910504
 20
40.0644488054
 10
60.0482452102
 20
40.1390318369
 10
59.9935098925
 20
40.2076427647
 10
59.931054082
 20
40.2702033585
 10
59.8624222211
 20
40.3250824918
 10
59.7875827462
 20
40.3720186612
 10
59.7065672209
 20
40.4112733702
 10
59.6210147782
 20
40.4420000033
 10
59.5314717958
 20
40.4639163554
 10
59.4373918959
 20
40.4773046316
 10
59.3387750786
 20
40.4821648319
  0
LINE
  5
2E4
100
AcDbEntity
  8
RACCORDO
100
AcDbLine
 62
253
  6
CONTINUOUS
 10
59.3387750786
 20
-41.0122816686
 11
59.3387750778
 21
-41.8783070723
  0
LINE
  5
2E5
100
AcDbEntity
  8
RACCORDO
100
AcDbLine
 62
253
  6
CONTINUOUS
 10
59.3387750786
 20
40.4821648319
 11
59.3387750786
 21
41.3481902357
  0
LINE
  5
2E6
100
AcDbEntity
  8
RACCORDO
100
AcDbLine
 62
253
  6
CONTINUOUS
 10
60.2048004824
 20
-40.1462562649
 11
60.2048004824
 21
39.6161394281
  0
LINE
  5
2E7
100
AcDbEntity
  8
RACCORDO
100
AcDbLine
 62
253
  6
CONTINUOUS
 10
61.0708258862
 20
-40.1462562649
 11
61.0708258862
 21
39.6161394281
  0
LINE
  5
2E8
100
AcDbEntity
  8
RACCORDO
100
AcDbLine
 62
7
  6
CONTINUOUS
 10
63.9575772321
 20
42.5028907741
 11
63.9575772321
 21
-43.0330076108
  0
LINE
  5
2E9
100
AcDbEntity
  8
ASSI
100
AcDbLine
 62
7
  6
CONTINUOUS
 10
64.4575772321
 20
42.7356269317
 11
64.4575772321
 21
-43.2657437684
  0
LINE
  5
2EA
100
AcDbEntity
  8
RACCORDO
100
AcDbLine
 62
7
  6
CONTINUOUS
 10
53.5726938715
 20
-34.4345499438
 11
55.321984006
 21
-31.492739341
  0
LINE
  5
2EB
100
AcDbEntity
  8
RACCORDO
100
AcDbLine
 62
7
  6
CONTINUOUS
 10
55.3219840118
 20
30.9626224939
 11
53.5726938779
 21
33.904433097
  0
LWPOLYLINE
  5
2EC
100
AcDbEntity
  8
RACCORDO
100
AcDbPolyline
 62
253
  6
CONTINUOUS
 90
16
 70
0
 10
61.0708258862
 20
39.6161394281
 10
61.043132197
 20
39.7937533887
 10
60.9997812881
 20
39.9667380736
 10
60.9414179106
 20
40.133892665
 10
60.8689940885
 20
40.2937631742
 10
60.7831381669
 20
40.4455907699
 10
60.6839022931
 20
40.5892005808
 10
60.5716280217
 20
40.7238945153
 10
60.4474725669
 20
40.8481783274
 10
60.3126888359
 20
40.9607064124
 10
60.1685497402
 20
41.0603582366
 10
60.0159195605
 20
41.14664197
 10
59.8555283196
 20
41.2192334443
 10
59.6883610077
 20
41.2775110206
 10
59.5157084149
 20
41.3206840863
 10
59.3387750786
 20
41.3481902357
  0
ARC
  5
2ED
100
AcDbEntity
  8
RACCORDO
100
AcDbCircle
 62
7
  6
CONTINUOUS
 10
-52.0424227679
 20
-29.0530767593
 40
5.0
100
AcDbArc
 50
29.2047820855
 51
209.2047820855
  0
ARC
  5
2EE
100
AcDbEntity
  8
RACCORDO
100
AcDbCircle
 62
7
  6
CONTINUOUS
 10
-50.4297959198
 20
-31.7650584184
 40
5.0
100
AcDbArc
 50
212.2692279871
 51
32.2692279871
  0
ARC
  5
2EF
100
AcDbEntity
  8
RACCORDO
100
AcDbCircle
 62
253
  6
CONTINUOUS
 10
-50.4297959198
 20
-31.7650584184
 40
4.6999843201
100
AcDbArc
 50
212.2692279871
 51
32.2692279871
  0
ARC
  5
2F0
100
AcDbEntity
  8
RACCORDO
100
AcDbCircle
 62
253
  6
CONTINUOUS
 10
-52.0424227679
 20
-29.0530767593
 40
4.6999843201
100
AcDbArc
 50
29.2047820855
 51
209.2047820855
  0
ARC
  5
2F1
100
AcDbEntity
  8
RACCORDO
100
AcDbCircle
 62
253
  6
CONTINUOUS
 10
-52.0424227679
 20
-29.0530767593
 40
2.2999925401
100
AcDbArc
 50
29.2047820855
 51
209.2047820855
  0
ARC
  5
2F2
100
AcDbEntity
  8
RACCORDO
100
AcDbCircle
 62
253
  6
CONTINUOUS
 10
-50.4297959198
 20
-31.7650584184
 40
2.2999925401
100
AcDbArc
 50
212.2692279871
 51
32.2692279871
  0
ARC
  5
2F3
100
AcDbEntity
  8
RACCORDO
100
AcDbCircle
 62
7
  6
CONTINUOUS
 10
-50.4297959198
 20
-31.7650584184
 40
2.0
100
AcDbArc
 50
212.2692279871
 51
32.2692279871
  0
ARC
  5
2F4
100
AcDbEntity
  8
RACCORDO
100
AcDbCircle
 62
7
  6
CONTINUOUS
 10
-52.0424227679
 20
-29.0530767593
 40
2.0
100
AcDbArc
 50
29.2047820855
 51
209.2047820855
  0
ARC
  5
2F5
100
AcDbEntity
  8
RACCORDO
100
AcDbCircle
 62
7
  6
CONTINUOUS
 10
-42.2924227679
 20
-2.7650584184
 40
3.4
100
AcDbArc
 50
180.0
 51
360.0
  0
ARC
  5
2F6
100
AcDbEntity
  8
RACCORDO
100
AcDbCircle
 62
253
  6
CONTINUOUS
 10
-42.2924227679
 20
-2.7650584184
 40
3.0999667481
100
AcDbArc
 50
180.0
 51
360.0
  0
ARC
  5
2F7
100
AcDbEntity
  8
RACCORDO
100
AcDbCircle
 62
253
  6
CONTINUOUS
 10
-42.2924227679
 20
-2.7650584184
 40
2.1017518471
100
AcDbArc
 50
180.0
 51
360.0
  0
ARC
  5
2F8
100
AcDbEntity
  8
RACCORDO
100
AcDbCircle
 62
7
  6
CONTINUOUS
 10
-42.2924227679
 20
-2.7650584184
 40
1.8017682198
100
AcDbArc
 50
180.0
 51
360.0
  0
ARC
  5
2F9
100
AcDbEntity
  8
DRAFT
100
AcDbCircle
 62
7
  6
CONTINUOUS
 10
-42.2924227679
 20
-2.7650584184
 40
1.7851643248
100
AcDbArc
 50
180.0
 51
360.0
  0
ARC
  5
2FA
100
AcDbEntity
  8
RACCORDO
100
AcDbCircle
 62
7
  6
CONTINUOUS
 10
-47.8424227679
 20
-7.4650584184
 40
0.3
100
AcDbArc
 50
270.0
 51
360.0
  0
ARC
  5
2FB
100
AcDbEntity
  8
RACCORDO
100
AcDbCircle
 62
7
  6
CONTINUOUS
 10
-50.2424227679
 20
-7.4650584184
 40
0.3
100
AcDbArc
 50
180.0
 51
270.0
  0
ARC
  5
2FC
100
AcDbEntity
  8
RACCORDO
100
AcDbCircle
 62
7
  6
CONTINUOUS
 10
-20.2424227679
 20
-27.0650584184
 40
0.3
100
AcDbArc
 50
90.0
 51
180.0
  0
ARC
  5
2FD
100
AcDbEntity
  8
RACCORDO
100
AcDbCircle
 62
7
  6
CONTINUOUS
 10
-20.2424227679
 20
-31.4650584184
 40
0.3
100
AcDbArc
 50
180.0
 51
270.0
  0
ARC
  5
2FE
100
AcDbEntity
  8
RACCORDO
100
AcDbCircle
 62
253
  6
CONTINUOUS
 10
-14.5424227679
 20
-15.2650584184
 40
10.2973891632
100
AcDbArc
 50
180.0
 51
270.0
  0
ARC
  5
2FF
100
AcDbEntity
  8
RACCORDO
100
AcDbCircle
 62
7
  6
CONTINUOUS
 10
-14.5424227679
 20
-15.2650584184
 40
9.9974047859
100
AcDbArc
 50
180.0
 51
270.0
  0
ARC
  5
300
100
AcDbEntity
  8
RACCORDO
100
AcDbCircle
 62
7
  6
CONTINUOUS
 10
-14.5424227679
 20
-15.2650584184
 40
9.9747035069
100
AcDbArc
 50
179.9999999497
 51
270.0000000554
  0
ARC
  5
301
100
AcDbEntity
  8
RACCORDO
100
AcDbCircle
 62
7
  6
CONTINUOUS
 10
-30.5424227679
 20
-2.7650584184
 40
3.4
100
AcDbArc
 50
180.0
 51
360.0
  0
ARC
  5
302
100
AcDbEntity
  8
RACCORDO
100
AcDbCircle
 62
253
  6
CONTINUOUS
 10
-30.5424227679
 20
-2.7650584184
 40
3.0999667481
100
AcDbArc
 50
180.0
 51
360.0
  0
ARC
  5
303
100
AcDbEntity
  8
RACCORDO
100
AcDbCircle
 62
253
  6
CONTINUOUS
 10
-30.5424227679
 20
-2.7650584184
 40
2.1017518471
100
AcDbArc
 50
180.0
 51
360.0
  0
ARC
  5
304
100
AcDbEntity
  8
RACCORDO
100
AcDbCircle
 62
7
  6
CONTINUOUS
 10
-30.5424227679
 20
-2.7650584184
 40
1.8017682198
100
AcDbArc
 50
180.0
 51
360.0
  0
ARC
  5
305
100
AcDbEntity
  8
DRAFT
100
AcDbCircle
 62
7
  6
CONTINUOUS
 10
-30.5424227679
 20
-2.7650584184
 40
1.7851643248
100
AcDbArc
 50
180.0
 51
360.0
  0
ARC
  5
306
100
AcDbEntity
  8
RACCORDO
100
AcDbCircle
 62
7
  6
CONTINUOUS
 10
-42.2924227679
 20
2.2349415816
 40
3.4
100
AcDbArc
 50
0.0
 51
180.0
  0
ARC
  5
307
100
AcDbEntity
  8
RACCORDO
100
AcDbCircle
 62
253
  6
CONTINUOUS
 10
-42.2924227679
 20
2.2349415816
 40
3.0999667481
100
AcDbArc
 50
0.0
 51
180.0
  0
ARC
  5
308
100
AcDbEntity
  8
RACCORDO
100
AcDbCircle
 62
253
  6
CONTINUOUS
 10
-42.2924227679
 20
2.2349415816
 40
2.1017518471
100
AcDbArc
 50
0.0
 51
180.0
  0
ARC
  5
309
100
AcDbEntity
  8
RACCORDO
100
AcDbCircle
 62
7
  6
CONTINUOUS
 10
-42.2924227679
 20
2.2349415816
 40
1.8017682198
100
AcDbArc
 50
0.0
 51
180.0
  0
ARC
  5
30A
100
AcDbEntity
  8
DRAFT
100
AcDbCircle
 62
7
  6
CONTINUOUS
 10
-42.2924227679
 20
2.2349415816
 40
1.7851643248
100
AcDbArc
 50
0.0
 51
180.0
  0
ARC
  5
30B
100
AcDbEntity
  8
RACCORDO
100
AcDbCircle
 62
7
  6
CONTINUOUS
 10
-47.8424227679
 20
6.9349415816
 40
0.3
100
AcDbArc
 50
0.0
 51
90.0
  0
ARC
  5
30C
100
AcDbEntity
  8
RACCORDO
100
AcDbCircle
 62
7
  6
CONTINUOUS
 10
-50.2424227679
 20
6.9349415816
 40
0.3
100
AcDbArc
 50
90.0
 51
180.0
  0
ARC
  5
30D
100
AcDbEntity
  8
RACCORDO
100
AcDbCircle
 62
7
  6
CONTINUOUS
 10
-50.4297959198
 20
31.2349415816
 40
5.0
100
AcDbArc
 50
327.7307720129
 51
147.7307720129
  0
ARC
  5
30E
100
AcDbEntity
  8
RACCORDO
100
AcDbCircle
 62
7
  6
CONTINUOUS
 10
-52.0424227679
 20
28.5229599226
 40
5.0
100
AcDbArc
 50
150.7952179145
 51
330.7952179145
  0
ARC
  5
30F
100
AcDbEntity
  8
RACCORDO
100
AcDbCircle
 62
253
  6
CONTINUOUS
 10
-50.4297959198
 20
31.2349415816
 40
4.6999843201
100
AcDbArc
 50
327.7307720129
 51
147.7307720129
  0
ARC
  5
310
100
AcDbEntity
  8
RACCORDO
100
AcDbCircle
 62
253
  6
CONTINUOUS
 10
-52.0424227679
 20
28.5229599226
 40
4.6999843201
100
AcDbArc
 50
150.7952179145
 51
330.7952179145
  0
ARC
  5
311
100
AcDbEntity
  8
RACCORDO
100
AcDbCircle
 62
253
  6
CONTINUOUS
 10
-52.0424227679
 20
28.5229599226
 40
2.2999925401
100
AcDbArc
 50
150.7952179145
 51
330.7952179145
  0
ARC
  5
312
100
AcDbEntity
  8
RACCORDO
100
AcDbCircle
 62
253
  6
CONTINUOUS
 10
-50.4297959198
 20
31.2349415816
 40
2.2999925401
100
AcDbArc
 50
327.7307720129
 51
147.7307720129
  0
ARC
  5
313
100
AcDbEntity
  8
RACCORDO
100
AcDbCircle
 62
7
  6
CONTINUOUS
 10
-52.0424227679
 20
28.5229599226
 40
2.0
100
AcDbArc
 50
150.7952179145
 51
330.7952179145
  0
ARC
  5
314
100
AcDbEntity
  8
RACCORDO
100
AcDbCircle
 62
7
  6
CONTINUOUS
 10
-50.4297959198
 20
31.2349415816
 40
2.0
100
AcDbArc
 50
327.7307720129
 51
147.7307720129
  0
ARC
  5
315
100
AcDbEntity
  8
RACCORDO
100
AcDbCircle
 62
253
  6
CONTINUOUS
 10
-14.5424227679
 20
14.7349415816
 40
10.2973891632
100
AcDbArc
 50
90.0
 51
180.0
  0
ARC
  5
316
100
AcDbEntity
  8
RACCORDO
100
AcDbCircle
 62
7
  6
CONTINUOUS
 10
-14.5424227679
 20
14.7349415816
 40
9.9974047859
100
AcDbArc
 50
90.0
 51
180.0
  0
ARC
  5
317
100
AcDbEntity
  8
RACCORDO
100
AcDbCircle
 62
7
  6
CONTINUOUS
 10
-14.5424227679
 20
14.7349415816
 40
9.9747035069
100
AcDbArc
 50
89.9999999497
 51
180.0000000554
  0
ARC
  5
318
100
AcDbEntity
  8
RACCORDO
100
AcDbCircle
 62
7
  6
CONTINUOUS
 10
-30.5424227679
 20
2.2349415816
 40
3.4
100
AcDbArc
 50
0.0
 51
180.0
  0
ARC
  5
319
100
AcDbEntity
  8
RACCORDO
100
AcDbCircle
 62
253
  6
CONTINUOUS
 10
-30.5424227679
 20
2.2349415816
 40
3.0999667481
100
AcDbArc
 50
0.0
 51
180.0
  0
ARC
  5
31A
100
AcDbEntity
  8
RACCORDO
100
AcDbCircle
 62
253
  6
CONTINUOUS
 10
-30.5424227679
 20
2.2349415816
 40
2.1017518471
100
AcDbArc
 50
0.0
 51
180.0
  0
ARC
  5
31B
100
AcDbEntity
  8
RACCORDO
100
AcDbCircle
 62
7
  6
CONTINUOUS
 10
-30.5424227679
 20
2.2349415816
 40
1.8017682198
100
AcDbArc
 50
0.0
 51
180.0
  0
ARC
  5
31C
100
AcDbEntity
  8
DRAFT
100
AcDbCircle
 62
7
  6
CONTINUOUS
 10
-30.5424227679
 20
2.2349415816
 40
1.7851643248
100
AcDbArc
 50
0.0
 51
180.0
  0
ARC
  5
31D
100
AcDbEntity
  8
RACCORDO
100
AcDbCircle
 62
7
  6
CONTINUOUS
 10
-20.2424227679
 20
26.5349415816
 40
0.3
100
AcDbArc
 50
180.0
 51
270.0
  0
ARC
  5
31E
100
AcDbEntity
  8
RACCORDO
100
AcDbCircle
 62
7
  6
CONTINUOUS
 10
-20.2424227679
 20
30.9349415816
 40
0.3
100
AcDbArc
 50
90.0
 51
180.0
  0
ARC
  5
31F
100
AcDbEntity
  8
RACCORDO
100
AcDbCircle
 62
7
  6
CONTINUOUS
 10
19.1575772321
 20
-27.0650584184
 40
0.3
100
AcDbArc
 50
0.0
 51
90.0
  0
ARC
  5
320
100
AcDbEntity
  8
RACCORDO
100
AcDbCircle
 62
7
  6
CONTINUOUS
 10
19.1575772321
 20
-31.4650584184
 40
0.3
100
AcDbArc
 50
270.0
 51
360.0
  0
ARC
  5
321
100
AcDbEntity
  8
RACCORDO
100
AcDbCircle
 62
253
  6
CONTINUOUS
 10
13.4575772321
 20
-15.2650584184
 40
10.2973891632
100
AcDbArc
 50
270.0
 51
360.0
  0
ARC
  5
322
100
AcDbEntity
  8
RACCORDO
100
AcDbCircle
 62
7
  6
CONTINUOUS
 10
13.4575772321
 20
-15.2650584184
 40
9.9974047859
100
AcDbArc
 50
270.0
 51
360.0
  0
ARC
  5
323
100
AcDbEntity
  8
RACCORDO
100
AcDbCircle
 62
7
  6
CONTINUOUS
 10
13.4575772321
 20
-15.2650584184
 40
9.9747035069
100
AcDbArc
 50
269.9999999497
 51
360.0
  0
ARC
  5
324
100
AcDbEntity
  8
RACCORDO
100
AcDbCircle
 62
7
  6
CONTINUOUS
 10
29.4575772321
 20
-2.7650584184
 40
3.4
100
AcDbArc
 50
180.0
 51
360.0
  0
ARC
  5
325
100
AcDbEntity
  8
RACCORDO
100
AcDbCircle
 62
253
  6
CONTINUOUS
 10
29.4575772321
 20
-2.7650584184
 40
3.0999667481
100
AcDbArc
 50
180.0
 51
360.0
  0
ARC
  5
326
100
AcDbEntity
  8
RACCORDO
100
AcDbCircle
 62
253
  6
CONTINUOUS
 10
29.4575772321
 20
-2.7650584184
 40
2.1017518471
100
AcDbArc
 50
180.0
 51
360.0
  0
ARC
  5
327
100
AcDbEntity
  8
RACCORDO
100
AcDbCircle
 62
7
  6
CONTINUOUS
 10
29.4575772321
 20
-2.7650584184
 40
1.8017682198
100
AcDbArc
 50
180.0
 51
360.0
  0
ARC
  5
328
100
AcDbEntity
  8
DRAFT
100
AcDbCircle
 62
7
  6
CONTINUOUS
 10
29.4575772321
 20
-2.7650584184
 40
1.7851643248
100
AcDbArc
 50
180.0
 51
360.0
  0
ARC
  5
329
100
AcDbEntity
  8
RACCORDO
100
AcDbCircle
 62
7
  6
CONTINUOUS
 10
50.9575772321
 20
-29.0530767593
 40
5.0
100
AcDbArc
 50
330.7952179145
 51
150.7952179145
  0
ARC
  5
32A
100
AcDbEntity
  8
RACCORDO
100
AcDbCircle
 62
7
  6
CONTINUOUS
 10
49.3449503841
 20
-31.7650584184
 40
5.0
100
AcDbArc
 50
147.7307720129
 51
327.7307720129
  0
ARC
  5
32B
100
AcDbEntity
  8
RACCORDO
100
AcDbCircle
 62
253
  6
CONTINUOUS
 10
49.3449503841
 20
-31.7650584184
 40
4.6999843201
100
AcDbArc
 50
147.7307720129
 51
327.7307720129
  0
ARC
  5
32C
100
AcDbEntity
  8
RACCORDO
100
AcDbCircle
 62
253
  6
CONTINUOUS
 10
50.9575772321
 20
-29.0530767593
 40
4.6999843201
100
AcDbArc
 50
330.7952179145
 51
150.7952179145
  0
ARC
  5
32D
100
AcDbEntity
  8
RACCORDO
100
AcDbCircle
 62
253
  6
CONTINUOUS
 10
49.3449503841
 20
-31.7650584184
 40
2.2999925401
100
AcDbArc
 50
147.7307720129
 51
327.7307720129
  0
ARC
  5
32E
100
AcDbEntity
  8
RACCORDO
100
AcDbCircle
 62
253
  6
CONTINUOUS
 10
50.9575772321
 20
-29.0530767593
 40
2.2999925401
100
AcDbArc
 50
330.7952179145
 51
150.7952179145
  0
ARC
  5
32F
100
AcDbEntity
  8
RACCORDO
100
AcDbCircle
 62
7
  6
CONTINUOUS
 10
50.9575772321
 20
-29.0530767593
 40
2.0
100
AcDbArc
 50
330.7952179145
 51
150.7952179145
  0
ARC
  5
330
100
AcDbEntity
  8
RACCORDO
100
AcDbCircle
 62
7
  6
CONTINUOUS
 10
49.3449503841
 20
-31.7650584184
 40
2.0
100
AcDbArc
 50
147.7307720129
 51
327.7307720129
  0
ARC
  5
331
100
AcDbEntity
  8
RACCORDO
100
AcDbCircle
 62
7
  6
CONTINUOUS
 10
41.2075772321
 20
-2.7650584184
 40
3.4
100
AcDbArc
 50
180.0
 51
360.0
  0
ARC
  5
332
100
AcDbEntity
  8
RACCORDO
100
AcDbCircle
 62
253
  6
CONTINUOUS
 10
41.2075772321
 20
-2.7650584184
 40
3.0999667481
100
AcDbArc
 50
180.0
 51
360.0
  0
ARC
  5
333
100
AcDbEntity
  8
RACCORDO
100
AcDbCircle
 62
253
  6
CONTINUOUS
 10
41.2075772321
 20
-2.7650584184
 40
2.1017518471
100
AcDbArc
 50
180.0
 51
360.0
  0
ARC
  5
334
100
AcDbEntity
  8
RACCORDO
100
AcDbCircle
 62
7
  6
CONTINUOUS
 10
41.2075772321
 20
-2.7650584184
 40
1.8017682198
100
AcDbArc
 50
180.0
 51
360.0
  0
ARC
  5
335
100
AcDbEntity
  8
DRAFT
100
AcDbCircle
 62
7
  6
CONTINUOUS
 10
41.2075772321
 20
-2.7650584184
 40
1.7851643248
100
AcDbArc
 50
180.0
 51
360.0
  0
ARC
  5
336
100
AcDbEntity
  8
RACCORDO
100
AcDbCircle
 62
7
  6
CONTINUOUS
 10
49.1575772321
 20
-7.4650584184
 40
0.3
100
AcDbArc
 50
270.0
 51
360.0
  0
ARC
  5
337
100
AcDbEntity
  8
RACCORDO
100
AcDbCircle
 62
7
  6
CONTINUOUS
 10
46.7575772321
 20
-7.4650584184
 40
0.3
100
AcDbArc
 50
180.0
 51
270.0
  0
ARC
  5
338
100
AcDbEntity
  8
RACCORDO
100
AcDbCircle
 62
7
  6
CONTINUOUS
 10
-0.5424227679
 20
-0.2650584184
 40
64.0
100
AcDbArc
 50
147.7307720129
 51
150.7952179145
  0
ARC
  5
339
100
AcDbEntity
  8
RACCORDO
100
AcDbCircle
 62
7
  6
CONTINUOUS
 10
-0.5424227679
 20
-0.2650584184
 40
64.0
100
AcDbArc
 50
209.2047820855
 51
212.2692279871
  0
ARC
  5
33A
100
AcDbEntity
  8
RACCORDO
100
AcDbCircle
 62
7
  6
CONTINUOUS
 10
-0.5424227679
 20
-0.2650584184
 40
64.0
100
AcDbArc
 50
327.7307720129
 51
330.7952179145
  0
ARC
  5
33B
100
AcDbEntity
  8
RACCORDO
100
AcDbCircle
 62
7
  6
CONTINUOUS
 10
-0.5424227679
 20
-0.2650584184
 40
64.0
100
AcDbArc
 50
29.2047820855
 51
32.2692279871
  0
ARC
  5
33C
100
AcDbEntity
  8
RACCORDO
100
AcDbCircle
 62
253
  6
CONTINUOUS
 10
-0.5424227679
 20
-0.2650584184
 40
63.7000000203
100
AcDbArc
 50
209.2047820855
 51
212.2692279871
  0
ARC
  5
33D
100
AcDbEntity
  8
RACCORDO
100
AcDbCircle
 62
253
  6
CONTINUOUS
 10
-0.5424227679
 20
-0.2650584184
 40
63.7000000203
100
AcDbArc
 50
147.7307720129
 51
150.7952179145
  0
ARC
  5
33E
100
AcDbEntity
  8
RACCORDO
100
AcDbCircle
 62
253
  6
CONTINUOUS
 10
-0.5424227679
 20
-0.2650584184
 40
63.7000000203
100
AcDbArc
 50
29.2047820855
 51
32.2692279871
  0
ARC
  5
33F
100
AcDbEntity
  8
RACCORDO
100
AcDbCircle
 62
253
  6
CONTINUOUS
 10
-0.5424227679
 20
-0.2650584184
 40
63.7000000203
100
AcDbArc
 50
327.7307720129
 51
330.7952179145
  0
ARC
  5
340
100
AcDbEntity
  8
RACCORDO
100
AcDbCircle
 62
253
  6
CONTINUOUS
 10
-0.5424227679
 20
-0.2650584184
 40
61.3000000209
100
AcDbArc
 50
327.7307720129
 51
330.7952179145
  0
ARC
  5
341
100
AcDbEntity
  8
RACCORDO
100
AcDbCircle
 62
253
  6
CONTINUOUS
 10
-0.5424227679
 20
-0.2650584184
 40
61.3000000209
100
AcDbArc
 50
29.2047820855
 51
32.2692279871
  0
ARC
  5
342
100
AcDbEntity
  8
RACCORDO
100
AcDbCircle
 62
253
  6
CONTINUOUS
 10
-0.5424227679
 20
-0.2650584184
 40
61.3000000209
100
AcDbArc
 50
147.7307720129
 51
150.7952179145
  0
ARC
  5
343
100
AcDbEntity
  8
RACCORDO
100
AcDbCircle
 62
253
  6
CONTINUOUS
 10
-0.5424227679
 20
-0.2650584184
 40
61.3000000209
100
AcDbArc
 50
209.2047820855
 51
212.2692279871
  0
ARC
  5
344
100
AcDbEntity
  8
RACCORDO
100
AcDbCircle
 62
7
  6
CONTINUOUS
 10
-0.5424227679
 20
-0.2650584184
 40
61.0
100
AcDbArc
 50
209.2047820855
 51
212.2692279871
  0
ARC
  5
345
100
AcDbEntity
  8
RACCORDO
100
AcDbCircle
 62
7
  6
CONTINUOUS
 10
-0.5424227679
 20
-0.2650584184
 40
61.0
100
AcDbArc
 50
147.7307720129
 51
150.7952179145
  0
ARC
  5
346
100
AcDbEntity
  8
RACCORDO
100
AcDbCircle
 62
7
  6
CONTINUOUS
 10
-0.5424227679
 20
-0.2650584184
 40
61.0
100
AcDbArc
 50
327.7307720129
 51
330.7952179145
  0
ARC
  5
347
100
AcDbEntity
  8
RACCORDO
100
AcDbCircle
 62
7
  6
CONTINUOUS
 10
-0.5424227679
 20
-0.2650584184
 40
61.0
100
AcDbArc
 50
29.2047820855
 51
32.2692279871
  0
ARC
  5
348
100
AcDbEntity
  8
RACCORDO
100
AcDbCircle
 62
7
  6
CONTINUOUS
 10
-0.5424227679
 20
-0.2650584184
 40
57.0
100
AcDbArc
 50
209.2047820855
 51
212.2692279871
  0
ARC
  5
349
100
AcDbEntity
  8
RACCORDO
100
AcDbCircle
 62
7
  6
CONTINUOUS
 10
-0.5424227679
 20
-0.2650584184
 40
57.0
100
AcDbArc
 50
147.7307720129
 51
150.7952179145
  0
ARC
  5
34A
100
AcDbEntity
  8
RACCORDO
100
AcDbCircle
 62
7
  6
CONTINUOUS
 10
-0.5424227679
 20
-0.2650584184
 40
57.0
100
AcDbArc
 50
327.7307720129
 51
330.7952179145
  0
ARC
  5
34B
100
AcDbEntity
  8
RACCORDO
100
AcDbCircle
 62
7
  6
CONTINUOUS
 10
-0.5424227679
 20
-0.2650584184
 40
57.0
100
AcDbArc
 50
29.2047820855
 51
32.2692279871
  0
ARC
  5
34C
100
AcDbEntity
  8
RACCORDO
100
AcDbCircle
 62
253
  6
CONTINUOUS
 10
-0.5424227679
 20
-0.2650584184
 40
56.7000000213
100
AcDbArc
 50
327.7307720129
 51
330.7952179145
  0
ARC
  5
34D
100
AcDbEntity
  8
RACCORDO
100
AcDbCircle
 62
253
  6
CONTINUOUS
 10
-0.5424227679
 20
-0.2650584184
 40
56.7000000213
100
AcDbArc
 50
29.2047820855
 51
32.2692279871
  0
ARC
  5
34E
100
AcDbEntity
  8
RACCORDO
100
AcDbCircle
 62
253
  6
CONTINUOUS
 10
-0.5424227679
 20
-0.2650584184
 40
56.7000000213
100
AcDbArc
 50
147.7307720129
 51
150.7952179145
  0
ARC
  5
34F
100
AcDbEntity
  8
RACCORDO
100
AcDbCircle
 62
253
  6
CONTINUOUS
 10
-0.5424227679
 20
-0.2650584184
 40
56.7000000213
100
AcDbArc
 50
209.2047820855
 51
212.2692279871
  0
ARC
  5
350
100
AcDbEntity
  8
RACCORDO
100
AcDbCircle
 62
253
  6
CONTINUOUS
 10
-0.5424227679
 20
-0.2650584184
 40
54.300000022
100
AcDbArc
 50
209.2047820855
 51
212.2692279871
  0
ARC
  5
351
100
AcDbEntity
  8
RACCORDO
100
AcDbCircle
 62
253
  6
CONTINUOUS
 10
-0.5424227679
 20
-0.2650584184
 40
54.300000022
100
AcDbArc
 50
147.7307720129
 51
150.7952179145
  0
ARC
  5
352
100
AcDbEntity
  8
RACCORDO
100
AcDbCircle
 62
253
  6
CONTINUOUS
 10
-0.5424227679
 20
-0.2650584184
 40
54.300000022
100
AcDbArc
 50
29.2047820855
 51
32.2692279871
  0
ARC
  5
353
100
AcDbEntity
  8
RACCORDO
100
AcDbCircle
 62
253
  6
CONTINUOUS
 10
-0.5424227679
 20
-0.2650584184
 40
54.300000022
100
AcDbArc
 50
327.7307720129
 51
330.7952179145
  0
ARC
  5
354
100
AcDbEntity
  8
RACCORDO
100
AcDbCircle
 62
7
  6
CONTINUOUS
 10
-0.5424227679
 20
-0.2650584184
 40
54.0
100
AcDbArc
 50
147.7307720129
 51
150.7952179145
  0
ARC
  5
355
100
AcDbEntity
  8
RACCORDO
100
AcDbCircle
 62
7
  6
CONTINUOUS
 10
-0.5424227679
 20
-0.2650584184
 40
54.0
100
AcDbArc
 50
209.2047820855
 51
212.2692279871
  0
ARC
  5
356
100
AcDbEntity
  8
RACCORDO
100
AcDbCircle
 62
7
  6
CONTINUOUS
 10
-0.5424227679
 20
-0.2650584184
 40
54.0
100
AcDbArc
 50
327.7307720129
 51
330.7952179145
  0
ARC
  5
357
100
AcDbEntity
  8
RACCORDO
100
AcDbCircle
 62
7
  6
CONTINUOUS
 10
-0.5424227679
 20
-0.2650584184
 40
54.0
100
AcDbArc
 50
29.2047820855
 51
32.2692279871
  0
ARC
  5
358
100
AcDbEntity
  8
RACCORDO
100
AcDbCircle
 62
253
  6
CONTINUOUS
 10
13.4575772321
 20
14.7349415816
 40
10.2973891632
100
AcDbArc
 50
0.0
 51
90.0
  0
ARC
  5
359
100
AcDbEntity
  8
RACCORDO
100
AcDbCircle
 62
7
  6
CONTINUOUS
 10
13.4575772321
 20
14.7349415816
 40
9.9974047859
100
AcDbArc
 50
0.0
 51
90.0
  0
ARC
  5
35A
100
AcDbEntity
  8
RACCORDO
100
AcDbCircle
 62
7
  6
CONTINUOUS
 10
13.4575772321
 20
14.7349415816
 40
9.9747035069
100
AcDbArc
 50
0.0
 51
90.0000000554
  0
ARC
  5
35B
100
AcDbEntity
  8
RACCORDO
100
AcDbCircle
 62
7
  6
CONTINUOUS
 10
19.1575772321
 20
26.5349415816
 40
0.3
100
AcDbArc
 50
270.0
 51
360.0
  0
ARC
  5
35C
100
AcDbEntity
  8
RACCORDO
100
AcDbCircle
 62
7
  6
CONTINUOUS
 10
19.1575772321
 20
30.9349415816
 40
0.3
100
AcDbArc
 50
0.0
 51
90.0
  0
ARC
  5
35D
100
AcDbEntity
  8
RACCORDO
100
AcDbCircle
 62
7
  6
CONTINUOUS
 10
41.2075772321
 20
2.2349415816
 40
3.4
100
AcDbArc
 50
0.0
 51
180.0
  0
ARC
  5
35E
100
AcDbEntity
  8
RACCORDO
100
AcDbCircle
 62
7
  6
CONTINUOUS
 10
29.4575772321
 20
2.2349415816
 40
3.4
100
AcDbArc
 50
0.0
 51
180.0
  0
ARC
  5
35F
100
AcDbEntity
  8
RACCORDO
100
AcDbCircle
 62
253
  6
CONTINUOUS
 10
29.4575772321
 20
2.2349415816
 40
3.0999667481
100
AcDbArc
 50
0.0
 51
180.0
  0
ARC
  5
360
100
AcDbEntity
  8
RACCORDO
100
AcDbCircle
 62
253
  6
CONTINUOUS
 10
41.2075772321
 20
2.2349415816
 40
3.0999667481
100
AcDbArc
 50
0.0
 51
180.0
  0
ARC
  5
361
100
AcDbEntity
  8
RACCORDO
100
AcDbCircle
 62
253
  6
CONTINUOUS
 10
41.2075772321
 20
2.2349415816
 40
2.1017518471
100
AcDbArc
 50
0.0
 51
180.0
  0
ARC
  5
362
100
AcDbEntity
  8
RACCORDO
100
AcDbCircle
 62
253
  6
CONTINUOUS
 10
29.4575772321
 20
2.2349415816
 40
2.1017518471
100
AcDbArc
 50
0.0
 51
180.0
  0
ARC
  5
363
100
AcDbEntity
  8
RACCORDO
100
AcDbCircle
 62
7
  6
CONTINUOUS
 10
29.4575772321
 20
2.2349415816
 40
1.8017682198
100
AcDbArc
 50
0.0
 51
180.0
  0
ARC
  5
364
100
AcDbEntity
  8
RACCORDO
100
AcDbCircle
 62
7
  6
CONTINUOUS
 10
41.2075772321
 20
2.2349415816
 40
1.8017682198
100
AcDbArc
 50
0.0
 51
180.0
  0
ARC
  5
365
100
AcDbEntity
  8
DRAFT
100
AcDbCircle
 62
7
  6
CONTINUOUS
 10
29.4575772321
 20
2.2349415816
 40
1.7851643248
100
AcDbArc
 50
0.0
 51
180.0
  0
ARC
  5
366
100
AcDbEntity
  8
DRAFT
100
AcDbCircle
 62
7
  6
CONTINUOUS
 10
41.2075772321
 20
2.2349415816
 40
1.7851643248
100
AcDbArc
 50
0.0
 51
180.0
  0
ARC
  5
367
100
AcDbEntity
  8
RACCORDO
100
AcDbCircle
 62
7
  6
CONTINUOUS
 10
46.7575772321
 20
6.9349415816
 40
0.3
100
AcDbArc
 50
90.0
 51
180.0
  0
ARC
  5
368
100
AcDbEntity
  8
RACCORDO
100
AcDbCircle
 62
7
  6
CONTINUOUS
 10
49.1575772321
 20
6.9349415816
 40
0.3
100
AcDbArc
 50
0.0
 51
90.0
  0
ARC
  5
369
100
AcDbEntity
  8
RACCORDO
100
AcDbCircle
 62
7
  6
CONTINUOUS
 10
49.3449503841
 20
31.2349415816
 40
5.0
100
AcDbArc
 50
32.2692279871
 51
212.2692279871
  0
ARC
  5
36A
100
AcDbEntity
  8
RACCORDO
100
AcDbCircle
 62
7
  6
CONTINUOUS
 10
50.9575772321
 20
28.5229599226
 40
5.0
100
AcDbArc
 50
209.2047820855
 51
29.2047820855
  0
ARC
  5
36B
100
AcDbEntity
  8
RACCORDO
100
AcDbCircle
 62
253
  6
CONTINUOUS
 10
49.3449503841
 20
31.2349415816
 40
4.6999843201
100
AcDbArc
 50
32.2692279871
 51
212.2692279871
  0
ARC
  5
36C
100
AcDbEntity
  8
RACCORDO
100
AcDbCircle
 62
253
  6
CONTINUOUS
 10
50.9575772321
 20
28.5229599226
 40
4.6999843201
100
AcDbArc
 50
209.2047820855
 51
29.2047820855
  0
ARC
  5
36D
100
AcDbEntity
  8
RACCORDO
100
AcDbCircle
 62
253
  6
CONTINUOUS
 10
49.3449503841
 20
31.2349415816
 40
2.2999925401
100
AcDbArc
 50
32.2692279871
 51
212.2692279871
  0
ARC
  5
36E
100
AcDbEntity
  8
RACCORDO
100
AcDbCircle
 62
253
  6
CONTINUOUS
 10
50.9575772321
 20
28.5229599226
 40
2.2999925401
100
AcDbArc
 50
209.2047820855
 51
29.2047820855
  0
ARC
  5
36F
100
AcDbEntity
  8
RACCORDO
100
AcDbCircle
 62
7
  6
CONTINUOUS
 10
49.3449503841
 20
31.2349415816
 40
2.0
100
AcDbArc
 50
32.2692279871
 51
212.2692279871
  0
ARC
  5
370
100
AcDbEntity
  8
RACCORDO
100
AcDbCircle
 62
7
  6
CONTINUOUS
 10
50.9575772321
 20
28.5229599226
 40
2.0
100
AcDbArc
 50
209.2047820855
 51
29.2047820855
  0
ELLIPSE
  5
371
100
AcDbEntity
  8
ASSI
100
AcDbEllipse
 62
7
  6
CONTINUOUS
 10
-63.5417371829
 20
-43.2643728334
 30
0.0
 11
1.4151829599
 21
1.4151829599
 31
0.0
 40
0.999315002
 41
2.3565371065
 42
3.9266482006
  0
ELLIPSE
  5
372
100
AcDbEntity
  8
ASSI
100
AcDbEllipse
 62
7
  6
CONTINUOUS
 10
-63.5417371829
 20
42.7342559967
 30
0.0
 11
1.4151829599
 21
-1.4151829599
 31
0.0
 40
0.999315002
 41
2.3565371065
 42
3.9266482006
  0
ELLIPSE
  5
373
100
AcDbEntity
  8
ASSI
100
AcDbEllipse
 62
7
  6
CONTINUOUS
 10
62.4568916472
 20
42.7342559967
 30
0.0
 11
-1.4151829599
 21
-1.4151829599
 31
0.0
 40
0.999315002
 41
2.3565371065
 42
3.9266482006
  0
ELLIPSE
  5
374
100
AcDbEntity
  8
ASSI
100
AcDbEllipse
 62
7
  6
CONTINUOUS
 10
62.4568916472
 20
-43.2643728334
 30
0.0
 11
-1.4151829599
 21
1.4151829599
 31
0.0
 40
0.999315002
 41
2.3565371065
 42
3.9266482006
  0
ELLIPSE
  5
375
100
AcDbEntity
  8
RACCORDO
100
AcDbEllipse
 62
7
  6
CONTINUOUS
 10
61.6481761554
 20
41.9255405049
 30
0.0
 11
1.8257418584
 21
1.8257418584
 31
0.0
 40
0.7745966692
 41
-0.6590580358
 42
0.6590580358
  0
ELLIPSE
  5
376
100
AcDbEntity
  8
RACCORDO
100
AcDbEllipse
 62
7
  6
CONTINUOUS
 10
-62.7330216911
 20
41.9255405049
 30
0.0
 11
1.8257418584
 21
-1.8257418584
 31
0.0
 40
0.7745966692
 41
2.4825346178
 42
3.8006506894
  0
ELLIPSE
  5
377
100
AcDbEntity
  8
RACCORDO
100
AcDbEllipse
 62
7
  6
CONTINUOUS
 10
-62.7330216911
 20
-42.4556573416
 30
0.0
 11
1.8257418584
 21
1.8257418584
 31
0.0
 40
0.7745966692
 41
-3.8006506894
 42
-2.4825346178
  0
ELLIPSE
  5
378
100
AcDbEntity
  8
RACCORDO
100
AcDbEllipse
 62
7
  6
CONTINUOUS
 10
61.6481761554
 20
-42.4556573416
 30
0.0
 11
1.8257418584
 21
-1.8257418584
 31
0.0
 40
0.7745966692
 41
-0.6590580358
 42
0.6590580358
  0
ENDSEC
  0
SECTION
  2
OBJECTS
  0
DICTIONARY
  5
C
100
AcDbDictionary
280
0
281
1
  3
ACAD_GROUP
350
D
  3
ACAD_MLINESTYLE
350
17
  3
ACAD_LAYOUT
350
1A
  3
ACAD_PLOTSETTINGS
350
19
  3
ACAD_PLOTSTYLENAME
350
E
  0
DICTIONARY
  5
D
102
{ACAD_REACTORS
330
C
102
}
100
AcDbDictionary
280
0
281
1
  0
ACDBDICTIONARYWDFLT
  5
E
102
{ACAD_REACTORS
330
C
102
}
100
AcDbDictionary
281
1
  3
Normal
350
F
100
AcDbDictionaryWithDefault
340
F
  0
DICTIONARY
  5
17
102
{ACAD_REACTORS
330
C
102
}
100
AcDbDictionary
280
0
281
1
  3
Standard
350
18
  0
DICTIONARY
  5
19
102
{ACAD_REACTORS
330
C
102
}
100
AcDbDictionary
281
1
  0
DICTIONARY
  5
1A
102
{ACAD_REACTORS
330
C
102
}
100
AcDbDictionary
281
1
  3
Model
350
379
  3
Layout1
350
37A
  0
ACDBPLACEHOLDER
  5
F
102
{ACAD_REACTORS
330
E
102
}
  0
MLINESTYLE
  5
18
102
{ACAD_REACTORS
330
17
102
}
100
AcDbMlineStyle
  2
STANDARD
 70
0
  3

 62
256
 51
90.0
 52
90.0
 71
2
 49
0.5
 62
256
  6
BYLAYER
 49
-0.5
 62
256
  6
BYLAYER
  0
LAYOUT
  5
379
102
{ACAD_REACTORS
330
1A
102
}
100
AcDbPlotSettings
  1

  2
none_device
  4
ISO_A4_(297.00_x_210.00_MM)
  6

 40
0.0
 41
0.0
 42
0.0
 43
0.0
 44
297.0
 45
210.0
 46
0.0
 47
0.0
 48
0.0
 49
0.0
140
0.0
141
0.0
142
1.0
143
1.0
 70
1024
 72
1
 73
0
 74
0
  7

 75
0
147
1.0
148
0.0
149
0.0
100
AcDbLayout
  1
Model
 70
0
 71
0
 10
0.0
 20
0.0
 11
297.0
 21
210.0
 12
0.0
 22
0.0
 32
0.0
 14
0.0
 24
0.0
 34
0.0
 15
0.0
 25
0.0
 35
0.0
146
0.0
 13
0.0
 23
0.0
 33
0.0
 16
1.0
 26
0.0
 36
0.0
 17
0.0
 27
1.0
 37
0.0
 76
0
330
219
345
0
346
0
  0
LAYOUT
  5
37A
102
{ACAD_REACTORS
330
1A
102
}
100
AcDbPlotSettings
  1

  2
none_device
  4
ISO_A4_(297.00_x_210.00_MM)
  6

 40
0.0
 41
0.0
 42
0.0
 43
0.0
 44
297.0
 45
210.0
 46
0.0
 47
0.0
 48
0.0
 49
0.0
140
0.0
141
0.0
142
1.0
143
1.0
 70
0
 72
1
 73
0
 74
0
  7

 75
0
147
1.0
148
0.0
149
0.0
100
AcDbLayout
  1
Layout1
 70
0
 71
1
 10
0.0
 20
0.0
 11
297.0
 21
210.0
 12
0.0
 22
0.0
 32
0.0
 14
0.0
 24
0.0
 34
0.0
 15
0.0
 25
0.0
 35
0.0
146
0.0
 13
0.0
 23
0.0
 33
0.0
 16
1.0
 26
0.0
 36
0.0
 17
0.0
 27
1.0
 37
0.0
 76
0
330
21A
345
0
346
0
  0
ENDSEC
  0
EOF
