  0
SECTION
  2
HEADER
  9
$ACADVER
  1
AC1015
  9
$DWGCODEPAGE
  3
ANSI_1252
  9
$EXTMAX
 10
297.0
 20
210.0
 30
0.0
  9
$EXTMIN
 10
0.0
 20
0.0
 30
0.0
  9
$LIMMIN
 10
0.0
 20
0.0
  9
$LIMMAX
 10
297.0
 20
210.0
  9
$VIEWCTR
 10
148.5
 20
105.0
  9
$VIEWSIZE
 40
210.0
  9
$CLAYER
  8
0
  9
$LTSCALE
 40
16.335
  9
$CELTYPE
  6
BYLAYER
  9
$DIMSCALE
 40
1.0
  9
$DIMASZ
 40
3.0
  9
$DIMEXO
 40
0.5
  9
$DIMDLI
 40
11.286
  9
$DIMEXE
 40
1.5
  9
$DIMCEN
 40
2.673
  9
$DIMLFAC
 40
1.0
  9
$DIMBLK
  1
_FILLED
  9
$DIMTXT
 40
3.0
  9
$DIMTOL
 70
1
  9
$DIMLIM
 70
0
  9
$DIMTFAC
 40
1.0
  9
$DIMTP
 40
0.01
  9
$DIMTM
 40
0.01
  9
$DIMGAP
 40
0.625
  9
$DIMDSEP
 70
44
  9
$PDMODE
 70
3
  9
$PDSIZE
 40
3.0
  9
$HANDSEED
  5
377
  9
$TILEMODE
 70
1
  9
$MEASUREMENT
 70
1
  9
$INSUNITS
 70
4
  0
ENDSEC
  0
SECTION
  2
CLASSES
  0
CLASS
  1
ACDBDICTIONARYWDFLT
  2
AcDbDictionaryWithDefault
  3
AutoCAD 2000
 90
0
280
0
281
0
  0
CLASS
  1
ACDBPLACEHOLDER
  2
AcDbPlaceHolder
  3
AutoCAD 2000
 90
0
280
0
281
0
  0
CLASS
  1
LAYOUT
  2
AcDbLayout
  3
AutoCAD 2000
 90
0
280
0
281
0
  0
ENDSEC
  0
SECTION
  2
TABLES
  0
TABLE
  2
VPORT
  5
8
100
AcDbSymbolTable
 70
2
  0
VPORT
  5
1F4
100
AcDbSymbolTableRecord
100
AcDbViewportTableRecord
  2
*ACTIVE
 70
0
 10
0.0
 20
0.0
 11
1.0
 21
1.0
 12
148.5
 22
105.0
 13
0.0
 23
0.0
 14
1.0
 24
1.0
 15
0.0
 25
0.0
 16
0.0
 26
0.0
 36
1.0
 17
0.0
 27
0.0
 37
0.0
 40
210.0
 41
1.4142857143
 42
50.0
 43
0.0
 44
0.0
 50
0.0
 51
0.0
 71
0
 72
100
 73
1
 74
1
 75
0
 76
0
 77
0
 78
0
  0
ENDTAB
  0
TABLE
  2
LTYPE
  5
5
100
AcDbSymbolTable
 70
6
  0
LTYPE
  5
14
100
AcDbSymbolTableRecord
100
AcDbLinetypeTableRecord
  2
BYBLOCK
 70
0
  3

 72
65
 73
0
 40
0.0
  0
LTYPE
  5
15
100
AcDbSymbolTableRecord
100
AcDbLinetypeTableRecord
  2
BYLAYER
 70
0
  3

 72
65
 73
0
 40
0.0
  0
LTYPE
  5
16
100
AcDbSymbolTableRecord
100
AcDbLinetypeTableRecord
  2
CONTINUOUS
 70
64
  3
Solid line
 72
65
 73
0
 40
0.0
  0
LTYPE
  5
1F5
100
AcDbSymbolTableRecord
100
AcDbLinetypeTableRecord
  2
CENTER
 70
64
  3
____ _ ____ _ ____ _ ____ _ ____ _ ____ _ ____
 72
65
 73
4
 40
0.6
 49
0.375
 74
0
 49
-0.075
 74
0
 49
0.075
 74
0
 49
-0.075
 74
0
  0
LTYPE
  5
1F6
100
AcDbSymbolTableRecord
100
AcDbLinetypeTableRecord
  2
HIDDEN
 70
64
  3
- - - - - - - - - - - - - - - - - - - -
 72
65
 73
2
 40
0.2
 49
0.1
 74
0
 49
-0.1
 74
0
  0
LTYPE
  5
1F7
100
AcDbSymbolTableRecord
100
AcDbLinetypeTableRecord
  2
PHANTOM
 70
64
  3
_____ _ _ _____ _ _ _____ _ _ _____
 72
65
 73
6
 40
0.8
 49
0.45
 74
0
 49
-0.05
 74
0
 49
0.1
 74
0
 49
-0.05
 74
0
 49
0.1
 74
0
 49
-0.05
 74
0
  0
LTYPE
  5
1F8
100
AcDbSymbolTableRecord
100
AcDbLinetypeTableRecord
  2
DOT
 70
64
  3
. . . . . . . . . . . . . . . . . . . .
 72
65
 73
2
 40
0.2
 49
0.1
 74
0
 49
-0.1
 74
0
  0
LTYPE
  5
1F9
100
AcDbSymbolTableRecord
100
AcDbLinetypeTableRecord
  2
DASHED
 70
64
  3
- - - - - - - - - - - - - - - - - - - -
 72
65
 73
2
 40
0.2
 49
0.1
 74
0
 49
-0.1
 74
0
  0
ENDTAB
  0
TABLE
  2
LAYER
  5
2
100
AcDbSymbolTable
 70
36
  0
LAYER
  5
10
100
AcDbSymbolTableRecord
100
AcDbLayerTableRecord
  2
0
 70
0
 62
7
  6
CONTINUOUS
370
-3
390
F
  0
LAYER
  5
1FA
100
AcDbSymbolTableRecord
100
AcDbLayerTableRecord
  2
DEFAULT_1
 70
0
 62
7
  6
CENTER
370
-3
390
F
  0
LAYER
  5
1FB
100
AcDbSymbolTableRecord
100
AcDbLayerTableRecord
  2
DEFAULT_2
 70
0
 62
7
  6
HIDDEN
370
-3
390
F
  0
LAYER
  5
1FC
100
AcDbSymbolTableRecord
100
AcDbLayerTableRecord
  2
DEFAULT_3
 70
0
 62
7
  6
PHANTOM
370
-3
390
F
  0
LAYER
  5
1FD
100
AcDbSymbolTableRecord
100
AcDbLayerTableRecord
  2
ASSI
 70
0
 62
7
  6
CONTINUOUS
370
-3
390
F
  0
LAYER
  5
1FE
100
AcDbSymbolTableRecord
100
AcDbLayerTableRecord
  2
COLOR5
 70
0
 62
7
  6
CONTINUOUS
370
-3
390
F
  0
LAYER
  5
1FF
100
AcDbSymbolTableRecord
100
AcDbLayerTableRecord
  2
COLORE_MATERIALE
 70
0
 62
7
  6
CONTINUOUS
370
-3
390
F
  0
LAYER
  5
200
100
AcDbSymbolTableRecord
100
AcDbLayerTableRecord
  2
COORDINATE
 70
0
 62
7
  6
CONTINUOUS
370
-3
390
F
  0
LAYER
  5
201
100
AcDbSymbolTableRecord
100
AcDbLayerTableRecord
  2
COORD_ORIGINE
 70
0
 62
7
  6
CONTINUOUS
370
-3
390
F
  0
LAYER
  5
202
100
AcDbSymbolTableRecord
100
AcDbLayerTableRecord
  2
COPY
 70
0
 62
7
  6
CONTINUOUS
370
-3
390
F
  0
LAYER
  5
203
100
AcDbSymbolTableRecord
100
AcDbLayerTableRecord
  2
COPY_PUBLISH
 70
0
 62
7
  6
CONTINUOUS
370
-3
390
F
  0
LAYER
  5
204
100
AcDbSymbolTableRecord
100
AcDbLayerTableRecord
  2
COSMETICI
 70
0
 62
7
  6
CONTINUOUS
370
-3
390
F
  0
LAYER
  5
205
100
AcDbSymbolTableRecord
100
AcDbLayerTableRecord
  2
CURVE
 70
0
 62
7
  6
CONTINUOUS
370
-3
390
F
  0
LAYER
  5
206
100
AcDbSymbolTableRecord
100
AcDbLayerTableRecord
  2
DRAFT
 70
0
 62
7
  6
CONTINUOUS
370
-3
390
F
  0
LAYER
  5
207
100
AcDbSymbolTableRecord
100
AcDbLayerTableRecord
  2
IMPORT
 70
0
 62
7
  6
CONTINUOUS
370
-3
390
F
  0
LAYER
  5
208
100
AcDbSymbolTableRecord
100
AcDbLayerTableRecord
  2
IMPORT_COPY
 70
0
 62
7
  6
CONTINUOUS
370
-3
390
F
  0
LAYER
  5
209
100
AcDbSymbolTableRecord
100
AcDbLayerTableRecord
  2
IMPORT_IGES
 70
0
 62
7
  6
CONTINUOUS
370
-3
390
F
  0
LAYER
  5
20A
100
AcDbSymbolTableRecord
100
AcDbLayerTableRecord
  2
INTFCLR_1
 70
0
 62
7
  6
CONTINUOUS
370
-3
390
F
  0
LAYER
  5
20B
100
AcDbSymbolTableRecord
100
AcDbLayerTableRecord
  2
NOTE
 70
0
 62
7
  6
CONTINUOUS
370
-3
390
F
  0
LAYER
  5
20C
100
AcDbSymbolTableRecord
100
AcDbLayerTableRecord
  2
PIANI
 70
0
 62
7
  6
CONTINUOUS
370
-3
390
F
  0
LAYER
  5
20D
100
AcDbSymbolTableRecord
100
AcDbLayerTableRecord
  2
PIANI_MOLLE
 70
0
 62
7
  6
CONTINUOUS
370
-3
390
F
  0
LAYER
  5
20E
100
AcDbSymbolTableRecord
100
AcDbLayerTableRecord
  2
PIANI_ORIGINE
 70
0
 62
7
  6
CONTINUOUS
370
-3
390
F
  0
LAYER
  5
20F
100
AcDbSymbolTableRecord
100
AcDbLayerTableRecord
  2
PIANI_RIFERIMENTO
 70
0
 62
7
  6
CONTINUOUS
370
-3
390
F
  0
LAYER
  5
210
100
AcDbSymbolTableRecord
100
AcDbLayerTableRecord
  2
PUNTI
 70
0
 62
7
  6
CONTINUOUS
370
-3
390
F
  0
LAYER
  5
211
100
AcDbSymbolTableRecord
100
AcDbLayerTableRecord
  2
RACCORDO
 70
0
 62
7
  6
CONTINUOUS
370
-3
390
F
  0
LAYER
  5
212
100
AcDbSymbolTableRecord
100
AcDbLayerTableRecord
  2
SIMBOLI
 70
0
 62
7
  6
CONTINUOUS
370
-3
390
F
  0
LAYER
  5
213
100
AcDbSymbolTableRecord
100
AcDbLayerTableRecord
  2
SMUSSO
 70
0
 62
7
  6
CONTINUOUS
370
-3
390
F
  0
LAYER
  5
214
100
AcDbSymbolTableRecord
100
AcDbLayerTableRecord
  2
SNAPLINE
 70
0
 62
7
  6
CONTINUOUS
370
-3
390
F
  0
LAYER
  5
215
100
AcDbSymbolTableRecord
100
AcDbLayerTableRecord
  2
SUPERFICI
 70
0
 62
7
  6
CONTINUOUS
370
-3
390
F
  0
LAYER
  5
216
100
AcDbSymbolTableRecord
100
AcDbLayerTableRecord
  2
TRASH
 70
0
 62
7
  6
CONTINUOUS
370
-3
390
F
  0
LAYER
  5
217
100
AcDbSymbolTableRecord
100
AcDbLayerTableRecord
  2
XSEC_DATUMS
 70
0
 62
7
  6
CONTINUOUS
370
-3
390
F
  0
ENDTAB
  0
TABLE
  2
STYLE
  5
3
100
AcDbSymbolTable
 70
1
  0
STYLE
  5
11
100
AcDbSymbolTableRecord
100
AcDbTextStyleTableRecord
  2
STANDARD
 70
0
 40
0.0
 41
0.8
 50
0.0
 71
0
 42
0.2
  3
txt
  4

  0
STYLE
  5
218
100
AcDbSymbolTableRecord
100
AcDbTextStyleTableRecord
  2
TEXTSTYLE_1
 70
0
 40
0.0
 41
0.8
 50
0.0
 71
0
 42
0.2
  3
gdt
  4

  0
ENDTAB
  0
TABLE
  2
VIEW
  5
6
100
AcDbSymbolTable
 70
0
  0
ENDTAB
  0
TABLE
  2
UCS
  5
7
100
AcDbSymbolTable
 70
0
  0
ENDTAB
  0
TABLE
  2
APPID
  5
9
100
AcDbSymbolTable
 70
1
  0
APPID
  5
219
100
AcDbSymbolTableRecord
100
AcDbRegAppTableRecord
  2
ACAD
 70
0
  0
ENDTAB
  0
TABLE
  2
BLOCK_RECORD
  5
1
100
AcDbSymbolTable
 70
0
  0
BLOCK_RECORD
  5
21A
100
AcDbSymbolTableRecord
100
AcDbBlockTableRecord
  2
*Model_Space
  0
BLOCK_RECORD
  5
21B
100
AcDbSymbolTableRecord
100
AcDbBlockTableRecord
  2
*Paper_Space
  0
ENDTAB
  0
TABLE
  2
DIMSTYLE
  5
A
100
AcDbSymbolTable
 70
1
100
AcDbDimStyleTable
 71
0
  0
DIMSTYLE
105
21C
100
AcDbSymbolTableRecord
100
AcDbDimStyleTableRecord
  2
STANDARD
 70
0
  3

  4

 40
1.0
 41
3.0
 42
0.5
 43
0.38
 44
1.5
 45
0.0
 46
0.0
 47
0.01
 48
0.01
140
3.0
141
0.09
142
0.0
143
25.4
144
1.0
145
0.0
146
1.0
147
0.625
 71
1.0
 72
0.0
 73
0
 74
0
 75
0
 76
0
 77
1
 78
8
170
0
171
2
172
0
173
0
174
0
175
0
176
0
177
0
178
0
270
2
271
2
272
2
273
2
274
2
275
0
280
0
281
0
282
0
283
1
284
8
285
0
286
0
287
3
288
0
340
11
278
44
  0
ENDTAB
  0
ENDSEC
  0
SECTION
  2
BLOCKS
  0
BLOCK
  5
20
100
AcDbEntity
  8
0
100
AcDbBlockBegin
  2
*Model_Space
 70
0
 10
0.0
 20
0.0
 30
0.0
  3
*Model_Space
  1

  0
ENDBLK
  5
21
100
AcDbEntity
  8
0
100
AcDbBlockEnd
  0
BLOCK
  5
1C
100
AcDbEntity
  8
0
100
AcDbBlockBegin
  2
*Paper_Space
 70
0
 10
0.0
 20
0.0
 30
0.0
  3
*Paper_Space
  1

  0
ENDBLK
  5
1D
100
AcDbEntity
  8
0
100
AcDbBlockEnd
  0
ENDSEC
  0
SECTION
  2
ENTITIES
  0
LINE
  5
21D
100
AcDbEntity
  8
ASSI
100
AcDbLine
 62
7
  6
CONTINUOUS
 10
-65.9570105225
 20
-43.2287513577
 11
-65.9570105225
 21
42.7726193424
  0
LINE
  5
21E
100
AcDbEntity
  8
COPY
100
AcDbLine
 62
7
  6
CONTINUOUS
 10
-65.9570105225
 20
-43.2287513577
 11
-65.9570105225
 21
42.7726193424
  0
LINE
  5
21F
100
AcDbEntity
  8
RACCORDO
100
AcDbLine
 62
7
  6
CONTINUOUS
 10
-65.4570105225
 20
-42.9960152001
 11
-65.4570105225
 21
42.5398831848
  0
LINE
  5
220
100
AcDbEntity
  8
RACCORDO
100
AcDbLine
 62
7
  6
CONTINUOUS
 10
-55.0721271619
 20
33.9414255178
 11
-56.8214172964
 21
30.999614915
  0
LINE
  5
221
100
AcDbEntity
  8
RACCORDO
100
AcDbLine
 62
7
  6
CONTINUOUS
 10
-56.8214173022
 20
-31.4557469199
 11
-55.0721271683
 21
-34.397557523
  0
LWPOLYLINE
  5
222
100
AcDbEntity
  8
RACCORDO
100
AcDbPolyline
 62
253
  6
CONTINUOUS
 90
16
 70
0
 10
-62.5702591766
 20
-40.1092638541
 10
-62.5425654873
 20
-40.2868778147
 10
-62.4992145784
 20
-40.4598624996
 10
-62.4408512009
 20
-40.627017091
 10
-62.3684273789
 20
-40.7868876002
 10
-62.2825714572
 20
-40.9387151959
 10
-62.1833355835
 20
-41.0823250068
 10
-62.071061312
 20
-41.2170189414
 10
-61.9469058573
 20
-41.3413027534
 10
-61.8121221263
 20
-41.4538308384
 10
-61.6679830306
 20
-41.5534826626
 10
-61.5153528509
 20
-41.6397663961
 10
-61.35496161
 20
-41.7123578704
 10
-61.1877942981
 20
-41.7706354467
 10
-61.0151417053
 20
-41.8138085123
 10
-60.838208369
 20
-41.8413146617
  0
LWPOLYLINE
  5
223
100
AcDbEntity
  8
RACCORDO
100
AcDbPolyline
 62
253
  6
CONTINUOUS
 90
16
 70
0
 10
-61.7042337728
 20
-40.1092638541
 10
-61.6992861814
 20
-40.2080473352
 10
-61.6858806085
 20
-40.3021769178
 10
-61.6640170539
 20
-40.3916526018
 10
-61.6334496882
 20
-40.4769398659
 10
-61.5944243408
 20
-40.5575732314
 10
-61.5476785006
 20
-40.6321562629
 10
-61.4929431829
 20
-40.7007671907
 10
-61.4304873724
 20
-40.7633277845
 10
-61.3618555114
 20
-40.8182069179
 10
-61.2870160366
 20
-40.8651430872
 10
-61.2060005113
 20
-40.9043977962
 10
-61.1204480686
 20
-40.9351244293
 10
-61.0309050862
 20
-40.9570407814
 10
-60.9368251863
 20
-40.9704290576
 10
-60.838208369
 20
-40.9752892579
  0
LINE
  5
224
100
AcDbEntity
  8
RACCORDO
100
AcDbLine
 62
253
  6
CONTINUOUS
 10
-62.5702591766
 20
39.6531318388
 11
-62.5702591766
 21
-40.1092638541
  0
LINE
  5
225
100
AcDbEntity
  8
RACCORDO
100
AcDbLine
 62
253
  6
CONTINUOUS
 10
-61.7042337728
 20
39.6531318388
 11
-61.7042337728
 21
-40.1092638541
  0
LINE
  5
226
100
AcDbEntity
  8
RACCORDO
100
AcDbLine
 62
253
  6
CONTINUOUS
 10
-60.838208369
 20
-40.9752892579
 11
-60.838208369
 21
-41.8413146617
  0
LINE
  5
227
100
AcDbEntity
  8
RACCORDO
100
AcDbLine
 62
253
  6
CONTINUOUS
 10
-60.838208369
 20
40.5191572426
 11
-60.8382083682
 21
41.3851826463
  0
LINE
  5
228
100
AcDbEntity
  8
RACCORDO
100
AcDbLine
 62
7
  6
CONTINUOUS
 10
-49.1532862795
 20
30.2041373822
 11
-50.7112478107
 21
27.5840873046
  0
LINE
  5
229
100
AcDbEntity
  8
RACCORDO
100
AcDbLine
 62
7
  6
CONTINUOUS
 10
-50.7112478107
 20
-28.0402193201
 11
-49.1532862794
 21
-30.6602693977
  0
LINE
  5
22A
100
AcDbEntity
  8
RACCORDO
100
AcDbLine
 62
7
  6
CONTINUOUS
 10
-50.9570105225
 20
6.9719339923
 11
-50.9570105225
 21
-7.4280660077
  0
LINE
  5
22B
100
AcDbEntity
  8
RACCORDO
100
AcDbLine
 62
253
  6
CONTINUOUS
 10
-50.6570105225
 20
-7.7280660077
 11
-50.6570105225
 21
7.2719339923
  0
LINE
  5
22C
100
AcDbEntity
  8
RACCORDO
100
AcDbLine
 62
253
  6
CONTINUOUS
 10
-48.2570105225
 20
-7.7280660077
 11
-48.2570105225
 21
7.2719339923
  0
LINE
  5
22D
100
AcDbEntity
  8
RACCORDO
100
AcDbLine
 62
7
  6
CONTINUOUS
 10
-47.9570105225
 20
-7.4280660077
 11
-47.9570105225
 21
6.9719339923
  0
LWPOLYLINE
  5
22E
100
AcDbEntity
  8
RACCORDO
100
AcDbPolyline
 62
253
  6
CONTINUOUS
 90
16
 70
0
 10
58.924187324
 20
-41.8413146617
 10
59.1018012846
 20
-41.8136209725
 10
59.2747859695
 20
-41.7702700636
 10
59.4419405608
 20
-41.7119066861
 10
59.6018110701
 20
-41.639482864
 10
59.7536386658
 20
-41.5536269424
 10
59.8972484767
 20
-41.4543910686
 10
60.0319424112
 20
-41.3421167972
 10
60.1562262232
 20
-41.2179613424
 10
60.2687543083
 20
-41.0831776114
 10
60.3684061325
 20
-40.9390385157
 10
60.4546898659
 20
-40.7864083361
 10
60.5272813402
 20
-40.6260170951
 10
60.5855589165
 20
-40.4588497832
 10
60.6287319822
 20
-40.2861971904
 10
60.6562381315
 20
-40.1092638541
  0
LINE
  5
22F
100
AcDbEntity
  8
RACCORDO
100
AcDbLine
 62
7
  6
CONTINUOUS
 10
-46.1070105225
 20
2.2719339923
 11
-46.1070105225
 21
-2.7280660077
  0
LINE
  5
230
100
AcDbEntity
  8
RACCORDO
100
AcDbLine
 62
253
  6
CONTINUOUS
 10
-45.8070105225
 20
2.2719339923
 11
-45.8070105225
 21
-2.7280660077
  0
LINE
  5
231
100
AcDbEntity
  8
RACCORDO
100
AcDbLine
 62
253
  6
CONTINUOUS
 10
-44.8087673196
 20
-2.7280660077
 11
-44.8087673196
 21
2.2719339923
  0
LINE
  5
232
100
AcDbEntity
  8
RACCORDO
100
AcDbLine
 62
7
  6
CONTINUOUS
 10
-44.5087787427
 20
-2.7280660077
 11
-44.5087787427
 21
2.2719339923
  0
LWPOLYLINE
  5
233
100
AcDbEntity
  8
RACCORDO
100
AcDbPolyline
 62
253
  6
CONTINUOUS
 90
16
 70
0
 10
58.924187324
 20
-40.9752892579
 10
59.0229708051
 20
-40.9703416666
 10
59.1171003876
 20
-40.9569360936
 10
59.2065760717
 20
-40.9350725391
 10
59.2918633357
 20
-40.9045051733
 10
59.3724967012
 20
-40.865479826
 10
59.4470797327
 20
-40.8187339857
 10
59.5156906605
 20
-40.763998668
 10
59.5782512543
 20
-40.7015428575
 10
59.6331303877
 20
-40.6329109966
 10
59.6800665571
 20
-40.5580715217
 10
59.719321266
 20
-40.4770559964
 10
59.7500478991
 20
-40.3915035538
 10
59.7719642512
 20
-40.3019605713
 10
59.7853525274
 20
-40.2078806714
 10
59.7902127278
 20
-40.1092638541
  0
LINE
  5
234
100
AcDbEntity
  8
ASSI
100
AcDbLine
 62
7
  6
CONTINUOUS
 10
62.0436748275
 20
-45.2280660077
 11
-63.9576958726
 21
-45.2280660077
  0
LINE
  5
235
100
AcDbEntity
  8
COPY
100
AcDbLine
 62
7
  6
CONTINUOUS
 10
62.0436748275
 20
-45.2280660077
 11
-63.9576958726
 21
-45.2280660077
  0
LINE
  5
236
100
AcDbEntity
  8
RACCORDO
100
AcDbLine
 62
7
  6
CONTINUOUS
 10
61.8109386699
 20
-44.7280660077
 11
-63.7249597149
 21
-44.7280660077
  0
LINE
  5
237
100
AcDbEntity
  8
RACCORDO
100
AcDbLine
 62
253
  6
CONTINUOUS
 10
-60.838208369
 20
-41.8413146617
 11
58.924187324
 21
-41.8413146617
  0
LINE
  5
238
100
AcDbEntity
  8
RACCORDO
100
AcDbLine
 62
253
  6
CONTINUOUS
 10
-60.838208369
 20
-40.9752892579
 11
58.924187324
 21
-40.9752892579
  0
LINE
  5
239
100
AcDbEntity
  8
RACCORDO
100
AcDbLine
 62
7
  6
CONTINUOUS
 10
-40.9052423024
 20
2.2719339923
 11
-40.9052423024
 21
-2.7280660077
  0
LINE
  5
23A
100
AcDbEntity
  8
RACCORDO
100
AcDbLine
 62
253
  6
CONTINUOUS
 10
-40.6052537254
 20
2.2719339923
 11
-40.6052537254
 21
-2.7280660077
  0
LINE
  5
23B
100
AcDbEntity
  8
RACCORDO
100
AcDbLine
 62
253
  6
CONTINUOUS
 10
-39.6070105225
 20
-2.7280660077
 11
-39.6070105225
 21
2.2719339923
  0
LINE
  5
23C
100
AcDbEntity
  8
RACCORDO
100
AcDbLine
 62
7
  6
CONTINUOUS
 10
-39.3070105225
 20
-2.7280660077
 11
-39.3070105225
 21
2.2719339923
  0
LINE
  5
23D
100
AcDbEntity
  8
RACCORDO
100
AcDbLine
 62
253
  6
CONTINUOUS
 10
59.7902127278
 20
-40.1092638541
 11
60.6562381315
 21
-40.1092638541
  0
LINE
  5
23E
100
AcDbEntity
  8
RACCORDO
100
AcDbLine
 62
253
  6
CONTINUOUS
 10
-61.7042337728
 20
-40.1092638541
 11
-62.5702591765
 21
-40.1092638533
  0
LINE
  5
23F
100
AcDbEntity
  8
RACCORDO
100
AcDbLine
 62
7
  6
CONTINUOUS
 10
-34.3570105225
 20
2.2719339923
 11
-34.3570105225
 21
-2.7280660077
  0
LINE
  5
240
100
AcDbEntity
  8
RACCORDO
100
AcDbLine
 62
253
  6
CONTINUOUS
 10
-34.0570105225
 20
2.2719339923
 11
-34.0570105225
 21
-2.7280660077
  0
LINE
  5
241
100
AcDbEntity
  8
RACCORDO
100
AcDbLine
 62
253
  6
CONTINUOUS
 10
-33.0587673196
 20
-2.7280660077
 11
-33.0587673196
 21
2.2719339923
  0
LINE
  5
242
100
AcDbEntity
  8
RACCORDO
100
AcDbLine
 62
7
  6
CONTINUOUS
 10
-32.7587787427
 20
-2.7280660077
 11
-32.7587787427
 21
2.2719339923
  0
LINE
  5
243
100
AcDbEntity
  8
RACCORDO
100
AcDbLine
 62
7
  6
CONTINUOUS
 10
-20.6570105225
 20
-31.7280660077
 11
18.7429894775
 21
-31.7280660077
  0
LINE
  5
244
100
AcDbEntity
  8
RACCORDO
100
AcDbLine
 62
253
  6
CONTINUOUS
 10
19.0429894775
 20
-31.4280660077
 11
-20.9570105225
 21
-31.4280660077
  0
LINE
  5
245
100
AcDbEntity
  8
RACCORDO
100
AcDbLine
 62
7
  6
CONTINUOUS
 10
-29.1552423024
 20
2.2719339923
 11
-29.1552423024
 21
-2.7280660077
  0
LINE
  5
246
100
AcDbEntity
  8
RACCORDO
100
AcDbLine
 62
253
  6
CONTINUOUS
 10
-28.8552537254
 20
2.2719339923
 11
-28.8552537254
 21
-2.7280660077
  0
LINE
  5
247
100
AcDbEntity
  8
RACCORDO
100
AcDbLine
 62
253
  6
CONTINUOUS
 10
-27.8570105225
 20
-2.7280660077
 11
-27.8570105225
 21
2.2719339923
  0
LINE
  5
248
100
AcDbEntity
  8
RACCORDO
100
AcDbLine
 62
7
  6
CONTINUOUS
 10
-27.5570105225
 20
-2.7280660077
 11
-27.5570105225
 21
2.2719339923
  0
LINE
  5
249
100
AcDbEntity
  8
RACCORDO
100
AcDbLine
 62
253
  6
CONTINUOUS
 10
-25.2544038857
 20
-15.2280660077
 11
-25.2544038857
 21
14.7719339923
  0
LINE
  5
24A
100
AcDbEntity
  8
RACCORDO
100
AcDbLine
 62
7
  6
CONTINUOUS
 10
-24.9544153088
 20
-15.2280660077
 11
-24.9544153088
 21
14.7719339923
  0
LINE
  5
24B
100
AcDbEntity
  8
RACCORDO
100
AcDbLine
 62
253
  6
CONTINUOUS
 10
19.0429894775
 20
-27.0280660077
 11
-20.9570105225
 21
-27.0280660077
  0
LINE
  5
24C
100
AcDbEntity
  8
RACCORDO
100
AcDbLine
 62
7
  6
CONTINUOUS
 10
18.7429894775
 20
-26.7280660077
 11
-20.6570105225
 21
-26.7280660077
  0
LINE
  5
24D
100
AcDbEntity
  8
RACCORDO
100
AcDbLine
 62
253
  6
CONTINUOUS
 10
13.0429894775
 20
-25.5254593708
 11
-14.9570105225
 21
-25.5254593708
  0
LINE
  5
24E
100
AcDbEntity
  8
RACCORDO
100
AcDbLine
 62
7
  6
CONTINUOUS
 10
13.0429894775
 20
-25.2254707939
 11
-14.9570105225
 21
-25.2254707939
  0
LINE
  5
24F
100
AcDbEntity
  8
RACCORDO
100
AcDbLine
 62
7
  6
CONTINUOUS
 10
-20.9570105225
 20
30.9719339923
 11
-20.9570105225
 21
26.5719339923
  0
LINE
  5
250
100
AcDbEntity
  8
RACCORDO
100
AcDbLine
 62
7
  6
CONTINUOUS
 10
-20.9570105225
 20
-27.0280660077
 11
-20.9570105225
 21
-31.4280660077
  0
LINE
  5
251
100
AcDbEntity
  8
RACCORDO
100
AcDbLine
 62
253
  6
CONTINUOUS
 10
-20.6570105225
 20
-26.7280660077
 11
-20.6570105225
 21
-31.7280660077
  0
LINE
  5
252
100
AcDbEntity
  8
RACCORDO
100
AcDbLine
 62
253
  6
CONTINUOUS
 10
-20.6570105225
 20
26.2719339923
 11
-20.6570105225
 21
31.2719339923
  0
LINE
  5
253
100
AcDbEntity
  8
RACCORDO
100
AcDbLine
 62
253
  6
CONTINUOUS
 10
-14.9570105225
 20
25.0693273555
 11
-14.9570105225
 21
24.7693387786
  0
LINE
  5
254
100
AcDbEntity
  8
RACCORDO
100
AcDbLine
 62
253
  6
CONTINUOUS
 10
-14.9570105225
 20
-25.5254593708
 11
-14.9570105126
 21
-25.2254707939
  0
LINE
  5
255
100
AcDbEntity
  8
RACCORDO
100
AcDbLine
 62
253
  6
CONTINUOUS
 10
-65.4570105225
 20
-42.9960152001
 11
-62.5702591766
 21
-40.1092638541
  0
LINE
  5
256
100
AcDbEntity
  8
RACCORDO
100
AcDbLine
 62
253
  6
CONTINUOUS
 10
-63.7249597149
 20
-44.7280660077
 11
-60.838208369
 21
-41.8413146617
  0
LINE
  5
257
100
AcDbEntity
  8
RACCORDO
100
AcDbLine
 62
253
  6
CONTINUOUS
 10
-25.2544038857
 20
-15.2280660077
 11
-24.9544153088
 21
-15.2280660077
  0
LINE
  5
258
100
AcDbEntity
  8
RACCORDO
100
AcDbLine
 62
253
  6
CONTINUOUS
 10
23.3403828407
 20
-15.2280660077
 11
23.0403942637
 21
-15.2280659977
  0
LINE
  5
259
100
AcDbEntity
  8
RACCORDO
100
AcDbLine
 62
253
  6
CONTINUOUS
 10
-65.4570105225
 20
42.5398831848
 11
-62.5702591766
 21
39.6531318388
  0
LINE
  5
25A
100
AcDbEntity
  8
RACCORDO
100
AcDbLine
 62
253
  6
CONTINUOUS
 10
-63.7249597149
 20
44.2719339923
 11
-60.838208369
 21
41.3851826464
  0
LINE
  5
25B
100
AcDbEntity
  8
0
100
AcDbLine
 62
7
  6
CONTINUOUS
 10
-9.3570105225
 20
17.0219339923
 11
-9.3570105225
 21
8.2719339923
  0
LINE
  5
25C
100
AcDbEntity
  8
RACCORDO
100
AcDbLine
 62
7
  6
CONTINUOUS
 10
-50.6570105225
 20
-7.7280660077
 11
-48.2570105225
 21
-7.7280660077
  0
LINE
  5
25D
100
AcDbEntity
  8
RACCORDO
100
AcDbLine
 62
7
  6
CONTINUOUS
 10
46.3429894775
 20
-7.7280660077
 11
48.7429894775
 21
-7.7280660077
  0
LINE
  5
25E
100
AcDbEntity
  8
RACCORDO
100
AcDbLine
 62
253
  6
CONTINUOUS
 10
46.0429894775
 20
-7.4280660077
 11
49.0429894775
 21
-7.4280660077
  0
LINE
  5
25F
100
AcDbEntity
  8
RACCORDO
100
AcDbLine
 62
253
  6
CONTINUOUS
 10
-47.9570105225
 20
-7.4280660077
 11
-50.9570105225
 21
-7.4280660077
  0
LINE
  5
260
100
AcDbEntity
  8
RACCORDO
100
AcDbLine
 62
253
  6
CONTINUOUS
 10
52.9044415076
 20
33.7812560262
 11
53.1581061232
 21
33.9414255077
  0
LINE
  5
261
100
AcDbEntity
  8
RACCORDO
100
AcDbLine
 62
253
  6
CONTINUOUS
 10
-48.8996216702
 20
-30.500099906
 11
-49.1532862794
 21
-30.6602693977
  0
LINE
  5
262
100
AcDbEntity
  8
RACCORDO
100
AcDbLine
 62
253
  6
CONTINUOUS
 10
50.8751246336
 20
32.499900094
 11
50.6214600244
 21
32.3397306025
  0
LINE
  5
263
100
AcDbEntity
  8
RACCORDO
100
AcDbLine
 62
253
  6
CONTINUOUS
 10
44.9562837512
 20
28.7626119584
 11
44.702619142
 21
28.6024424669
  0
LINE
  5
264
100
AcDbEntity
  8
RACCORDO
100
AcDbLine
 62
253
  6
CONTINUOUS
 10
-52.7891456787
 20
-32.9560321093
 11
-52.5354810694
 21
-32.7958626178
  0
LINE
  5
265
100
AcDbEntity
  8
RACCORDO
100
AcDbLine
 62
253
  6
CONTINUOUS
 10
-46.8703047962
 20
-29.2187439738
 11
-46.616640187
 21
-29.0585744822
  0
LINE
  5
266
100
AcDbEntity
  8
RACCORDO
100
AcDbLine
 62
253
  6
CONTINUOUS
 10
46.9856006252
 20
30.0439678907
 11
47.2392652343
 21
30.2041373823
  0
LINE
  5
267
100
AcDbEntity
  8
RACCORDO
100
AcDbLine
 62
253
  6
CONTINUOUS
 10
-54.8184625526
 20
-34.2373880415
 11
-55.0721271683
 21
-34.397557523
  0
LINE
  5
268
100
AcDbEntity
  8
RACCORDO
100
AcDbLine
 62
253
  6
CONTINUOUS
 10
46.4404471046
 20
26.2666695163
 11
46.178582692
 21
26.1202897724
  0
LINE
  5
269
100
AcDbEntity
  8
RACCORDO
100
AcDbLine
 62
253
  6
CONTINUOUS
 10
-54.4646376411
 20
-30.1383291314
 11
-54.2027732345
 21
-29.991949377
  0
LINE
  5
26A
100
AcDbEntity
  8
RACCORDO
100
AcDbLine
 62
253
  6
CONTINUOUS
 10
-50.4493834039
 20
-27.8938395658
 11
-50.7112478107
 21
-28.0402193201
  0
LINE
  5
26B
100
AcDbEntity
  8
RACCORDO
100
AcDbLine
 62
253
  6
CONTINUOUS
 10
-56.5595528954
 20
-31.3093671656
 11
-56.8214173022
 21
-31.4557469199
  0
LINE
  5
26C
100
AcDbEntity
  8
RACCORDO
100
AcDbLine
 62
253
  6
CONTINUOUS
 10
48.5353623588
 20
27.4377075505
 11
48.7972267656
 21
27.5840873048
  0
LINE
  5
26D
100
AcDbEntity
  8
RACCORDO
100
AcDbLine
 62
253
  6
CONTINUOUS
 10
54.6455318504
 20
30.8532351503
 11
54.9073962571
 21
30.9996149046
  0
LINE
  5
26E
100
AcDbEntity
  8
RACCORDO
100
AcDbLine
 62
253
  6
CONTINUOUS
 10
52.5506165961
 20
29.6821971161
 11
52.2887521894
 21
29.5358173616
  0
LINE
  5
26F
100
AcDbEntity
  8
RACCORDO
100
AcDbLine
 62
253
  6
CONTINUOUS
 10
-48.3544681496
 20
-26.7228015316
 11
-48.092603737
 21
-26.5764217878
  0
LINE
  5
270
100
AcDbEntity
  8
RACCORDO
100
AcDbLine
 62
253
  6
CONTINUOUS
 10
42.8947462746
 20
-2.7280660077
 11
42.5947576976
 21
-2.7280660144
  0
LINE
  5
271
100
AcDbEntity
  8
RACCORDO
100
AcDbLine
 62
253
  6
CONTINUOUS
 10
31.1447462746
 20
-2.7280660077
 11
30.8447576976
 21
-2.7280660144
  0
LINE
  5
272
100
AcDbEntity
  8
RACCORDO
100
AcDbLine
 62
253
  6
CONTINUOUS
 10
-45.8070105225
 20
-2.7280660077
 11
-46.1070105225
 21
-2.7280660072
  0
LINE
  5
273
100
AcDbEntity
  8
RACCORDO
100
AcDbLine
 62
253
  6
CONTINUOUS
 10
-44.8087673196
 20
-2.7280660077
 11
-44.5087787427
 21
-2.7280660077
  0
LINE
  5
274
100
AcDbEntity
  8
RACCORDO
100
AcDbLine
 62
253
  6
CONTINUOUS
 10
-39.6070105225
 20
-2.7280660077
 11
-39.3070105225
 21
-2.7280660077
  0
LINE
  5
275
100
AcDbEntity
  8
RACCORDO
100
AcDbLine
 62
253
  6
CONTINUOUS
 10
37.6929894775
 20
-2.7280660077
 11
37.3929894775
 21
-2.7280660072
  0
LINE
  5
276
100
AcDbEntity
  8
RACCORDO
100
AcDbLine
 62
253
  6
CONTINUOUS
 10
-33.0587673196
 20
-2.7280660077
 11
-32.7587787427
 21
-2.7280660077
  0
LINE
  5
277
100
AcDbEntity
  8
RACCORDO
100
AcDbLine
 62
253
  6
CONTINUOUS
 10
-27.8570105225
 20
-2.7280660077
 11
-27.5570105225
 21
-2.7280660077
  0
LINE
  5
278
100
AcDbEntity
  8
RACCORDO
100
AcDbLine
 62
253
  6
CONTINUOUS
 10
25.9429894775
 20
-2.7280660077
 11
25.6429894775
 21
-2.7280660072
  0
LINE
  5
279
100
AcDbEntity
  8
RACCORDO
100
AcDbLine
 62
253
  6
CONTINUOUS
 10
26.9412326804
 20
-2.7280660077
 11
27.2412212573
 21
-2.7280660077
  0
LINE
  5
27A
100
AcDbEntity
  8
RACCORDO
100
AcDbLine
 62
253
  6
CONTINUOUS
 10
32.1429894775
 20
-2.7280660077
 11
32.4429894775
 21
-2.7280660077
  0
LINE
  5
27B
100
AcDbEntity
  8
RACCORDO
100
AcDbLine
 62
253
  6
CONTINUOUS
 10
-34.0570105225
 20
-2.7280660077
 11
-34.3570105225
 21
-2.7280660072
  0
LINE
  5
27C
100
AcDbEntity
  8
RACCORDO
100
AcDbLine
 62
253
  6
CONTINUOUS
 10
38.6912326804
 20
-2.7280660077
 11
38.9912212573
 21
-2.7280660077
  0
LINE
  5
27D
100
AcDbEntity
  8
RACCORDO
100
AcDbLine
 62
253
  6
CONTINUOUS
 10
43.8929894775
 20
-2.7280660077
 11
44.1929894775
 21
-2.7280660077
  0
LINE
  5
27E
100
AcDbEntity
  8
RACCORDO
100
AcDbLine
 62
253
  6
CONTINUOUS
 10
-28.8552537254
 20
-2.7280660077
 11
-29.1552423024
 21
-2.7280660144
  0
LINE
  5
27F
100
AcDbEntity
  8
RACCORDO
100
AcDbLine
 62
253
  6
CONTINUOUS
 10
-40.6052537254
 20
-2.7280660077
 11
-40.9052423024
 21
-2.7280660144
  0
LINE
  5
280
100
AcDbEntity
  8
RACCORDO
100
AcDbLine
 62
253
  6
CONTINUOUS
 10
-56.5595528954
 20
30.8532351503
 11
-56.8214172964
 21
30.999614915
  0
LINE
  5
281
100
AcDbEntity
  8
RACCORDO
100
AcDbLine
 62
253
  6
CONTINUOUS
 10
48.5353623589
 20
-27.8938395658
 11
48.7972267657
 21
-28.0402193199
  0
LINE
  5
282
100
AcDbEntity
  8
RACCORDO
100
AcDbLine
 62
253
  6
CONTINUOUS
 10
-54.4646376412
 20
29.6821971161
 11
-54.2027732344
 21
29.5358173618
  0
LINE
  5
283
100
AcDbEntity
  8
RACCORDO
100
AcDbLine
 62
253
  6
CONTINUOUS
 10
-48.3544681496
 20
26.2666695163
 11
-48.0926037429
 21
26.120289762
  0
LINE
  5
284
100
AcDbEntity
  8
RACCORDO
100
AcDbLine
 62
253
  6
CONTINUOUS
 10
52.5506165961
 20
-30.1383291314
 11
52.2887521893
 21
-29.9919493771
  0
LINE
  5
285
100
AcDbEntity
  8
RACCORDO
100
AcDbLine
 62
253
  6
CONTINUOUS
 10
46.4404471046
 20
-26.7228015316
 11
46.1785826978
 21
-26.5764217774
  0
LINE
  5
286
100
AcDbEntity
  8
RACCORDO
100
AcDbLine
 62
253
  6
CONTINUOUS
 10
-50.4493834039
 20
27.4377075505
 11
-50.7112478107
 21
27.5840873046
  0
LINE
  5
287
100
AcDbEntity
  8
RACCORDO
100
AcDbLine
 62
253
  6
CONTINUOUS
 10
54.6455318504
 20
-31.3093671656
 11
54.9073962513
 21
-31.4557469303
  0
LINE
  5
288
100
AcDbEntity
  8
RACCORDO
100
AcDbLine
 62
253
  6
CONTINUOUS
 10
-46.8703047962
 20
28.7626119585
 11
-46.6166401934
 21
28.6024424568
  0
LINE
  5
289
100
AcDbEntity
  8
RACCORDO
100
AcDbLine
 62
253
  6
CONTINUOUS
 10
50.8751246336
 20
-32.9560321093
 11
50.6214600243
 21
-32.795862618
  0
LINE
  5
28A
100
AcDbEntity
  8
RACCORDO
100
AcDbLine
 62
253
  6
CONTINUOUS
 10
46.9856006252
 20
-30.500099906
 11
47.2392652344
 21
-30.6602693975
  0
LINE
  5
28B
100
AcDbEntity
  8
RACCORDO
100
AcDbLine
 62
253
  6
CONTINUOUS
 10
52.9044415076
 20
-34.2373880416
 11
53.1581061169
 21
-34.3975575331
  0
LINE
  5
28C
100
AcDbEntity
  8
RACCORDO
100
AcDbLine
 62
253
  6
CONTINUOUS
 10
-48.8996216702
 20
30.0439678907
 11
-49.1532862795
 21
30.2041373822
  0
LINE
  5
28D
100
AcDbEntity
  8
RACCORDO
100
AcDbLine
 62
253
  6
CONTINUOUS
 10
-54.8184625527
 20
33.7812560262
 11
-55.0721271619
 21
33.9414255178
  0
LINE
  5
28E
100
AcDbEntity
  8
RACCORDO
100
AcDbLine
 62
253
  6
CONTINUOUS
 10
-52.7891456786
 20
32.499900094
 11
-52.5354810693
 21
32.3397306027
  0
LINE
  5
28F
100
AcDbEntity
  8
RACCORDO
100
AcDbLine
 62
253
  6
CONTINUOUS
 10
44.9562837512
 20
-29.2187439738
 11
44.7026191483
 21
-29.0585744722
  0
LINE
  5
290
100
AcDbEntity
  8
RACCORDO
100
AcDbLine
 62
253
  6
CONTINUOUS
 10
38.6912326804
 20
2.2719339923
 11
38.9912212573
 21
2.2719339991
  0
LINE
  5
291
100
AcDbEntity
  8
RACCORDO
100
AcDbLine
 62
253
  6
CONTINUOUS
 10
26.9412326804
 20
2.2719339923
 11
27.2412212573
 21
2.2719339991
  0
LINE
  5
292
100
AcDbEntity
  8
RACCORDO
100
AcDbLine
 62
253
  6
CONTINUOUS
 10
42.8947462746
 20
2.2719339923
 11
42.5947576976
 21
2.2719339923
  0
LINE
  5
293
100
AcDbEntity
  8
RACCORDO
100
AcDbLine
 62
253
  6
CONTINUOUS
 10
-39.6070105225
 20
2.2719339923
 11
-39.3070105225
 21
2.2719339919
  0
LINE
  5
294
100
AcDbEntity
  8
RACCORDO
100
AcDbLine
 62
253
  6
CONTINUOUS
 10
37.6929894775
 20
2.2719339923
 11
37.3929894775
 21
2.2719339923
  0
LINE
  5
295
100
AcDbEntity
  8
RACCORDO
100
AcDbLine
 62
253
  6
CONTINUOUS
 10
31.1447462746
 20
2.2719339923
 11
30.8447576976
 21
2.2719339923
  0
LINE
  5
296
100
AcDbEntity
  8
RACCORDO
100
AcDbLine
 62
253
  6
CONTINUOUS
 10
-27.8570105225
 20
2.2719339923
 11
-27.5570105225
 21
2.2719339919
  0
LINE
  5
297
100
AcDbEntity
  8
RACCORDO
100
AcDbLine
 62
253
  6
CONTINUOUS
 10
25.9429894775
 20
2.2719339923
 11
25.6429894775
 21
2.2719339923
  0
LINE
  5
298
100
AcDbEntity
  8
RACCORDO
100
AcDbLine
 62
253
  6
CONTINUOUS
 10
-28.8552537254
 20
2.2719339923
 11
-29.1552423024
 21
2.2719339923
  0
LINE
  5
299
100
AcDbEntity
  8
RACCORDO
100
AcDbLine
 62
253
  6
CONTINUOUS
 10
32.1429894775
 20
2.2719339923
 11
32.4429894775
 21
2.2719339919
  0
LINE
  5
29A
100
AcDbEntity
  8
RACCORDO
100
AcDbLine
 62
253
  6
CONTINUOUS
 10
-34.0570105225
 20
2.2719339923
 11
-34.3570105225
 21
2.2719339923
  0
LINE
  5
29B
100
AcDbEntity
  8
RACCORDO
100
AcDbLine
 62
253
  6
CONTINUOUS
 10
-40.6052537254
 20
2.2719339923
 11
-40.9052423024
 21
2.2719339923
  0
LINE
  5
29C
100
AcDbEntity
  8
RACCORDO
100
AcDbLine
 62
253
  6
CONTINUOUS
 10
-45.8070105225
 20
2.2719339923
 11
-46.1070105225
 21
2.2719339923
  0
LINE
  5
29D
100
AcDbEntity
  8
RACCORDO
100
AcDbLine
 62
253
  6
CONTINUOUS
 10
43.8929894775
 20
2.2719339923
 11
44.1929894775
 21
2.2719339919
  0
LINE
  5
29E
100
AcDbEntity
  8
RACCORDO
100
AcDbLine
 62
253
  6
CONTINUOUS
 10
-33.0587673196
 20
2.2719339923
 11
-32.7587787427
 21
2.2719339991
  0
LINE
  5
29F
100
AcDbEntity
  8
RACCORDO
100
AcDbLine
 62
253
  6
CONTINUOUS
 10
-44.8087673196
 20
2.2719339923
 11
-44.5087787427
 21
2.2719339991
  0
LINE
  5
2A0
100
AcDbEntity
  8
0
100
AcDbLine
 62
7
  6
CONTINUOUS
 10
8.0429894775
 20
8.2719339923
 11
8.0429894775
 21
17.0219339923
  0
LINE
  5
2A1
100
AcDbEntity
  8
RACCORDO
100
AcDbLine
 62
253
  6
CONTINUOUS
 10
46.0429894775
 20
6.9719339923
 11
49.0429894775
 21
6.9719339923
  0
LINE
  5
2A2
100
AcDbEntity
  8
RACCORDO
100
AcDbLine
 62
253
  6
CONTINUOUS
 10
-47.9570105225
 20
6.9719339923
 11
-50.9570105225
 21
6.9719339923
  0
LINE
  5
2A3
100
AcDbEntity
  8
RACCORDO
100
AcDbLine
 62
7
  6
CONTINUOUS
 10
48.7429894775
 20
7.2719339923
 11
46.3429894775
 21
7.2719339923
  0
LINE
  5
2A4
100
AcDbEntity
  8
RACCORDO
100
AcDbLine
 62
7
  6
CONTINUOUS
 10
-48.2570105225
 20
7.2719339923
 11
-50.6570105225
 21
7.2719339923
  0
LINE
  5
2A5
100
AcDbEntity
  8
0
100
AcDbLine
 62
7
  6
CONTINUOUS
 10
-9.3570105225
 20
8.2719339923
 11
8.0429894775
 21
8.2719339923
  0
LINE
  5
2A6
100
AcDbEntity
  8
RACCORDO
100
AcDbLine
 62
253
  6
CONTINUOUS
 10
13.0429894775
 20
25.0693273555
 11
13.0429894675
 21
24.7693387786
  0
LINE
  5
2A7
100
AcDbEntity
  8
RACCORDO
100
AcDbLine
 62
253
  6
CONTINUOUS
 10
13.0429894775
 20
-25.5254593708
 11
13.0429894775
 21
-25.2254707939
  0
LINE
  5
2A8
100
AcDbEntity
  8
RACCORDO
100
AcDbLine
 62
253
  6
CONTINUOUS
 10
61.8109386699
 20
44.2719339923
 11
58.924187324
 21
41.3851826464
  0
LINE
  5
2A9
100
AcDbEntity
  8
RACCORDO
100
AcDbLine
 62
253
  6
CONTINUOUS
 10
63.5429894775
 20
42.5398831848
 11
60.6562381315
 21
39.6531318388
  0
LINE
  5
2AA
100
AcDbEntity
  8
RACCORDO
100
AcDbLine
 62
253
  6
CONTINUOUS
 10
-25.2544038857
 20
14.7719339923
 11
-24.9544153088
 21
14.7719339824
  0
LINE
  5
2AB
100
AcDbEntity
  8
RACCORDO
100
AcDbLine
 62
253
  6
CONTINUOUS
 10
23.3403828407
 20
14.7719339923
 11
23.0403942637
 21
14.7719339923
  0
LINE
  5
2AC
100
AcDbEntity
  8
0
100
AcDbLine
 62
7
  6
CONTINUOUS
 10
8.0429894775
 20
17.0219339923
 11
-9.3570105225
 21
17.0219339923
  0
LINE
  5
2AD
100
AcDbEntity
  8
RACCORDO
100
AcDbLine
 62
253
  6
CONTINUOUS
 10
61.8109386699
 20
-44.7280660077
 11
58.924187324
 21
-41.8413146617
  0
LINE
  5
2AE
100
AcDbEntity
  8
RACCORDO
100
AcDbLine
 62
253
  6
CONTINUOUS
 10
63.5429894775
 20
-42.9960152001
 11
60.6562381315
 21
-40.1092638541
  0
LINE
  5
2AF
100
AcDbEntity
  8
RACCORDO
100
AcDbLine
 62
253
  6
CONTINUOUS
 10
18.7429894775
 20
-26.7280660077
 11
18.7429894775
 21
-31.7280660077
  0
LINE
  5
2B0
100
AcDbEntity
  8
RACCORDO
100
AcDbLine
 62
253
  6
CONTINUOUS
 10
18.7429894775
 20
26.2719339923
 11
18.7429894775
 21
31.2719339923
  0
LINE
  5
2B1
100
AcDbEntity
  8
RACCORDO
100
AcDbLine
 62
7
  6
CONTINUOUS
 10
19.0429894775
 20
-31.4280660077
 11
19.0429894775
 21
-27.0280660077
  0
LINE
  5
2B2
100
AcDbEntity
  8
RACCORDO
100
AcDbLine
 62
7
  6
CONTINUOUS
 10
19.0429894775
 20
26.5719339923
 11
19.0429894775
 21
30.9719339923
  0
LINE
  5
2B3
100
AcDbEntity
  8
RACCORDO
100
AcDbLine
 62
7
  6
CONTINUOUS
 10
23.0403942637
 20
14.7719339923
 11
23.0403942637
 21
-15.2280660077
  0
LINE
  5
2B4
100
AcDbEntity
  8
RACCORDO
100
AcDbLine
 62
253
  6
CONTINUOUS
 10
23.3403828407
 20
14.7719339923
 11
23.3403828407
 21
-15.2280660077
  0
LINE
  5
2B5
100
AcDbEntity
  8
RACCORDO
100
AcDbLine
 62
7
  6
CONTINUOUS
 10
25.6429894775
 20
2.2719339923
 11
25.6429894775
 21
-2.7280660077
  0
LINE
  5
2B6
100
AcDbEntity
  8
RACCORDO
100
AcDbLine
 62
253
  6
CONTINUOUS
 10
25.9429894775
 20
2.2719339923
 11
25.9429894775
 21
-2.7280660077
  0
LINE
  5
2B7
100
AcDbEntity
  8
RACCORDO
100
AcDbLine
 62
253
  6
CONTINUOUS
 10
26.9412326804
 20
-2.7280660077
 11
26.9412326804
 21
2.2719339923
  0
LINE
  5
2B8
100
AcDbEntity
  8
RACCORDO
100
AcDbLine
 62
7
  6
CONTINUOUS
 10
27.2412212573
 20
-2.7280660077
 11
27.2412212573
 21
2.2719339923
  0
LINE
  5
2B9
100
AcDbEntity
  8
RACCORDO
100
AcDbLine
 62
7
  6
CONTINUOUS
 10
-14.9570105225
 20
24.7693387786
 11
13.0429894775
 21
24.7693387786
  0
LINE
  5
2BA
100
AcDbEntity
  8
RACCORDO
100
AcDbLine
 62
253
  6
CONTINUOUS
 10
-14.9570105225
 20
25.0693273555
 11
13.0429894775
 21
25.0693273555
  0
LINE
  5
2BB
100
AcDbEntity
  8
RACCORDO
100
AcDbLine
 62
7
  6
CONTINUOUS
 10
-20.6570105225
 20
26.2719339923
 11
18.7429894775
 21
26.2719339923
  0
LINE
  5
2BC
100
AcDbEntity
  8
RACCORDO
100
AcDbLine
 62
253
  6
CONTINUOUS
 10
19.0429894775
 20
26.5719339923
 11
-20.9570105225
 21
26.5719339923
  0
LINE
  5
2BD
100
AcDbEntity
  8
RACCORDO
100
AcDbLine
 62
7
  6
CONTINUOUS
 10
30.8447576976
 20
2.2719339923
 11
30.8447576976
 21
-2.7280660077
  0
LINE
  5
2BE
100
AcDbEntity
  8
RACCORDO
100
AcDbLine
 62
253
  6
CONTINUOUS
 10
31.1447462746
 20
2.2719339923
 11
31.1447462746
 21
-2.7280660077
  0
LINE
  5
2BF
100
AcDbEntity
  8
RACCORDO
100
AcDbLine
 62
253
  6
CONTINUOUS
 10
32.1429894775
 20
-2.7280660077
 11
32.1429894775
 21
2.2719339923
  0
LINE
  5
2C0
100
AcDbEntity
  8
RACCORDO
100
AcDbLine
 62
7
  6
CONTINUOUS
 10
32.4429894775
 20
-2.7280660077
 11
32.4429894775
 21
2.2719339923
  0
LINE
  5
2C1
100
AcDbEntity
  8
RACCORDO
100
AcDbLine
 62
253
  6
CONTINUOUS
 10
19.0429894775
 20
30.9719339923
 11
-20.9570105225
 21
30.9719339923
  0
LINE
  5
2C2
100
AcDbEntity
  8
RACCORDO
100
AcDbLine
 62
7
  6
CONTINUOUS
 10
18.7429894775
 20
31.2719339923
 11
-20.6570105225
 21
31.2719339923
  0
LINE
  5
2C3
100
AcDbEntity
  8
RACCORDO
100
AcDbLine
 62
7
  6
CONTINUOUS
 10
37.3929894775
 20
2.2719339923
 11
37.3929894775
 21
-2.7280660077
  0
LINE
  5
2C4
100
AcDbEntity
  8
RACCORDO
100
AcDbLine
 62
253
  6
CONTINUOUS
 10
37.6929894775
 20
2.2719339923
 11
37.6929894775
 21
-2.7280660077
  0
LINE
  5
2C5
100
AcDbEntity
  8
RACCORDO
100
AcDbLine
 62
253
  6
CONTINUOUS
 10
38.6912326804
 20
-2.7280660077
 11
38.6912326804
 21
2.2719339923
  0
LINE
  5
2C6
100
AcDbEntity
  8
RACCORDO
100
AcDbLine
 62
7
  6
CONTINUOUS
 10
38.9912212573
 20
-2.7280660077
 11
38.9912212573
 21
2.2719339923
  0
LINE
  5
2C7
100
AcDbEntity
  8
RACCORDO
100
AcDbLine
 62
253
  6
CONTINUOUS
 10
59.7902127278
 20
39.6531318388
 11
60.6562381315
 21
39.653131838
  0
LINE
  5
2C8
100
AcDbEntity
  8
RACCORDO
100
AcDbLine
 62
253
  6
CONTINUOUS
 10
-61.7042337728
 20
39.6531318388
 11
-62.5702591766
 21
39.6531318388
  0
LINE
  5
2C9
100
AcDbEntity
  8
RACCORDO
100
AcDbLine
 62
253
  6
CONTINUOUS
 10
58.924187324
 20
40.5191572426
 11
-60.838208369
 21
40.5191572426
  0
LINE
  5
2CA
100
AcDbEntity
  8
RACCORDO
100
AcDbLine
 62
253
  6
CONTINUOUS
 10
58.924187324
 20
41.3851826464
 11
-60.838208369
 21
41.3851826464
  0
LINE
  5
2CB
100
AcDbEntity
  8
RACCORDO
100
AcDbLine
 62
7
  6
CONTINUOUS
 10
42.5947576976
 20
2.2719339923
 11
42.5947576976
 21
-2.7280660077
  0
LINE
  5
2CC
100
AcDbEntity
  8
RACCORDO
100
AcDbLine
 62
253
  6
CONTINUOUS
 10
42.8947462746
 20
2.2719339923
 11
42.8947462746
 21
-2.7280660077
  0
LINE
  5
2CD
100
AcDbEntity
  8
RACCORDO
100
AcDbLine
 62
253
  6
CONTINUOUS
 10
43.8929894775
 20
-2.7280660077
 11
43.8929894775
 21
2.2719339923
  0
LINE
  5
2CE
100
AcDbEntity
  8
RACCORDO
100
AcDbLine
 62
7
  6
CONTINUOUS
 10
44.1929894775
 20
-2.7280660077
 11
44.1929894775
 21
2.2719339923
  0
LINE
  5
2CF
100
AcDbEntity
  8
RACCORDO
100
AcDbLine
 62
7
  6
CONTINUOUS
 10
46.0429894775
 20
6.9719339923
 11
46.0429894775
 21
-7.4280660077
  0
LINE
  5
2D0
100
AcDbEntity
  8
RACCORDO
100
AcDbLine
 62
253
  6
CONTINUOUS
 10
46.3429894775
 20
-7.7280660077
 11
46.3429894775
 21
7.2719339923
  0
LWPOLYLINE
  5
2D1
100
AcDbEntity
  8
RACCORDO
100
AcDbPolyline
 62
253
  6
CONTINUOUS
 90
16
 70
0
 10
-60.838208369
 20
40.5191572426
 10
-60.9369918501
 20
40.5142096513
 10
-61.0311214327
 20
40.5008040783
 10
-61.1205971167
 20
40.4789405238
 10
-61.2058843807
 20
40.448373158
 10
-61.2865177463
 20
40.4093478106
 10
-61.3611007778
 20
40.3626019704
 10
-61.4297117056
 20
40.3078666527
 10
-61.4922722993
 20
40.2454108422
 10
-61.5471514327
 20
40.1767789813
 10
-61.5940876021
 20
40.1019395064
 10
-61.6333423111
 20
40.0209239811
 10
-61.6640689442
 20
39.9353715385
 10
-61.6859852962
 20
39.845828556
 10
-61.6993735724
 20
39.7517486561
 10
-61.7042337728
 20
39.6531318388
  0
LINE
  5
2D2
100
AcDbEntity
  8
RACCORDO
100
AcDbLine
 62
7
  6
CONTINUOUS
 10
-63.7249597149
 20
44.2719339923
 11
61.8109386699
 21
44.2719339923
  0
LINE
  5
2D3
100
AcDbEntity
  8
ASSI
100
AcDbLine
 62
7
  6
CONTINUOUS
 10
-63.9576958726
 20
44.7719339923
 11
62.0436748275
 21
44.7719339923
  0
LINE
  5
2D4
100
AcDbEntity
  8
COPY
100
AcDbLine
 62
7
  6
CONTINUOUS
 10
-63.9576958726
 20
44.7719339923
 11
62.0436748275
 21
44.7719339923
  0
LINE
  5
2D5
100
AcDbEntity
  8
RACCORDO
100
AcDbLine
 62
253
  6
CONTINUOUS
 10
48.7429894775
 20
-7.7280660077
 11
48.7429894775
 21
7.2719339923
  0
LINE
  5
2D6
100
AcDbEntity
  8
RACCORDO
100
AcDbLine
 62
7
  6
CONTINUOUS
 10
49.0429894775
 20
-7.4280660077
 11
49.0429894775
 21
6.9719339923
  0
LWPOLYLINE
  5
2D7
100
AcDbEntity
  8
RACCORDO
100
AcDbPolyline
 62
253
  6
CONTINUOUS
 90
16
 70
0
 10
-60.838208369
 20
41.3851826464
 10
-61.0158223296
 20
41.3574889572
 10
-61.1888070145
 20
41.3141380483
 10
-61.3559616059
 20
41.2557746708
 10
-61.5158321151
 20
41.1833508487
 10
-61.6676597108
 20
41.0974949271
 10
-61.8112695217
 20
40.9982590533
 10
-61.9459634562
 20
40.8859847819
 10
-62.0702472682
 20
40.7618293271
 10
-62.1827753533
 20
40.6270455961
 10
-62.2824271775
 20
40.4829065004
 10
-62.3687109109
 20
40.3302763207
 10
-62.4413023852
 20
40.1698850798
 10
-62.4995799615
 20
40.0027177679
 10
-62.5427530272
 20
39.8300651751
 10
-62.5702591766
 20
39.6531318388
  0
LINE
  5
2D8
100
AcDbEntity
  8
RACCORDO
100
AcDbLine
 62
7
  6
CONTINUOUS
 10
47.2392652344
 20
-30.6602693975
 11
48.7972267657
 21
-28.0402193199
  0
LINE
  5
2D9
100
AcDbEntity
  8
RACCORDO
100
AcDbLine
 62
7
  6
CONTINUOUS
 10
48.7972267656
 20
27.5840873048
 11
47.2392652343
 21
30.2041373823
  0
LWPOLYLINE
  5
2DA
100
AcDbEntity
  8
RACCORDO
100
AcDbPolyline
 62
253
  6
CONTINUOUS
 90
16
 70
0
 10
59.7902127278
 20
39.6531318388
 10
59.7852651364
 20
39.7519153199
 10
59.7718595635
 20
39.8460449025
 10
59.7499960089
 20
39.9355205865
 10
59.7194286431
 20
40.0208078506
 10
59.6804032958
 20
40.1014412161
 10
59.6336574556
 20
40.1760242476
 10
59.5789221379
 20
40.2446351754
 10
59.5164663273
 20
40.3071957692
 10
59.4478344664
 20
40.3620749026
 10
59.3729949915
 20
40.4090110719
 10
59.2919794663
 20
40.4482657809
 10
59.2064270236
 20
40.478992414
 10
59.1168840411
 20
40.5009087661
 10
59.0228041413
 20
40.5142970423
 10
58.924187324
 20
40.5191572426
  0
LINE
  5
2DB
100
AcDbEntity
  8
RACCORDO
100
AcDbLine
 62
253
  6
CONTINUOUS
 10
58.924187324
 20
-40.9752892579
 11
58.9241873231
 21
-41.8413146616
  0
LINE
  5
2DC
100
AcDbEntity
  8
RACCORDO
100
AcDbLine
 62
253
  6
CONTINUOUS
 10
58.924187324
 20
40.5191572426
 11
58.924187324
 21
41.3851826464
  0
LINE
  5
2DD
100
AcDbEntity
  8
RACCORDO
100
AcDbLine
 62
253
  6
CONTINUOUS
 10
59.7902127278
 20
-40.1092638541
 11
59.7902127278
 21
39.6531318388
  0
LINE
  5
2DE
100
AcDbEntity
  8
RACCORDO
100
AcDbLine
 62
253
  6
CONTINUOUS
 10
60.6562381315
 20
-40.1092638541
 11
60.6562381315
 21
39.6531318388
  0
LINE
  5
2DF
100
AcDbEntity
  8
RACCORDO
100
AcDbLine
 62
7
  6
CONTINUOUS
 10
63.5429894775
 20
42.5398831848
 11
63.5429894775
 21
-42.9960152001
  0
LINE
  5
2E0
100
AcDbEntity
  8
ASSI
100
AcDbLine
 62
7
  6
CONTINUOUS
 10
64.0429894775
 20
42.7726193424
 11
64.0429894775
 21
-43.2287513577
  0
LINE
  5
2E1
100
AcDbEntity
  8
COPY
100
AcDbLine
 62
7
  6
CONTINUOUS
 10
64.0429894775
 20
42.7726193424
 11
64.0429894775
 21
-43.2287513577
  0
LINE
  5
2E2
100
AcDbEntity
  8
RACCORDO
100
AcDbLine
 62
7
  6
CONTINUOUS
 10
53.1581061169
 20
-34.3975575331
 11
54.9073962513
 21
-31.4557469303
  0
LINE
  5
2E3
100
AcDbEntity
  8
RACCORDO
100
AcDbLine
 62
7
  6
CONTINUOUS
 10
54.9073962571
 20
30.9996149046
 11
53.1581061232
 21
33.9414255077
  0
LWPOLYLINE
  5
2E4
100
AcDbEntity
  8
RACCORDO
100
AcDbPolyline
 62
253
  6
CONTINUOUS
 90
16
 70
0
 10
60.6562381315
 20
39.6531318388
 10
60.6285444423
 20
39.8307457994
 10
60.5851935334
 20
40.0037304843
 10
60.5268301559
 20
40.1708850757
 10
60.4544063338
 20
40.3307555849
 10
60.3685504122
 20
40.4825831806
 10
60.2693145384
 20
40.6261929915
 10
60.157040267
 20
40.7608869261
 10
60.0328848123
 20
40.8851707381
 10
59.8981010813
 20
40.9976988231
 10
59.7539619856
 20
41.0973506473
 10
59.6013318059
 20
41.1836343808
 10
59.440940565
 20
41.2562258551
 10
59.273773253
 20
41.3145034314
 10
59.1011206603
 20
41.357676497
 10
58.924187324
 20
41.3851826464
  0
ARC
  5
2E5
100
AcDbEntity
  8
RACCORDO
100
AcDbCircle
 62
7
  6
CONTINUOUS
 10
-52.4570105225
 20
-29.0160843486
 40
5.0
100
AcDbArc
 50
29.2047820855
 51
209.2047820855
  0
ARC
  5
2E6
100
AcDbEntity
  8
RACCORDO
100
AcDbCircle
 62
7
  6
CONTINUOUS
 10
-50.8443836744
 20
-31.7280660077
 40
5.0
100
AcDbArc
 50
212.2692279871
 51
32.2692279871
  0
ARC
  5
2E7
100
AcDbEntity
  8
RACCORDO
100
AcDbCircle
 62
253
  6
CONTINUOUS
 10
-50.8443836744
 20
-31.7280660077
 40
4.6999843201
100
AcDbArc
 50
212.2692279871
 51
32.2692279871
  0
ARC
  5
2E8
100
AcDbEntity
  8
RACCORDO
100
AcDbCircle
 62
253
  6
CONTINUOUS
 10
-52.4570105225
 20
-29.0160843486
 40
4.6999843201
100
AcDbArc
 50
29.2047820855
 51
209.2047820855
  0
ARC
  5
2E9
100
AcDbEntity
  8
RACCORDO
100
AcDbCircle
 62
253
  6
CONTINUOUS
 10
-52.4570105225
 20
-29.0160843486
 40
2.2999925401
100
AcDbArc
 50
29.2047820855
 51
209.2047820855
  0
ARC
  5
2EA
100
AcDbEntity
  8
RACCORDO
100
AcDbCircle
 62
253
  6
CONTINUOUS
 10
-50.8443836744
 20
-31.7280660077
 40
2.2999925401
100
AcDbArc
 50
212.2692279871
 51
32.2692279871
  0
ARC
  5
2EB
100
AcDbEntity
  8
RACCORDO
100
AcDbCircle
 62
7
  6
CONTINUOUS
 10
-50.8443836744
 20
-31.7280660077
 40
2.0
100
AcDbArc
 50
212.2692279871
 51
32.2692279871
  0
ARC
  5
2EC
100
AcDbEntity
  8
RACCORDO
100
AcDbCircle
 62
7
  6
CONTINUOUS
 10
-52.4570105225
 20
-29.0160843486
 40
2.0
100
AcDbArc
 50
29.2047820855
 51
209.2047820855
  0
ARC
  5
2ED
100
AcDbEntity
  8
RACCORDO
100
AcDbCircle
 62
7
  6
CONTINUOUS
 10
-42.7070105225
 20
-2.7280660077
 40
3.4
100
AcDbArc
 50
180.0
 51
360.0
  0
ARC
  5
2EE
100
AcDbEntity
  8
RACCORDO
100
AcDbCircle
 62
253
  6
CONTINUOUS
 10
-42.7070105225
 20
-2.7280660077
 40
3.0999667481
100
AcDbArc
 50
180.0
 51
360.0
  0
ARC
  5
2EF
100
AcDbEntity
  8
RACCORDO
100
AcDbCircle
 62
253
  6
CONTINUOUS
 10
-42.7070105225
 20
-2.7280660077
 40
2.1017518471
100
AcDbArc
 50
180.0
 51
360.0
  0
ARC
  5
2F0
100
AcDbEntity
  8
RACCORDO
100
AcDbCircle
 62
7
  6
CONTINUOUS
 10
-42.7070105225
 20
-2.7280660077
 40
1.8017682198
100
AcDbArc
 50
180.0
 51
360.0
  0
ARC
  5
2F1
100
AcDbEntity
  8
DRAFT
100
AcDbCircle
 62
7
  6
CONTINUOUS
 10
-42.7070105225
 20
-2.7280660077
 40
1.7851643248
100
AcDbArc
 50
180.0
 51
360.0
  0
ARC
  5
2F2
100
AcDbEntity
  8
RACCORDO
100
AcDbCircle
 62
7
  6
CONTINUOUS
 10
-48.2570105225
 20
-7.4280660077
 40
0.3
100
AcDbArc
 50
270.0
 51
360.0
  0
ARC
  5
2F3
100
AcDbEntity
  8
RACCORDO
100
AcDbCircle
 62
7
  6
CONTINUOUS
 10
-50.6570105225
 20
-7.4280660077
 40
0.3
100
AcDbArc
 50
180.0
 51
270.0
  0
ARC
  5
2F4
100
AcDbEntity
  8
RACCORDO
100
AcDbCircle
 62
7
  6
CONTINUOUS
 10
-20.6570105225
 20
-27.0280660077
 40
0.3
100
AcDbArc
 50
90.0
 51
180.0
  0
ARC
  5
2F5
100
AcDbEntity
  8
RACCORDO
100
AcDbCircle
 62
7
  6
CONTINUOUS
 10
-20.6570105225
 20
-31.4280660077
 40
0.3
100
AcDbArc
 50
180.0
 51
270.0
  0
ARC
  5
2F6
100
AcDbEntity
  8
RACCORDO
100
AcDbCircle
 62
253
  6
CONTINUOUS
 10
-14.9570105225
 20
-15.2280660077
 40
10.2973891632
100
AcDbArc
 50
180.0
 51
270.0
  0
ARC
  5
2F7
100
AcDbEntity
  8
RACCORDO
100
AcDbCircle
 62
7
  6
CONTINUOUS
 10
-14.9570105225
 20
-15.2280660077
 40
9.9974047859
100
AcDbArc
 50
180.0
 51
270.0
  0
ARC
  5
2F8
100
AcDbEntity
  8
RACCORDO
100
AcDbCircle
 62
7
  6
CONTINUOUS
 10
-14.9570105225
 20
-15.2280660077
 40
9.9747035069
100
AcDbArc
 50
179.9999999497
 51
270.0000000554
  0
ARC
  5
2F9
100
AcDbEntity
  8
RACCORDO
100
AcDbCircle
 62
7
  6
CONTINUOUS
 10
-30.9570105225
 20
-2.7280660077
 40
3.4
100
AcDbArc
 50
180.0
 51
360.0
  0
ARC
  5
2FA
100
AcDbEntity
  8
RACCORDO
100
AcDbCircle
 62
253
  6
CONTINUOUS
 10
-30.9570105225
 20
-2.7280660077
 40
3.0999667481
100
AcDbArc
 50
180.0
 51
360.0
  0
ARC
  5
2FB
100
AcDbEntity
  8
RACCORDO
100
AcDbCircle
 62
253
  6
CONTINUOUS
 10
-30.9570105225
 20
-2.7280660077
 40
2.1017518471
100
AcDbArc
 50
180.0
 51
360.0
  0
ARC
  5
2FC
100
AcDbEntity
  8
RACCORDO
100
AcDbCircle
 62
7
  6
CONTINUOUS
 10
-30.9570105225
 20
-2.7280660077
 40
1.8017682198
100
AcDbArc
 50
180.0
 51
360.0
  0
ARC
  5
2FD
100
AcDbEntity
  8
DRAFT
100
AcDbCircle
 62
7
  6
CONTINUOUS
 10
-30.9570105225
 20
-2.7280660077
 40
1.7851643248
100
AcDbArc
 50
180.0
 51
360.0
  0
ARC
  5
2FE
100
AcDbEntity
  8
RACCORDO
100
AcDbCircle
 62
7
  6
CONTINUOUS
 10
-42.7070105225
 20
2.2719339923
 40
3.4
100
AcDbArc
 50
0.0
 51
180.0
  0
ARC
  5
2FF
100
AcDbEntity
  8
RACCORDO
100
AcDbCircle
 62
253
  6
CONTINUOUS
 10
-42.7070105225
 20
2.2719339923
 40
3.0999667481
100
AcDbArc
 50
0.0
 51
180.0
  0
ARC
  5
300
100
AcDbEntity
  8
RACCORDO
100
AcDbCircle
 62
253
  6
CONTINUOUS
 10
-42.7070105225
 20
2.2719339923
 40
2.1017518471
100
AcDbArc
 50
0.0
 51
180.0
  0
ARC
  5
301
100
AcDbEntity
  8
RACCORDO
100
AcDbCircle
 62
7
  6
CONTINUOUS
 10
-42.7070105225
 20
2.2719339923
 40
1.8017682198
100
AcDbArc
 50
0.0
 51
180.0
  0
ARC
  5
302
100
AcDbEntity
  8
DRAFT
100
AcDbCircle
 62
7
  6
CONTINUOUS
 10
-42.7070105225
 20
2.2719339923
 40
1.7851643248
100
AcDbArc
 50
0.0
 51
180.0
  0
ARC
  5
303
100
AcDbEntity
  8
RACCORDO
100
AcDbCircle
 62
7
  6
CONTINUOUS
 10
-48.2570105225
 20
6.9719339923
 40
0.3
100
AcDbArc
 50
0.0
 51
90.0
  0
ARC
  5
304
100
AcDbEntity
  8
RACCORDO
100
AcDbCircle
 62
7
  6
CONTINUOUS
 10
-50.6570105225
 20
6.9719339923
 40
0.3
100
AcDbArc
 50
90.0
 51
180.0
  0
ARC
  5
305
100
AcDbEntity
  8
RACCORDO
100
AcDbCircle
 62
7
  6
CONTINUOUS
 10
-50.8443836744
 20
31.2719339923
 40
5.0
100
AcDbArc
 50
327.7307720129
 51
147.7307720129
  0
ARC
  5
306
100
AcDbEntity
  8
RACCORDO
100
AcDbCircle
 62
7
  6
CONTINUOUS
 10
-52.4570105225
 20
28.5599523333
 40
5.0
100
AcDbArc
 50
150.7952179145
 51
330.7952179145
  0
ARC
  5
307
100
AcDbEntity
  8
RACCORDO
100
AcDbCircle
 62
253
  6
CONTINUOUS
 10
-50.8443836744
 20
31.2719339923
 40
4.6999843201
100
AcDbArc
 50
327.7307720129
 51
147.7307720129
  0
ARC
  5
308
100
AcDbEntity
  8
RACCORDO
100
AcDbCircle
 62
253
  6
CONTINUOUS
 10
-52.4570105225
 20
28.5599523333
 40
4.6999843201
100
AcDbArc
 50
150.7952179145
 51
330.7952179145
  0
ARC
  5
309
100
AcDbEntity
  8
RACCORDO
100
AcDbCircle
 62
253
  6
CONTINUOUS
 10
-52.4570105225
 20
28.5599523333
 40
2.2999925401
100
AcDbArc
 50
150.7952179145
 51
330.7952179145
  0
ARC
  5
30A
100
AcDbEntity
  8
RACCORDO
100
AcDbCircle
 62
253
  6
CONTINUOUS
 10
-50.8443836744
 20
31.2719339923
 40
2.2999925401
100
AcDbArc
 50
327.7307720129
 51
147.7307720129
  0
ARC
  5
30B
100
AcDbEntity
  8
RACCORDO
100
AcDbCircle
 62
7
  6
CONTINUOUS
 10
-52.4570105225
 20
28.5599523333
 40
2.0
100
AcDbArc
 50
150.7952179145
 51
330.7952179145
  0
ARC
  5
30C
100
AcDbEntity
  8
RACCORDO
100
AcDbCircle
 62
7
  6
CONTINUOUS
 10
-50.8443836744
 20
31.2719339923
 40
2.0
100
AcDbArc
 50
327.7307720129
 51
147.7307720129
  0
ARC
  5
30D
100
AcDbEntity
  8
RACCORDO
100
AcDbCircle
 62
253
  6
CONTINUOUS
 10
-14.9570105225
 20
14.7719339923
 40
10.2973891632
100
AcDbArc
 50
90.0
 51
180.0
  0
ARC
  5
30E
100
AcDbEntity
  8
RACCORDO
100
AcDbCircle
 62
7
  6
CONTINUOUS
 10
-14.9570105225
 20
14.7719339923
 40
9.9974047859
100
AcDbArc
 50
90.0
 51
180.0
  0
ARC
  5
30F
100
AcDbEntity
  8
RACCORDO
100
AcDbCircle
 62
7
  6
CONTINUOUS
 10
-14.9570105225
 20
14.7719339923
 40
9.9747035069
100
AcDbArc
 50
89.9999999497
 51
180.0000000554
  0
ARC
  5
310
100
AcDbEntity
  8
RACCORDO
100
AcDbCircle
 62
7
  6
CONTINUOUS
 10
-30.9570105225
 20
2.2719339923
 40
3.4
100
AcDbArc
 50
0.0
 51
180.0
  0
ARC
  5
311
100
AcDbEntity
  8
RACCORDO
100
AcDbCircle
 62
253
  6
CONTINUOUS
 10
-30.9570105225
 20
2.2719339923
 40
3.0999667481
100
AcDbArc
 50
0.0
 51
180.0
  0
ARC
  5
312
100
AcDbEntity
  8
RACCORDO
100
AcDbCircle
 62
253
  6
CONTINUOUS
 10
-30.9570105225
 20
2.2719339923
 40
2.1017518471
100
AcDbArc
 50
0.0
 51
180.0
  0
ARC
  5
313
100
AcDbEntity
  8
RACCORDO
100
AcDbCircle
 62
7
  6
CONTINUOUS
 10
-30.9570105225
 20
2.2719339923
 40
1.8017682198
100
AcDbArc
 50
0.0
 51
180.0
  0
ARC
  5
314
100
AcDbEntity
  8
DRAFT
100
AcDbCircle
 62
7
  6
CONTINUOUS
 10
-30.9570105225
 20
2.2719339923
 40
1.7851643248
100
AcDbArc
 50
0.0
 51
180.0
  0
ARC
  5
315
100
AcDbEntity
  8
RACCORDO
100
AcDbCircle
 62
7
  6
CONTINUOUS
 10
-20.6570105225
 20
26.5719339923
 40
0.3
100
AcDbArc
 50
180.0
 51
270.0
  0
ARC
  5
316
100
AcDbEntity
  8
RACCORDO
100
AcDbCircle
 62
7
  6
CONTINUOUS
 10
-20.6570105225
 20
30.9719339923
 40
0.3
100
AcDbArc
 50
90.0
 51
180.0
  0
ARC
  5
317
100
AcDbEntity
  8
RACCORDO
100
AcDbCircle
 62
7
  6
CONTINUOUS
 10
18.7429894775
 20
-27.0280660077
 40
0.3
100
AcDbArc
 50
0.0
 51
90.0
  0
ARC
  5
318
100
AcDbEntity
  8
RACCORDO
100
AcDbCircle
 62
7
  6
CONTINUOUS
 10
18.7429894775
 20
-31.4280660077
 40
0.3
100
AcDbArc
 50
270.0
 51
360.0
  0
ARC
  5
319
100
AcDbEntity
  8
RACCORDO
100
AcDbCircle
 62
253
  6
CONTINUOUS
 10
13.0429894775
 20
-15.2280660077
 40
10.2973891632
100
AcDbArc
 50
270.0
 51
360.0
  0
ARC
  5
31A
100
AcDbEntity
  8
RACCORDO
100
AcDbCircle
 62
7
  6
CONTINUOUS
 10
13.0429894775
 20
-15.2280660077
 40
9.9974047859
100
AcDbArc
 50
270.0
 51
360.0
  0
ARC
  5
31B
100
AcDbEntity
  8
RACCORDO
100
AcDbCircle
 62
7
  6
CONTINUOUS
 10
13.0429894775
 20
-15.2280660077
 40
9.9747035069
100
AcDbArc
 50
269.9999999497
 51
360.0
  0
ARC
  5
31C
100
AcDbEntity
  8
RACCORDO
100
AcDbCircle
 62
7
  6
CONTINUOUS
 10
29.0429894775
 20
-2.7280660077
 40
3.4
100
AcDbArc
 50
180.0
 51
360.0
  0
ARC
  5
31D
100
AcDbEntity
  8
RACCORDO
100
AcDbCircle
 62
253
  6
CONTINUOUS
 10
29.0429894775
 20
-2.7280660077
 40
3.0999667481
100
AcDbArc
 50
180.0
 51
360.0
  0
ARC
  5
31E
100
AcDbEntity
  8
RACCORDO
100
AcDbCircle
 62
253
  6
CONTINUOUS
 10
29.0429894775
 20
-2.7280660077
 40
2.1017518471
100
AcDbArc
 50
180.0
 51
360.0
  0
ARC
  5
31F
100
AcDbEntity
  8
RACCORDO
100
AcDbCircle
 62
7
  6
CONTINUOUS
 10
29.0429894775
 20
-2.7280660077
 40
1.8017682198
100
AcDbArc
 50
180.0
 51
360.0
  0
ARC
  5
320
100
AcDbEntity
  8
DRAFT
100
AcDbCircle
 62
7
  6
CONTINUOUS
 10
29.0429894775
 20
-2.7280660077
 40
1.7851643248
100
AcDbArc
 50
180.0
 51
360.0
  0
ARC
  5
321
100
AcDbEntity
  8
RACCORDO
100
AcDbCircle
 62
7
  6
CONTINUOUS
 10
50.5429894775
 20
-29.0160843486
 40
5.0
100
AcDbArc
 50
330.7952179145
 51
150.7952179145
  0
ARC
  5
322
100
AcDbEntity
  8
RACCORDO
100
AcDbCircle
 62
7
  6
CONTINUOUS
 10
48.9303626294
 20
-31.7280660077
 40
5.0
100
AcDbArc
 50
147.7307720129
 51
327.7307720129
  0
ARC
  5
323
100
AcDbEntity
  8
RACCORDO
100
AcDbCircle
 62
253
  6
CONTINUOUS
 10
48.9303626294
 20
-31.7280660077
 40
4.6999843201
100
AcDbArc
 50
147.7307720129
 51
327.7307720129
  0
ARC
  5
324
100
AcDbEntity
  8
RACCORDO
100
AcDbCircle
 62
253
  6
CONTINUOUS
 10
50.5429894775
 20
-29.0160843486
 40
4.6999843201
100
AcDbArc
 50
330.7952179145
 51
150.7952179145
  0
ARC
  5
325
100
AcDbEntity
  8
RACCORDO
100
AcDbCircle
 62
253
  6
CONTINUOUS
 10
48.9303626294
 20
-31.7280660077
 40
2.2999925401
100
AcDbArc
 50
147.7307720129
 51
327.7307720129
  0
ARC
  5
326
100
AcDbEntity
  8
RACCORDO
100
AcDbCircle
 62
253
  6
CONTINUOUS
 10
50.5429894775
 20
-29.0160843486
 40
2.2999925401
100
AcDbArc
 50
330.7952179145
 51
150.7952179145
  0
ARC
  5
327
100
AcDbEntity
  8
RACCORDO
100
AcDbCircle
 62
7
  6
CONTINUOUS
 10
50.5429894775
 20
-29.0160843486
 40
2.0
100
AcDbArc
 50
330.7952179145
 51
150.7952179145
  0
ARC
  5
328
100
AcDbEntity
  8
RACCORDO
100
AcDbCircle
 62
7
  6
CONTINUOUS
 10
48.9303626294
 20
-31.7280660077
 40
2.0
100
AcDbArc
 50
147.7307720129
 51
327.7307720129
  0
ARC
  5
329
100
AcDbEntity
  8
RACCORDO
100
AcDbCircle
 62
7
  6
CONTINUOUS
 10
40.7929894775
 20
-2.7280660077
 40
3.4
100
AcDbArc
 50
180.0
 51
360.0
  0
ARC
  5
32A
100
AcDbEntity
  8
RACCORDO
100
AcDbCircle
 62
253
  6
CONTINUOUS
 10
40.7929894775
 20
-2.7280660077
 40
3.0999667481
100
AcDbArc
 50
180.0
 51
360.0
  0
ARC
  5
32B
100
AcDbEntity
  8
RACCORDO
100
AcDbCircle
 62
253
  6
CONTINUOUS
 10
40.7929894775
 20
-2.7280660077
 40
2.1017518471
100
AcDbArc
 50
180.0
 51
360.0
  0
ARC
  5
32C
100
AcDbEntity
  8
RACCORDO
100
AcDbCircle
 62
7
  6
CONTINUOUS
 10
40.7929894775
 20
-2.7280660077
 40
1.8017682198
100
AcDbArc
 50
180.0
 51
360.0
  0
ARC
  5
32D
100
AcDbEntity
  8
DRAFT
100
AcDbCircle
 62
7
  6
CONTINUOUS
 10
40.7929894775
 20
-2.7280660077
 40
1.7851643248
100
AcDbArc
 50
180.0
 51
360.0
  0
ARC
  5
32E
100
AcDbEntity
  8
RACCORDO
100
AcDbCircle
 62
7
  6
CONTINUOUS
 10
48.7429894775
 20
-7.4280660077
 40
0.3
100
AcDbArc
 50
270.0
 51
360.0
  0
ARC
  5
32F
100
AcDbEntity
  8
RACCORDO
100
AcDbCircle
 62
7
  6
CONTINUOUS
 10
46.3429894775
 20
-7.4280660077
 40
0.3
100
AcDbArc
 50
180.0
 51
270.0
  0
ARC
  5
330
100
AcDbEntity
  8
RACCORDO
100
AcDbCircle
 62
7
  6
CONTINUOUS
 10
-0.9570105225
 20
-0.2280660077
 40
64.0
100
AcDbArc
 50
147.7307720129
 51
150.7952179145
  0
ARC
  5
331
100
AcDbEntity
  8
RACCORDO
100
AcDbCircle
 62
7
  6
CONTINUOUS
 10
-0.9570105225
 20
-0.2280660077
 40
64.0
100
AcDbArc
 50
209.2047820855
 51
212.2692279871
  0
ARC
  5
332
100
AcDbEntity
  8
RACCORDO
100
AcDbCircle
 62
7
  6
CONTINUOUS
 10
-0.9570105225
 20
-0.2280660077
 40
64.0
100
AcDbArc
 50
327.7307720129
 51
330.7952179145
  0
ARC
  5
333
100
AcDbEntity
  8
RACCORDO
100
AcDbCircle
 62
7
  6
CONTINUOUS
 10
-0.9570105225
 20
-0.2280660077
 40
64.0
100
AcDbArc
 50
29.2047820855
 51
32.2692279871
  0
ARC
  5
334
100
AcDbEntity
  8
RACCORDO
100
AcDbCircle
 62
253
  6
CONTINUOUS
 10
-0.9570105225
 20
-0.2280660077
 40
63.7000000203
100
AcDbArc
 50
209.2047820855
 51
212.2692279871
  0
ARC
  5
335
100
AcDbEntity
  8
RACCORDO
100
AcDbCircle
 62
253
  6
CONTINUOUS
 10
-0.9570105225
 20
-0.2280660077
 40
63.7000000203
100
AcDbArc
 50
147.7307720129
 51
150.7952179145
  0
ARC
  5
336
100
AcDbEntity
  8
RACCORDO
100
AcDbCircle
 62
253
  6
CONTINUOUS
 10
-0.9570105225
 20
-0.2280660077
 40
63.7000000203
100
AcDbArc
 50
29.2047820855
 51
32.2692279871
  0
ARC
  5
337
100
AcDbEntity
  8
RACCORDO
100
AcDbCircle
 62
253
  6
CONTINUOUS
 10
-0.9570105225
 20
-0.2280660077
 40
63.7000000203
100
AcDbArc
 50
327.7307720129
 51
330.7952179145
  0
ARC
  5
338
100
AcDbEntity
  8
RACCORDO
100
AcDbCircle
 62
253
  6
CONTINUOUS
 10
-0.9570105225
 20
-0.2280660077
 40
61.3000000209
100
AcDbArc
 50
327.7307720129
 51
330.7952179145
  0
ARC
  5
339
100
AcDbEntity
  8
RACCORDO
100
AcDbCircle
 62
253
  6
CONTINUOUS
 10
-0.9570105225
 20
-0.2280660077
 40
61.3000000209
100
AcDbArc
 50
29.2047820855
 51
32.2692279871
  0
ARC
  5
33A
100
AcDbEntity
  8
RACCORDO
100
AcDbCircle
 62
253
  6
CONTINUOUS
 10
-0.9570105225
 20
-0.2280660077
 40
61.3000000209
100
AcDbArc
 50
147.7307720129
 51
150.7952179145
  0
ARC
  5
33B
100
AcDbEntity
  8
RACCORDO
100
AcDbCircle
 62
253
  6
CONTINUOUS
 10
-0.9570105225
 20
-0.2280660077
 40
61.3000000209
100
AcDbArc
 50
209.2047820855
 51
212.2692279871
  0
ARC
  5
33C
100
AcDbEntity
  8
RACCORDO
100
AcDbCircle
 62
7
  6
CONTINUOUS
 10
-0.9570105225
 20
-0.2280660077
 40
61.0
100
AcDbArc
 50
209.2047820855
 51
212.2692279871
  0
ARC
  5
33D
100
AcDbEntity
  8
RACCORDO
100
AcDbCircle
 62
7
  6
CONTINUOUS
 10
-0.9570105225
 20
-0.2280660077
 40
61.0
100
AcDbArc
 50
147.7307720129
 51
150.7952179145
  0
ARC
  5
33E
100
AcDbEntity
  8
RACCORDO
100
AcDbCircle
 62
7
  6
CONTINUOUS
 10
-0.9570105225
 20
-0.2280660077
 40
61.0
100
AcDbArc
 50
327.7307720129
 51
330.7952179145
  0
ARC
  5
33F
100
AcDbEntity
  8
RACCORDO
100
AcDbCircle
 62
7
  6
CONTINUOUS
 10
-0.9570105225
 20
-0.2280660077
 40
61.0
100
AcDbArc
 50
29.2047820855
 51
32.2692279871
  0
ARC
  5
340
100
AcDbEntity
  8
RACCORDO
100
AcDbCircle
 62
7
  6
CONTINUOUS
 10
-0.9570105225
 20
-0.2280660077
 40
57.0
100
AcDbArc
 50
209.2047820855
 51
212.2692279871
  0
ARC
  5
341
100
AcDbEntity
  8
RACCORDO
100
AcDbCircle
 62
7
  6
CONTINUOUS
 10
-0.9570105225
 20
-0.2280660077
 40
57.0
100
AcDbArc
 50
147.7307720129
 51
150.7952179145
  0
ARC
  5
342
100
AcDbEntity
  8
RACCORDO
100
AcDbCircle
 62
7
  6
CONTINUOUS
 10
-0.9570105225
 20
-0.2280660077
 40
57.0
100
AcDbArc
 50
327.7307720129
 51
330.7952179145
  0
ARC
  5
343
100
AcDbEntity
  8
RACCORDO
100
AcDbCircle
 62
7
  6
CONTINUOUS
 10
-0.9570105225
 20
-0.2280660077
 40
57.0
100
AcDbArc
 50
29.2047820855
 51
32.2692279871
  0
ARC
  5
344
100
AcDbEntity
  8
RACCORDO
100
AcDbCircle
 62
253
  6
CONTINUOUS
 10
-0.9570105225
 20
-0.2280660077
 40
56.7000000213
100
AcDbArc
 50
327.7307720129
 51
330.7952179145
  0
ARC
  5
345
100
AcDbEntity
  8
RACCORDO
100
AcDbCircle
 62
253
  6
CONTINUOUS
 10
-0.9570105225
 20
-0.2280660077
 40
56.7000000213
100
AcDbArc
 50
29.2047820855
 51
32.2692279871
  0
ARC
  5
346
100
AcDbEntity
  8
RACCORDO
100
AcDbCircle
 62
253
  6
CONTINUOUS
 10
-0.9570105225
 20
-0.2280660077
 40
56.7000000213
100
AcDbArc
 50
147.7307720129
 51
150.7952179145
  0
ARC
  5
347
100
AcDbEntity
  8
RACCORDO
100
AcDbCircle
 62
253
  6
CONTINUOUS
 10
-0.9570105225
 20
-0.2280660077
 40
56.7000000213
100
AcDbArc
 50
209.2047820855
 51
212.2692279871
  0
ARC
  5
348
100
AcDbEntity
  8
RACCORDO
100
AcDbCircle
 62
253
  6
CONTINUOUS
 10
-0.9570105225
 20
-0.2280660077
 40
54.300000022
100
AcDbArc
 50
209.2047820855
 51
212.2692279871
  0
ARC
  5
349
100
AcDbEntity
  8
RACCORDO
100
AcDbCircle
 62
253
  6
CONTINUOUS
 10
-0.9570105225
 20
-0.2280660077
 40
54.300000022
100
AcDbArc
 50
147.7307720129
 51
150.7952179145
  0
ARC
  5
34A
100
AcDbEntity
  8
RACCORDO
100
AcDbCircle
 62
253
  6
CONTINUOUS
 10
-0.9570105225
 20
-0.2280660077
 40
54.300000022
100
AcDbArc
 50
29.2047820855
 51
32.2692279871
  0
ARC
  5
34B
100
AcDbEntity
  8
RACCORDO
100
AcDbCircle
 62
253
  6
CONTINUOUS
 10
-0.9570105225
 20
-0.2280660077
 40
54.300000022
100
AcDbArc
 50
327.7307720129
 51
330.7952179145
  0
ARC
  5
34C
100
AcDbEntity
  8
RACCORDO
100
AcDbCircle
 62
7
  6
CONTINUOUS
 10
-0.9570105225
 20
-0.2280660077
 40
54.0
100
AcDbArc
 50
147.7307720129
 51
150.7952179145
  0
ARC
  5
34D
100
AcDbEntity
  8
RACCORDO
100
AcDbCircle
 62
7
  6
CONTINUOUS
 10
-0.9570105225
 20
-0.2280660077
 40
54.0
100
AcDbArc
 50
209.2047820855
 51
212.2692279871
  0
ARC
  5
34E
100
AcDbEntity
  8
RACCORDO
100
AcDbCircle
 62
7
  6
CONTINUOUS
 10
-0.9570105225
 20
-0.2280660077
 40
54.0
100
AcDbArc
 50
327.7307720129
 51
330.7952179145
  0
ARC
  5
34F
100
AcDbEntity
  8
RACCORDO
100
AcDbCircle
 62
7
  6
CONTINUOUS
 10
-0.9570105225
 20
-0.2280660077
 40
54.0
100
AcDbArc
 50
29.2047820855
 51
32.2692279871
  0
ARC
  5
350
100
AcDbEntity
  8
RACCORDO
100
AcDbCircle
 62
253
  6
CONTINUOUS
 10
13.0429894775
 20
14.7719339923
 40
10.2973891632
100
AcDbArc
 50
0.0
 51
90.0
  0
ARC
  5
351
100
AcDbEntity
  8
RACCORDO
100
AcDbCircle
 62
7
  6
CONTINUOUS
 10
13.0429894775
 20
14.7719339923
 40
9.9974047859
100
AcDbArc
 50
0.0
 51
90.0
  0
ARC
  5
352
100
AcDbEntity
  8
RACCORDO
100
AcDbCircle
 62
7
  6
CONTINUOUS
 10
13.0429894775
 20
14.7719339923
 40
9.9747035069
100
AcDbArc
 50
0.0
 51
90.0000000554
  0
ARC
  5
353
100
AcDbEntity
  8
RACCORDO
100
AcDbCircle
 62
7
  6
CONTINUOUS
 10
18.7429894775
 20
26.5719339923
 40
0.3
100
AcDbArc
 50
270.0
 51
360.0
  0
ARC
  5
354
100
AcDbEntity
  8
RACCORDO
100
AcDbCircle
 62
7
  6
CONTINUOUS
 10
18.7429894775
 20
30.9719339923
 40
0.3
100
AcDbArc
 50
0.0
 51
90.0
  0
ARC
  5
355
100
AcDbEntity
  8
RACCORDO
100
AcDbCircle
 62
7
  6
CONTINUOUS
 10
40.7929894775
 20
2.2719339923
 40
3.4
100
AcDbArc
 50
0.0
 51
180.0
  0
ARC
  5
356
100
AcDbEntity
  8
RACCORDO
100
AcDbCircle
 62
7
  6
CONTINUOUS
 10
29.0429894775
 20
2.2719339923
 40
3.4
100
AcDbArc
 50
0.0
 51
180.0
  0
ARC
  5
357
100
AcDbEntity
  8
RACCORDO
100
AcDbCircle
 62
253
  6
CONTINUOUS
 10
29.0429894775
 20
2.2719339923
 40
3.0999667481
100
AcDbArc
 50
0.0
 51
180.0
  0
ARC
  5
358
100
AcDbEntity
  8
RACCORDO
100
AcDbCircle
 62
253
  6
CONTINUOUS
 10
40.7929894775
 20
2.2719339923
 40
3.0999667481
100
AcDbArc
 50
0.0
 51
180.0
  0
ARC
  5
359
100
AcDbEntity
  8
RACCORDO
100
AcDbCircle
 62
253
  6
CONTINUOUS
 10
40.7929894775
 20
2.2719339923
 40
2.1017518471
100
AcDbArc
 50
0.0
 51
180.0
  0
ARC
  5
35A
100
AcDbEntity
  8
RACCORDO
100
AcDbCircle
 62
253
  6
CONTINUOUS
 10
29.0429894775
 20
2.2719339923
 40
2.1017518471
100
AcDbArc
 50
0.0
 51
180.0
  0
ARC
  5
35B
100
AcDbEntity
  8
RACCORDO
100
AcDbCircle
 62
7
  6
CONTINUOUS
 10
29.0429894775
 20
2.2719339923
 40
1.8017682198
100
AcDbArc
 50
0.0
 51
180.0
  0
ARC
  5
35C
100
AcDbEntity
  8
RACCORDO
100
AcDbCircle
 62
7
  6
CONTINUOUS
 10
40.7929894775
 20
2.2719339923
 40
1.8017682198
100
AcDbArc
 50
0.0
 51
180.0
  0
ARC
  5
35D
100
AcDbEntity
  8
DRAFT
100
AcDbCircle
 62
7
  6
CONTINUOUS
 10
29.0429894775
 20
2.2719339923
 40
1.7851643248
100
AcDbArc
 50
0.0
 51
180.0
  0
ARC
  5
35E
100
AcDbEntity
  8
DRAFT
100
AcDbCircle
 62
7
  6
CONTINUOUS
 10
40.7929894775
 20
2.2719339923
 40
1.7851643248
100
AcDbArc
 50
0.0
 51
180.0
  0
ARC
  5
35F
100
AcDbEntity
  8
RACCORDO
100
AcDbCircle
 62
7
  6
CONTINUOUS
 10
46.3429894775
 20
6.9719339923
 40
0.3
100
AcDbArc
 50
90.0
 51
180.0
  0
ARC
  5
360
100
AcDbEntity
  8
RACCORDO
100
AcDbCircle
 62
7
  6
CONTINUOUS
 10
48.7429894775
 20
6.9719339923
 40
0.3
100
AcDbArc
 50
0.0
 51
90.0
  0
ARC
  5
361
100
AcDbEntity
  8
RACCORDO
100
AcDbCircle
 62
7
  6
CONTINUOUS
 10
48.9303626294
 20
31.2719339923
 40
5.0
100
AcDbArc
 50
32.2692279871
 51
212.2692279871
  0
ARC
  5
362
100
AcDbEntity
  8
RACCORDO
100
AcDbCircle
 62
7
  6
CONTINUOUS
 10
50.5429894775
 20
28.5599523333
 40
5.0
100
AcDbArc
 50
209.2047820855
 51
29.2047820855
  0
ARC
  5
363
100
AcDbEntity
  8
RACCORDO
100
AcDbCircle
 62
253
  6
CONTINUOUS
 10
48.9303626294
 20
31.2719339923
 40
4.6999843201
100
AcDbArc
 50
32.2692279871
 51
212.2692279871
  0
ARC
  5
364
100
AcDbEntity
  8
RACCORDO
100
AcDbCircle
 62
253
  6
CONTINUOUS
 10
50.5429894775
 20
28.5599523333
 40
4.6999843201
100
AcDbArc
 50
209.2047820855
 51
29.2047820855
  0
ARC
  5
365
100
AcDbEntity
  8
RACCORDO
100
AcDbCircle
 62
253
  6
CONTINUOUS
 10
48.9303626294
 20
31.2719339923
 40
2.2999925401
100
AcDbArc
 50
32.2692279871
 51
212.2692279871
  0
ARC
  5
366
100
AcDbEntity
  8
RACCORDO
100
AcDbCircle
 62
253
  6
CONTINUOUS
 10
50.5429894775
 20
28.5599523333
 40
2.2999925401
100
AcDbArc
 50
209.2047820855
 51
29.2047820855
  0
ARC
  5
367
100
AcDbEntity
  8
RACCORDO
100
AcDbCircle
 62
7
  6
CONTINUOUS
 10
48.9303626294
 20
31.2719339923
 40
2.0
100
AcDbArc
 50
32.2692279871
 51
212.2692279871
  0
ARC
  5
368
100
AcDbEntity
  8
RACCORDO
100
AcDbCircle
 62
7
  6
CONTINUOUS
 10
50.5429894775
 20
28.5599523333
 40
2.0
100
AcDbArc
 50
209.2047820855
 51
29.2047820855
  0
ELLIPSE
  5
369
100
AcDbEntity
  8
ASSI
100
AcDbEllipse
 62
7
  6
CONTINUOUS
 10
-63.9563249375
 20
-43.2273804227
 30
0.0
 11
1.4151829599
 21
1.4151829599
 31
0.0
 40
0.999315002
 41
8.6397224137
 42
10.2098335078
  0
ELLIPSE
  5
36A
100
AcDbEntity
  8
ASSI
100
AcDbEllipse
 62
7
  6
CONTINUOUS
 10
-63.9563249375
 20
42.7712484074
 30
0.0
 11
1.4151829599
 21
-1.4151829599
 31
0.0
 40
0.999315002
 41
8.6397224137
 42
10.2098335078
  0
ELLIPSE
  5
36B
100
AcDbEntity
  8
ASSI
100
AcDbEllipse
 62
7
  6
CONTINUOUS
 10
62.0423038925
 20
42.7712484074
 30
0.0
 11
-1.4151829599
 21
-1.4151829599
 31
0.0
 40
0.999315002
 41
8.6397224137
 42
10.2098335078
  0
ELLIPSE
  5
36C
100
AcDbEntity
  8
ASSI
100
AcDbEllipse
 62
7
  6
CONTINUOUS
 10
62.0423038925
 20
-43.2273804227
 30
0.0
 11
-1.4151829599
 21
1.4151829599
 31
0.0
 40
0.999315002
 41
8.6397224137
 42
10.2098335078
  0
ELLIPSE
  5
36D
100
AcDbEntity
  8
COPY
100
AcDbEllipse
 62
7
  6
CONTINUOUS
 10
-63.9563249375
 20
-43.2273804227
 30
0.0
 11
1.4151829599
 21
1.4151829599
 31
0.0
 40
0.999315002
 41
2.3565371065
 42
3.9266482006
  0
ELLIPSE
  5
36E
100
AcDbEntity
  8
COPY
100
AcDbEllipse
 62
7
  6
CONTINUOUS
 10
-63.9563249375
 20
42.7712484074
 30
0.0
 11
1.4151829599
 21
-1.4151829599
 31
0.0
 40
0.999315002
 41
2.3565371065
 42
3.9266482006
  0
ELLIPSE
  5
36F
100
AcDbEntity
  8
COPY
100
AcDbEllipse
 62
7
  6
CONTINUOUS
 10
62.0423038925
 20
42.7712484074
 30
0.0
 11
-1.4151829599
 21
-1.4151829599
 31
0.0
 40
0.999315002
 41
2.3565371065
 42
3.9266482006
  0
ELLIPSE
  5
370
100
AcDbEntity
  8
COPY
100
AcDbEllipse
 62
7
  6
CONTINUOUS
 10
62.0423038925
 20
-43.2273804227
 30
0.0
 11
-1.4151829599
 21
1.4151829599
 31
0.0
 40
0.999315002
 41
2.3565371065
 42
3.9266482006
  0
ELLIPSE
  5
371
100
AcDbEntity
  8
RACCORDO
100
AcDbEllipse
 62
7
  6
CONTINUOUS
 10
61.2335884007
 20
41.9625329156
 30
0.0
 11
1.8257418584
 21
1.8257418584
 31
0.0
 40
0.7745966692
 41
-0.6590580358
 42
0.6590580358
  0
ELLIPSE
  5
372
100
AcDbEntity
  8
RACCORDO
100
AcDbEllipse
 62
7
  6
CONTINUOUS
 10
-63.1476094458
 20
41.9625329156
 30
0.0
 11
1.8257418584
 21
-1.8257418584
 31
0.0
 40
0.7745966692
 41
2.4825346178
 42
3.8006506894
  0
ELLIPSE
  5
373
100
AcDbEntity
  8
RACCORDO
100
AcDbEllipse
 62
7
  6
CONTINUOUS
 10
-63.1476094458
 20
-42.4186649309
 30
0.0
 11
1.8257418584
 21
1.8257418584
 31
0.0
 40
0.7745966692
 41
-3.8006506894
 42
-2.4825346178
  0
ELLIPSE
  5
374
100
AcDbEntity
  8
RACCORDO
100
AcDbEllipse
 62
7
  6
CONTINUOUS
 10
61.2335884007
 20
-42.4186649309
 30
0.0
 11
1.8257418584
 21
-1.8257418584
 31
0.0
 40
0.7745966692
 41
-0.6590580358
 42
0.6590580358
  0
ENDSEC
  0
SECTION
  2
OBJECTS
  0
DICTIONARY
  5
C
100
AcDbDictionary
280
0
281
1
  3
ACAD_GROUP
350
D
  3
ACAD_MLINESTYLE
350
17
  3
ACAD_LAYOUT
350
1A
  3
ACAD_PLOTSETTINGS
350
19
  3
ACAD_PLOTSTYLENAME
350
E
  0
DICTIONARY
  5
D
102
{ACAD_REACTORS
330
C
102
}
100
AcDbDictionary
280
0
281
1
  0
ACDBDICTIONARYWDFLT
  5
E
102
{ACAD_REACTORS
330
C
102
}
100
AcDbDictionary
281
1
  3
Normal
350
F
100
AcDbDictionaryWithDefault
340
F
  0
DICTIONARY
  5
17
102
{ACAD_REACTORS
330
C
102
}
100
AcDbDictionary
280
0
281
1
  3
Standard
350
18
  0
DICTIONARY
  5
19
102
{ACAD_REACTORS
330
C
102
}
100
AcDbDictionary
281
1
  0
DICTIONARY
  5
1A
102
{ACAD_REACTORS
330
C
102
}
100
AcDbDictionary
281
1
  3
Model
350
375
  3
Layout1
350
376
  0
ACDBPLACEHOLDER
  5
F
102
{ACAD_REACTORS
330
E
102
}
  0
MLINESTYLE
  5
18
102
{ACAD_REACTORS
330
17
102
}
100
AcDbMlineStyle
  2
STANDARD
 70
0
  3

 62
256
 51
90.0
 52
90.0
 71
2
 49
0.5
 62
256
  6
BYLAYER
 49
-0.5
 62
256
  6
BYLAYER
  0
LAYOUT
  5
375
102
{ACAD_REACTORS
330
1A
102
}
100
AcDbPlotSettings
  1

  2
none_device
  4
ISO_A4_(297.00_x_210.00_MM)
  6

 40
0.0
 41
0.0
 42
0.0
 43
0.0
 44
297.0
 45
210.0
 46
0.0
 47
0.0
 48
0.0
 49
0.0
140
0.0
141
0.0
142
1.0
143
1.0
 70
1024
 72
1
 73
0
 74
0
  7

 75
0
147
1.0
148
0.0
149
0.0
100
AcDbLayout
  1
Model
 70
0
 71
0
 10
0.0
 20
0.0
 11
297.0
 21
210.0
 12
0.0
 22
0.0
 32
0.0
 14
0.0
 24
0.0
 34
0.0
 15
0.0
 25
0.0
 35
0.0
146
0.0
 13
0.0
 23
0.0
 33
0.0
 16
1.0
 26
0.0
 36
0.0
 17
0.0
 27
1.0
 37
0.0
 76
0
330
21A
345
0
346
0
  0
LAYOUT
  5
376
102
{ACAD_REACTORS
330
1A
102
}
100
AcDbPlotSettings
  1

  2
none_device
  4
ISO_A4_(297.00_x_210.00_MM)
  6

 40
0.0
 41
0.0
 42
0.0
 43
0.0
 44
297.0
 45
210.0
 46
0.0
 47
0.0
 48
0.0
 49
0.0
140
0.0
141
0.0
142
1.0
143
1.0
 70
0
 72
1
 73
0
 74
0
  7

 75
0
147
1.0
148
0.0
149
0.0
100
AcDbLayout
  1
Layout1
 70
0
 71
1
 10
0.0
 20
0.0
 11
297.0
 21
210.0
 12
0.0
 22
0.0
 32
0.0
 14
0.0
 24
0.0
 34
0.0
 15
0.0
 25
0.0
 35
0.0
146
0.0
 13
0.0
 23
0.0
 33
0.0
 16
1.0
 26
0.0
 36
0.0
 17
0.0
 27
1.0
 37
0.0
 76
0
330
21B
345
0
346
0
  0
ENDSEC
  0
EOF
