0
SECTION
2
HEADER
9
$ACADVER
1
AC1015
9
$DWGCODEPAGE
3
ANSI_1252
9
$EXTMAX
10
297.0000000000
20
210.0000000000
30
0.0000000000
9
$EXTMIN
10
0.0000000000
20
0.0000000000
30
0.0000000000
9
$LIMMIN
10
0.0000000000
20
0.0000000000
9
$LIMMAX
10
297.0000000000
20
210.0000000000
9
$VIEWCTR
10
148.5000000000
20
105.0000000000
9
$VIEWSIZE
40
210.0000000000
9
$CLAYER
8
0
9
$LTSCALE
40
16.3350000000
9
$CELTYPE
6
BYLAYER
9
$DIMSCALE
40
1
9
$DIMASZ
40
3.0000000000
9
$DIMEXO
40
1.8562500000
9
$DIMDLI
40
11.2860000000
9
$DIMEXE
40
5.3460000000
9
$DIMCEN
40
2.6730000000
9
$DIMLFAC
40
1.0000000000
9
$DIMBLK
1
_FILLED
9
$DIMTXT
40
3.0000000000
9
$DIMTOL
70
1
9
$DIMLIM
70
0
9
$DIMTFAC
40
1.0000000000
9
$DIMTP
40
0.0100000000
9
$DIMTM
40
0.0100000000
9
$PDMODE
70
3
9
$PDSIZE
40
3.0000000000
9
$HANDSEED
5
2C0
9
$MEASUREMENT
70
1
9
$INSUNITS
70
4
0
ENDSEC
0
SECTION
2
CLASSES
0
CLASS
1
ACDBDICTIONARYWDFLT
2
AcDbDictionaryWithDefault
3
AutoCAD 2000
90
0
280
0
281
0
0
CLASS
1
ACDBPLACEHOLDER
2
AcDbPlaceHolder
3
AutoCAD 2000
90
0
280
0
281
0
0
CLASS
1
LAYOUT
2
AcDbLayout
3
AutoCAD 2000
90
0
280
0
281
0
0
ENDSEC
0
SECTION
2
TABLES
0
TABLE
2
VPORT
5
8
100
AcDbSymbolTable
70
2
0
VPORT
5
1F4
100
AcDbSymbolTableRecord
100
AcDbViewportTableRecord
2
*ACTIVE
70
0
10
0.0
20
0.0
11
1.0
21
1.0
12
148.5000000000
22
105.0000000000
13
0.0
23
0.0
14
1.0
24
1.0
15
0.0
25
0.0
16
0.0
26
0.0
36
1.0
17
0.0
27
0.0
37
0.0
40
210.0000000000
41
1.4142857143
42
50.0
43
0.0
44
0.0
50
0.0
51
0.0
71
0
72
100
73
1
74
1
75
0
76
0
77
0
78
0
0
ENDTAB
0
TABLE
2
LTYPE
5
5
100
AcDbSymbolTable
70
6
0
LTYPE
5
14
100
AcDbSymbolTableRecord
100
AcDbLinetypeTableRecord
2
BYBLOCK
70
0
3

72
65
73
0
40
0.0
0
LTYPE
5
15
100
AcDbSymbolTableRecord
100
AcDbLinetypeTableRecord
2
BYLAYER
70
0
3

72
65
73
0
40
0.0
0
LTYPE
5
16
100
AcDbSymbolTableRecord
100
AcDbLinetypeTableRecord
2
CONTINUOUS
70
64
3
Solid line
72
65
73
0
40
0
0
LTYPE
5
1F5
100
AcDbSymbolTableRecord
100
AcDbLinetypeTableRecord
2
CENTER
70
64
3
____ _ ____ _ ____ _ ____ _ ____ _ ____ _ ____
72
65
73
4
40
0.6
49
0.375
74
0
49
-0.075
74
0
49
0.075
74
0
49
-0.075
74
0
0
LTYPE
5
1F6
100
AcDbSymbolTableRecord
100
AcDbLinetypeTableRecord
2
HIDDEN
70
64
3
- - - - - - - - - - - - - - - - - - - -
72
65
73
2
40
0.2
49
0.1
74
0
49
-0.1
74
0
0
LTYPE
5
1F7
100
AcDbSymbolTableRecord
100
AcDbLinetypeTableRecord
2
PHANTOM
70
64
3
_____ _ _ _____ _ _ _____ _ _ _____
72
65
73
6
40
0.8
49
0.45
74
0
49
-0.05
74
0
49
0.1
74
0
49
-0.05
74
0
49
0.1
74
0
49
-0.05
74
0
0
LTYPE
5
1F8
100
AcDbSymbolTableRecord
100
AcDbLinetypeTableRecord
2
DOT
70
64
3
. . . . . . . . . . . . . . . . . . . .
72
65
73
2
40
0.2
49
0.1
74
0
49
-0.1
74
0
0
LTYPE
5
1F9
100
AcDbSymbolTableRecord
100
AcDbLinetypeTableRecord
2
DASHED
70
64
3
- - - - - - - - - - - - - - - - - - - -
72
65
73
2
40
0.2
49
0.1
74
0
49
-0.1
74
0
0
ENDTAB
0
TABLE
2
LAYER
5
2
100
AcDbSymbolTable
70
36
0
LAYER
5
10
100
AcDbSymbolTableRecord
100
AcDbLayerTableRecord
2
0
70
0
62
7
6
CONTINUOUS
370
-3
390
F
0
LAYER
5
1FA
100
AcDbSymbolTableRecord
100
AcDbLayerTableRecord
2
DEFAULT_1
70
0
62
7
6
CENTER
370
-3
390
F
0
LAYER
5
1FB
100
AcDbSymbolTableRecord
100
AcDbLayerTableRecord
2
DEFAULT_2
70
0
62
9
6
HIDDEN
370
-3
390
F
0
LAYER
5
1FC
100
AcDbSymbolTableRecord
100
AcDbLayerTableRecord
2
DEFAULT_3
70
0
62
7
6
PHANTOM
370
-3
390
F
0
LAYER
5
1FD
100
AcDbSymbolTableRecord
100
AcDbLayerTableRecord
2
_BLACK_HOLE
70
0
62
7
6
CONTINUOUS
370
-3
390
F
0
LAYER
5
1FE
100
AcDbSymbolTableRecord
100
AcDbLayerTableRecord
2
ASSI
70
0
62
7
6
CONTINUOUS
370
-3
390
F
0
LAYER
5
1FF
100
AcDbSymbolTableRecord
100
AcDbLayerTableRecord
2
COORDINATE
70
0
62
7
6
CONTINUOUS
370
-3
390
F
0
LAYER
5
200
100
AcDbSymbolTableRecord
100
AcDbLayerTableRecord
2
COPY_PUBLISH
70
0
62
7
6
CONTINUOUS
370
-3
390
F
0
LAYER
5
201
100
AcDbSymbolTableRecord
100
AcDbLayerTableRecord
2
COSMETIC
70
0
62
7
6
CONTINUOUS
370
-3
390
F
0
LAYER
5
202
100
AcDbSymbolTableRecord
100
AcDbLayerTableRecord
2
CURVE
70
0
62
7
6
CONTINUOUS
370
-3
390
F
0
LAYER
5
203
100
AcDbSymbolTableRecord
100
AcDbLayerTableRecord
2
DRAFT
70
0
62
7
6
CONTINUOUS
370
-3
390
F
0
LAYER
5
204
100
AcDbSymbolTableRecord
100
AcDbLayerTableRecord
2
IMPORT_IGES
70
0
62
7
6
CONTINUOUS
370
-3
390
F
0
LAYER
5
205
100
AcDbSymbolTableRecord
100
AcDbLayerTableRecord
2
PIANI
70
0
62
7
6
CONTINUOUS
370
-3
390
F
0
LAYER
5
206
100
AcDbSymbolTableRecord
100
AcDbLayerTableRecord
2
RACCORDO
70
0
62
7
6
CONTINUOUS
370
-3
390
F
0
LAYER
5
207
100
AcDbSymbolTableRecord
100
AcDbLayerTableRecord
2
SMUSSO
70
0
62
7
6
CONTINUOUS
370
-3
390
F
0
LAYER
5
208
100
AcDbSymbolTableRecord
100
AcDbLayerTableRecord
2
SNAPLINE
70
0
62
7
6
CONTINUOUS
370
-3
390
F
0
LAYER
5
209
100
AcDbSymbolTableRecord
100
AcDbLayerTableRecord
2
TRASH
70
0
62
7
6
CONTINUOUS
370
-3
390
F
0
ENDTAB
0
TABLE
2
STYLE
5
3
100
AcDbSymbolTable
70
1
0
STYLE
5
11
100
AcDbSymbolTableRecord
100
AcDbTextStyleTableRecord
2
STANDARD
70
0
40
0.0
41
0.8000000000
50
0.0
71
0
42
0.2
3
txt
4

0
ENDTAB
0
TABLE
2
VIEW
5
6
100
AcDbSymbolTable
70
0
0
ENDTAB
0
TABLE
2
UCS
5
7
100
AcDbSymbolTable
70
0
0
ENDTAB
0
TABLE
2
APPID
5
9
100
AcDbSymbolTable
70
1
0
APPID
5
20A
100
AcDbSymbolTableRecord
100
AcDbRegAppTableRecord
2
ACAD
70
0
0
ENDTAB
0
TABLE
2
BLOCK_RECORD
5
1
100
AcDbSymbolTable
70
0
0
BLOCK_RECORD
5
1F
100
AcDbSymbolTableRecord
100
AcDbBlockTableRecord
2
*MODEL_SPACE
0
BLOCK_RECORD
5
1B
100
AcDbSymbolTableRecord
100
AcDbBlockTableRecord
2
*PAPER_SPACE
0
ENDTAB
0
TABLE
2
DIMSTYLE
5
A
100
AcDbSymbolTable
70
1
100
AcDbDimStyleTable
71
0
0
DIMSTYLE
105
20B
100
AcDbSymbolTableRecord
100
AcDbDimStyleTableRecord
2
STANDARD
70
0
3

4

40
1.0
41
3.0000000000
42
0.0625
43
0.38
44
0.18
45
0.0
46
0.0
47
0.0100000000
48
0.0100000000
140
3.0000000000
141
0.09
142
0.0
143
25.4
144
1.0000000000
145
0.0
146
1.0000000000
147
0.09
71
1
72
0
73
0
74
0
75
0
76
0
77
1
78
8
170
0
171
2
172
0
173
0
174
0
175
0
176
0
177
0
178
0
270
2
271
2
272
2
273
2
274
2
275
0
280
0
281
0
282
0
283
1
284
8
285
0
286
0
287
3
288
0
340
11
0
ENDTAB
0
ENDSEC
0
SECTION
2
BLOCKS
0
BLOCK
5
20
100
AcDbEntity
8
0
100
AcDbBlockBegin
2
*MODEL_SPACE
70
0
10
0.0
20
0.0
30
0.0
3
*MODEL_SPACE
1

0
ENDBLK
5
21
100
AcDbEntity
8
0
100
AcDbBlockEnd
0
BLOCK
5
1C
100
AcDbEntity
8
0
100
AcDbBlockBegin
2
*PAPER_SPACE
70
0
10
0.0
20
0.0
30
0.0
3
*PAPER_SPACE
1

0
ENDBLK
5
1D
100
AcDbEntity
8
0
100
AcDbBlockEnd
0
ENDSEC
0
SECTION
2
ENTITIES
0
LINE
5
20C
100
AcDbEntity
8
0
100
AcDbLine
62
0
6
CONTINUOUS
10
-5.0444981487
20
-33.3449761519
11
-9.4611647101
21
-33.3449761519
0
LINE
5
20D
100
AcDbEntity
8
0
100
AcDbLine
62
0
6
CONTINUOUS
10
4.2388352899
20
-33.1449761519
11
10.5388352899
21
-33.1449761519
0
LINE
5
20E
100
AcDbEntity
8
0
100
AcDbLine
62
0
6
CONTINUOUS
10
-0.7111647101
20
-33.1449761519
11
-11.1611647101
21
-33.1449761519
0
LINE
5
20F
100
AcDbEntity
8
0
100
AcDbLine
62
9
6
CONTINUOUS
10
5.7888352899
20
-32.5591897143
11
4.4888352899
21
-32.5591897143
0
LINE
5
210
100
AcDbEntity
8
0
100
AcDbLine
62
9
6
CONTINUOUS
10
7.0888352899
20
-32.5591897143
11
8.3888352899
21
-32.5591897143
0
LINE
5
211
100
AcDbEntity
8
0
100
AcDbLine
62
0
6
CONTINUOUS
10
4.4888352899
20
-32.0449761519
11
-0.7111647101
21
-32.0449761519
0
LINE
5
212
100
AcDbEntity
8
0
100
AcDbLine
62
0
6
CONTINUOUS
10
-1.7111647101
20
-32.0449761519
11
-10.1611647101
21
-32.0449761519
0
LINE
5
213
100
AcDbEntity
8
0
100
AcDbLine
62
0
6
CONTINUOUS
10
7.0888352899
20
-31.1449761519
11
5.7888352899
21
-31.1449761519
0
LINE
5
214
100
AcDbEntity
8
0
100
AcDbLine
62
0
6
CONTINUOUS
10
-1.7111647101
20
-30.9449761519
11
4.7888352899
21
-30.9449761519
0
LINE
5
215
100
AcDbEntity
8
0
100
AcDbLine
62
0
6
CONTINUOUS
10
7.0888352899
20
-30.1449761519
11
5.7888352899
21
-30.1449761519
0
LINE
5
216
100
AcDbEntity
8
0
100
AcDbLine
62
0
6
CONTINUOUS
10
7.0888352899
20
-29.9449761519
11
6.6040564976
21
-29.9449761519
0
LINE
5
217
100
AcDbEntity
8
0
100
AcDbLine
62
0
6
CONTINUOUS
10
-8.2183105981
20
-29.9449761519
11
-2.3636340517
21
-29.9449761519
0
LINE
5
218
100
AcDbEntity
8
0
100
AcDbLine
62
0
6
CONTINUOUS
10
6.2888352899
20
-29.9449761519
11
6.5888352899
21
-29.9449761519
0
LINE
5
219
100
AcDbEntity
8
0
100
AcDbLine
62
0
6
CONTINUOUS
10
-8.2611647101
20
-29.9449761519
11
-8.5111647101
21
-29.9449761519
0
LINE
5
21A
100
AcDbEntity
8
0
100
AcDbLine
62
9
6
CONTINUOUS
10
-8.2611647101
20
-29.4449761519
11
-8.5111647101
21
-29.4449761519
0
LINE
5
21B
100
AcDbEntity
8
0
100
AcDbLine
62
9
6
CONTINUOUS
10
6.2888352899
20
-29.3591897143
11
6.5888352899
21
-29.3591897143
0
LINE
5
21C
100
AcDbEntity
8
0
100
AcDbLine
62
9
6
CONTINUOUS
10
-8.5111647101
20
-28.7449761519
11
-8.2611647101
21
-28.7449761519
0
LINE
5
21D
100
AcDbEntity
8
0
100
AcDbLine
62
0
6
CONTINUOUS
10
-8.5111647101
20
-28.2449761519
11
-8.2611647101
21
-28.2449761519
0
LINE
5
21E
100
AcDbEntity
8
0
100
AcDbLine
62
0
6
CONTINUOUS
10
7.0888352899
20
-28.2449761519
11
6.6040564976
21
-28.2449761519
0
LINE
5
21F
100
AcDbEntity
8
0
100
AcDbLine
62
0
6
CONTINUOUS
10
-8.1970223729
20
-28.2449761519
11
-2.3636340517
21
-28.2449761519
0
LINE
5
220
100
AcDbEntity
8
0
100
AcDbLine
62
0
6
CONTINUOUS
10
5.7888352899
20
-28.0449761519
11
6.2888352899
21
-28.0449761519
0
LINE
5
221
100
AcDbEntity
8
0
100
AcDbLine
62
0
6
CONTINUOUS
10
6.5888352899
20
-28.0449761519
11
7.0888352899
21
-28.0449761519
0
LINE
5
222
100
AcDbEntity
8
0
100
AcDbLine
62
0
6
CONTINUOUS
10
4.7888352899
20
-28.0449761519
11
-10.1611647101
21
-28.0449761519
0
LINE
5
223
100
AcDbEntity
8
0
100
AcDbLine
62
0
6
CONTINUOUS
10
-4.1111647101
20
-27.6914227613
11
4.4888352899
21
-27.6914227613
0
LINE
5
224
100
AcDbEntity
8
0
100
AcDbLine
62
0
6
CONTINUOUS
10
5.7888352899
20
-27.6914227613
11
6.2888352899
21
-27.6914227613
0
LINE
5
225
100
AcDbEntity
8
0
100
AcDbLine
62
0
6
CONTINUOUS
10
6.5888352899
20
-27.6914227613
11
7.0888352899
21
-27.6914227613
0
LINE
5
226
100
AcDbEntity
8
0
100
AcDbLine
62
0
6
CONTINUOUS
10
10.5388352899
20
-26.9449761519
11
8.3888352899
21
-26.9449761519
0
LINE
5
227
100
AcDbEntity
8
0
100
AcDbLine
62
0
6
CONTINUOUS
10
-4.1111647101
20
-26.9449761519
11
-11.1611647101
21
-26.9449761519
0
LINE
5
228
100
AcDbEntity
8
0
100
AcDbLine
62
0
6
CONTINUOUS
10
-2.8111647101
20
-26.1449761519
11
-4.1111647101
21
-26.1449761519
0
LINE
5
229
100
AcDbEntity
8
0
100
AcDbLine
62
9
6
CONTINUOUS
10
-2.8111647101
20
-25.5591897143
11
-4.1111647101
21
-25.5591897143
0
LINE
5
22A
100
AcDbEntity
8
0
100
AcDbLine
62
9
6
CONTINUOUS
10
-6.1803420441
20
-25.2345063029
11
-6.0398215088
21
-25.2345063029
0
LINE
5
22B
100
AcDbEntity
8
0
100
AcDbLine
62
9
6
CONTINUOUS
10
8.3888352899
20
-25.2345070874
11
9.8400732735
21
-25.2345063029
0
LINE
5
22C
100
AcDbEntity
8
0
100
AcDbLine
62
9
6
CONTINUOUS
10
-10.4624026936
20
-25.2345063029
11
-6.5978484960
21
-25.2345063029
0
LINE
5
22D
100
AcDbEntity
8
0
100
AcDbLine
62
0
6
CONTINUOUS
10
-10.2075075805
20
-24.9449761519
11
-6.2994708621
21
-24.9449761519
0
LINE
5
22E
100
AcDbEntity
8
0
100
AcDbLine
62
0
6
CONTINUOUS
10
8.3888352899
20
-24.9449761519
11
9.5851781604
21
-24.9449761519
0
LINE
5
22F
100
AcDbEntity
8
0
100
AcDbLine
62
9
6
CONTINUOUS
10
-4.1111647101
20
-17.7253519101
11
-2.8111647101
21
-17.7253519101
0
LINE
5
230
100
AcDbEntity
8
0
100
AcDbLine
62
9
6
CONTINUOUS
10
-4.1111647101
20
-16.6670018162
11
-2.8111647101
21
-16.6670018162
0
LINE
5
231
100
AcDbEntity
8
0
100
AcDbLine
62
0
6
CONTINUOUS
10
-14.8111647101
20
-2.6449761519
11
-14.8111647101
21
-0.8449761519
0
LINE
5
232
100
AcDbEntity
8
0
100
AcDbLine
62
0
6
CONTINUOUS
10
-12.8111647101
20
22.0550238481
11
-12.8111647101
21
6.8550238481
0
LINE
5
233
100
AcDbEntity
8
0
100
AcDbLine
62
0
6
CONTINUOUS
10
-12.8111647101
20
3.2550238481
11
-12.8111647101
21
-0.0748199401
0
LINE
5
234
100
AcDbEntity
8
0
100
AcDbLine
62
9
6
CONTINUOUS
10
-12.3111647101
20
22.0550238481
11
-12.3111647101
21
6.8550238481
0
LINE
5
235
100
AcDbEntity
8
0
100
AcDbLine
62
0
6
CONTINUOUS
10
-14.6876425544
20
2.1329486983
11
-13.0955865996
21
5.7150745966
0
LINE
5
236
100
AcDbEntity
8
0
100
AcDbLine
62
0
6
CONTINUOUS
10
-14.2618554085
20
-0.9731803361
11
-13.8111647101
21
-2.1449761519
0
LINE
5
237
100
AcDbEntity
8
0
100
AcDbLine
62
0
6
CONTINUOUS
10
-11.7111647101
20
-2.1449761519
11
-11.7111647101
21
6.8550238481
0
LINE
5
238
100
AcDbEntity
8
0
100
AcDbLine
62
0
6
CONTINUOUS
10
-11.1611647101
20
-33.1449761519
11
-11.1611647101
21
-26.9449761519
0
LINE
5
239
100
AcDbEntity
8
0
100
AcDbLine
62
0
6
CONTINUOUS
10
-10.7111647101
20
5.8550238481
11
-10.7111647101
21
-2.1449761519
0
LINE
5
23A
100
AcDbEntity
8
0
100
AcDbLine
62
0
6
CONTINUOUS
10
-10.1611647101
20
-32.0449761519
11
-10.1611647101
21
-28.0449761519
0
LINE
5
23B
100
AcDbEntity
8
0
100
AcDbLine
62
0
6
CONTINUOUS
10
-13.1673384719
20
-0.1997589496
11
-14.6211711848
21
1.6175319415
0
LINE
5
23C
100
AcDbEntity
8
0
100
AcDbLine
62
0
6
CONTINUOUS
10
-9.4611647101
20
-33.1449761519
11
-9.4611647101
21
-33.3449761519
0
LINE
5
23D
100
AcDbEntity
8
0
100
AcDbLine
62
0
6
CONTINUOUS
10
-8.5111647101
20
-28.2449761519
11
-8.5111647101
21
-29.9449761519
0
LINE
5
23E
100
AcDbEntity
8
0
100
AcDbLine
62
9
6
CONTINUOUS
10
-8.4264828550
20
-28.0449761519
11
-8.4264828550
21
-28.2449761519
0
LINE
5
23F
100
AcDbEntity
8
0
100
AcDbLine
62
9
6
CONTINUOUS
10
-8.4264828550
20
-29.9449761519
11
-8.4264828550
21
-32.0449761519
0
LINE
5
240
100
AcDbEntity
8
0
100
AcDbLine
62
0
6
CONTINUOUS
10
-8.2611647101
20
-28.2449761519
11
-8.2611647101
21
-29.9449761519
0
LINE
5
241
100
AcDbEntity
8
0
100
AcDbLine
62
0
6
CONTINUOUS
10
-8.0611647101
20
-28.6949761519
11
-8.0611647101
21
-29.4949761519
0
LINE
5
242
100
AcDbEntity
8
0
100
AcDbLine
62
0
6
CONTINUOUS
10
-7.6944979907
20
-33.1449761519
11
-7.6944979907
21
-33.3449761519
0
LINE
5
243
100
AcDbEntity
8
0
100
AcDbLine
62
0
6
CONTINUOUS
10
-10.5071531620
20
-25.2303978974
11
-10.5904290660
21
-26.9449761519
0
LINE
5
244
100
AcDbEntity
8
0
100
AcDbLine
62
9
6
CONTINUOUS
10
-10.4624026936
20
-25.2345063029
11
-10.5463069555
21
-26.9449761519
0
LINE
5
245
100
AcDbEntity
8
0
100
AcDbLine
62
0
6
CONTINUOUS
10
-5.9188935993
20
-26.9449761519
11
-5.9998038723
21
-25.2308447958
0
LINE
5
246
100
AcDbEntity
8
0
100
AcDbLine
62
9
6
CONTINUOUS
10
-6.5978484960
20
-25.2345063029
11
-6.5754973333
21
-26.9449761519
0
LINE
5
247
100
AcDbEntity
8
0
100
AcDbLine
62
0
6
CONTINUOUS
10
-6.8111647101
20
-33.1449761519
11
-6.8111647101
21
-33.3449761519
0
LINE
5
248
100
AcDbEntity
8
0
100
AcDbLine
62
0
6
CONTINUOUS
10
-5.0444981487
20
-33.1449761519
11
-5.0444981487
21
-33.3449761519
0
LINE
5
249
100
AcDbEntity
8
0
100
AcDbLine
62
0
6
CONTINUOUS
10
2.9363320506
20
-5.5739083401
11
-0.9586614707
21
-5.5739083401
0
LINE
5
24A
100
AcDbEntity
8
0
100
AcDbLine
62
9
6
CONTINUOUS
10
-2.8111647101
20
-5.2433444765
11
-4.1111647101
21
-5.2433444765
0
LINE
5
24B
100
AcDbEntity
8
0
100
AcDbLine
62
9
6
CONTINUOUS
10
5.7888352899
20
-5.2307625895
11
4.4888352899
21
-5.2307625895
0
LINE
5
24C
100
AcDbEntity
8
0
100
AcDbLine
62
9
6
CONTINUOUS
10
7.0888352899
20
-5.2307625895
11
8.3888352899
21
-5.2307625895
0
LINE
5
24D
100
AcDbEntity
8
0
100
AcDbLine
62
9
6
CONTINUOUS
10
6.2888352899
20
-4.6467005462
11
6.5888352899
21
-4.6467005462
0
LINE
5
24E
100
AcDbEntity
8
0
100
AcDbLine
62
0
6
CONTINUOUS
10
-4.1111647101
20
-28.0569602566
11
-4.1111647101
21
-3.1449761519
0
LINE
5
24F
100
AcDbEntity
8
0
100
AcDbLine
62
9
6
CONTINUOUS
10
-2.8692007072
20
-28.2449761519
11
-2.8692007072
21
-29.9449761519
0
LINE
5
250
100
AcDbEntity
8
0
100
AcDbLine
62
0
6
CONTINUOUS
10
-2.8111647101
20
-3.1449761519
11
-2.8111647101
21
-26.1449761519
0
LINE
5
251
100
AcDbEntity
8
0
100
AcDbLine
62
9
6
CONTINUOUS
10
5.7888352899
20
-3.8165490272
11
4.4888352899
21
-3.8165490272
0
LINE
5
252
100
AcDbEntity
8
0
100
AcDbLine
62
9
6
CONTINUOUS
10
7.0888352899
20
-3.8165490272
11
8.3888352899
21
-3.8165490272
0
LINE
5
253
100
AcDbEntity
8
0
100
AcDbLine
62
9
6
CONTINUOUS
10
-2.8111647101
20
-3.6174608953
11
-4.1111647101
21
-3.6174608953
0
LINE
5
254
100
AcDbEntity
8
0
100
AcDbLine
62
0
6
CONTINUOUS
10
-2.8111647101
20
-3.2739083401
11
4.4888352899
21
-3.2739083401
0
LINE
5
255
100
AcDbEntity
8
0
100
AcDbLine
62
0
6
CONTINUOUS
10
5.7888352899
20
-3.2739083401
11
6.2888352899
21
-3.2739083401
0
LINE
5
256
100
AcDbEntity
8
0
100
AcDbLine
62
0
6
CONTINUOUS
10
6.5888352899
20
-3.2739083401
11
7.0888352899
21
-3.2739083401
0
LINE
5
257
100
AcDbEntity
8
0
100
AcDbLine
62
9
6
CONTINUOUS
10
6.2888352899
20
-3.2324869838
11
6.5888352899
21
-3.2324869838
0
LINE
5
258
100
AcDbEntity
8
0
100
AcDbLine
62
0
6
CONTINUOUS
10
13.6888352899
20
-3.1449761519
11
-14.3111647101
21
-3.1449761519
0
LINE
5
259
100
AcDbEntity
8
0
100
AcDbLine
62
0
6
CONTINUOUS
10
13.1888352899
20
-2.1449761519
11
11.0888352899
21
-2.1449761519
0
LINE
5
25A
100
AcDbEntity
8
0
100
AcDbLine
62
0
6
CONTINUOUS
10
10.0888352899
20
-2.1449761519
11
-10.7111647101
21
-2.1449761519
0
LINE
5
25B
100
AcDbEntity
8
0
100
AcDbLine
62
0
6
CONTINUOUS
10
-11.7111647101
20
-2.1449761519
11
-13.8111647101
21
-2.1449761519
0
LINE
5
25C
100
AcDbEntity
8
0
100
AcDbLine
62
0
6
CONTINUOUS
10
-2.3636340517
20
-28.0449761519
11
-2.3636340517
21
-32.0449761519
0
LINE
5
25D
100
AcDbEntity
8
0
100
AcDbLine
62
0
6
CONTINUOUS
10
-1.7111647101
20
-32.0449761519
11
-1.7111647101
21
-30.9449761519
0
LINE
5
25E
100
AcDbEntity
8
0
100
AcDbLine
62
0
6
CONTINUOUS
10
-0.7111647101
20
-33.1449761519
11
-0.7111647101
21
-32.0449761519
0
LINE
5
25F
100
AcDbEntity
8
0
100
AcDbLine
62
0
6
CONTINUOUS
10
-14.8111647101
20
-0.8449761519
11
-14.4485245297
21
-0.8449761519
0
LINE
5
260
100
AcDbEntity
8
0
100
AcDbLine
62
0
6
CONTINUOUS
10
13.8261951096
20
-0.8449761519
11
14.1888352899
21
-0.8449761519
0
LINE
5
261
100
AcDbEntity
8
0
100
AcDbLine
62
0
6
CONTINUOUS
10
5.0888352899
20
-0.1449761519
11
1.0888352899
21
-0.1449761519
0
LINE
5
262
100
AcDbEntity
8
0
100
AcDbLine
62
0
6
CONTINUOUS
10
0.2888352899
20
-28.0449761519
11
0.2888352899
21
-30.9449761519
0
LINE
5
263
100
AcDbEntity
8
0
100
AcDbLine
62
0
6
CONTINUOUS
10
0.3513553865
20
-29.4449761519
11
0.3513553865
21
-28.0449761519
0
LINE
5
264
100
AcDbEntity
8
0
100
AcDbLine
62
0
6
CONTINUOUS
10
1.0888352899
20
-2.1449761519
11
1.0888352899
21
-0.1449761519
0
LINE
5
265
100
AcDbEntity
8
0
100
AcDbLine
62
9
6
CONTINUOUS
10
11.0888352899
20
1.1534617294
11
10.0888352899
21
1.1534617294
0
LINE
5
266
100
AcDbEntity
8
0
100
AcDbLine
62
9
6
CONTINUOUS
10
-10.7111647101
20
1.1534617294
11
-11.7111647101
21
1.1534617294
0
LINE
5
267
100
AcDbEntity
8
0
100
AcDbLine
62
9
6
CONTINUOUS
10
11.0888352899
20
2.4028518245
11
10.0888352899
21
2.4028518245
0
LINE
5
268
100
AcDbEntity
8
0
100
AcDbLine
62
9
6
CONTINUOUS
10
-10.7111647101
20
2.4028518245
11
-11.7111647101
21
2.4028518245
0
LINE
5
269
100
AcDbEntity
8
0
100
AcDbLine
62
0
6
CONTINUOUS
10
-12.8111647101
20
3.2550238481
11
-11.7111647101
21
3.2550238481
0
LINE
5
26A
100
AcDbEntity
8
0
100
AcDbLine
62
0
6
CONTINUOUS
10
11.0888352899
20
3.2550238481
11
12.1888352899
21
3.2550238481
0
LINE
5
26B
100
AcDbEntity
8
0
100
AcDbLine
62
0
6
CONTINUOUS
10
4.2388352899
20
-33.1449761519
11
4.2388352899
21
-32.0449761519
0
LINE
5
26C
100
AcDbEntity
8
0
100
AcDbLine
62
9
6
CONTINUOUS
10
4.2388352899
20
-28.0449761519
11
4.2388352899
21
-30.9449761519
0
LINE
5
26D
100
AcDbEntity
8
0
100
AcDbLine
62
0
6
CONTINUOUS
10
4.4888352899
20
-0.1449761519
11
4.4888352899
21
-2.1449761519
0
LINE
5
26E
100
AcDbEntity
8
0
100
AcDbLine
62
0
6
CONTINUOUS
10
4.4888352899
20
-30.9449761519
11
4.4888352899
21
-33.1449761519
0
LINE
5
26F
100
AcDbEntity
8
0
100
AcDbLine
62
0
6
CONTINUOUS
10
4.4888352899
20
-28.0449761519
11
4.4888352899
21
-3.1449761519
0
LINE
5
270
100
AcDbEntity
8
0
100
AcDbLine
62
0
6
CONTINUOUS
10
4.7888352899
20
-28.0449761519
11
4.7888352899
21
-30.9449761519
0
LINE
5
271
100
AcDbEntity
8
0
100
AcDbLine
62
0
6
CONTINUOUS
10
10.0888352899
20
5.8550238481
11
11.0888352899
21
5.8550238481
0
LINE
5
272
100
AcDbEntity
8
0
100
AcDbLine
62
0
6
CONTINUOUS
10
-10.7111647101
20
5.8550238481
11
-11.7111647101
21
5.8550238481
0
LINE
5
273
100
AcDbEntity
8
0
100
AcDbLine
62
0
6
CONTINUOUS
10
5.0888352899
20
-2.1449761519
11
5.0888352899
21
-0.1449761519
0
LINE
5
274
100
AcDbEntity
8
0
100
AcDbLine
62
0
6
CONTINUOUS
10
5.7888352899
20
-3.1449761519
11
5.7888352899
21
-33.1449761519
0
LINE
5
275
100
AcDbEntity
8
0
100
AcDbLine
62
0
6
CONTINUOUS
10
6.0388352899
20
-33.1449761519
11
6.0388352899
21
-31.1449761519
0
LINE
5
276
100
AcDbEntity
8
0
100
AcDbLine
62
0
6
CONTINUOUS
10
6.2388352899
20
-28.0449761519
11
6.2388352899
21
-30.1449761519
0
LINE
5
277
100
AcDbEntity
8
0
100
AcDbLine
62
0
6
CONTINUOUS
10
6.2888352899
20
-29.9449761519
11
6.2888352899
21
-3.2324869838
0
LINE
5
278
100
AcDbEntity
8
0
100
AcDbLine
62
0
6
CONTINUOUS
10
6.5888352899
20
-29.9449761519
11
6.5888352899
21
-3.2324869838
0
LINE
5
279
100
AcDbEntity
8
0
100
AcDbLine
62
0
6
CONTINUOUS
10
6.9388352899
20
-33.1449761519
11
6.9388352899
21
-31.1449761519
0
LINE
5
27A
100
AcDbEntity
8
0
100
AcDbLine
62
0
6
CONTINUOUS
10
7.0888352899
20
-33.1449761519
11
7.0888352899
21
-3.1449761519
0
LINE
5
27B
100
AcDbEntity
8
0
100
AcDbLine
62
0
6
CONTINUOUS
10
12.1888352899
20
6.8550238481
11
11.0888352899
21
6.8550238481
0
LINE
5
27C
100
AcDbEntity
8
0
100
AcDbLine
62
0
6
CONTINUOUS
10
-11.7111647101
20
6.8550238481
11
-12.8111647101
21
6.8550238481
0
LINE
5
27D
100
AcDbEntity
8
0
100
AcDbLine
62
9
6
CONTINUOUS
10
9.8400732735
20
-25.2345063029
11
9.9239775354
21
-26.9449761519
0
LINE
5
27E
100
AcDbEntity
8
0
100
AcDbLine
62
0
6
CONTINUOUS
10
9.9680996459
20
-26.9449761519
11
9.8848237419
21
-25.2303978974
0
LINE
5
27F
100
AcDbEntity
8
0
100
AcDbLine
62
0
6
CONTINUOUS
10
8.3888352899
20
-33.1449761519
11
8.3888352899
21
-3.1449761519
0
LINE
5
280
100
AcDbEntity
8
0
100
AcDbLine
62
0
6
CONTINUOUS
10
10.0888352899
20
-2.1449761519
11
10.0888352899
21
5.8550238481
0
LINE
5
281
100
AcDbEntity
8
0
100
AcDbLine
62
0
6
CONTINUOUS
10
10.5388352899
20
-33.1449761519
11
10.5388352899
21
-26.9449761519
0
LINE
5
282
100
AcDbEntity
8
0
100
AcDbLine
62
0
6
CONTINUOUS
10
11.0888352899
20
-2.1449761519
11
11.0888352899
21
6.8550238481
0
LINE
5
283
100
AcDbEntity
8
0
100
AcDbLine
62
9
6
CONTINUOUS
10
11.6888352899
20
6.8550238481
11
11.6888352899
21
22.0550238481
0
LINE
5
284
100
AcDbEntity
8
0
100
AcDbLine
62
0
6
CONTINUOUS
10
12.1888352899
20
-0.0748199401
11
12.1888352899
21
3.2550238481
0
LINE
5
285
100
AcDbEntity
8
0
100
AcDbLine
62
0
6
CONTINUOUS
10
12.1888352899
20
6.8550238481
11
12.1888352899
21
22.0550238481
0
LINE
5
286
100
AcDbEntity
8
0
100
AcDbLine
62
0
6
CONTINUOUS
10
13.9988417647
20
1.6175319415
11
12.5450090518
21
-0.1997589496
0
LINE
5
287
100
AcDbEntity
8
0
100
AcDbLine
62
0
6
CONTINUOUS
10
14.1888352899
20
-0.8449761519
11
14.1888352899
21
-2.6449761519
0
LINE
5
288
100
AcDbEntity
8
0
100
AcDbLine
62
0
6
CONTINUOUS
10
13.1888352899
20
-2.1449761519
11
13.6395259883
21
-0.9731803361
0
LINE
5
289
100
AcDbEntity
8
0
100
AcDbLine
62
0
6
CONTINUOUS
10
12.4732571795
20
5.7150745966
11
14.0653131343
21
2.1329486983
0
LINE
5
28A
100
AcDbEntity
8
0
100
AcDbLine
62
9
6
CONTINUOUS
10
-12.3111647101
20
22.0550238481
11
-12.8111647101
21
22.0550238481
0
LINE
5
28B
100
AcDbEntity
8
0
100
AcDbLine
62
9
6
CONTINUOUS
10
11.6888352899
20
22.0550238481
11
12.1888352899
21
22.0550236032
0
LINE
5
28C
100
AcDbEntity
8
0
100
AcDbLine
62
0
6
CONTINUOUS
10
3.7938350554
20
33.8617582368
11
3.7936813413
21
33.8618116794
0
ARC
5
28D
100
AcDbEntity
8
0
100
AcDbCircle
62
0
6
CONTINUOUS
10
-8.2611647101
20
-28.6949761519
40
0.2000000000
100
AcDbArc
50
0.0000000000
51
90.0000000000
0
ARC
5
28E
100
AcDbEntity
8
0
100
AcDbCircle
62
0
6
CONTINUOUS
10
-8.2611647101
20
-29.4949761519
40
0.2000000000
100
AcDbArc
50
270.0000000000
51
360.0000000000
0
ARC
5
28F
100
AcDbEntity
8
0
100
AcDbCircle
62
0
6
CONTINUOUS
10
-0.3111647101
20
22.0550238481
40
12.5000000000
100
AcDbArc
50
0.0000000000
51
180.0000000000
0
ARC
5
290
100
AcDbEntity
8
0
100
AcDbCircle
62
0
6
CONTINUOUS
10
13.8261951096
20
-1.0449761519
40
0.2000000000
100
AcDbArc
50
90.0000000000
51
158.9624889746
0
ARC
5
291
100
AcDbEntity
8
0
100
AcDbCircle
62
0
6
CONTINUOUS
10
13.6888352899
20
-2.6449761519
40
0.5000000000
100
AcDbArc
50
270.0000000000
51
360.0000000000
0
ARC
5
292
100
AcDbEntity
8
0
100
AcDbCircle
62
0
6
CONTINUOUS
10
-14.3111647101
20
-2.6449761519
40
0.5000000000
100
AcDbArc
50
180.0000000000
51
270.0000000000
0
ARC
5
293
100
AcDbEntity
8
0
100
AcDbCircle
62
0
6
CONTINUOUS
10
-14.4485245297
20
-1.0449761519
40
0.2000000000
100
AcDbArc
50
21.0375110254
51
90.0000000000
0
ARC
5
294
100
AcDbEntity
8
0
100
AcDbCircle
62
0
6
CONTINUOUS
10
15.4888352899
20
7.0553315346
40
3.3000000000
100
AcDbArc
50
183.4799760156
51
203.9624889746
0
ARC
5
295
100
AcDbEntity
8
0
100
AcDbCircle
62
0
6
CONTINUOUS
10
-16.1111647101
20
7.0553315346
40
3.3000000000
100
AcDbArc
50
336.0375110254
51
356.5200239844
0
ARC
5
296
100
AcDbEntity
8
0
100
AcDbCircle
62
0
6
CONTINUOUS
10
-13.2111647101
20
-2.1449761519
40
0.7500000000
100
AcDbArc
50
0.0000000000
51
159.3408101122
0
ARC
5
297
100
AcDbEntity
8
0
100
AcDbCircle
62
0
6
CONTINUOUS
10
12.5888352899
20
-2.1449761519
40
0.7500000000
100
AcDbArc
50
20.6591898878
51
180.0000000000
0
ARC
5
298
100
AcDbEntity
8
0
100
AcDbCircle
62
0
6
CONTINUOUS
10
-13.0111647101
20
-0.0748199401
40
0.2000000000
100
AcDbArc
50
218.6598082541
51
360.0000000000
0
ARC
5
299
100
AcDbEntity
8
0
100
AcDbCircle
62
0
6
CONTINUOUS
10
-14.2307367801
20
1.9298794653
40
0.5000000000
100
AcDbArc
50
156.0375110254
51
218.6598082541
0
ARC
5
29A
100
AcDbEntity
8
0
100
AcDbCircle
62
0
6
CONTINUOUS
10
12.3888352899
20
-0.0748199401
40
0.2000000000
100
AcDbArc
50
180.0000000000
51
321.3401917459
0
ARC
5
29B
100
AcDbEntity
8
0
100
AcDbCircle
62
0
6
CONTINUOUS
10
13.6084073600
20
1.9298794653
40
0.5000000000
100
AcDbArc
50
321.3401917459
51
23.9624889746
0
ARC
5
29C
100
AcDbEntity
8
0
100
AcDbCircle
62
9
6
CONTINUOUS
10
-0.3111647101
20
22.0550238481
40
11.9999839467
100
AcDbArc
50
0.0000000000
51
180.0000000000
0
SPLINE
5
29D
100
AcDbEntity
8
0
100
AcDbSpline
62
0
6
CONTINUOUS
70
0
71
3
72
10
73
6
74
4
42
0.0000001000
43
0.0000001000
44
0.0000000001
12
-0.0195001289
22
0.4008039539
32
0.0000000000
13
-0.3993729006
23
0.0691141828
33
0.0000000000
40
0.0000000000
40
0.0000000000
40
0.0000000000
40
0.0000000000
40
0.3756296564
40
0.7502320582
40
1.0000000000
40
1.0000000000
40
1.0000000000
40
1.0000000000
10
9.8848237418
20
-25.2303978967
30
0.0000000000
10
9.8823821329
20
-25.1802132795
30
0.0000000000
10
9.8510576275
20
-25.0794439947
30
0.0000000000
10
9.7502691818
20
-24.9834437917
30
0.0000000000
10
9.6689451915
20
-24.9551121122
30
0.0000000000
10
9.6356950090
20
-24.9493579431
30
0.0000000000
11
9.8848237418
21
-25.2303978967
31
0.0000000000
11
9.8399118391
21
-25.0865124245
31
0.0000000000
11
9.7310659281
21
-24.9828373352
31
0.0000000000
11
9.6356950090
21
-24.9493579431
31
0.0000000000
0
SPLINE
5
29E
100
AcDbEntity
8
0
100
AcDbSpline
62
0
6
CONTINUOUS
70
0
71
3
72
8
73
4
74
2
42
0.0000001000
43
0.0000001000
44
0.0000000001
12
-0.0502547173
22
0.0086969189
32
0.0000000000
13
-0.0504943806
23
0.0000000000
33
0.0000000000
40
0.0000000000
40
0.0000000000
40
0.0000000000
40
0.0000000000
40
1.0000000000
40
1.0000000000
40
1.0000000000
40
1.0000000000
10
9.6356950090
20
-24.9493579431
30
0.0000000000
10
9.6189434366
20
-24.9464589702
30
0.0000000000
10
9.6020096208
20
-24.9449761519
30
0.0000000000
10
9.5851781606
20
-24.9449761519
30
0.0000000000
11
9.6356950090
21
-24.9493579431
31
0.0000000000
11
9.5851781606
21
-24.9449761519
31
0.0000000000
0
SPLINE
5
29F
100
AcDbEntity
8
0
100
AcDbSpline
62
0
6
CONTINUOUS
70
0
71
3
72
10
73
6
74
4
42
0.0000001000
43
0.0000001000
44
0.0000000001
12
0.0195001296
22
0.4008039531
32
0.0000000000
13
0.3993728987
23
0.0691141846
33
0.0000000000
40
0.0000000000
40
0.0000000000
40
0.0000000000
40
0.0000000000
40
0.3756296397
40
0.7502320496
40
1.0000000000
40
1.0000000000
40
1.0000000000
40
1.0000000000
10
-10.5071531620
20
-25.2303978967
30
0.0000000000
10
-10.5047115531
20
-25.1802132819
30
0.0000000000
10
-10.4733870495
20
-25.0794439985
30
0.0000000000
10
-10.3725986060
20
-24.9834437938
30
0.0000000000
10
-10.2912746140
20
-24.9551121128
30
0.0000000000
10
-10.2580244306
20
-24.9493579434
30
0.0000000000
11
-10.5071531620
21
-25.2303978967
31
0.0000000000
11
-10.4622412631
21
-25.0865124306
31
0.0000000000
11
-10.3533953523
21
-24.9828373375
31
0.0000000000
11
-10.2580244306
21
-24.9493579434
31
0.0000000000
0
SPLINE
5
2A0
100
AcDbEntity
8
0
100
AcDbSpline
62
0
6
CONTINUOUS
70
0
71
3
72
8
73
4
74
2
42
0.0000001000
43
0.0000001000
44
0.0000000001
12
0.0502547188
22
0.0086969194
32
0.0000000000
13
0.0504943821
23
0.0000000000
33
0.0000000000
40
0.0000000000
40
0.0000000000
40
0.0000000000
40
0.0000000000
40
1.0000000000
40
1.0000000000
40
1.0000000000
40
1.0000000000
10
-10.2580244306
20
-24.9493579434
30
0.0000000000
10
-10.2412728577
20
-24.9464589703
30
0.0000000000
10
-10.2243390414
20
-24.9449761519
30
0.0000000000
10
-10.2075075807
20
-24.9449761519
30
0.0000000000
11
-10.2580244306
21
-24.9493579434
31
0.0000000000
11
-10.2075075807
21
-24.9449761519
31
0.0000000000
0
SPLINE
5
2A1
100
AcDbEntity
8
0
100
AcDbSpline
62
0
6
CONTINUOUS
70
0
71
3
72
10
73
6
74
4
42
0.0000001000
43
0.0000001000
44
0.0000000001
12
-0.0189208367
22
0.4012163134
32
0.0000000000
13
-0.3997516341
23
0.0692493920
33
0.0000000000
40
0.0000000000
40
0.0000000000
40
0.0000000000
40
0.0000000000
40
0.3756376483
40
0.7502373978
40
1.0000000000
40
1.0000000000
40
1.0000000000
40
1.0000000000
10
-5.9998038951
20
-25.2308443118
30
0.0000000000
10
-6.0021730214
20
-25.1806069943
30
0.0000000000
10
-6.0334058120
20
-25.0796918154
30
0.0000000000
10
-6.1342282220
20
-24.9835177515
30
0.0000000000
10
-6.2156248079
20
-24.9551318607
30
0.0000000000
10
-6.2489058107
20
-24.9493665579
30
0.0000000000
11
-5.9998038951
21
-25.2308443118
31
0.0000000000
11
-6.0445817471
21
-25.0867625651
31
0.0000000000
11
-6.1534548507
21
-24.9829087476
31
0.0000000000
11
-6.2489058107
21
-24.9493665579
31
0.0000000000
0
SPLINE
5
2A2
100
AcDbEntity
8
0
100
AcDbSpline
62
0
6
CONTINUOUS
70
0
71
3
72
8
73
4
74
2
42
0.0000001000
43
0.0000001000
44
0.0000000001
12
-0.0503021466
22
0.0087138933
32
0.0000000000
13
-0.0505425445
23
0.0000000000
33
0.0000000000
40
0.0000000000
40
0.0000000000
40
0.0000000000
40
0.0000000000
40
1.0000000000
40
1.0000000000
40
1.0000000000
40
1.0000000000
10
-6.2489058107
20
-24.9493665579
30
0.0000000000
10
-6.2656731929
20
-24.9464619268
30
0.0000000000
10
-6.2826233472
20
-24.9449761519
30
0.0000000000
10
-6.2994708621
20
-24.9449761519
30
0.0000000000
11
-6.2489058107
21
-24.9493665579
31
0.0000000000
11
-6.2994708621
21
-24.9449761519
31
0.0000000000
0
SPLINE
5
2A3
100
AcDbEntity
8
0
100
AcDbSpline
62
0
6
CONTINUOUS
70
0
71
3
72
11
73
7
74
5
42
0.0000001000
43
0.0000001000
44
0.0000000001
12
-0.0000000000
22
-10.0302287986
32
0.0000000000
13
-0.0000000000
23
10.0302287986
33
0.0000000000
40
0.0000000000
40
0.0000000000
40
0.0000000000
40
0.0000000000
40
0.2500000000
40
0.5000000000
40
0.7500000000
40
1.0000000000
40
1.0000000000
40
1.0000000000
40
1.0000000000
10
3.8888352899
20
-15.4449761519
30
0.0000000000
10
3.8888352899
20
-16.2808285518
30
0.0000000000
10
3.2613090021
20
-17.9525333516
30
0.0000000000
10
0.9888352899
20
-18.9911975521
30
0.0000000000
10
-1.2836384222
20
-17.9525333516
30
0.0000000000
10
-1.9111647101
20
-16.2808285518
30
0.0000000000
10
-1.9111647101
20
-15.4449761519
30
0.0000000000
11
3.8888352899
21
-15.4449761519
31
0.0000000000
11
3.0394449554
21
-17.7077178517
31
0.0000000000
11
0.9888352899
21
-18.6449761519
31
0.0000000000
11
-1.0617743755
21
-17.7077178517
31
0.0000000000
11
-1.9111647101
21
-15.4449761519
31
0.0000000000
0
SPLINE
5
2A4
100
AcDbEntity
8
0
100
AcDbSpline
62
0
6
CONTINUOUS
70
0
71
3
72
11
73
7
74
5
42
0.0000001000
43
0.0000001000
44
0.0000000001
12
-0.0000000000
22
10.0302287986
32
0.0000000000
13
-0.0000000000
23
-10.0302287986
33
0.0000000000
40
0.0000000000
40
0.0000000000
40
0.0000000000
40
0.0000000000
40
0.2500000000
40
0.5000000000
40
0.7500000000
40
1.0000000000
40
1.0000000000
40
1.0000000000
40
1.0000000000
10
-1.9111647101
20
-15.4449761519
30
0.0000000000
10
-1.9111647101
20
-14.6091237520
30
0.0000000000
10
-1.2836384222
20
-12.9374189523
30
0.0000000000
10
0.9888352899
20
-11.8987547517
30
0.0000000000
10
3.2613090021
20
-12.9374189523
30
0.0000000000
10
3.8888352899
20
-14.6091237520
30
0.0000000000
10
3.8888352899
20
-15.4449761519
30
0.0000000000
11
-1.9111647101
21
-15.4449761519
31
0.0000000000
11
-1.0617743755
21
-13.1822344521
31
0.0000000000
11
0.9888352899
21
-12.2449761519
31
0.0000000000
11
3.0394449554
21
-13.1822344521
31
0.0000000000
11
3.8888352899
21
-15.4449761519
31
0.0000000000
0
SPLINE
5
2A5
100
AcDbEntity
8
0
100
AcDbSpline
62
0
6
CONTINUOUS
70
0
71
3
72
11
73
7
74
5
42
0.0000001000
43
0.0000001000
44
0.0000000001
12
-0.0000000000
22
-10.0302287986
32
0.0000000000
13
0.0000000000
23
10.0302287986
33
0.0000000000
40
0.0000000000
40
0.0000000000
40
0.0000000000
40
0.0000000000
40
0.2500000000
40
0.5000000000
40
0.7500000000
40
1.0000000000
40
1.0000000000
40
1.0000000000
40
1.0000000000
10
3.8888352899
20
-22.9449761519
30
0.0000000000
10
3.8888352899
20
-23.7808285518
30
0.0000000000
10
3.2613090021
20
-25.4525333516
30
0.0000000000
10
0.9888352899
20
-26.4911975521
30
0.0000000000
10
-1.2836384222
20
-25.4525333516
30
0.0000000000
10
-1.9111647101
20
-23.7808285518
30
0.0000000000
10
-1.9111647101
20
-22.9449761519
30
0.0000000000
11
3.8888352899
21
-22.9449761519
31
0.0000000000
11
3.0394449554
21
-25.2077178517
31
0.0000000000
11
0.9888352899
21
-26.1449761519
31
0.0000000000
11
-1.0617743755
21
-25.2077178517
31
0.0000000000
11
-1.9111647101
21
-22.9449761519
31
0.0000000000
0
SPLINE
5
2A6
100
AcDbEntity
8
0
100
AcDbSpline
62
0
6
CONTINUOUS
70
0
71
3
72
11
73
7
74
5
42
0.0000001000
43
0.0000001000
44
0.0000000001
12
0.0000000000
22
10.0302287986
32
0.0000000000
13
-0.0000000000
23
-10.0302287986
33
0.0000000000
40
0.0000000000
40
0.0000000000
40
0.0000000000
40
0.0000000000
40
0.2500000000
40
0.5000000000
40
0.7500000000
40
1.0000000000
40
1.0000000000
40
1.0000000000
40
1.0000000000
10
-1.9111647101
20
-22.9449761519
30
0.0000000000
10
-1.9111647101
20
-22.1091237520
30
0.0000000000
10
-1.2836384222
20
-20.4374189523
30
0.0000000000
10
0.9888352899
20
-19.3987547517
30
0.0000000000
10
3.2613090021
20
-20.4374189523
30
0.0000000000
10
3.8888352899
20
-22.1091237520
30
0.0000000000
10
3.8888352899
20
-22.9449761519
30
0.0000000000
11
-1.9111647101
21
-22.9449761519
31
0.0000000000
11
-1.0617743755
21
-20.6822344521
31
0.0000000000
11
0.9888352899
21
-19.7449761519
31
0.0000000000
11
3.0394449554
21
-20.6822344521
31
0.0000000000
11
3.8888352899
21
-22.9449761519
31
0.0000000000
0
SPLINE
5
2A7
100
AcDbEntity
8
0
100
AcDbSpline
62
0
6
CONTINUOUS
70
0
71
3
72
9
73
5
74
3
42
0.0000001000
43
0.0000001000
44
0.0000000001
12
1.7934285018
22
-1.7851363687
32
0.0000000000
13
-0.0000000000
23
-2.6646792149
33
0.0000000000
40
0.0000000000
40
0.0000000000
40
0.0000000000
40
0.0000000000
40
0.0589647018
40
1.0000000000
40
1.0000000000
40
1.0000000000
40
1.0000000000
10
2.9362000633
20
-5.5740409405
30
0.0000000000
10
2.9714497222
20
-5.6091276184
30
0.0000000000
10
3.5554119375
20
-6.2208973471
30
0.0000000000
10
3.8888352899
20
-7.1091237520
30
0.0000000000
10
3.8888352899
20
-7.9449761519
30
0.0000000000
11
2.9362000633
21
-5.5740409405
31
0.0000000000
11
3.0394449554
21
-5.6822344521
31
0.0000000000
11
3.8888352899
21
-7.9449761519
31
0.0000000000
0
SPLINE
5
2A8
100
AcDbEntity
8
0
100
AcDbSpline
62
0
6
CONTINUOUS
70
0
71
3
72
11
73
7
74
5
42
0.0000001000
43
0.0000001000
44
0.0000000001
12
-0.0000000000
22
-10.0302287986
32
0.0000000000
13
0.0000000000
23
10.0302287986
33
0.0000000000
40
0.0000000000
40
0.0000000000
40
0.0000000000
40
0.0000000000
40
0.2500000000
40
0.5000000000
40
0.7500000000
40
1.0000000000
40
1.0000000000
40
1.0000000000
40
1.0000000000
10
3.8888352899
20
-7.9449761519
30
0.0000000000
10
3.8888352899
20
-8.7808285518
30
0.0000000000
10
3.2613090021
20
-10.4525333516
30
0.0000000000
10
0.9888352899
20
-11.4911975521
30
0.0000000000
10
-1.2836384222
20
-10.4525333516
30
0.0000000000
10
-1.9111647101
20
-8.7808285518
30
0.0000000000
10
-1.9111647101
20
-7.9449761519
30
0.0000000000
11
3.8888352899
21
-7.9449761519
31
0.0000000000
11
3.0394449554
21
-10.2077178517
31
0.0000000000
11
0.9888352899
21
-11.1449761519
31
0.0000000000
11
-1.0617743755
21
-10.2077178517
31
0.0000000000
11
-1.9111647101
21
-7.9449761519
31
0.0000000000
0
SPLINE
5
2A9
100
AcDbEntity
8
0
100
AcDbSpline
62
0
6
CONTINUOUS
70
0
71
3
72
9
73
5
74
3
42
0.0000001000
43
0.0000001000
44
0.0000000001
12
0.0000000000
22
2.6646792149
32
0.0000000000
13
1.7934285018
23
1.7851363687
33
0.0000000000
40
0.0000000000
40
0.0000000000
40
0.0000000000
40
0.0000000000
40
0.9410352982
40
1.0000000000
40
1.0000000000
40
1.0000000000
40
1.0000000000
10
-1.9111647101
20
-7.9449761519
30
0.0000000000
10
-1.9111647101
20
-7.1091237520
30
0.0000000000
10
-1.5777413576
20
-6.2208973471
30
0.0000000000
10
-0.9937791423
20
-5.6091276184
30
0.0000000000
10
-0.9585294834
20
-5.5740409405
30
0.0000000000
11
-1.9111647101
21
-7.9449761519
31
0.0000000000
11
-1.0617743755
21
-5.6822344521
31
0.0000000000
11
-0.9585294834
21
-5.5740409405
31
0.0000000000
0
SPLINE
5
2AA
100
AcDbEntity
8
0
100
AcDbSpline
62
9
6
CONTINUOUS
70
0
71
3
72
8
73
4
74
2
42
0.0000001000
43
0.0000001000
44
0.0000000001
12
0.1322835786
22
-0.0000000001
32
0.0000000000
13
0.1119455262
23
-0.0740833527
33
0.0000000000
40
0.0000000000
40
0.0000000000
40
0.0000000000
40
0.0000000000
40
1.0000000000
40
1.0000000000
40
1.0000000000
40
1.0000000000
10
9.5851781606
20
-24.9449761519
30
0.0000000000
10
9.6292726868
20
-24.9449761519
30
0.0000000000
10
9.6741551339
20
-24.9596420661
30
0.0000000000
10
9.7114703093
20
-24.9843365169
30
0.0000000000
11
9.5851781606
21
-24.9449761519
31
0.0000000000
11
9.7114703093
21
-24.9843365169
31
0.0000000000
0
SPLINE
5
2AB
100
AcDbEntity
8
0
100
AcDbSpline
62
9
6
CONTINUOUS
70
0
71
3
72
9
73
5
74
3
42
0.0000001000
43
0.0000001000
44
0.0000000001
12
0.2022112965
22
-0.1338194682
32
0.0000000000
13
0.0416959582
23
-0.2369954816
33
0.0000000000
40
0.0000000000
40
0.0000000000
40
0.0000000000
40
0.0000000000
40
0.5956274002
40
1.0000000000
40
1.0000000000
40
1.0000000000
40
1.0000000000
10
9.7114703093
20
-24.9843365169
30
0.0000000000
10
9.7516178389
20
-25.0109053643
30
0.0000000000
10
9.8043150363
20
-25.0750017524
30
0.0000000000
10
9.8293254701
20
-25.1524186450
30
0.0000000000
10
9.8349457045
20
-25.1843634714
30
0.0000000000
11
9.7114703093
21
-24.9843365169
31
0.0000000000
11
9.8045711398
21
-25.0919862363
31
0.0000000000
11
9.8349457045
21
-25.1843634714
31
0.0000000000
0
SPLINE
5
2AC
100
AcDbEntity
8
0
100
AcDbSpline
62
9
6
CONTINUOUS
70
0
71
3
72
8
73
4
74
2
42
0.0000001000
43
0.0000001000
44
0.0000000001
12
0.0087686882
22
-0.0498403098
32
0.0000000000
13
0.0014912233
23
-0.0502289342
33
0.0000000000
40
0.0000000000
40
0.0000000000
40
0.0000000000
40
0.0000000000
40
1.0000000000
40
1.0000000000
40
1.0000000000
40
1.0000000000
10
9.8349457045
20
-25.1843634714
30
0.0000000000
10
9.8378686005
20
-25.2009769080
30
0.0000000000
10
9.8395761972
20
-25.2177633249
30
0.0000000000
10
9.8400732716
20
-25.2345063029
30
0.0000000000
11
9.8349457045
21
-25.1843634714
31
0.0000000000
11
9.8400732716
21
-25.2345063029
31
0.0000000000
0
SPLINE
5
2AD
100
AcDbEntity
8
0
100
AcDbSpline
62
9
6
CONTINUOUS
70
0
71
3
72
10
73
6
74
4
42
0.0000001000
43
0.0000001000
44
0.0000000001
12
-0.3033449778
22
-0.0000000002
32
0.0000000000
13
-0.0339485643
23
-0.3020070186
33
0.0000000000
40
0.0000000000
40
0.0000000000
40
0.0000000000
40
0.0000000000
40
0.2886437142
40
0.6912157332
40
1.0000000000
40
1.0000000000
40
1.0000000000
40
1.0000000000
10
-6.4399913975
20
-24.9449761519
30
0.0000000000
10
-6.4691776046
20
-24.9449761519
30
0.0000000000
10
-6.5359244674
20
-24.9872781734
30
0.0000000000
10
-6.5767483905
20
-25.0819178410
30
0.0000000000
10
-6.5910659655
20
-25.1529633566
30
0.0000000000
10
-6.5945602264
20
-25.1840483619
30
0.0000000000
11
-6.4399913975
21
-24.9449761519
31
0.0000000000
11
-6.5182044002
21
-24.9843365169
31
0.0000000000
11
-6.5758619473
21
-25.0919862363
31
0.0000000000
11
-6.5945602264
21
-25.1840483619
31
0.0000000000
0
SPLINE
5
2AE
100
AcDbEntity
8
0
100
AcDbSpline
62
9
6
CONTINUOUS
70
0
71
3
72
8
73
4
74
2
42
0.0000001000
43
0.0000001000
44
0.0000000001
12
-0.0056558975
22
-0.0503149625
32
0.0000000000
13
-0.0009290410
23
-0.0505293291
33
0.0000000000
40
0.0000000000
40
0.0000000000
40
0.0000000000
40
0.0000000000
40
1.0000000000
40
1.0000000000
40
1.0000000000
40
1.0000000000
10
-6.5945602264
20
-25.1840483619
30
0.0000000000
10
-6.5964455255
20
-25.2008200160
30
0.0000000000
10
-6.5975388188
20
-25.2176631932
30
0.0000000000
10
-6.5978484992
20
-25.2345063029
30
0.0000000000
11
-6.5945602264
21
-25.1840483619
31
0.0000000000
11
-6.5978484992
21
-25.2345063029
31
0.0000000000
0
SPLINE
5
2AF
100
AcDbEntity
8
0
100
AcDbSpline
62
9
6
CONTINUOUS
70
0
71
3
72
10
73
6
74
4
42
0.0000001000
43
0.0000001000
44
0.0000000001
12
0.3758902541
22
-0.0000000000
32
0.0000000000
13
0.0656064247
23
-0.3728907670
33
0.0000000000
40
0.0000000000
40
0.0000000000
40
0.0000000000
40
0.0000000000
40
0.3579086576
40
0.7395783769
40
1.0000000000
40
1.0000000000
40
1.0000000000
40
1.0000000000
10
-6.4399913974
20
-24.9449761519
30
0.0000000000
10
-6.3951466053
20
-24.9449761519
30
0.0000000000
10
-6.3007811886
20
-24.9750497903
30
0.0000000000
10
-6.2166659451
20
-25.0749086771
30
0.0000000000
10
-6.1910697332
20
-25.1530921986
30
0.0000000000
10
-6.1853746227
20
-25.1854618048
30
0.0000000000
11
-6.4399913974
21
-24.9449761519
31
0.0000000000
11
-6.3113435994
21
-24.9843365692
31
0.0000000000
11
-6.2165064884
21
-25.0919859761
31
0.0000000000
11
-6.1853746227
21
-25.1854618048
31
0.0000000000
0
SPLINE
5
2B0
100
AcDbEntity
8
0
100
AcDbSpline
62
9
6
CONTINUOUS
70
0
71
3
72
8
73
4
74
2
42
0.0000001000
43
0.0000001000
44
0.0000000001
12
0.0085779537
22
-0.0487549770
32
0.0000000000
13
0.0014856425
23
-0.0491246965
33
0.0000000000
40
0.0000000000
40
0.0000000000
40
0.0000000000
40
0.0000000000
40
1.0000000000
40
1.0000000000
40
1.0000000000
40
1.0000000000
10
-6.1853746227
20
-25.1854618048
30
0.0000000000
10
-6.1825153048
20
-25.2017134638
30
0.0000000000
10
-6.1808372583
20
-25.2181314041
30
0.0000000000
10
-6.1803420441
20
-25.2345063029
30
0.0000000000
11
-6.1853746227
21
-25.1854618048
31
0.0000000000
11
-6.1803420441
21
-25.2345063029
31
0.0000000000
0
SPLINE
5
2B1
100
AcDbEntity
8
0
100
AcDbSpline
62
9
6
CONTINUOUS
70
0
71
3
72
10
73
6
74
4
42
0.0000001000
43
0.0000001000
44
0.0000000001
12
0.3757098510
22
-0.0000000001
32
0.0000000000
13
0.0657846581
23
-0.3726985671
33
0.0000000000
40
0.0000000000
40
0.0000000000
40
0.0000000000
40
0.0000000000
40
0.3576237944
40
0.7389984892
40
1.0000000000
40
1.0000000000
40
1.0000000000
40
1.0000000000
10
-6.2994708621
20
-24.9449761519
30
0.0000000000
10
-6.2546832679
20
-24.9449761519
30
0.0000000000
10
-6.1604391453
20
-24.9749687996
30
0.0000000000
10
-6.0762712201
20
-25.0746851087
30
0.0000000000
10
-6.0506099929
20
-25.1528539795
30
0.0000000000
10
-6.0448866945
20
-25.1852789425
30
0.0000000000
11
-6.2994708621
21
-24.9449761519
31
0.0000000000
11
-6.1709724609
21
-24.9842383248
31
0.0000000000
11
-6.0761520704
21
-25.0916628898
31
0.0000000000
11
-6.0448866945
21
-25.1852789425
31
0.0000000000
0
SPLINE
5
2B2
100
AcDbEntity
8
0
100
AcDbSpline
62
9
6
CONTINUOUS
70
0
71
3
72
8
73
4
74
2
42
0.0000001000
43
0.0000001000
44
0.0000000001
12
0.0086374563
22
-0.0489349295
32
0.0000000000
13
0.0014911789
23
-0.0493077647
33
0.0000000000
40
0.0000000000
40
0.0000000000
40
0.0000000000
40
0.0000000000
40
1.0000000000
40
1.0000000000
40
1.0000000000
40
1.0000000000
10
-6.0448866945
20
-25.1852789425
30
0.0000000000
10
-6.0420075424
20
-25.2015905857
30
0.0000000000
10
-6.0403185721
20
-25.2180703813
30
0.0000000000
10
-6.0398215124
20
-25.2345063029
30
0.0000000000
11
-6.0448866945
21
-25.1852789425
31
0.0000000000
11
-6.0398215124
21
-25.2345063029
31
0.0000000000
0
SPLINE
5
2B3
100
AcDbEntity
8
0
100
AcDbSpline
62
9
6
CONTINUOUS
70
0
71
3
72
11
73
7
74
5
42
0.0000001000
43
0.0000001000
44
0.0000000001
12
0.4172677873
22
0.0176419032
32
0.0000000000
13
0.4165685142
23
-0.0299051177
33
0.0000000000
40
0.0000000000
40
0.0000000000
40
0.0000000000
40
0.0000000000
40
0.2363501848
40
0.5101247714
40
0.7829349507
40
1.0000000000
40
1.0000000000
40
1.0000000000
40
1.0000000000
10
-6.5978484992
20
-25.2345063029
30
0.0000000000
10
-6.5649747263
20
-25.2331164139
30
0.0000000000
10
-6.4939854247
20
-25.2310013558
30
0.0000000000
10
-6.3849899516
20
-25.2295799823
30
0.0000000000
10
-6.2786885712
20
-25.2303494788
30
0.0000000000
10
-6.2104829497
20
-25.2323425172
30
0.0000000000
10
-6.1803421280
20
-25.2345063025
30
0.0000000000
11
-6.5978484992
21
-25.2345063029
31
0.0000000000
11
-6.4991875933
21
-25.2314117492
31
0.0000000000
11
-6.3848573685
21
-25.2299653597
31
0.0000000000
11
-6.2709243673
21
-25.2308706704
31
0.0000000000
11
-6.1803421280
21
-25.2345063025
31
0.0000000000
0
SPLINE
5
2B4
100
AcDbEntity
8
0
100
AcDbSpline
62
9
6
CONTINUOUS
70
0
71
3
72
8
73
4
74
2
42
0.0000001000
43
0.0000001000
44
0.0000000001
12
0.0394296678
22
0.0026702102
32
0.0000000000
13
-0.0010407579
23
0.0022141196
33
0.0000000000
40
0.0000000000
40
0.0000000000
40
0.0000000000
40
0.0000000000
40
1.0000000000
40
1.0000000000
40
1.0000000000
40
1.0000000000
10
-6.0398215124
20
-25.2345063029
30
0.0000000000
10
-6.0266782898
20
-25.2336162328
30
0.0000000000
10
-5.9999732892
20
-25.2318193073
30
0.0000000000
10
-6.0003202085
20
-25.2310812674
30
0.0000000000
11
-6.0398215124
21
-25.2345063029
31
0.0000000000
11
-6.0003202085
21
-25.2310812674
31
0.0000000000
0
SPLINE
5
2B5
100
AcDbEntity
8
0
100
AcDbSpline
62
9
6
CONTINUOUS
70
0
71
3
72
9
73
5
74
3
42
0.0000001000
43
0.0000001000
44
0.0000000001
12
0.0411636208
22
0.0028181304
32
0.0000000000
13
-0.0003405359
23
0.0021665705
33
0.0000000000
40
0.0000000000
40
0.0000000000
40
0.0000000000
40
0.0000000000
40
0.9456266549
40
1.0000000000
40
1.0000000000
40
1.0000000000
40
1.0000000000
10
9.8400732716
20
-25.2345063029
30
0.0000000000
10
9.8530484106
20
-25.2336180032
30
0.0000000000
10
9.8780478890
20
-25.2320889276
30
0.0000000000
10
9.8791582666
20
-25.2313265796
30
0.0000000000
10
9.8791520946
20
-25.2312873117
30
0.0000000000
11
9.8400732716
21
-25.2345063029
31
0.0000000000
11
9.8789668896
21
-25.2314117492
31
0.0000000000
11
9.8791520946
21
-25.2312873117
31
0.0000000000
0
SPLINE
5
2B6
100
AcDbEntity
8
0
100
AcDbSpline
62
9
6
CONTINUOUS
70
0
71
3
72
8
73
4
74
2
42
0.0000001000
43
0.0000001000
44
0.0000000001
12
0.0046540794
22
-0.3804222492
32
0.0000000000
13
0.0046621315
23
-0.3804221507
33
0.0000000000
40
0.0000000000
40
0.0000000000
40
0.0000000000
40
0.0000000000
40
1.0000000000
40
1.0000000000
40
1.0000000000
40
1.0000000000
10
-6.1803420441
20
-25.2345063029
30
0.0000000000
10
-6.1787906843
20
-25.3613137193
30
0.0000000000
10
-6.1772379801
20
-25.4881211193
30
0.0000000000
10
-6.1756839363
20
-25.6149285029
30
0.0000000000
11
-6.1803420441
21
-25.2345063029
31
0.0000000000
11
-6.1756839363
21
-25.6149285029
31
0.0000000000
0
SPLINE
5
2B7
100
AcDbEntity
8
0
100
AcDbSpline
62
9
6
CONTINUOUS
70
0
71
3
72
9
73
5
74
3
42
0.0000001000
43
0.0000001000
44
0.0000000001
12
0.0046599073
22
-0.3802406573
32
0.0000000000
13
0.0046679235
23
-0.3802405590
33
0.0000000000
40
0.0000000000
40
0.0000000000
40
0.0000000000
40
0.0000000000
40
0.5000596634
40
1.0000000000
40
1.0000000000
40
1.0000000000
40
1.0000000000
10
-6.1756839363
20
-25.6149285029
30
0.0000000000
10
-6.1749071924
20
-25.6783095079
30
0.0000000000
10
-6.1733532207
20
-25.8050563855
30
0.0000000000
10
-6.1717979130
20
-25.9318032467
30
0.0000000000
10
-6.1710200186
20
-25.9951691110
30
0.0000000000
11
-6.1756839363
21
-25.6149285029
31
0.0000000000
11
-6.1733527012
21
-25.8050715057
31
0.0000000000
11
-6.1710200186
21
-25.9951691110
31
0.0000000000
0
SPLINE
5
2B8
100
AcDbEntity
8
0
100
AcDbSpline
62
9
6
CONTINUOUS
70
0
71
3
72
8
73
4
74
2
42
0.0000001000
43
0.0000001000
44
0.0000000001
12
0.0023331262
22
-0.1900522196
32
0.0000000000
13
0.0023351236
23
-0.1900521951
33
0.0000000000
40
0.0000000000
40
0.0000000000
40
0.0000000000
40
0.0000000000
40
1.0000000000
40
1.0000000000
40
1.0000000000
40
1.0000000000
10
-6.1710200186
20
-25.9951691110
30
0.0000000000
10
-6.1702423099
20
-26.0585198509
30
0.0000000000
10
-6.1694642679
20
-26.1218705867
30
0.0000000000
10
-6.1686858934
20
-26.1852213184
30
0.0000000000
11
-6.1710200186
21
-25.9951691110
31
0.0000000000
11
-6.1686858934
21
-26.1852213184
31
0.0000000000
0
SPLINE
5
2B9
100
AcDbEntity
8
0
100
AcDbSpline
62
9
6
CONTINUOUS
70
0
71
3
72
9
73
5
74
3
42
0.0000001000
43
0.0000001000
44
0.0000000001
12
0.0093349191
22
-0.7597550292
32
0.0000000000
13
0.0093666988
23
-0.7597546381
33
0.0000000000
40
0.0000000000
40
0.0000000000
40
0.0000000000
40
0.0000000000
40
0.2500895852
40
1.0000000000
40
1.0000000000
40
1.0000000000
40
1.0000000000
10
-6.1686858934
20
-26.1852213184
30
0.0000000000
10
-6.1679077047
20
-26.2485569251
30
0.0000000000
10
-6.1647947358
20
-26.5018085852
30
0.0000000000
10
-6.1616764609
20
-26.7550601800
30
0.0000000000
10
-6.1593350659
20
-26.9449761519
30
0.0000000000
11
-6.1686858934
21
-26.1852213184
31
0.0000000000
11
-6.1663503306
21
-26.3752281263
31
0.0000000000
11
-6.1593350659
21
-26.9449761519
31
0.0000000000
0
SPLINE
5
2BA
100
AcDbEntity
8
0
100
AcDbSpline
62
9
6
CONTINUOUS
70
0
71
3
72
8
73
4
74
2
42
0.0000001000
43
0.0000001000
44
0.0000000001
12
0.0179109863
22
-0.3798041132
32
0.0000000000
13
0.0179182538
23
-0.3798037704
33
0.0000000000
40
0.0000000000
40
0.0000000000
40
0.0000000000
40
0.0000000000
40
1.0000000000
40
1.0000000000
40
1.0000000000
40
1.0000000000
10
-6.0398215088
20
-25.2345063029
30
0.0000000000
10
-6.0338511800
20
-25.3611076740
30
0.0000000000
10
-6.0278796420
20
-25.4877089880
30
0.0000000000
10
-6.0219068908
20
-25.6143102448
30
0.0000000000
11
-6.0398215088
21
-25.2345063029
31
0.0000000000
11
-6.0219068908
21
-25.6143102448
31
0.0000000000
0
SPLINE
5
2BB
100
AcDbEntity
8
0
100
AcDbSpline
62
9
6
CONTINUOUS
70
0
71
3
72
10
73
6
74
4
42
0.0000001000
43
0.0000001000
44
0.0000000001
12
0.0627778059
22
-1.3306680244
32
0.0000000000
13
0.0628677016
23
-1.3306637803
33
0.0000000000
40
0.0000000000
40
0.0000000000
40
0.0000000000
40
0.0000000000
40
0.1427601757
40
0.5712346381
40
1.0000000000
40
1.0000000000
40
1.0000000000
40
1.0000000000
10
-6.0219068908
20
-25.6143102448
30
0.0000000000
10
-6.0189195006
20
-25.6776323785
30
0.0000000000
10
-6.0069646669
20
-25.9310068770
30
0.0000000000
10
-5.9860280834
20
-26.3745623827
30
0.0000000000
10
-5.9680693908
20
-26.7547953062
30
0.0000000000
10
-5.9590842265
20
-26.9449761519
30
0.0000000000
11
-6.0219068908
21
-25.6143102448
31
0.0000000000
11
-6.0129438090
21
-25.8042766028
31
0.0000000000
11
-5.9860314208
21
-26.3744332226
31
0.0000000000
11
-5.9590842265
21
-26.9449761519
31
0.0000000000
0
SPLINE
5
2BC
100
AcDbEntity
8
0
100
AcDbSpline
62
9
6
CONTINUOUS
70
0
71
3
72
8
73
4
74
2
42
0.0000001000
43
0.0000001000
44
0.0000000001
12
-0.1322841588
22
-0.0000000000
32
0.0000000000
13
-0.1119458492
23
-0.0740839443
33
0.0000000000
40
0.0000000000
40
0.0000000000
40
0.0000000000
40
0.0000000000
40
1.0000000000
40
1.0000000000
40
1.0000000000
40
1.0000000000
10
-10.2075075805
20
-24.9449761519
30
0.0000000000
10
-10.2516023001
20
-24.9449761519
30
0.0000000000
10
-10.2964849490
20
-24.9596422058
30
0.0000000000
10
-10.3338002320
20
-24.9843368539
30
0.0000000000
11
-10.2075075805
21
-24.9449761519
31
0.0000000000
11
-10.3338002320
21
-24.9843368539
31
0.0000000000
0
SPLINE
5
2BD
100
AcDbEntity
8
0
100
AcDbSpline
62
9
6
CONTINUOUS
70
0
71
3
72
9
73
5
74
3
42
0.0000001000
43
0.0000001000
44
0.0000000001
12
-0.2031467821
22
-0.1344392401
32
0.0000000000
13
-0.0411220312
23
-0.2381999047
33
0.0000000000
40
0.0000000000
40
0.0000000000
40
0.0000000000
40
0.0000000000
40
0.5928815161
40
1.0000000000
40
1.0000000000
40
1.0000000000
40
1.0000000000
10
-10.3338002320
20
-24.9843368539
30
0.0000000000
10
-10.3739475561
20
-25.0109057007
30
0.0000000000
10
-10.4268885226
20
-25.0752987441
30
0.0000000000
10
-10.4518859103
20
-25.1531358681
30
0.0000000000
10
-10.4574664233
20
-25.1854610628
30
0.0000000000
11
-10.3338002320
21
-24.9843368539
31
0.0000000000
11
-10.4269005918
21
-25.0919862996
31
0.0000000000
11
-10.4574664233
21
-25.1854610628
31
0.0000000000
0
SPLINE
5
2BE
100
AcDbEntity
8
0
100
AcDbSpline
62
9
6
CONTINUOUS
70
0
71
3
72
8
73
4
74
2
42
0.0000001000
43
0.0000001000
44
0.0000000001
12
-0.0084186270
22
-0.0487650073
32
0.0000000000
13
-0.0014583908
23
-0.0491230350
33
0.0000000000
40
0.0000000000
40
0.0000000000
40
0.0000000000
40
0.0000000000
40
1.0000000000
40
1.0000000000
40
1.0000000000
40
1.0000000000
10
-10.4574664233
20
-25.1854610628
30
0.0000000000
10
-10.4602726323
20
-25.2017160652
30
0.0000000000
10
-10.4619165681
20
-25.2181319573
30
0.0000000000
10
-10.4624026984
20
-25.2345063023
30
0.0000000000
11
-10.4574664233
21
-25.1854610628
31
0.0000000000
11
-10.4624026984
21
-25.2345063023
31
0.0000000000
0
SPLINE
5
2BF
100
AcDbEntity
8
0
100
AcDbSpline
62
9
6
CONTINUOUS
70
0
71
3
72
8
73
4
74
2
42
0.0000001000
43
0.0000001000
44
0.0000000001
12
-0.0029591423
22
-0.0034903398
32
0.0000000000
13
0.0400697612
23
-0.0027432421
33
0.0000000000
40
0.0000000000
40
0.0000000000
40
0.0000000000
40
0.0000000000
40
1.0000000000
40
1.0000000000
40
1.0000000000
40
1.0000000000
10
-10.5062831554
20
-25.2311339017
30
0.0000000000
10
-10.5072695361
20
-25.2322973483
30
0.0000000000
10
-10.4757592272
20
-25.2335918886
30
0.0000000000
10
-10.4624026402
20
-25.2345063026
30
0.0000000000
11
-10.5062831554
21
-25.2311339017
31
0.0000000000
11
-10.4624026402
21
-25.2345063026
31
0.0000000000
0
ENDSEC
0
SECTION
2
OBJECTS
0
DICTIONARY
5
C
100
AcDbDictionary
280
0
281
1
3
ACAD_GROUP
350
D
3
ACAD_MLINESTYLE
350
17
3
ACAD_LAYOUT
350
1A
3
ACAD_PLOTSETTINGS
350
19
3
ACAD_PLOTSTYLENAME
350
E
0
DICTIONARY
5
D
102
{ACAD_REACTORS
330
C
102
}
100
AcDbDictionary
280
0
281
1
0
ACDBDICTIONARYWDFLT
5
E
102
{ACAD_REACTORS
330
C
102
}
100
AcDbDictionary
281
1
3
Normal
350
F
100
AcDbDictionaryWithDefault
340
F
0
DICTIONARY
5
17
102
{ACAD_REACTORS
330
C
102
}
100
AcDbDictionary
280
0
281
1
3
Standard
350
18
0
DICTIONARY
5
19
102
{ACAD_REACTORS
330
C
102
}
100
AcDbDictionary
281
1
0
DICTIONARY
5
1A
102
{ACAD_REACTORS
330
C
102
}
100
AcDbDictionary
281
1
3
Layout1
350
1E
3
Model
350
22
0
ACDBPLACEHOLDER
5
F
102
{ACAD_REACTORS
330
E
102
}
0
MLINESTYLE
5
18
102
{ACAD_REACTORS
330
17
102
}
100
AcDbMlineStyle
2
STANDARD
70
0
3

62
256
51
90.0
52
90.0
71
2
49
0.5
62
256
6
BYLAYER
49
-0.5
62
256
6
BYLAYER
0
LAYOUT
5
1E
102
{ACAD_REACTORS
330
1A
102
}
100
AcDbPlotSettings
1

2

4

6

40
0.0
41
0.0
42
0.0
43
0.0
44
0.0
45
0.0
46
0.0
47
0.0
48
0.0
49
0.0
140
0.0
141
0.0
142
1.0
143
1.0
70
0
72
0
73
0
74
0
7

75
0
147
1.0
148
0.0
149
0.0
100
AcDbLayout
1
Layout1
70
0
71
0
10
0.0
20
0.0
11
0.0
21
0.0
12
0.0
22
0.0
32
0.0
14
0.0
24
0.0
34
0.0
15
0.0
25
0.0
35
0.0
146
0.0
13
0.0
23
0.0
33
0.0
16
0.0
26
0.0
36
0.0
17
0.0
27
0.0
37
0.0
76
0
330
1B
331
0
345
0
346
0
0
LAYOUT
5
22
102
{ACAD_REACTORS
330
1A
102
}
100
AcDbPlotSettings
1

2

4

6

40
0.0
41
0.0
42
0.0
43
0.0
44
0.0
45
0.0
46
0.0
47
0.0
48
0.0
49
0.0
140
0.0
141
0.0
142
1.0
143
1.0
70
0
72
0
73
0
74
0
7

75
0
147
1.0
148
0.0
149
0.0
100
AcDbLayout
1
Model
70
0
71
0
10
0.0
20
0.0
11
0.0
21
0.0
12
0.0
22
0.0
32
0.0
14
0.0
24
0.0
34
0.0
15
0.0
25
0.0
35
0.0
146
0.0
13
0.0
23
0.0
33
0.0
16
0.0
26
0.0
36
0.0
17
0.0
27
0.0
37
0.0
76
0
330
1F
331
0
345
0
346
0
0
ENDSEC
0
EOF
