  0
SECTION
  2
HEADER
  9
$ACADVER
  1
AC1024
  9
$DWGCODEPAGE
  3
ANSI_1252
  9
$EXTMAX
 10
297.0
 20
210.0
 30
0.0
  9
$EXTMIN
 10
0.0
 20
0.0
 30
0.0
  9
$LIMMIN
 10
0.0
 20
0.0
  9
$LIMMAX
 10
297.0
 20
210.0
  9
$VIEWCTR
 10
148.5
 20
105.0
  9
$VIEWSIZE
 40
210.0
  9
$CLAYER
  8
0
  9
$LTSCALE
 40
16.335
  9
$CELTYPE
  6
BYLAYER
  9
$DIMSCALE
 40
1.0
  9
$DIMASZ
 40
3.0
  9
$DIMEXO
 40
0.5
  9
$DIMDLI
 40
11.286
  9
$DIMEXE
 40
1.5
  9
$DIMCEN
 40
2.673
  9
$DIMLFAC
 40
1.0
  9
$DIMBLK
  1
_FILLED
  9
$DIMALT
 70
0
  9
$DIMALTF
 40
0.0393700787
  9
$DIMTXT
 40
3.0
  9
$DIMTOL
 70
1
  9
$DIMLIM
 70
0
  9
$DIMTFAC
 40
1.0
  9
$DIMTP
 40
0.01
  9
$DIMTM
 40
0.01
  9
$DIMGAP
 40
0.625
  9
$DIMDSEP
 70
44
  9
$AUNITS
 70
0
  9
$PDMODE
 70
3
  9
$PDSIZE
 40
3.0
  9
$HANDSEED
  5
30B
  9
$TILEMODE
 70
1
  9
$MEASUREMENT
 70
1
  9
$INSUNITS
 70
4
  0
ENDSEC
  0
SECTION
  2
CLASSES
  0
CLASS
  1
ACDBDICTIONARYWDFLT
  2
AcDbDictionaryWithDefault
  3
AutoCAD 2000
 90
0
 91
1
280
0
281
0
  0
CLASS
  1
ACDBPLACEHOLDER
  2
AcDbPlaceHolder
  3
AutoCAD 2000
 90
0
 91
1
280
0
281
0
  0
CLASS
  1
LAYOUT
  2
AcDbLayout
  3
AutoCAD 2000
 90
0
 91
0
280
0
281
0
  0
ENDSEC
  0
SECTION
  2
TABLES
  0
TABLE
  2
VPORT
  5
8
100
AcDbSymbolTable
 70
2
  0
VPORT
  5
1F4
100
AcDbSymbolTableRecord
100
AcDbViewportTableRecord
  2
*ACTIVE
 70
0
 10
0.0
 20
0.0
 11
1.0
 21
1.0
 12
148.5
 22
105.0
 13
0.0
 23
0.0
 14
1.0
 24
1.0
 15
0.0
 25
0.0
 16
0.0
 26
0.0
 36
1.0
 17
0.0
 27
0.0
 37
0.0
 40
210.0
 41
1.4142857143
 42
50.0
 43
0.0
 44
0.0
 50
0.0
 51
0.0
 71
0
 72
100
 73
1
 74
1
 75
0
 76
0
 77
0
 78
0
  0
ENDTAB
  0
TABLE
  2
LTYPE
  5
5
100
AcDbSymbolTable
 70
6
  0
LTYPE
  5
14
100
AcDbSymbolTableRecord
100
AcDbLinetypeTableRecord
  2
BYBLOCK
 70
0
  3

 72
65
 73
0
 40
0.0
  0
LTYPE
  5
15
100
AcDbSymbolTableRecord
100
AcDbLinetypeTableRecord
  2
BYLAYER
 70
0
  3

 72
65
 73
0
 40
0.0
  0
LTYPE
  5
16
100
AcDbSymbolTableRecord
100
AcDbLinetypeTableRecord
  2
CONTINUOUS
 70
64
  3
Solid line
 72
65
 73
0
 40
0.0
  0
LTYPE
  5
1F5
100
AcDbSymbolTableRecord
100
AcDbLinetypeTableRecord
  2
CENTER
 70
64
  3
____ _ ____ _ ____ _ ____ _ ____ _ ____ _ ____
 72
65
 73
4
 40
0.6
 49
0.375
 74
0
 49
-0.075
 74
0
 49
0.075
 74
0
 49
-0.075
 74
0
  0
LTYPE
  5
1F6
100
AcDbSymbolTableRecord
100
AcDbLinetypeTableRecord
  2
HIDDEN
 70
64
  3
- - - - - - - - - - - - - - - - - - - -
 72
65
 73
2
 40
0.2
 49
0.1
 74
0
 49
-0.1
 74
0
  0
LTYPE
  5
1F7
100
AcDbSymbolTableRecord
100
AcDbLinetypeTableRecord
  2
PHANTOM
 70
64
  3
_____ _ _ _____ _ _ _____ _ _ _____
 72
65
 73
6
 40
0.8
 49
0.45
 74
0
 49
-0.05
 74
0
 49
0.1
 74
0
 49
-0.05
 74
0
 49
0.1
 74
0
 49
-0.05
 74
0
  0
LTYPE
  5
1F8
100
AcDbSymbolTableRecord
100
AcDbLinetypeTableRecord
  2
DOT
 70
64
  3
. . . . . . . . . . . . . . . . . . . .
 72
65
 73
2
 40
0.2
 49
0.1
 74
0
 49
-0.1
 74
0
  0
LTYPE
  5
1F9
100
AcDbSymbolTableRecord
100
AcDbLinetypeTableRecord
  2
DASHED
 70
64
  3
- - - - - - - - - - - - - - - - - - - -
 72
65
 73
2
 40
0.2
 49
0.1
 74
0
 49
-0.1
 74
0
  0
ENDTAB
  0
TABLE
  2
LAYER
  5
2
100
AcDbSymbolTable
 70
36
  0
LAYER
  5
10
100
AcDbSymbolTableRecord
100
AcDbLayerTableRecord
  2
0
 70
0
 62
7
  6
CONTINUOUS
370
-3
390
F
  0
LAYER
  5
1FA
100
AcDbSymbolTableRecord
100
AcDbLayerTableRecord
  2
DEFAULT_1
 70
0
 62
7
  6
CENTER
370
-3
390
F
  0
LAYER
  5
1FB
100
AcDbSymbolTableRecord
100
AcDbLayerTableRecord
  2
DEFAULT_2
 70
0
 62
7
  6
HIDDEN
370
-3
390
F
  0
LAYER
  5
1FC
100
AcDbSymbolTableRecord
100
AcDbLayerTableRecord
  2
DEFAULT_3
 70
0
 62
7
  6
PHANTOM
370
-3
390
F
  0
LAYER
  5
1FD
100
AcDbSymbolTableRecord
100
AcDbLayerTableRecord
  2
1
 70
0
 62
7
  6
CONTINUOUS
370
-3
390
F
  0
LAYER
  5
1FE
100
AcDbSymbolTableRecord
100
AcDbLayerTableRecord
  2
1_1
 70
0
 62
7
  6
CONTINUOUS
370
-3
390
F
  0
LAYER
  5
1FF
100
AcDbSymbolTableRecord
100
AcDbLayerTableRecord
  2
20
 70
0
 62
7
  6
CONTINUOUS
370
-3
390
F
  0
LAYER
  5
200
100
AcDbSymbolTableRecord
100
AcDbLayerTableRecord
  2
ASSI
 70
0
 62
7
  6
CONTINUOUS
370
-3
390
F
  0
LAYER
  5
201
100
AcDbSymbolTableRecord
100
AcDbLayerTableRecord
  2
COORDINATE
 70
0
 62
7
  6
CONTINUOUS
370
-3
390
F
  0
LAYER
  5
202
100
AcDbSymbolTableRecord
100
AcDbLayerTableRecord
  2
COPY_PUBLISH
 70
0
 62
7
  6
CONTINUOUS
370
-3
390
F
  0
LAYER
  5
203
100
AcDbSymbolTableRecord
100
AcDbLayerTableRecord
  2
COSMETICI
 70
0
 62
7
  6
CONTINUOUS
370
-3
390
F
  0
LAYER
  5
204
100
AcDbSymbolTableRecord
100
AcDbLayerTableRecord
  2
CURVE
 70
0
 62
7
  6
CONTINUOUS
370
-3
390
F
  0
LAYER
  5
205
100
AcDbSymbolTableRecord
100
AcDbLayerTableRecord
  2
DRAFT
 70
0
 62
7
  6
CONTINUOUS
370
-3
390
F
  0
LAYER
  5
206
100
AcDbSymbolTableRecord
100
AcDbLayerTableRecord
  2
IMPORT_IGES
 70
0
 62
7
  6
CONTINUOUS
370
-3
390
F
  0
LAYER
  5
207
100
AcDbSymbolTableRecord
100
AcDbLayerTableRecord
  2
INTFCLR_20
 70
0
 62
7
  6
CONTINUOUS
370
-3
390
F
  0
LAYER
  5
208
100
AcDbSymbolTableRecord
100
AcDbLayerTableRecord
  2
NOTE
 70
0
 62
7
  6
CONTINUOUS
370
-3
390
F
  0
LAYER
  5
209
100
AcDbSymbolTableRecord
100
AcDbLayerTableRecord
  2
PIANI
 70
0
 62
7
  6
CONTINUOUS
370
-3
390
F
  0
LAYER
  5
20A
100
AcDbSymbolTableRecord
100
AcDbLayerTableRecord
  2
PUNTI
 70
0
 62
7
  6
CONTINUOUS
370
-3
390
F
  0
LAYER
  5
20B
100
AcDbSymbolTableRecord
100
AcDbLayerTableRecord
  2
RACCORDO
 70
0
 62
7
  6
CONTINUOUS
370
-3
390
F
  0
LAYER
  5
20C
100
AcDbSymbolTableRecord
100
AcDbLayerTableRecord
  2
SIMBOLI
 70
0
 62
7
  6
CONTINUOUS
370
-3
390
F
  0
LAYER
  5
20D
100
AcDbSymbolTableRecord
100
AcDbLayerTableRecord
  2
SMUSSO
 70
0
 62
7
  6
CONTINUOUS
370
-3
390
F
  0
LAYER
  5
20E
100
AcDbSymbolTableRecord
100
AcDbLayerTableRecord
  2
SUPERFICI
 70
0
 62
7
  6
CONTINUOUS
370
-3
390
F
  0
LAYER
  5
20F
100
AcDbSymbolTableRecord
100
AcDbLayerTableRecord
  2
TRASH
 70
0
 62
7
  6
CONTINUOUS
370
-3
390
F
  0
LAYER
  5
210
100
AcDbSymbolTableRecord
100
AcDbLayerTableRecord
  2
WHITE
 70
0
 62
7
  6
CONTINUOUS
370
-3
390
F
  0
ENDTAB
  0
TABLE
  2
STYLE
  5
3
100
AcDbSymbolTable
 70
1
  0
STYLE
  5
11
100
AcDbSymbolTableRecord
100
AcDbTextStyleTableRecord
  2
STANDARD
 70
0
 40
0.0
 41
0.8
 50
0.0
 71
0
 42
0.2
  3
txt
  4

  0
STYLE
  5
211
100
AcDbSymbolTableRecord
100
AcDbTextStyleTableRecord
  2
TEXTSTYLE_1
 70
0
 40
0.0
 41
0.8
 50
0.0
 71
0
 42
0.2
  3
gdt
  4

  0
ENDTAB
  0
TABLE
  2
VIEW
  5
6
100
AcDbSymbolTable
 70
0
  0
ENDTAB
  0
TABLE
  2
UCS
  5
7
100
AcDbSymbolTable
 70
0
  0
ENDTAB
  0
TABLE
  2
APPID
  5
9
100
AcDbSymbolTable
 70
1
  0
APPID
  5
212
100
AcDbSymbolTableRecord
100
AcDbRegAppTableRecord
  2
ACAD
 70
0
  0
ENDTAB
  0
TABLE
  2
BLOCK_RECORD
  5
1
100
AcDbSymbolTable
 70
0
  0
BLOCK_RECORD
  5
213
100
AcDbSymbolTableRecord
100
AcDbBlockTableRecord
  2
*Model_Space
  0
BLOCK_RECORD
  5
214
100
AcDbSymbolTableRecord
100
AcDbBlockTableRecord
  2
*Paper_Space
  0
BLOCK_RECORD
  5
215
100
AcDbSymbolTableRecord
100
AcDbBlockTableRecord
  2
_FILLED
  0
ENDTAB
  0
TABLE
  2
DIMSTYLE
  5
A
100
AcDbSymbolTable
 70
1
100
AcDbDimStyleTable
 71
0
  0
DIMSTYLE
105
216
100
AcDbSymbolTableRecord
100
AcDbDimStyleTableRecord
  2
STANDARD
 70
0
  3

  4

 40
1.0
 41
3.0
 42
0.5
 43
0.38
 44
1.5
 45
0.0
 46
0.0
 47
0.01
 48
0.01
140
3.0
141
0.09
142
0.0
143
25.4
144
1.0
145
0.0
146
1.0
147
0.625
 71
1
 72
0
 73
0
 74
0
 75
0
 76
0
 77
1
 78
8
 79
2
170
0
171
1
172
0
173
0
174
0
175
0
176
0
177
0
178
0
270
2
179
2
271
2
272
2
273
2
274
2
275
0
280
0
281
0
282
0
283
1
284
8
285
0
286
0
287
3
288
0
340
11
278
44
341
215
342
215
343
215
344
215
  0
ENDTAB
  0
ENDSEC
  0
SECTION
  2
BLOCKS
  0
BLOCK
  5
20
100
AcDbEntity
  8
0
100
AcDbBlockBegin
  2
*Model_Space
 70
0
 10
0.0
 20
0.0
 30
0.0
  3
*Model_Space
  1

  0
ENDBLK
  5
21
100
AcDbEntity
  8
0
100
AcDbBlockEnd
  0
BLOCK
  5
1C
100
AcDbEntity
  8
0
100
AcDbBlockBegin
  2
*Paper_Space
 70
0
 10
0.0
 20
0.0
 30
0.0
  3
*Paper_Space
  1

  0
ENDBLK
  5
1D
100
AcDbEntity
  8
0
100
AcDbBlockEnd
  0
BLOCK
  5
217
100
AcDbEntity
  8
0
100
AcDbBlockBegin
  2
_FILLED
 70
64
 10
0.0
 20
0.0
  3
_FILLED
  1

  0
SOLID
  5
218
100
AcDbEntity
  8
0
  6
BYBLOCK
 62
0
100
AcDbTrace
 10
0.0
 20
0.0
 11
-1.0
 21
0.3166666667
 12
-1.0
 22
-0.3166666667
 13
-1.0
 23
-0.3166666667
  0
ENDBLK
  5
219
100
AcDbEntity
  8
0
  6
BYBLOCK
 62
0
100
AcDbBlockEnd
  0
ENDSEC
  0
SECTION
  2
ENTITIES
  0
LWPOLYLINE
  5
21A
100
AcDbEntity
  8
IMPORT_IGES
100
AcDbPolyline
 62
7
  6
CONTINUOUS
 90
25
 70
0
 10
119.1791693259
 20
108.6951041962
 10
119.2037317109
 20
108.8084504089
 10
119.2345533566
 20
108.9195257998
 10
119.2716342632
 20
109.0283303691
 10
119.3151432645
 20
109.1352311988
 10
119.3649115265
 20
109.2398612069
 10
119.4204325472
 20
109.3411191469
 10
119.4817598713
 20
109.4389503113
 10
119.548839954
 20
109.5334094077
 10
119.6210056584
 20
109.6235593121
 10
119.6983064836
 20
109.7093570414
 10
119.7806929304
 20
109.7908455788
 10
119.8673493648
 20
109.8672167498
 10
119.9583170115
 20
109.9384203028
 10
120.0535546456
 20
110.0045064894
 10
120.152122959
 20
110.0648178903
 10
120.2540547046
 20
110.1192987054
 10
120.3593171294
 20
110.1680047348
 10
120.4668726666
 20
110.210445959
 10
120.5767182613
 20
110.2465619517
 10
120.6888569684
 20
110.2764131393
 10
120.8022603862
 20
110.2996907813
 10
120.916585714
 20
110.3162919641
 10
121.0321757526
 20
110.3263196012
 10
121.1490305019
 20
110.3297736927
  0
LINE
  5
21B
100
AcDbEntity
  8
IMPORT_IGES
100
AcDbLine
 62
7
  6
CONTINUOUS
 10
162.4404854885
 20
54.1435610457
 11
162.2181932659
 21
54.1517235381
  0
LINE
  5
21C
100
AcDbEntity
  8
IMPORT_IGES
100
AcDbLine
 62
7
  6
CONTINUOUS
 10
162.2181932659
 20
54.1517235381
 11
161.9959375182
 21
54.1609649102
  0
LINE
  5
21D
100
AcDbEntity
  8
IMPORT_IGES
100
AcDbLine
 62
7
  6
CONTINUOUS
 10
161.9959375182
 20
54.1609649102
 11
161.7737206334
 21
54.1712851015
  0
LWPOLYLINE
  5
21E
100
AcDbEntity
  8
IMPORT_IGES
100
AcDbPolyline
 62
7
  6
CONTINUOUS
 90
3
 70
0
 10
161.7737206334
 20
54.1712851015
 10
161.5515521642
 20
54.1826838704
 10
161.4404854885
 20
54.1887877366
  0
LWPOLYLINE
  5
21F
100
AcDbEntity
  8
IMPORT_IGES
100
AcDbPolyline
 62
7
  6
CONTINUOUS
 90
25
 70
0
 10
146.9634911126
 20
58.4381390262
 10
146.9905360662
 20
58.4257076771
 10
147.0192071439
 20
58.4127912718
 10
147.0493364553
 20
58.3994542679
 10
147.0807549622
 20
58.3857501077
 10
147.1132731952
 20
58.3717629894
 10
147.1466791178
 20
58.3576086865
 10
147.1807625274
 20
58.3433733892
 10
147.2153384427
 20
58.3291226288
 10
147.2502262026
 20
58.3149436703
 10
147.2852238424
 20
58.3009187756
 10
147.3201328416
 20
58.2871194394
 10
147.3547781432
 20
58.273616608
 10
147.3889690396
 20
58.2604877647
 10
147.4225044514
 20
58.2478058436
 10
147.4551972216
 20
58.2356336397
 10
147.4868551775
 20
58.2240488679
 10
147.5173052892
 20
58.2131140242
 10
147.5463937595
 20
58.2028672934
 10
147.5739655876
 20
58.1933720522
 10
147.5998429231
 20
58.1846927142
 10
147.6238492667
 20
58.1768645766
 10
147.6458383043
 20
58.1699329913
 10
147.6656911509
 20
58.1639544233
 10
147.6832927359
 20
58.1589730511
  0
LWPOLYLINE
  5
220
100
AcDbEntity
  8
IMPORT_IGES
100
AcDbPolyline
 62
7
  6
CONTINUOUS
 90
19
 70
0
 10
135.1151800186
 20
65.1656438127
 10
135.0027657772
 20
65.2623233819
 10
134.8956828747
 20
65.3639329737
 10
134.7939313112
 20
65.470472588
 10
134.6972798334
 20
65.5822307716
 10
134.6059596947
 20
65.6989189777
 10
134.5206646546
 20
65.8196715666
 10
134.4414482846
 20
65.9445101824
 10
134.3682570133
 20
66.0734131811
 10
134.3016238862
 20
66.2054499909
 10
134.2415962262
 20
66.3406426422
 10
134.1881267104
 20
66.4789691047
 10
134.1416064152
 20
66.6194327152
 10
134.1020845459
 20
66.7620489247
 10
134.0695118973
 20
66.9068022823
 10
134.04413193
 20
67.0526497725
 10
134.0260257975
 20
67.1992437236
 10
134.0151123464
 20
67.3469318073
 10
134.0113915767
 20
67.4957140238
  0
LWPOLYLINE
  5
221
100
AcDbEntity
  8
IMPORT_IGES
100
AcDbPolyline
 62
7
  6
CONTINUOUS
 90
22
 70
0
 10
122.5568359168
 20
110.3297736927
 10
122.7750747766
 20
111.2046581343
 10
123.080996341
 20
112.3046419705
 10
123.4166231344
 20
113.3970136987
 10
123.7816708063
 20
114.4809225434
 10
124.1752863059
 20
115.5538161785
 10
124.5975661789
 20
116.6156823209
 10
125.0484138795
 20
117.6665332537
 10
125.5266867197
 20
118.7038534992
 10
126.0322230326
 20
119.7272382332
 10
126.5651844849
 20
120.7370922798
 10
127.1249133888
 20
121.7321146335
 10
127.7117216456
 20
122.7127518591
 10
128.3252973539
 20
123.6785573917
 10
128.9640471214
 20
124.6268905315
 10
129.6279418595
 20
125.5575324332
 10
130.3170106568
 20
126.470701942
 10
131.0297473859
 20
127.3644148936
 10
131.7663517979
 20
128.2387567804
 10
132.5266241418
 20
129.09364211
 10
133.3084590374
 20
129.9268302412
 10
134.0113954601
 20
130.6367776984
  0
LINE
  5
222
100
AcDbEntity
  8
IMPORT_IGES
100
AcDbLine
 62
7
  6
CONTINUOUS
 10
162.4404854885
 20
59.2501532104
 11
161.4404854885
 21
59.2501532104
  0
LWPOLYLINE
  5
223
100
AcDbEntity
  8
IMPORT_IGES
100
AcDbPolyline
 62
7
  6
CONTINUOUS
 90
3
 70
0
 10
143.4772236082
 20
62.9558132721
 10
143.2320304502
 20
63.0883637488
 10
142.8339973416
 20
63.3175035241
  0
LWPOLYLINE
  5
224
100
AcDbEntity
  8
IMPORT_IGES
100
AcDbPolyline
 62
7
  6
CONTINUOUS
 90
22
 70
0
 10
134.0113899378
 20
70.0222511916
 10
133.3120695319
 20
70.7283714099
 10
132.5298516942
 20
71.561801816
 10
131.7693185099
 20
72.4168436911
 10
131.032545482
 20
73.2912375259
 10
130.3197454676
 20
74.1848742901
 10
129.6307056095
 20
75.0978630139
 10
128.9668628391
 20
76.0282712789
 10
128.3281808246
 20
76.9763129537
 10
127.7146958979
 20
77.9417741696
 10
127.1279539853
 20
78.9220809016
 10
126.5682602333
 20
79.9167804114
 10
126.0353094954
 20
80.9263254372
 10
125.5297322589
 20
81.9495001681
 10
125.051358108
 20
82.9867055882
 10
124.6003574584
 20
84.0375407134
 10
124.1778720444
 20
85.0995867802
 10
123.7839872896
 20
86.1728602952
 10
123.4186177703
 20
87.2573447518
 10
123.0826489498
 20
88.3505718674
 10
122.7763759824
 20
89.4517188812
 10
122.5573370691
 20
90.3297736927
  0
LWPOLYLINE
  5
225
100
AcDbEntity
  8
IMPORT_IGES
100
AcDbPolyline
 62
7
  6
CONTINUOUS
 90
16
 70
0
 10
142.6601321403
 20
60.7898857336
 10
142.6716237236
 20
60.7742991326
 10
142.6903338418
 20
60.7549560026
 10
142.7162360731
 20
60.7318664876
 10
142.7492691729
 20
60.7049813114
 10
142.789382304
 20
60.6743927813
 10
142.8365166
 20
60.6403418666
 10
142.8905373093
 20
60.6028694884
 10
142.9513047781
 20
60.5620400769
 10
143.0186948515
 20
60.518152108
 10
143.0925064354
 20
60.4712642874
 10
143.1725288755
 20
60.4214759904
 10
143.2585736036
 20
60.369165921
 10
143.3503934521
 20
60.3145310762
 10
143.4476960347
 20
60.2575816078
 10
143.5501902398
 20
60.1984292813
  0
LINE
  5
226
100
AcDbEntity
  8
IMPORT_IGES
100
AcDbLine
 62
7
  6
CONTINUOUS
 10
167.105147067
 20
63.3011926857
 11
156.7565480797
 21
63.22926986
  0
LINE
  5
227
100
AcDbEntity
  8
IMPORT_IGES
100
AcDbLine
 62
7
  6
CONTINUOUS
 10
156.7383297982
 20
63.3020356757
 11
165.2632381279
 21
63.3612838403
  0
LINE
  5
228
100
AcDbEntity
  8
IMPORT_IGES
100
AcDbLine
 62
7
  6
CONTINUOUS
 10
165.2632381279
 20
63.3612838403
 11
167.1076478443
 21
63.3112531696
  0
LINE
  5
229
100
AcDbEntity
  8
IMPORT_IGES
100
AcDbLine
 62
7
  6
CONTINUOUS
 10
144.5103479262
 20
65.6467593335
 11
144.5244083404
 21
65.6457063426
  0
LINE
  5
22A
100
AcDbEntity
  8
IMPORT_IGES
100
AcDbLine
 62
7
  6
CONTINUOUS
 10
149.0388033455
 20
63.6729696394
 11
148.9816211349
 21
63.6946981257
  0
LINE
  5
22B
100
AcDbEntity
  8
IMPORT_IGES
100
AcDbLine
 62
7
  6
CONTINUOUS
 10
149.1014628334
 20
63.6487616537
 11
149.0388033455
 21
63.6729696394
  0
LINE
  5
22C
100
AcDbEntity
  8
IMPORT_IGES
100
AcDbLine
 62
7
  6
CONTINUOUS
 10
149.2024511795
 20
63.6090949642
 11
149.1014628334
 21
63.6487616537
  0
LINE
  5
22D
100
AcDbEntity
  8
IMPORT_IGES
100
AcDbLine
 62
7
  6
CONTINUOUS
 10
149.3071340739
 20
63.5673187287
 11
149.2024511795
 21
63.6090949642
  0
LINE
  5
22E
100
AcDbEntity
  8
IMPORT_IGES
100
AcDbLine
 62
7
  6
CONTINUOUS
 10
149.4103965943
 20
63.5254954308
 11
149.3071340739
 21
63.5673187287
  0
LINE
  5
22F
100
AcDbEntity
  8
IMPORT_IGES
100
AcDbLine
 62
7
  6
CONTINUOUS
 10
149.5070386546
 20
63.4856932086
 11
149.4103965943
 21
63.5254954308
  0
LINE
  5
230
100
AcDbEntity
  8
IMPORT_IGES
100
AcDbLine
 62
7
  6
CONTINUOUS
 10
149.565385605
 20
63.4612287049
 11
149.5070386546
 21
63.4856932086
  0
LWPOLYLINE
  5
231
100
AcDbEntity
  8
IMPORT_IGES
100
AcDbPolyline
 62
7
  6
CONTINUOUS
 90
6
 70
0
 10
149.6968031793
 20
63.4034996804
 10
149.680287722
 20
63.4111540635
 10
149.6614596175
 20
63.4196558242
 10
149.6404278158
 20
63.4289631338
 10
149.6173058342
 20
63.4390351247
 10
149.565385605
 20
63.4612287049
  0
LWPOLYLINE
  5
232
100
AcDbEntity
  8
IMPORT_IGES
100
AcDbPolyline
 62
7
  6
CONTINUOUS
 90
10
 70
0
 10
144.9233229804
 20
65.4775560171
 10
144.8519647581
 20
65.5112700291
 10
144.7870531399
 20
65.5415162828
 10
144.7287448661
 20
65.5680537244
 10
144.6771726647
 20
65.5907968896
 10
144.6324893467
 20
65.6097216168
 10
144.5948163114
 20
65.62470394
 10
144.56422126
 20
65.6356920813
 10
144.5407439194
 20
65.6426965742
 10
144.5244089541
 20
65.6457079494
  0
LINE
  5
233
100
AcDbEntity
  8
IMPORT_IGES
100
AcDbLine
 62
7
  6
CONTINUOUS
 10
145.084553332
 20
65.4000126132
 11
144.9233229804
 21
65.4775560171
  0
LWPOLYLINE
  5
234
100
AcDbEntity
  8
IMPORT_IGES
100
AcDbPolyline
 62
7
  6
CONTINUOUS
 90
3
 70
0
 10
145.474150973
 20
65.2097086277
 10
145.3690563388
 20
65.2613724107
 10
145.084553332
 20
65.4000126132
  0
LINE
  5
235
100
AcDbEntity
  8
IMPORT_IGES
100
AcDbLine
 62
7
  6
CONTINUOUS
 10
142.6514063482
 20
60.804833313
 11
142.6601332186
 21
60.7898885018
  0
LWPOLYLINE
  5
236
100
AcDbEntity
  8
IMPORT_IGES
100
AcDbPolyline
 62
250
  6
CONTINUOUS
 90
25
 70
0
 10
174.2543772185
 20
67.4410118425
 10
174.3195662538
 20
67.4589147647
 10
174.3858471723
 20
67.4722492455
 10
174.4530275384
 20
67.4809486582
 10
174.5210472304
 20
67.4849564429
 10
174.5895335101
 20
67.4841948484
 10
174.6578107121
 20
67.4786677888
 10
174.7255620302
 20
67.4684398402
 10
174.7926205726
 20
67.4535610616
 10
174.8585433762
 20
67.4341513383
 10
174.923076597
 20
67.410312415
 10
174.9859753709
 20
67.3821441324
 10
175.0468297722
 20
67.3498388005
 10
175.1054007247
 20
67.3135316922
 10
175.161446555
 20
67.2733598392
 10
175.2145894067
 20
67.2295810913
 10
175.264623057
 20
67.1823501802
 10
175.3113248563
 20
67.1318375047
 10
175.3543513158
 20
67.0783838137
 10
175.3935677466
 20
67.0221250212
 10
175.4287733085
 20
66.9632901703
 10
175.4596392108
 20
66.9024359188
 10
175.4860461381
 20
66.8399125164
 10
175.5080060807
 20
66.7758072615
 10
175.5254775066
 20
66.7103186108
  0
LWPOLYLINE
  5
237
100
AcDbEntity
  8
IMPORT_IGES
100
AcDbPolyline
 62
7
  6
CONTINUOUS
 90
25
 70
0
 10
174.2077327003
 20
67.221263787
 10
174.2742908397
 20
67.2392139853
 10
174.3412815745
 20
67.2525182981
 10
174.4087049044
 20
67.2611767254
 10
174.4768790615
 20
67.2651865942
 10
174.5454858139
 20
67.2645505774
 10
174.6135704655
 20
67.259276694
 10
174.681125897
 20
67.2492998465
 10
174.7481592278
 20
67.2346851324
 10
174.8137371206
 20
67.2156358624
 10
174.8778392194
 20
67.1920900629
 10
174.9404858802
 20
67.1641097075
 10
175.000804833
 20
67.1320840288
 10
175.0587634495
 20
67.0959566715
 10
175.114394358
 20
67.0557839908
 10
175.1669231728
 20
67.0121242849
 10
175.2163066369
 20
66.9649291577
 10
175.2625880074
 20
66.9142470052
 10
175.3051226701
 20
66.8607813141
 10
175.3438566635
 20
66.8045022668
 10
175.378843949
 20
66.7454396809
 10
175.4096017964
 20
66.6843864953
 10
175.4359692956
 20
66.6216070233
 10
175.4581073567
 20
66.5568369516
 10
175.4760159797
 20
66.4900762804
  0
LINE
  5
238
100
AcDbEntity
  8
IMPORT_IGES
100
AcDbLine
 62
250
  6
CONTINUOUS
 10
176.4997113271
 20
66.9351827394
 11
175.5254775066
 21
66.7103186108
  0
LINE
  5
239
100
AcDbEntity
  8
IMPORT_IGES
100
AcDbLine
 62
7
  6
CONTINUOUS
 10
154.5860175193
 20
55.1304907638
 11
154.5597440326
 21
55.1732006437
  0
LINE
  5
23A
100
AcDbEntity
  8
IMPORT_IGES
100
AcDbLine
 62
7
  6
CONTINUOUS
 10
134.0113982422
 20
132.985599635
 11
134.0113832519
 21
120.3297736927
  0
LINE
  5
23B
100
AcDbEntity
  8
IMPORT_IGES
100
AcDbLine
 62
7
  6
CONTINUOUS
 10
134.0113832519
 20
80.3297736927
 11
134.0113915767
 21
67.4957140238
  0
LWPOLYLINE
  5
23C
100
AcDbEntity
  8
IMPORT_IGES
100
AcDbPolyline
 62
7
  6
CONTINUOUS
 90
19
 70
0
 10
134.0113982422
 20
132.985599635
 10
134.0150599334
 20
133.1332732728
 10
134.025809996
 20
133.2798765214
 10
134.0436484301
 20
133.4254093811
 10
134.0686543122
 20
133.5702119605
 10
134.1007485657
 20
133.7139441508
 10
134.1396939608
 20
133.8555856254
 10
134.1855380279
 20
133.9951215004
 10
134.2382332365
 20
134.1325666597
 10
134.2973997653
 20
134.2669454287
 10
134.3630835969
 20
134.3982365605
 10
134.4352387487
 20
134.5264613019
 10
134.5133474524
 20
134.6507077192
 10
134.597456413
 20
134.7709507956
 10
134.6875189254
 20
134.8872155478
 10
134.7828771059
 20
134.9986650918
 10
134.8833116598
 20
135.1050204664
 10
134.9890418818
 20
135.2065606329
 10
135.1000677719
 20
135.3032855913
  0
LWPOLYLINE
  5
23D
100
AcDbEntity
  8
IMPORT_IGES
100
AcDbPolyline
 62
7
  6
CONTINUOUS
 90
25
 70
0
 10
177.7811079424
 20
56.9376996024
 10
177.7849661526
 20
56.9353378339
 10
177.7928136378
 20
56.9342820017
 10
177.8046175392
 20
56.9345245217
 10
177.8203323644
 20
56.9360430767
 10
177.8398881612
 20
56.9388333379
 10
177.8631870176
 20
56.9429081571
 10
177.8901241191
 20
56.9482460495
 10
177.9205842084
 20
56.9548177047
 10
177.9544265725
 20
56.9626179737
 10
177.9914946492
 20
56.971615168
 10
178.0316359332
 20
56.9817696398
 10
178.0747003525
 20
56.9930607353
 10
178.1205070564
 20
57.0054511033
 10
178.1688643782
 20
57.0188921138
 10
178.2195980025
 20
57.0333443436
 10
178.2724929569
 20
57.0487635207
 10
178.3273340515
 20
57.065094631
 10
178.3839402131
 20
57.0822806531
 10
178.4421048295
 20
57.1002859377
 10
178.5015590856
 20
57.1190364003
 10
178.5620177219
 20
57.1384148551
 10
178.6232105743
 20
57.1583418306
 10
178.6848865762
 20
57.1787764924
 10
178.7467800968
 20
57.1996575301
  0
LWPOLYLINE
  5
23E
100
AcDbEntity
  8
IMPORT_IGES
100
AcDbPolyline
 62
7
  6
CONTINUOUS
 90
14
 70
0
 10
159.2475395063
 20
75.2235041912
 10
159.7237221989
 20
75.1360966374
 10
160.4358574345
 20
75.0258886921
 10
161.1508452636
 20
74.9356355171
 10
161.8668046215
 20
74.8654693306
 10
162.5833789803
 20
74.8154288175
 10
163.3009248679
 20
74.7854752929
 10
164.0186308024
 20
74.7756249203
 10
164.7367346279
 20
74.7858995165
 10
165.4549985004
 20
74.8162772647
 10
166.171897406
 20
74.8667088781
 10
166.8872496065
 20
74.9371771676
 10
167.6012368402
 20
75.0276993223
 10
168.2524155202
 20
75.1288824799
  0
LINE
  5
23F
100
AcDbEntity
  8
IMPORT_IGES
100
AcDbLine
 62
7
  6
CONTINUOUS
 10
146.1139712084
 20
113.2770298164
 11
146.1139712084
 21
101.4464002385
  0
LINE
  5
240
100
AcDbEntity
  8
IMPORT_IGES
100
AcDbLine
 62
7
  6
CONTINUOUS
 10
146.1139712084
 20
99.2131471468
 11
146.1139712084
 21
87.3825175689
  0
LINE
  5
241
100
AcDbEntity
  8
IMPORT_IGES
100
AcDbLine
 62
250
  6
CONTINUOUS
 10
152.4972889973
 20
133.9492287745
 11
152.5468046576
 21
134.1692365693
  0
LINE
  5
242
100
AcDbEntity
  8
IMPORT_IGES
100
AcDbLine
 62
7
  6
CONTINUOUS
 10
176.9087952955
 20
82.3825175689
 11
151.1139712084
 21
82.3825175689
  0
LINE
  5
243
100
AcDbEntity
  8
IMPORT_IGES
100
AcDbLine
 62
250
  6
CONTINUOUS
 10
153.8150309682
 20
133.4382928092
 11
153.7683892853
 21
133.2185355429
  0
LWPOLYLINE
  5
244
100
AcDbEntity
  8
IMPORT_IGES
100
AcDbPolyline
 62
7
  6
CONTINUOUS
 90
6
 70
0
 10
122.3688384962
 20
110.3297736927
 10
122.3154583566
 20
110.3628715123
 10
122.2508261375
 20
110.3989889474
 10
122.1785367558
 20
110.4357502226
 10
122.0985170663
 20
110.4731517634
 10
122.0108402142
 20
110.5111971444
  0
LINE
  5
245
100
AcDbEntity
  8
IMPORT_IGES
100
AcDbLine
 62
7
  6
CONTINUOUS
 10
156.7383297982
 20
63.3020356757
 11
156.7565480797
 21
63.22926986
  0
LINE
  5
246
100
AcDbEntity
  8
IMPORT_IGES
100
AcDbLine
 62
7
  6
CONTINUOUS
 10
160.9151186595
 20
137.3482942157
 11
160.9176194368
 21
137.3583546997
  0
LINE
  5
247
100
AcDbEntity
  8
IMPORT_IGES
100
AcDbLine
 62
7
  6
CONTINUOUS
 10
120.6276942496
 20
90.1725503548
 11
121.9002875418
 21
90.1725503548
  0
LINE
  5
248
100
AcDbEntity
  8
IMPORT_IGES
100
AcDbLine
 62
7
  6
CONTINUOUS
 10
206.1224789621
 20
90.1725503548
 11
207.3950722543
 21
90.1725503548
  0
LINE
  5
249
100
AcDbEntity
  8
IMPORT_IGES
100
AcDbLine
 62
7
  6
CONTINUOUS
 10
206.874433902
 20
90.3297736927
 11
204.0113832519
 21
90.3297736927
  0
LINE
  5
24A
100
AcDbEntity
  8
IMPORT_IGES
100
AcDbLine
 62
7
  6
CONTINUOUS
 10
124.0113832519
 20
90.3297736927
 11
121.169606105
 21
90.3297736927
  0
LWPOLYLINE
  5
24B
100
AcDbEntity
  8
IMPORT_IGES
100
AcDbPolyline
 62
7
  6
CONTINUOUS
 90
25
 70
0
 10
121.1703836093
 20
90.3297736927
 10
121.0537201626
 20
90.333214103
 10
120.9383234946
 20
90.3432032263
 10
120.8241936055
 20
90.3597410626
 10
120.710992741
 20
90.382929729
 10
120.5990586553
 20
90.4126671084
 10
120.4894046105
 20
90.4486468491
 10
120.3820243742
 20
90.4909289089
 10
120.2769241787
 20
90.5394533299
 10
120.1751359838
 20
90.5937338874
 10
120.0766921738
 20
90.6538260183
 10
119.9815603643
 20
90.7196742857
 10
119.8906753623
 20
90.7906261536
 10
119.8040780169
 20
90.8667315601
 10
119.7217274789
 20
90.947940567
 10
119.6444360077
 20
91.0334508241
 10
119.5722526817
 20
91.1233050276
 10
119.5051284224
 20
91.2174604813
 10
119.4437282532
 20
91.3149867463
 10
119.3881054136
 20
91.4159365465
 10
119.3382066642
 20
91.520257158
 10
119.2945373096
 20
91.6268599702
 10
119.2572657847
 20
91.7353821127
 10
119.2262236547
 20
91.8461864558
 10
119.2014109194
 20
91.9592729995
  0
LINE
  5
24C
100
AcDbEntity
  8
IMPORT_IGES
100
AcDbLine
 62
7
  6
CONTINUOUS
 10
177.7811079424
 20
56.9376996024
 11
177.6214074785
 21
57.1950723612
  0
LINE
  5
24D
100
AcDbEntity
  8
IMPORT_IGES
100
AcDbLine
 62
7
  6
CONTINUOUS
 10
142.2202562827
 20
61.7189117027
 11
144.5396403378
 21
67.7601376031
  0
LINE
  5
24E
100
AcDbEntity
  8
IMPORT_IGES
100
AcDbLine
 62
7
  6
CONTINUOUS
 10
144.5103479262
 20
65.6467593335
 11
142.6514063482
 21
60.804833313
  0
LINE
  5
24F
100
AcDbEntity
  8
IMPORT_IGES
100
AcDbLine
 62
250
  6
CONTINUOUS
 10
144.5244083404
 20
65.6457063426
 11
142.6601332186
 21
60.7898885018
  0
LINE
  5
250
100
AcDbEntity
  8
IMPORT_IGES
100
AcDbLine
 62
250
  6
CONTINUOUS
 10
143.5501902398
 20
60.1984292813
 11
145.474150973
 21
65.2097086277
  0
LWPOLYLINE
  5
251
100
AcDbEntity
  8
IMPORT_IGES
100
AcDbPolyline
 62
7
  6
CONTINUOUS
 90
37
 70
0
 10
144.5414763115
 20
67.7593844454
 10
144.5936609726
 20
67.8865950667
 10
144.6877631703
 20
68.0897828944
 10
144.7906310445
 20
68.2881335927
 10
144.9025075215
 20
68.482020699
 10
145.023149675
 20
68.6710706758
 10
145.151828726
 20
68.8541629103
 10
145.2885915561
 20
69.0312619114
 10
145.4333912837
 20
69.2024031701
 10
145.5853584854
 20
69.3665725467
 10
145.7445353425
 20
69.5237289208
 10
145.9108796737
 20
69.6739134129
 10
146.0833955111
 20
69.8162352446
 10
146.2621186613
 20
69.9506476353
 10
146.4470133176
 20
70.0771973658
 10
146.6369760925
 20
70.1951339996
 10
146.8320371646
 20
70.3044069124
 10
147.0321663552
 20
70.4050667287
 10
147.2361697405
 20
70.4965148852
 10
147.4440704296
 20
70.5786969377
 10
147.6558453133
 20
70.6516673304
 10
147.8702311398
 20
70.714990833
 10
148.0872444705
 20
70.7686102921
 10
148.3068687439
 20
70.8125828611
 10
148.5277910239
 20
70.8466447686
 10
148.7500177786
 20
70.8707369397
 10
148.9735425398
 20
70.8849184495
 10
149.1970329666
 20
70.8891027512
 10
149.4204899875
 20
70.8832305246
 10
149.643912674
 20
70.8673610901
 10
149.8659658987
 20
70.8415858615
 10
150.0866418502
 20
70.8058457365
 10
150.3059483399
 20
70.7601998174
 10
150.5225736756
 20
70.7049168257
 10
150.7360806264
 20
70.6400863352
 10
150.9469064232
 20
70.5656187721
 10
151.1550510659
 20
70.4815141364
  0
LWPOLYLINE
  5
252
100
AcDbEntity
  8
IMPORT_IGES
100
AcDbPolyline
 62
7
  6
CONTINUOUS
 90
28
 70
0
 10
142.2202562827
 20
61.7189117027
 10
142.1948444689
 20
61.6587470635
 10
142.1659663902
 20
61.6008718867
 10
142.1336220467
 20
61.5452861723
 10
142.0976561013
 20
61.4918064787
 10
142.058223891
 20
61.4406162474
 10
142.0157914266
 20
61.3922658034
 10
141.9703149515
 20
61.3467669135
 10
141.9218382223
 20
61.3041078108
 10
141.8709585197
 20
61.264803519
 10
141.8176471329
 20
61.2288941536
 10
141.7619327727
 20
61.1963395991
 10
141.7044988523
 20
61.1675345326
 10
141.6453245103
 20
61.1425240543
 10
141.5844306082
 20
61.1212630641
 10
141.5225631432
 20
61.1040109389
 10
141.4597096115
 20
61.0908162235
 10
141.3958825168
 20
61.0816303732
 10
141.3318653677
 20
61.0765671311
 10
141.2676558086
 20
61.0756768044
 10
141.203256195
 20
61.0789090859
 10
141.1394571016
 20
61.0862267971
 10
141.0762441054
 20
61.0976931542
 10
141.0136316294
 20
61.1132449411
 10
140.952453517
 20
61.1326553306
 10
140.8929877161
 20
61.155848714
 10
140.8349562787
 20
61.1829007
 10
140.778359205
 20
61.2138112889
  0
LWPOLYLINE
  5
253
100
AcDbEntity
  8
IMPORT_IGES
100
AcDbPolyline
 62
7
  6
CONTINUOUS
 90
7
 70
0
 10
121.9162825656
 20
90.1099760913
 10
122.0108405837
 20
90.1483504593
 10
122.0985175226
 20
90.1863958826
 10
122.1785370162
 20
90.2237972896
 10
122.2508256653
 20
90.2605580929
 10
122.3154568693
 20
90.2966748798
 10
122.3688386189
 20
90.3297736927
  0
LINE
  5
254
100
AcDbEntity
  8
IMPORT_IGES
100
AcDbLine
 62
7
  6
CONTINUOUS
 10
146.1139712084
 20
99.2131471468
 11
148.6109079792
 21
100.0454407655
  0
LINE
  5
255
100
AcDbEntity
  8
IMPORT_IGES
100
AcDbLine
 62
7
  6
CONTINUOUS
 10
148.6109079792
 20
100.6141066198
 11
146.1139712084
 21
101.4464002385
  0
LWPOLYLINE
  5
256
100
AcDbEntity
  8
IMPORT_IGES
100
AcDbPolyline
 62
7
  6
CONTINUOUS
 90
28
 70
0
 10
148.6109079792
 20
100.6141066198
 10
148.6374961497
 20
100.6037595816
 10
148.6625856411
 20
100.5913213119
 10
148.6861764535
 20
100.5767918107
 10
148.7084382548
 20
100.5600017884
 10
148.7292013771
 20
100.5411205346
 10
148.747956816
 20
100.5206559186
 10
148.7646459071
 20
100.4985823909
 10
148.7793273148
 20
100.4749255011
 10
148.7916680287
 20
100.4502697663
 10
148.8016164752
 20
100.4245900315
 10
148.809224228
 20
100.3979114518
 10
148.8143129974
 20
100.3708940098
 10
148.8168231302
 20
100.3435309141
 10
148.8168142797
 20
100.3158289561
 10
148.8142871164
 20
100.2884684926
 10
148.8091801973
 20
100.261454363
 10
148.8015549654
 20
100.2347817277
 10
148.7915964201
 20
100.2091164257
 10
148.7792553482
 20
100.1844890084
 10
148.764580963
 20
100.1608689243
 10
148.7479059026
 20
100.1388303577
 10
148.729178034
 20
100.1183987192
 10
148.7084494903
 20
100.0995485981
 10
148.6862093092
 20
100.082777947
 10
148.6626205032
 20
100.0682527499
 10
148.6375200599
 20
100.0558070227
 10
148.6109079792
 20
100.0454407655
  0
LINE
  5
257
100
AcDbEntity
  8
IMPORT_IGES
100
AcDbLine
 62
7
  6
CONTINUOUS
 10
122.0108402142
 20
110.5111971444
 11
121.9162792684
 21
110.5495726327
  0
LINE
  5
258
100
AcDbEntity
  8
IMPORT_IGES
100
AcDbLine
 62
7
  6
CONTINUOUS
 10
169.4687860465
 20
54.4818789622
 11
167.105147067
 21
63.3011926857
  0
LINE
  5
259
100
AcDbEntity
  8
IMPORT_IGES
100
AcDbLine
 62
7
  6
CONTINUOUS
 10
169.4725094021
 20
54.4873777082
 11
167.1076478443
 21
63.3112531696
  0
LINE
  5
25A
100
AcDbEntity
  8
IMPORT_IGES
100
AcDbLine
 62
7
  6
CONTINUOUS
 10
148.3101379238
 20
143.1197282254
 11
148.3512421374
 21
142.9416423951
  0
LINE
  5
25B
100
AcDbEntity
  8
IMPORT_IGES
100
AcDbLine
 62
250
  6
CONTINUOUS
 10
151.5229090576
 20
133.7249977132
 11
149.275986407
 21
143.4598898552
  0
LINE
  5
25C
100
AcDbEntity
  8
IMPORT_IGES
100
AcDbLine
 62
7
  6
CONTINUOUS
 10
161.4404854885
 20
54.1887877366
 11
161.4404854885
 21
59.2501532104
  0
LINE
  5
25D
100
AcDbEntity
  8
IMPORT_IGES
100
AcDbLine
 62
7
  6
CONTINUOUS
 10
162.4404854885
 20
59.2501532104
 11
162.4404854885
 21
54.1435610457
  0
LINE
  5
25E
100
AcDbEntity
  8
IMPORT_IGES
100
AcDbLine
 62
7
  6
CONTINUOUS
 10
155.3851975325
 20
69.0867598138
 11
154.0011016434
 21
61.9682582486
  0
LINE
  5
25F
100
AcDbEntity
  8
IMPORT_IGES
100
AcDbLine
 62
7
  6
CONTINUOUS
 10
171.2662184242
 20
137.4302775253
 11
173.4367489845
 21
145.5290566215
  0
LINE
  5
260
100
AcDbEntity
  8
IMPORT_IGES
100
AcDbLine
 62
7
  6
CONTINUOUS
 10
173.4630224712
 20
145.4863467417
 11
171.2844367057
 21
137.3575117096
  0
LINE
  5
261
100
AcDbEntity
  8
IMPORT_IGES
100
AcDbLine
 62
250
  6
CONTINUOUS
 10
148.9816211349
 20
63.6946981257
 11
146.9634911126
 21
58.4381390262
  0
LINE
  5
262
100
AcDbEntity
  8
IMPORT_IGES
100
AcDbLine
 62
7
  6
CONTINUOUS
 10
177.775580811
 20
137.5098553306
 11
179.7518480883
 21
142.6573758693
  0
LINE
  5
263
100
AcDbEntity
  8
IMPORT_IGES
100
AcDbLine
 62
250
  6
CONTINUOUS
 10
147.6832927359
 20
58.1589730511
 11
149.6968031793
 21
63.4034996804
  0
LINE
  5
264
100
AcDbEntity
  8
IMPORT_IGES
100
AcDbLine
 62
250
  6
CONTINUOUS
 10
180.3394737679
 20
142.5005743342
 11
178.3259633245
 21
137.2560477049
  0
LINE
  5
265
100
AcDbEntity
  8
IMPORT_IGES
100
AcDbLine
 62
7
  6
CONTINUOUS
 10
150.2471856928
 20
63.1496920547
 11
148.2709184155
 21
58.002171516
  0
LINE
  5
266
100
AcDbEntity
  8
IMPORT_IGES
100
AcDbLine
 62
250
  6
CONTINUOUS
 10
151.1550512925
 20
70.4815140525
 11
151.186797038
 21
70.5628963847
  0
LINE
  5
267
100
AcDbEntity
  8
IMPORT_IGES
100
AcDbLine
 62
250
  6
CONTINUOUS
 10
173.9572023971
 20
68.3951969139
 11
174.2543772185
 21
67.4410118425
  0
LINE
  5
268
100
AcDbEntity
  8
IMPORT_IGES
100
AcDbLine
 62
250
  6
CONTINUOUS
 10
154.0655641067
 20
132.2643504714
 11
153.7683892853
 21
133.2185355429
  0
LWPOLYLINE
  5
269
100
AcDbEntity
  8
IMPORT_IGES
100
AcDbPolyline
 62
250
  6
CONTINUOUS
 90
31
 70
0
 10
151.5229090576
 20
133.7249977132
 10
151.5510531211
 20
133.6170701253
 10
151.5847553339
 20
133.5116415397
 10
151.6240156959
 20
133.4087119563
 10
151.6689924222
 20
133.3080200922
 10
151.7195272978
 20
133.2098272304
 10
151.7751456776
 20
133.11491722
 10
151.8358954138
 20
133.0232984703
 10
151.9017286542
 20
132.9349625719
 10
151.9720271974
 20
132.8506681458
 10
152.0468261484
 20
132.7704518219
 10
152.1260904022
 20
132.6942769702
 10
152.2090964415
 20
132.6227923215
 10
152.2958734255
 20
132.5560388481
 10
152.386392195
 20
132.4939755778
 10
152.4798417558
 20
132.4371283238
 10
152.5762448873
 20
132.3855415265
 10
152.6755788101
 20
132.3391707457
 10
152.7769641917
 20
132.2984084735
 10
152.8804170973
 20
132.2633017563
 10
152.9859214617
 20
132.2338035478
 10
153.092549758
 20
132.2101652013
 10
153.2003110675
 20
132.1924354694
 10
153.3091963089
 20
132.1805655995
 10
153.4182507106
 20
132.1746606868
 10
153.5274763937
 20
132.1747695826
 10
153.6368712372
 20
132.1808434357
 10
153.7454741068
 20
132.1928407879
 10
153.8529646245
 20
132.2107478199
 10
153.9596631683
 20
132.2345783511
 10
154.0655697383
 20
132.2643323814
  0
LINE
  5
26A
100
AcDbEntity
  8
IMPORT_IGES
100
AcDbLine
 62
250
  6
CONTINUOUS
 10
152.4972889973
 20
133.9492287745
 11
150.2416585614
 21
143.7218477829
  0
LINE
  5
26B
100
AcDbEntity
  8
IMPORT_IGES
100
AcDbLine
 62
7
  6
CONTINUOUS
 10
150.4013590253
 20
143.4644750241
 11
152.5467501843
 21
134.1694725775
  0
LINE
  5
26C
100
AcDbEntity
  8
IMPORT_IGES
100
AcDbLine
 62
7
  6
CONTINUOUS
 10
165.5822810154
 20
141.409394175
 11
165.5822810154
 21
146.5159863396
  0
LINE
  5
26D
100
AcDbEntity
  8
IMPORT_IGES
100
AcDbLine
 62
7
  6
CONTINUOUS
 10
166.5822810154
 20
146.4707596487
 11
166.5822810154
 21
141.4093941749
  0
LINE
  5
26E
100
AcDbEntity
  8
IMPORT_IGES
100
AcDbLine
 62
7
  6
CONTINUOUS
 10
172.6375689714
 20
131.5727875715
 11
174.0216648605
 21
138.6912891368
  0
LINE
  5
26F
100
AcDbEntity
  8
IMPORT_IGES
100
AcDbLine
 62
7
  6
CONTINUOUS
 10
154.5597440326
 20
55.1732006437
 11
156.7383297982
 21
63.3020356757
  0
LINE
  5
270
100
AcDbEntity
  8
IMPORT_IGES
100
AcDbLine
 62
7
  6
CONTINUOUS
 10
156.7565480797
 20
63.22926986
 11
154.5860175193
 21
55.1304907638
  0
LINE
  5
271
100
AcDbEntity
  8
IMPORT_IGES
100
AcDbLine
 62
250
  6
CONTINUOUS
 10
179.0411453689
 20
136.9648492596
 11
181.0592753912
 21
142.2214083591
  0
LINE
  5
272
100
AcDbEntity
  8
IMPORT_IGES
100
AcDbLine
 62
250
  6
CONTINUOUS
 10
184.472576264
 20
140.461118104
 11
182.5486155309
 21
135.4498387576
  0
LINE
  5
273
100
AcDbEntity
  8
IMPORT_IGES
100
AcDbLine
 62
250
  6
CONTINUOUS
 10
176.8677152114
 20
130.1780333328
 11
176.8359694658
 21
130.0966510006
  0
LWPOLYLINE
  5
274
100
AcDbEntity
  8
IMPORT_IGES
100
AcDbPolyline
 62
7
  6
CONTINUOUS
 90
28
 70
0
 10
185.8025102212
 20
138.9406356827
 10
185.827922035
 20
139.0008003218
 10
185.8568001136
 20
139.0586754986
 10
185.8891444572
 20
139.114261213
 10
185.9251104026
 20
139.1677409066
 10
185.9645426129
 20
139.2189311379
 10
186.0069750772
 20
139.267281582
 10
186.0524515523
 20
139.3127804718
 10
186.1009282815
 20
139.3554395745
 10
186.1518079841
 20
139.3947438663
 10
186.2051193709
 20
139.4306532317
 10
186.2608337312
 20
139.4632077863
 10
186.3182676516
 20
139.4920128527
 10
186.3774419935
 20
139.517023331
 10
186.4383358956
 20
139.5382843213
 10
186.5002033607
 20
139.5555364464
 10
186.5630568924
 20
139.5687311618
 10
186.626883987
 20
139.5779170121
 10
186.6909011362
 20
139.5829802542
 10
186.7551106953
 20
139.5838705809
 10
186.8195103089
 20
139.5806382994
 10
186.8833094023
 20
139.5733205882
 10
186.9465223984
 20
139.5618542311
 10
187.0091348744
 20
139.5463024443
 10
187.0703129868
 20
139.5268920547
 10
187.1297787879
 20
139.5036986713
 10
187.1878102254
 20
139.4766466851
 10
187.2444072993
 20
139.4457360961
  0
LINE
  5
275
100
AcDbEntity
  8
IMPORT_IGES
100
AcDbLine
 62
7
  6
CONTINUOUS
 10
181.9087952955
 20
101.4464002385
 11
179.4118585247
 21
100.6141066198
  0
LINE
  5
276
100
AcDbEntity
  8
IMPORT_IGES
100
AcDbLine
 62
7
  6
CONTINUOUS
 10
179.4118585247
 20
100.0454407655
 11
181.9087952955
 21
99.2131471468
  0
LWPOLYLINE
  5
277
100
AcDbEntity
  8
IMPORT_IGES
100
AcDbPolyline
 62
250
  6
CONTINUOUS
 90
31
 70
0
 10
176.499858701
 20
66.9345442356
 10
176.471713921
 20
67.0424741974
 10
176.4380111787
 20
67.1479045656
 10
176.398750474
 20
67.2508353403
 10
176.3537736552
 20
67.3515276072
 10
176.3032388741
 20
67.4497202806
 10
176.2476205862
 20
67.5446301032
 10
176.1868708763
 20
67.636248863
 10
176.1210376597
 20
67.724584772
 10
176.0507391381
 20
67.8088792086
 10
175.9759402064
 20
67.8890955427
 10
175.8966759697
 20
67.9652704043
 10
175.8136699456
 20
68.0367550621
 10
175.7268929749
 20
68.1035085437
 10
175.6363742168
 20
68.1655718214
 10
175.542924666
 20
68.2224190814
 10
175.4465215433
 20
68.2740058833
 10
175.3471876278
 20
68.3203766674
 10
175.2458022528
 20
68.3611389412
 10
175.1423493531
 20
68.3962456582
 10
175.0368449938
 20
68.4257438649
 10
174.9302167026
 20
68.4493822078
 10
174.8224553981
 20
68.4671119342
 10
174.7135701617
 20
68.4789817968
 10
174.6045157656
 20
68.4848867004
 10
174.4952900893
 20
68.4847777921
 10
174.3858952533
 20
68.4787039247
 10
174.2772923909
 20
68.4667065615
 10
174.16980188
 20
68.4487995235
 10
174.0631033427
 20
68.4249689898
 10
173.9571967791
 20
68.3952149602
  0
LINE
  5
278
100
AcDbEntity
  8
IMPORT_IGES
100
AcDbLine
 62
7
  6
CONTINUOUS
 10
177.6214074785
 20
57.1950723612
 11
175.4760159797
 21
66.4900762804
  0
LINE
  5
279
100
AcDbEntity
  8
IMPORT_IGES
100
AcDbLine
 62
250
  6
CONTINUOUS
 10
175.5254775066
 20
66.7103186108
 11
177.7811079424
 21
56.9376996024
  0
LINE
  5
27A
100
AcDbEntity
  8
IMPORT_IGES
100
AcDbLine
 62
250
  6
CONTINUOUS
 10
176.499858701
 20
66.9345442356
 11
178.7467800968
 21
57.1996575301
  0
LINE
  5
27B
100
AcDbEntity
  8
IMPORT_IGES
100
AcDbLine
 62
250
  6
CONTINUOUS
 10
183.4983581634
 20
135.0138410428
 11
185.3626332852
 21
139.8696588835
  0
LINE
  5
27C
100
AcDbEntity
  8
IMPORT_IGES
100
AcDbLine
 62
7
  6
CONTINUOUS
 10
183.5124185776
 20
135.0127880518
 11
185.3713601557
 21
139.8547140723
  0
LINE
  5
27D
100
AcDbEntity
  8
IMPORT_IGES
100
AcDbLine
 62
7
  6
CONTINUOUS
 10
185.8025102212
 20
138.9406356827
 11
183.483126166
 21
132.8994097822
  0
LWPOLYLINE
  5
27E
100
AcDbEntity
  8
IMPORT_IGES
100
AcDbPolyline
 62
7
  6
CONTINUOUS
 90
37
 70
0
 10
183.4812901923
 20
132.90016294
 10
183.4291055313
 20
132.7729523187
 10
183.3350033336
 20
132.5697644909
 10
183.2321354594
 20
132.3714137927
 10
183.1202589824
 20
132.1775266863
 10
182.9996168288
 20
131.9884767095
 10
182.8709377778
 20
131.805384475
 10
182.7341749477
 20
131.628285474
 10
182.5893752201
 20
131.4571442153
 10
182.4374080185
 20
131.2929748386
 10
182.2782311613
 20
131.1358184645
 10
182.1118868301
 20
130.9856339725
 10
181.9393709928
 20
130.8433121407
 10
181.7606478426
 20
130.70889975
 10
181.5757531862
 20
130.5823500195
 10
181.3857904113
 20
130.4644133857
 10
181.1907293392
 20
130.3551404729
 10
180.9906001486
 20
130.2544806566
 10
180.7865967634
 20
130.1630325002
 10
180.5786960743
 20
130.0808504476
 10
180.3669211905
 20
130.0078800549
 10
180.1525353641
 20
129.9445565524
 10
179.9355220334
 20
129.8909370932
 10
179.7158977599
 20
129.8469645242
 10
179.49497548
 20
129.8129026167
 10
179.2727487252
 20
129.7888104456
 10
179.049223964
 20
129.7746289359
 10
178.8257335373
 20
129.7704446342
 10
178.6022765163
 20
129.7763168607
 10
178.3788538299
 20
129.7921862952
 10
178.1568006051
 20
129.8179615238
 10
177.9361246537
 20
129.8537016488
 10
177.7168181639
 20
129.8993475679
 10
177.5001928282
 20
129.9546305596
 10
177.2866858774
 20
130.0194610501
 10
177.0758600807
 20
130.0939286132
 10
176.867715438
 20
130.1780332489
  0
LWPOLYLINE
  5
27F
100
AcDbEntity
  8
IMPORT_IGES
100
AcDbPolyline
 62
7
  6
CONTINUOUS
 90
7
 70
0
 10
206.1064839383
 20
110.549571294
 10
206.0119259201
 20
110.511196926
 10
205.9242489813
 20
110.4731515027
 10
205.8442294877
 20
110.4357500957
 10
205.7719408385
 20
110.3989892925
 10
205.7073096346
 20
110.3628725055
 10
205.6539278849
 20
110.3297736927
  0
LWPOLYLINE
  5
280
100
AcDbEntity
  8
IMPORT_IGES
100
AcDbPolyline
 62
7
  6
CONTINUOUS
 90
28
 70
0
 10
179.4118585247
 20
100.0454407655
 10
179.3852703541
 20
100.0557878038
 10
179.3601808627
 20
100.0682260734
 10
179.3365900503
 20
100.0827555746
 10
179.314328249
 20
100.0995455969
 10
179.2935651267
 20
100.1184268507
 10
179.2748096878
 20
100.1388914668
 10
179.2581205968
 20
100.1609649944
 10
179.2434391891
 20
100.1846218843
 10
179.2310984751
 20
100.209277619
 10
179.2211500286
 20
100.2349573538
 10
179.2135422759
 20
100.2616359335
 10
179.2084535064
 20
100.2886533755
 10
179.2059433736
 20
100.3160164712
 10
179.2059522241
 20
100.3437184292
 10
179.2084793874
 20
100.3710788927
 10
179.2135863065
 20
100.3980930224
 10
179.2212115384
 20
100.4247656576
 10
179.2311700838
 20
100.4504309596
 10
179.2435111556
 20
100.4750583769
 10
179.2581855409
 20
100.498678461
 10
179.2748606012
 20
100.5207170276
 10
179.2935884699
 20
100.5411486661
 10
179.3143170136
 20
100.5599987872
 10
179.3365571947
 20
100.5767694384
 10
179.3601460006
 20
100.5912946354
 10
179.3852464439
 20
100.6037403626
 10
179.4118585247
 20
100.6141066198
  0
LINE
  5
281
100
AcDbEntity
  8
IMPORT_IGES
100
AcDbLine
 62
7
  6
CONTINUOUS
 10
206.0119262896
 20
90.1483502409
 11
206.1064872355
 21
90.1099747526
  0
LINE
  5
282
100
AcDbEntity
  8
IMPORT_IGES
100
AcDbLine
 62
7
  6
CONTINUOUS
 10
158.5502571018
 20
146.1721696771
 11
160.9151186595
 21
137.3482942157
  0
LINE
  5
283
100
AcDbEntity
  8
IMPORT_IGES
100
AcDbLine
 62
7
  6
CONTINUOUS
 10
158.5539804574
 20
146.1776684231
 11
160.9176194368
 21
137.3583546997
  0
LINE
  5
284
100
AcDbEntity
  8
IMPORT_IGES
100
AcDbLine
 62
7
  6
CONTINUOUS
 10
179.7126285801
 20
57.53981916
 11
179.6715243665
 21
57.7179049903
  0
LINE
  5
285
100
AcDbEntity
  8
IMPORT_IGES
100
AcDbLine
 62
7
  6
CONTINUOUS
 10
167.1076478443
 20
63.3112531696
 11
167.105147067
 21
63.3011926857
  0
LINE
  5
286
100
AcDbEntity
  8
IMPORT_IGES
100
AcDbLine
 62
7
  6
CONTINUOUS
 10
121.1483326018
 20
110.3297736927
 11
124.0113832519
 21
110.3297736927
  0
LINE
  5
287
100
AcDbEntity
  8
IMPORT_IGES
100
AcDbLine
 62
7
  6
CONTINUOUS
 10
204.0113832519
 20
110.3297736927
 11
206.8531603989
 21
110.3297736927
  0
LINE
  5
288
100
AcDbEntity
  8
IMPORT_IGES
100
AcDbLine
 62
7
  6
CONTINUOUS
 10
207.3950722543
 20
110.4869970305
 11
206.1224789621
 21
110.4869970305
  0
LINE
  5
289
100
AcDbEntity
  8
IMPORT_IGES
100
AcDbLine
 62
7
  6
CONTINUOUS
 10
121.9002875418
 20
110.4869970305
 11
120.6276942496
 21
110.4869970305
  0
LWPOLYLINE
  5
28A
100
AcDbEntity
  8
IMPORT_IGES
100
AcDbPolyline
 62
7
  6
CONTINUOUS
 90
25
 70
0
 10
206.8523851479
 20
110.3297736927
 10
206.969047588
 20
110.326333283
 10
207.0844435009
 20
110.3163441604
 10
207.1985728868
 20
110.2998063248
 10
207.3117735835
 20
110.276617659
 10
207.4237077531
 20
110.2468802803
 10
207.5333618817
 20
110.2109005403
 10
207.6407421182
 20
110.1686184812
 10
207.7458423137
 20
110.1200940608
 10
207.8476305075
 20
110.065813505
 10
207.9460743144
 20
110.0057213773
 10
208.0412061196
 20
109.9398731142
 10
208.132091118
 20
109.8689212509
 10
208.2186884604
 20
109.7928158499
 10
208.301038996
 20
109.7116068488
 10
208.3783304669
 20
109.6260965952
 10
208.4505137956
 20
109.5362423918
 10
208.5176380596
 20
109.4420869361
 10
208.5790382336
 20
109.3445606677
 10
208.6346610914
 20
109.2436107716
 10
208.6845598591
 20
109.1392900628
 10
208.7282291899
 20
109.0326874275
 10
208.7655006349
 20
108.9241658274
 10
208.7965426429
 20
108.8133623007
 10
208.8213552141
 20
108.7002768473
  0
LWPOLYLINE
  5
28B
100
AcDbEntity
  8
IMPORT_IGES
100
AcDbPolyline
 62
7
  6
CONTINUOUS
 90
6
 70
0
 10
205.6539280076
 20
90.3297736927
 10
205.7073081472
 20
90.296675873
 10
205.7719403664
 20
90.260558438
 10
205.844229748
 20
90.2237971627
 10
205.9242494376
 20
90.1863956219
 10
206.0119262896
 20
90.1483502409
  0
LINE
  5
28C
100
AcDbEntity
  8
IMPORT_IGES
100
AcDbLine
 62
7
  6
CONTINUOUS
 10
150.2416585614
 20
143.7218477829
 11
150.4013590253
 21
143.4644750241
  0
LINE
  5
28D
100
AcDbEntity
  8
IMPORT_IGES
100
AcDbLine
 62
7
  6
CONTINUOUS
 10
181.9087952955
 20
87.3825175689
 11
181.9087952955
 21
99.2131471468
  0
LINE
  5
28E
100
AcDbEntity
  8
IMPORT_IGES
100
AcDbLine
 62
7
  6
CONTINUOUS
 10
181.9087952955
 20
101.4464002385
 11
181.9087952955
 21
113.2770298164
  0
LINE
  5
28F
100
AcDbEntity
  8
IMPORT_IGES
100
AcDbLine
 62
250
  6
CONTINUOUS
 10
174.2077355357
 20
67.2212545761
 11
174.2543772185
 21
67.4410118425
  0
LINE
  5
290
100
AcDbEntity
  8
IMPORT_IGES
100
AcDbLine
 62
250
  6
CONTINUOUS
 10
175.5254775066
 20
66.7103186108
 11
175.4759618462
 21
66.490310816
  0
LINE
  5
291
100
AcDbEntity
  8
IMPORT_IGES
100
AcDbLine
 62
7
  6
CONTINUOUS
 10
151.1139712084
 20
118.2770298164
 11
176.9087952955
 21
118.2770298164
  0
LINE
  5
292
100
AcDbEntity
  8
IMPORT_IGES
100
AcDbLine
 62
7
  6
CONTINUOUS
 10
171.2844367057
 20
137.3575117096
 11
171.2662184242
 21
137.4302775253
  0
LWPOLYLINE
  5
293
100
AcDbEntity
  8
IMPORT_IGES
100
AcDbPolyline
 62
7
  6
CONTINUOUS
 90
14
 70
0
 10
168.7752269976
 20
125.4360431942
 10
168.2990443043
 20
125.5234507482
 10
167.5869090687
 20
125.6336586935
 10
166.8719212396
 20
125.7239118685
 10
166.1559618817
 20
125.794078055
 10
165.4393875229
 20
125.8441185681
 10
164.7218416353
 20
125.8740720927
 10
164.0041357008
 20
125.8839224653
 10
163.2860318752
 20
125.8736478691
 10
162.5677680027
 20
125.8432701209
 10
161.8508690971
 20
125.7928385075
 10
161.1355168966
 20
125.722370218
 10
160.421529663
 20
125.6318480632
 10
159.7703509833
 20
125.5306649058
  0
LINE
  5
294
100
AcDbEntity
  8
IMPORT_IGES
100
AcDbLine
 62
7
  6
CONTINUOUS
 10
194.0113832519
 20
120.3297736927
 11
194.0113747857
 21
133.1638333616
  0
LINE
  5
295
100
AcDbEntity
  8
IMPORT_IGES
100
AcDbLine
 62
7
  6
CONTINUOUS
 10
194.0113681093
 20
67.6739477503
 11
194.0113832519
 21
80.3297736927
  0
LWPOLYLINE
  5
296
100
AcDbEntity
  8
IMPORT_IGES
100
AcDbPolyline
 62
7
  6
CONTINUOUS
 90
19
 70
0
 10
194.0113681093
 20
67.6739477503
 10
194.0077064856
 20
67.5262741128
 10
193.9969564739
 20
67.3796708652
 10
193.9791180742
 20
67.2341380075
 10
193.9541122041
 20
67.0893354308
 10
193.922017946
 20
66.945603244
 10
193.8830725471
 20
66.8039617736
 10
193.8372284835
 20
66.6644259049
 10
193.7845332791
 20
66.5269807524
 10
193.7253667526
 20
66.3926019866
 10
193.6596829203
 20
66.2613108512
 10
193.587527766
 20
66.1330861023
 10
193.5094190599
 20
66.0088396785
 10
193.4253100134
 20
65.8885965331
 10
193.3352474151
 20
65.7723317128
 10
193.2398894011
 20
65.6608822964
 10
193.1394553503
 20
65.5545273099
 10
193.0337258837
 20
65.4529877272
 10
192.9227010016
 20
65.3562635484
  0
LWPOLYLINE
  5
297
100
AcDbEntity
  8
IMPORT_IGES
100
AcDbPolyline
 62
7
  6
CONTINUOUS
 90
25
 70
0
 10
150.2416585614
 20
143.7218477829
 10
150.2378003513
 20
143.7242095514
 10
150.2299528661
 20
143.7252653836
 10
150.2181489647
 20
143.7250228636
 10
150.2024341395
 20
143.7235043087
 10
150.1828783426
 20
143.7207140474
 10
150.1595794863
 20
143.7166392282
 10
150.1326423847
 20
143.7113013359
 10
150.1021822955
 20
143.7047296806
 10
150.0683399314
 20
143.6969294117
 10
150.0312718546
 20
143.6879322173
 10
149.9911305706
 20
143.6777777455
 10
149.9480661513
 20
143.6664866501
 10
149.9022594475
 20
143.6540962821
 10
149.8539021256
 20
143.6406552716
 10
149.8031685013
 20
143.6262030417
 10
149.750273547
 20
143.6107838646
 10
149.6954324523
 20
143.5944527544
 10
149.6388262907
 20
143.5772667322
 10
149.5806616743
 20
143.5592614476
 10
149.5212074182
 20
143.5405109851
 10
149.4607487819
 20
143.5211325302
 10
149.3995559295
 20
143.5012055547
 10
149.3378799277
 20
143.4807708929
 10
149.275986407
 20
143.4598898552
  0
LINE
  5
298
100
AcDbEntity
  8
IMPORT_IGES
100
AcDbLine
 62
7
  6
CONTINUOUS
 10
173.4367489845
 20
145.5290566215
 11
173.4630224712
 21
145.4863467417
  0
LWPOLYLINE
  5
299
100
AcDbEntity
  8
IMPORT_IGES
100
AcDbPolyline
 62
250
  6
CONTINUOUS
 90
25
 70
0
 10
153.7683892853
 20
133.2185355429
 10
153.7032002501
 20
133.2006326206
 10
153.6369193315
 20
133.1872981399
 10
153.5697389655
 20
133.1785987271
 10
153.5017192734
 20
133.1745909424
 10
153.4332329937
 20
133.1753525369
 10
153.3649557917
 20
133.1808795965
 10
153.2972044737
 20
133.1911075451
 10
153.2301459313
 20
133.2059863237
 10
153.1642231276
 20
133.225396047
 10
153.0996899068
 20
133.2492349703
 10
153.036791133
 20
133.277403253
 10
152.9759367316
 20
133.3097085848
 10
152.9173657791
 20
133.3460156931
 10
152.8613199488
 20
133.3861875461
 10
152.8081770972
 20
133.429966294
 10
152.7581434469
 20
133.4771972051
 10
152.7114416476
 20
133.5277098807
 10
152.668415188
 20
133.5811635716
 10
152.6291987573
 20
133.6374223641
 10
152.5939931954
 20
133.696257215
 10
152.5631272931
 20
133.7571114665
 10
152.5367203658
 20
133.8196348689
 10
152.5147604232
 20
133.8837401238
 10
152.4972889973
 20
133.9492287745
  0
LWPOLYLINE
  5
29A
100
AcDbEntity
  8
IMPORT_IGES
100
AcDbPolyline
 62
7
  6
CONTINUOUS
 90
25
 70
0
 10
153.8150338237
 20
133.4382835329
 10
153.7484756726
 20
133.420333363
 10
153.6814849287
 20
133.4070290717
 10
153.614061592
 20
133.398370659
 10
153.5458874313
 20
133.3943607955
 10
153.4772806778
 20
133.3949968106
 10
153.4091960254
 20
133.4002706925
 10
153.3416405929
 20
133.4102475411
 10
153.2746072616
 20
133.4248622565
 10
153.2090293688
 20
133.4439115274
 10
153.1449272709
 20
133.4674573276
 10
153.0822806116
 20
133.4954376833
 10
153.02196166
 20
133.5274633627
 10
152.9640030432
 20
133.5635907215
 10
152.908372134
 20
133.603763404
 10
152.8558433193
 20
133.6474231108
 10
152.8064598572
 20
133.6946182372
 10
152.7601784895
 20
133.7453003879
 10
152.7176438295
 20
133.798766077
 10
152.6789098507
 20
133.8550450673
 10
152.6439225796
 20
133.9141075959
 10
152.6131647081
 20
133.9751608886
 10
152.5867971338
 20
134.0379406874
 10
152.5646589591
 20
134.1027112504
 10
152.5467501843
 20
134.1694725775
  0
LINE
  5
29B
100
AcDbEntity
  8
IMPORT_IGES
100
AcDbLine
 62
250
  6
CONTINUOUS
 10
152.4972889973
 20
133.9492287745
 11
151.5230551767
 21
133.7243646459
  0
LINE
  5
29C
100
AcDbEntity
  8
IMPORT_IGES
100
AcDbLine
 62
7
  6
CONTINUOUS
 10
171.2844367057
 20
137.3575117096
 11
162.7595283759
 21
137.298263545
  0
LINE
  5
29D
100
AcDbEntity
  8
IMPORT_IGES
100
AcDbLine
 62
7
  6
CONTINUOUS
 10
160.9176194368
 20
137.3583546997
 11
171.2662184242
 21
137.4302775253
  0
LINE
  5
29E
100
AcDbEntity
  8
IMPORT_IGES
100
AcDbLine
 62
7
  6
CONTINUOUS
 10
162.7595283759
 20
137.298263545
 11
160.9151186595
 21
137.3482942157
  0
LINE
  5
29F
100
AcDbEntity
  8
IMPORT_IGES
100
AcDbLine
 62
7
  6
CONTINUOUS
 10
183.5124185776
 20
135.0127880518
 11
183.4983581634
 21
135.0138410428
  0
LINE
  5
2A0
100
AcDbEntity
  8
IMPORT_IGES
100
AcDbLine
 62
7
  6
CONTINUOUS
 10
165.5822810154
 20
141.409394175
 11
166.5822810154
 21
141.4093941749
  0
LINE
  5
2A1
100
AcDbEntity
  8
IMPORT_IGES
100
AcDbLine
 62
7
  6
CONTINUOUS
 10
178.9839631583
 20
136.9865777459
 11
179.0411453689
 21
136.9648492596
  0
LINE
  5
2A2
100
AcDbEntity
  8
IMPORT_IGES
100
AcDbLine
 62
7
  6
CONTINUOUS
 10
178.9213036704
 20
137.0107857316
 11
178.9839631583
 21
136.9865777459
  0
LINE
  5
2A3
100
AcDbEntity
  8
IMPORT_IGES
100
AcDbLine
 62
7
  6
CONTINUOUS
 10
178.8203153244
 20
137.0504524211
 11
178.9213036704
 21
137.0107857316
  0
LINE
  5
2A4
100
AcDbEntity
  8
IMPORT_IGES
100
AcDbLine
 62
7
  6
CONTINUOUS
 10
178.71563243
 20
137.0922286566
 11
178.8203153244
 21
137.0504524211
  0
LINE
  5
2A5
100
AcDbEntity
  8
IMPORT_IGES
100
AcDbLine
 62
7
  6
CONTINUOUS
 10
178.6123699095
 20
137.1340519545
 11
178.71563243
 21
137.0922286566
  0
LINE
  5
2A6
100
AcDbEntity
  8
IMPORT_IGES
100
AcDbLine
 62
7
  6
CONTINUOUS
 10
178.5157278493
 20
137.1738541767
 11
178.6123699095
 21
137.1340519545
  0
LINE
  5
2A7
100
AcDbEntity
  8
IMPORT_IGES
100
AcDbLine
 62
7
  6
CONTINUOUS
 10
178.4573808988
 20
137.1983186804
 11
178.5157278493
 21
137.1738541767
  0
LWPOLYLINE
  5
2A8
100
AcDbEntity
  8
IMPORT_IGES
100
AcDbPolyline
 62
7
  6
CONTINUOUS
 90
6
 70
0
 10
178.3259633245
 20
137.2560477049
 10
178.3424787819
 20
137.2483933218
 10
178.3613068863
 20
137.2398915611
 10
178.382338688
 20
137.2305842516
 10
178.4054606697
 20
137.2205122606
 10
178.4573808988
 20
137.1983186804
  0
LWPOLYLINE
  5
2A9
100
AcDbEntity
  8
IMPORT_IGES
100
AcDbPolyline
 62
7
  6
CONTINUOUS
 90
10
 70
0
 10
183.0994435234
 20
135.1819913682
 10
183.1708017458
 20
135.1482773562
 10
183.2357133639
 20
135.1180311025
 10
183.2940216377
 20
135.0914936609
 10
183.3455938392
 20
135.0687504957
 10
183.3902771571
 20
135.0498257686
 10
183.4279501924
 20
135.0348434453
 10
183.4585452438
 20
135.023855304
 10
183.4820225845
 20
135.0168508111
 10
183.4983575498
 20
135.0138394359
  0
LINE
  5
2AA
100
AcDbEntity
  8
IMPORT_IGES
100
AcDbLine
 62
7
  6
CONTINUOUS
 10
182.9382131719
 20
135.2595347721
 11
183.0994435234
 21
135.1819913682
  0
LWPOLYLINE
  5
2AB
100
AcDbEntity
  8
IMPORT_IGES
100
AcDbPolyline
 62
7
  6
CONTINUOUS
 90
3
 70
0
 10
182.5486155309
 20
135.4498387576
 10
182.6537101651
 20
135.3981749747
 10
182.9382131719
 20
135.2595347721
  0
LWPOLYLINE
  5
2AC
100
AcDbEntity
  8
IMPORT_IGES
100
AcDbPolyline
 62
7
  6
CONTINUOUS
 90
16
 70
0
 10
185.3626343636
 20
139.8696616517
 10
185.3511427802
 20
139.8852482527
 10
185.3324326621
 20
139.9045913827
 10
185.3065304307
 20
139.9276808977
 10
185.273497331
 20
139.9545660739
 10
185.2333841999
 20
139.985154604
 10
185.1862499039
 20
140.0192055187
 10
185.1322291945
 20
140.056677897
 10
185.0714617257
 20
140.0975073084
 10
185.0040716523
 20
140.1413952773
 10
184.9302600684
 20
140.1882830979
 10
184.8502376283
 20
140.2380713949
 10
184.7641929002
 20
140.2903814643
 10
184.6723730518
 20
140.3450163091
 10
184.5750704692
 20
140.4019657775
 10
184.472576264
 20
140.461118104
  0
LINE
  5
2AD
100
AcDbEntity
  8
IMPORT_IGES
100
AcDbLine
 62
7
  6
CONTINUOUS
 10
185.3713601557
 20
139.8547140723
 11
185.3626332852
 21
139.8696588835
  0
LWPOLYLINE
  5
2AE
100
AcDbEntity
  8
IMPORT_IGES
100
AcDbPolyline
 62
7
  6
CONTINUOUS
 90
25
 70
0
 10
208.8435958637
 20
91.9644342927
 10
208.819034063
 20
91.8510920301
 10
208.7882128553
 20
91.7400196015
 10
208.7511322405
 20
91.6312170071
 10
208.7076233359
 20
91.5243168354
 10
208.6578550242
 20
91.4196864977
 10
208.6023339539
 20
91.3184282283
 10
208.541006629
 20
91.2205970639
 10
208.4739265455
 20
91.1261379676
 10
208.4017608397
 20
91.035988063
 10
208.3244600123
 20
90.9501903328
 10
208.2420735626
 20
90.8687017941
 10
208.1554171252
 20
90.792330622
 10
208.0644494745
 20
90.721127068
 10
207.9692118359
 20
90.6550408805
 10
207.8706435201
 20
90.5947294798
 10
207.7687117751
 20
90.5402486667
 10
207.6634493527
 20
90.4915426405
 10
207.5558938186
 20
90.4491014192
 10
207.4460478393
 20
90.4129854288
 10
207.3339087482
 20
90.3831342433
 10
207.220506112
 20
90.359856603
 10
207.1061831196
 20
90.3432554211
 10
206.990596582
 20
90.3332277843
 10
206.8737464993
 20
90.3297736927
  0
LWPOLYLINE
  5
2AF
100
AcDbEntity
  8
IMPORT_IGES
100
AcDbPolyline
 62
7
  6
CONTINUOUS
 90
22
 70
0
 10
205.4662003992
 20
90.3297736927
 10
205.2480840015
 20
89.455187832
 10
204.9422401674
 20
88.355277321
 10
204.6066731886
 20
87.2629124292
 10
204.2416714754
 20
86.1789603469
 10
203.8481002578
 20
85.1060226451
 10
203.4258670673
 20
84.044127967
 10
202.9750643726
 20
82.9932476694
 10
202.4968348102
 20
81.9558973938
 10
201.9913400306
 20
80.9324819744
 10
201.4584183833
 20
79.9225965769
 10
200.8987275534
 20
78.9275423406
 10
200.3119556098
 20
77.9468726275
 10
199.6984144837
 20
76.9810340756
 10
199.059697653
 20
76.0326677378
 10
198.3958342373
 20
75.1019925391
 10
197.7067951171
 20
74.1887895547
 10
196.9940864121
 20
73.2950430634
 10
196.2575083289
 20
72.4206675228
 10
195.497260661
 20
71.5657484753
 10
194.7154489083
 20
70.7325268271
 10
194.011370918
 20
70.0213780868
  0
LINE
  5
2B0
100
AcDbEntity
  8
IMPORT_IGES
100
AcDbLine
 62
7
  6
CONTINUOUS
 10
165.5822810154
 20
146.5159863396
 11
165.8045732379
 21
146.5078238472
  0
LINE
  5
2B1
100
AcDbEntity
  8
IMPORT_IGES
100
AcDbLine
 62
7
  6
CONTINUOUS
 10
165.8045732379
 20
146.5078238472
 11
166.0268289857
 21
146.4985824751
  0
LINE
  5
2B2
100
AcDbEntity
  8
IMPORT_IGES
100
AcDbLine
 62
7
  6
CONTINUOUS
 10
166.0268289857
 20
146.4985824751
 11
166.2490458704
 21
146.4882622838
  0
LWPOLYLINE
  5
2B3
100
AcDbEntity
  8
IMPORT_IGES
100
AcDbPolyline
 62
7
  6
CONTINUOUS
 90
3
 70
0
 10
166.2490458704
 20
146.4882622838
 10
166.4712143396
 20
146.4768635149
 10
166.5822810154
 20
146.4707596487
  0
LWPOLYLINE
  5
2B4
100
AcDbEntity
  8
IMPORT_IGES
100
AcDbPolyline
 62
7
  6
CONTINUOUS
 90
25
 70
0
 10
181.0592753912
 20
142.2214083591
 10
181.0322304377
 20
142.2338397082
 10
181.0035593599
 20
142.2467561135
 10
180.9734300485
 20
142.2600931174
 10
180.9420115416
 20
142.2737972776
 10
180.9094933087
 20
142.287784396
 10
180.8760873861
 20
142.3019386988
 10
180.8420039765
 20
142.3161739961
 10
180.8074280611
 20
142.3304247565
 10
180.7725403012
 20
142.344603715
 10
180.7375426615
 20
142.3586286098
 10
180.7026336622
 20
142.372427946
 10
180.6679883606
 20
142.3859307773
 10
180.6337974642
 20
142.3990596206
 10
180.6002620525
 20
142.4117415418
 10
180.5675692822
 20
142.4239137456
 10
180.5359113264
 20
142.4354985175
 10
180.5054612146
 20
142.4464333612
 10
180.4763727443
 20
142.4566800919
 10
180.4488009163
 20
142.4661753331
 10
180.4229235807
 20
142.4748546711
 10
180.3989172372
 20
142.4826828088
 10
180.3769281995
 20
142.489614394
 10
180.357075353
 20
142.495592962
 10
180.3394737679
 20
142.5005743342
  0
LWPOLYLINE
  5
2B5
100
AcDbEntity
  8
IMPORT_IGES
100
AcDbPolyline
 62
7
  6
CONTINUOUS
 90
3
 70
0
 10
184.5454510269
 20
137.7034948256
 10
184.791782306
 20
137.5703320619
 10
185.1886924885
 20
137.3418441514
  0
LWPOLYLINE
  5
2B6
100
AcDbEntity
  8
IMPORT_IGES
100
AcDbPolyline
 62
7
  6
CONTINUOUS
 90
19
 70
0
 10
192.9075883265
 20
135.4939021439
 10
193.0200017554
 20
135.3972232043
 10
193.1270840486
 20
135.2956140843
 10
193.2288352059
 20
135.1890747837
 10
193.3254865485
 20
135.0773167032
 10
193.4168067554
 20
134.9606284423
 10
193.5021018632
 20
134.8398757987
 10
193.5813182329
 20
134.7150371804
 10
193.6545095037
 20
134.5861341795
 10
193.7211426292
 20
134.4540973707
 10
193.7811702854
 20
134.3189047264
 10
193.8346397964
 20
134.1805782743
 10
193.881160088
 20
134.0401146724
 10
193.9206819611
 20
133.897498469
 10
193.9532546148
 20
133.7527451158
 10
193.9786345718
 20
133.6068976271
 10
193.9967406731
 20
133.4603036742
 10
194.0076540777
 20
133.3126155857
 10
194.0113747857
 20
133.1638333616
  0
LWPOLYLINE
  5
2B7
100
AcDbEntity
  8
IMPORT_IGES
100
AcDbPolyline
 62
7
  6
CONTINUOUS
 90
22
 70
0
 10
194.0113764521
 20
130.637714311
 10
194.7117802993
 20
129.9305270474
 10
195.4940087834
 20
129.0971185492
 10
196.2545538129
 20
128.2420991173
 10
196.9913400604
 20
127.3677280009
 10
197.7041547212
 20
126.4741141738
 10
198.3932106001
 20
125.5611486623
 10
199.0570707828
 20
124.6307637944
 10
199.6957715664
 20
123.6827457797
 10
200.309276654
 20
122.7173084087
 10
200.8960402406
 20
121.7370253806
 10
201.455757216
 20
120.7423493635
 10
201.9887326905
 20
119.7328276894
 10
202.4943361907
 20
118.7096760544
 10
202.9727381414
 20
117.6724934813
 10
203.4237681178
 20
116.6216809473
 10
203.8462843727
 20
115.5596570797
 10
204.2402030221
 20
114.4863992089
 10
204.6056079499
 20
113.4019300046
 10
204.9416090605
 20
112.3087361031
 10
205.2479096555
 20
111.207646383
 10
205.4669373735
 20
110.3297736927
  0
ARC
  5
2B8
100
AcDbEntity
  8
IMPORT_IGES
100
AcDbCircle
 62
7
  6
CONTINUOUS
 10
163.914411737
 20
96.2673018544
 40
33.5374855197
100
AcDbArc
 50
84.5289251334
 51
94.0896192548
  0
ARC
  5
2B9
100
AcDbEntity
  8
IMPORT_IGES
100
AcDbCircle
 62
7
  6
CONTINUOUS
 10
163.914411737
 20
96.2673018544
 40
28.4499134699
100
AcDbArc
 50
84.5289251334
 51
94.0896192548
  0
ARC
  5
2BA
100
AcDbEntity
  8
IMPORT_IGES
100
AcDbCircle
 62
7
  6
CONTINUOUS
 10
124.0113832519
 20
80.3297736927
 40
10.0
100
AcDbArc
 50
0.0
 51
90.0
  0
ARC
  5
2BB
100
AcDbEntity
  8
IMPORT_IGES
100
AcDbCircle
 62
7
  6
CONTINUOUS
 10
151.1139712084
 20
87.3825175689
 40
5.0
100
AcDbArc
 50
180.0
 51
270.0
  0
ARC
  5
2BC
100
AcDbEntity
  8
IMPORT_IGES
100
AcDbCircle
 62
7
  6
CONTINUOUS
 10
161.1533154809
 20
73.5397391304
 40
2.5437860249
100
AcDbArc
 50
84.5289251334
 51
264.5289251334
  0
ARC
  5
2BD
100
AcDbEntity
  8
IMPORT_IGES
100
AcDbCircle
 62
7
  6
CONTINUOUS
 10
163.9031169058
 20
100.3866060525
 40
45.4891275381
100
AcDbArc
 50
290.2820152401
 51
309.6387854946
  0
ARC
  5
2BE
100
AcDbEntity
  8
IMPORT_IGES
100
AcDbCircle
 62
7
  6
CONTINUOUS
 10
163.9031169058
 20
100.3866060525
 40
45.4891275381
100
AcDbArc
 50
230.7390720582
 51
239.4455000423
  0
ARC
  5
2BF
100
AcDbEntity
  8
IMPORT_IGES
100
AcDbCircle
 62
7
  6
CONTINUOUS
 10
163.9031169058
 20
100.3866060525
 40
45.4891275381
100
AcDbArc
 50
169.4759684664
 51
190.6763089605
  0
ARC
  5
2C0
100
AcDbEntity
  8
IMPORT_IGES
100
AcDbCircle
 62
7
  6
CONTINUOUS
 10
163.9031169058
 20
100.3866060525
 40
45.4891275381
100
AcDbArc
 50
108.7568233075
 51
110.0466268863
  0
ARC
  5
2C1
100
AcDbEntity
  8
IMPORT_IGES
100
AcDbCircle
 62
7
  6
CONTINUOUS
 10
163.9031169058
 20
100.3866060525
 40
45.144216252
100
AcDbArc
 50
96.4908971764
 51
107.40238834
  0
ARC
  5
2C2
100
AcDbEntity
  8
IMPORT_IGES
100
AcDbCircle
 62
7
  6
CONTINUOUS
 10
163.9031169058
 20
100.3866060525
 40
45.144216252
100
AcDbArc
 50
69.4472911078
 51
78.0964644391
  0
ARC
  5
2C3
100
AcDbEntity
  8
IMPORT_IGES
100
AcDbCircle
 62
7
  6
CONTINUOUS
 10
164.0112748406
 20
100.3297918333
 40
26.8146934347
100
AcDbArc
 50
78.4943807669
 51
100.3253443043
  0
ARC
  5
2C4
100
AcDbEntity
  8
IMPORT_IGES
100
AcDbCircle
 62
7
  6
CONTINUOUS
 10
164.0112748441
 20
100.3297918329
 40
26.8146934347
100
AcDbArc
 50
258.4948834953
 51
280.3257853014
  0
ARC
  5
2C5
100
AcDbEntity
  8
IMPORT_IGES
100
AcDbCircle
 62
7
  6
CONTINUOUS
 10
124.0113832519
 20
120.3297736927
 40
10.0
100
AcDbArc
 50
270.0
 51
360.0
  0
ARC
  5
2C6
100
AcDbEntity
  8
IMPORT_IGES
100
AcDbCircle
 62
7
  6
CONTINUOUS
 10
151.1139712084
 20
113.2770298164
 40
5.0
100
AcDbArc
 50
90.0
 51
180.0
  0
ARC
  5
2C7
100
AcDbEntity
  8
IMPORT_IGES
100
AcDbCircle
 62
7
  6
CONTINUOUS
 10
161.7040424802
 20
127.1820827225
 40
2.5437860249
100
AcDbArc
 50
94.0896192548
 51
274.0896192548
  0
ARC
  5
2C8
100
AcDbEntity
  8
IMPORT_IGES
100
AcDbCircle
 62
7
  6
CONTINUOUS
 10
164.119649598
 20
100.2729413329
 40
45.4891275381
100
AcDbArc
 50
288.7568233075
 51
290.0466268863
  0
ARC
  5
2C9
100
AcDbEntity
  8
IMPORT_IGES
100
AcDbCircle
 62
7
  6
CONTINUOUS
 10
164.119649598
 20
100.2729413329
 40
45.4891275381
100
AcDbArc
 50
110.2820152401
 51
129.6387818835
  0
ARC
  5
2CA
100
AcDbEntity
  8
IMPORT_IGES
100
AcDbCircle
 62
7
  6
CONTINUOUS
 10
164.119649598
 20
100.2729413329
 40
45.4891275381
100
AcDbArc
 50
50.7390691237
 51
59.4455000416
  0
ARC
  5
2CB
100
AcDbEntity
  8
IMPORT_IGES
100
AcDbCircle
 62
7
  6
CONTINUOUS
 10
164.119649598
 20
100.2729413329
 40
45.4891275381
100
AcDbArc
 50
349.4759571471
 51
10.6763120936
  0
ARC
  5
2CC
100
AcDbEntity
  8
IMPORT_IGES
100
AcDbCircle
 62
7
  6
CONTINUOUS
 10
164.119649598
 20
100.2729413329
 40
45.144216252
100
AcDbArc
 50
276.4908971764
 51
287.40238834
  0
ARC
  5
2CD
100
AcDbEntity
  8
IMPORT_IGES
100
AcDbCircle
 62
7
  6
CONTINUOUS
 10
164.119649598
 20
100.2729413329
 40
45.144216252
100
AcDbArc
 50
249.4472911078
 51
258.0964644391
  0
ARC
  5
2CE
100
AcDbEntity
  8
IMPORT_IGES
100
AcDbCircle
 62
7
  6
CONTINUOUS
 10
204.0113832519
 20
80.3297736927
 40
10.0
100
AcDbArc
 50
90.0
 51
180.0
  0
ARC
  5
2CF
100
AcDbEntity
  8
IMPORT_IGES
100
AcDbCircle
 62
7
  6
CONTINUOUS
 10
176.9087952955
 20
87.3825175689
 40
5.0
100
AcDbArc
 50
270.0
 51
360.0
  0
ARC
  5
2D0
100
AcDbEntity
  8
IMPORT_IGES
100
AcDbCircle
 62
7
  6
CONTINUOUS
 10
166.3187240237
 20
73.4774646628
 40
2.5437860249
100
AcDbArc
 50
274.0896192548
 51
94.0896192548
  0
CIRCLE
  5
2D1
100
AcDbEntity
  8
IMPORT_IGES
100
AcDbCircle
 62
7
  6
CONTINUOUS
 10
164.0113832519
 20
100.3297736927
 40
48.4468441087
  0
CIRCLE
  5
2D2
100
AcDbEntity
  8
IMPORT_IGES
100
AcDbCircle
 62
250
  6
CONTINUOUS
 10
164.0113832519
 20
100.3297736927
 40
47.2292062501
  0
CIRCLE
  5
2D3
100
AcDbEntity
  8
IMPORT_IGES
100
AcDbCircle
 62
250
  6
CONTINUOUS
 10
164.0113832519
 20
100.3297736927
 40
46.229358555
  0
ARC
  5
2D4
100
AcDbEntity
  8
IMPORT_IGES
100
AcDbCircle
 62
7
  6
CONTINUOUS
 10
164.0113832519
 20
100.3297736927
 40
46.1715572239
100
AcDbArc
 50
258.2209615349
 51
266.808038914
  0
ARC
  5
2D5
100
AcDbEntity
  8
IMPORT_IGES
100
AcDbCircle
 62
7
  6
CONTINUOUS
 10
164.0113832519
 20
100.3297736927
 40
46.1715572239
100
AcDbArc
 50
268.0502458438
 51
276.7881367663
  0
ARC
  5
2D6
100
AcDbEntity
  8
IMPORT_IGES
100
AcDbCircle
 62
7
  6
CONTINUOUS
 10
164.0113832519
 20
100.3297736927
 40
46.1715572239
100
AcDbArc
 50
78.2209615349
 51
86.808038914
  0
ARC
  5
2D7
100
AcDbEntity
  8
IMPORT_IGES
100
AcDbCircle
 62
7
  6
CONTINUOUS
 10
164.0113832519
 20
100.3297736927
 40
46.1715572239
100
AcDbArc
 50
88.0502458438
 51
96.7881367663
  0
ARC
  5
2D8
100
AcDbEntity
  8
IMPORT_IGES
100
AcDbCircle
 62
7
  6
CONTINUOUS
 10
164.0113832519
 20
100.3297736927
 40
44.556858702
100
AcDbArc
 50
193.1770533523
 51
227.6812027252
  0
ARC
  5
2D9
100
AcDbEntity
  8
IMPORT_IGES
100
AcDbCircle
 62
7
  6
CONTINUOUS
 10
164.0113832519
 20
100.3297736927
 40
44.556858702
100
AcDbArc
 50
240.5709333584
 51
241.5505311097
  0
ARC
  5
2DA
100
AcDbEntity
  8
IMPORT_IGES
100
AcDbCircle
 62
7
  6
CONTINUOUS
 10
164.0113832519
 20
100.3297736927
 40
44.556858702
100
AcDbArc
 50
312.2971384122
 51
346.8229466477
  0
ARC
  5
2DB
100
AcDbEntity
  8
IMPORT_IGES
100
AcDbCircle
 62
7
  6
CONTINUOUS
 10
164.0113832519
 20
100.3297736927
 40
44.556858702
100
AcDbArc
 50
13.1770533523
 51
47.6812028967
  0
ARC
  5
2DC
100
AcDbEntity
  8
IMPORT_IGES
100
AcDbCircle
 62
7
  6
CONTINUOUS
 10
164.0113832519
 20
100.3297736927
 40
44.556858702
100
AcDbArc
 50
60.5709333584
 51
61.5505311097
  0
ARC
  5
2DD
100
AcDbEntity
  8
IMPORT_IGES
100
AcDbCircle
 62
7
  6
CONTINUOUS
 10
164.0113832519
 20
100.3297736927
 40
44.556858702
100
AcDbArc
 50
132.2971384769
 51
166.8229466477
  0
ARC
  5
2DE
100
AcDbEntity
  8
IMPORT_IGES
100
AcDbCircle
 62
7
  6
CONTINUOUS
 10
164.0113832519
 20
100.3297736927
 40
43.3187438396
100
AcDbArc
 50
313.8335789086
 51
346.439239322
  0
ARC
  5
2DF
100
AcDbEntity
  8
IMPORT_IGES
100
AcDbCircle
 62
7
  6
CONTINUOUS
 10
164.0113832519
 20
100.3297736927
 40
43.3187438396
100
AcDbArc
 50
240.3601342063
 51
241.3363665708
  0
ARC
  5
2E0
100
AcDbEntity
  8
IMPORT_IGES
100
AcDbCircle
 62
7
  6
CONTINUOUS
 10
164.0113832519
 20
100.3297736927
 40
43.3187438396
100
AcDbArc
 50
193.560760678
 51
226.1664637847
  0
ARC
  5
2E1
100
AcDbEntity
  8
IMPORT_IGES
100
AcDbCircle
 62
7
  6
CONTINUOUS
 10
164.0113832519
 20
100.3297736927
 40
43.3187438396
100
AcDbArc
 50
133.8335791545
 51
166.439239322
  0
ARC
  5
2E2
100
AcDbEntity
  8
IMPORT_IGES
100
AcDbCircle
 62
7
  6
CONTINUOUS
 10
164.0113832519
 20
100.3297736927
 40
43.3187438396
100
AcDbArc
 50
60.3601342063
 51
61.3363665708
  0
ARC
  5
2E3
100
AcDbEntity
  8
IMPORT_IGES
100
AcDbCircle
 62
7
  6
CONTINUOUS
 10
164.0113832519
 20
100.3297736927
 40
43.3187438396
100
AcDbArc
 50
13.560760678
 51
46.1664640097
  0
ARC
  5
2E4
100
AcDbEntity
  8
IMPORT_IGES
100
AcDbCircle
 62
7
  6
CONTINUOUS
 10
164.0113832519
 20
100.3297736927
 40
39.646079315
100
AcDbArc
 50
69.6852696468
 51
75.3750290951
  0
ARC
  5
2E5
100
AcDbEntity
  8
IMPORT_IGES
100
AcDbCircle
 62
7
  6
CONTINUOUS
 10
164.0113832519
 20
100.3297736927
 40
39.646079315
100
AcDbArc
 50
249.6852696468
 51
255.3750290951
  0
ARC
  5
2E6
100
AcDbEntity
  8
IMPORT_IGES
100
AcDbCircle
 62
7
  6
CONTINUOUS
 10
164.0113832519
 20
100.3297736927
 40
34.6430315935
100
AcDbArc
 50
254.8511116989
 51
287.1171385418
  0
ARC
  5
2E7
100
AcDbEntity
  8
IMPORT_IGES
100
AcDbCircle
 62
7
  6
CONTINUOUS
 10
164.0113832519
 20
100.3297736927
 40
34.6430315935
100
AcDbArc
 50
74.8511116989
 51
107.1171385418
  0
ARC
  5
2E8
100
AcDbEntity
  8
IMPORT_IGES
100
AcDbCircle
 62
250
  6
CONTINUOUS
 10
164.0113832519
 20
100.3297736927
 40
34.4469096065
100
AcDbArc
 50
254.8274661828
 51
287.2988651176
  0
ARC
  5
2E9
100
AcDbEntity
  8
IMPORT_IGES
100
AcDbCircle
 62
250
  6
CONTINUOUS
 10
164.0113832519
 20
100.3297736927
 40
34.4469096065
100
AcDbArc
 50
74.8274661828
 51
107.2988651176
  0
ARC
  5
2EA
100
AcDbEntity
  8
IMPORT_IGES
100
AcDbCircle
 62
7
  6
CONTINUOUS
 10
164.1083547669
 20
104.3922455309
 40
33.5374855197
100
AcDbArc
 50
264.5289251334
 51
274.0896192548
  0
ARC
  5
2EB
100
AcDbEntity
  8
IMPORT_IGES
100
AcDbCircle
 62
250
  6
CONTINUOUS
 10
164.0113832519
 20
100.3297736927
 40
33.4475187795
100
AcDbArc
 50
74.7026556597
 51
107.2988651216
  0
ARC
  5
2EC
100
AcDbEntity
  8
IMPORT_IGES
100
AcDbCircle
 62
250
  6
CONTINUOUS
 10
164.0113832519
 20
100.3297736927
 40
33.4475187795
100
AcDbArc
 50
254.7026556597
 51
287.2988651216
  0
ARC
  5
2ED
100
AcDbEntity
  8
IMPORT_IGES
100
AcDbCircle
 62
7
  6
CONTINUOUS
 10
164.0113832519
 20
100.3297736927
 40
32.4992903894
100
AcDbArc
 50
66.6973432746
 51
74.5640393282
  0
ARC
  5
2EE
100
AcDbEntity
  8
IMPORT_IGES
100
AcDbCircle
 62
7
  6
CONTINUOUS
 10
164.0113832519
 20
100.3297736927
 40
32.4992903894
100
AcDbArc
 50
246.6973432746
 51
254.5640393282
  0
ARC
  5
2EF
100
AcDbEntity
  8
IMPORT_IGES
100
AcDbCircle
 62
7
  6
CONTINUOUS
 10
164.0113832519
 20
100.3297736927
 40
32.4119884657
100
AcDbArc
 50
66.6919738578
 51
74.5651888151
  0
ARC
  5
2F0
100
AcDbEntity
  8
IMPORT_IGES
100
AcDbCircle
 62
7
  6
CONTINUOUS
 10
164.0113832519
 20
100.3297736927
 40
32.4119884657
100
AcDbArc
 50
246.6919738578
 51
254.5651888151
  0
ARC
  5
2F1
100
AcDbEntity
  8
IMPORT_IGES
100
AcDbCircle
 62
7
  6
CONTINUOUS
 10
164.1083547669
 20
104.3922455309
 40
28.4499134699
100
AcDbArc
 50
264.5289251334
 51
274.0896192548
  0
ARC
  5
2F2
100
AcDbEntity
  8
IMPORT_IGES
100
AcDbCircle
 62
7
  6
CONTINUOUS
 10
164.0113832516
 20
100.3297736928
 40
25.4030378405
100
AcDbArc
 50
79.4806727399
 51
99.3282205209
  0
ARC
  5
2F3
100
AcDbEntity
  8
IMPORT_IGES
100
AcDbCircle
 62
7
  6
CONTINUOUS
 10
164.0113832516
 20
100.3297736928
 40
25.4030378405
100
AcDbArc
 50
259.4806728088
 51
279.3282198003
  0
ARC
  5
2F4
100
AcDbEntity
  8
IMPORT_IGES
100
AcDbCircle
 62
7
  6
CONTINUOUS
 10
164.0113832516
 20
100.3297736928
 40
21.9996953439
100
AcDbArc
 50
305.3315129897
 51
324.4524885031
  0
ARC
  5
2F5
100
AcDbEntity
  8
IMPORT_IGES
100
AcDbCircle
 62
7
  6
CONTINUOUS
 10
164.0113832516
 20
100.3297736928
 40
21.9996953439
100
AcDbArc
 50
215.5474500323
 51
234.6681606737
  0
ARC
  5
2F6
100
AcDbEntity
  8
IMPORT_IGES
100
AcDbCircle
 62
7
  6
CONTINUOUS
 10
164.0113832516
 20
100.3297736928
 40
21.9996953439
100
AcDbArc
 50
125.3315129909
 51
144.4524885
  0
ARC
  5
2F7
100
AcDbEntity
  8
IMPORT_IGES
100
AcDbCircle
 62
7
  6
CONTINUOUS
 10
164.0113832516
 20
100.3297736928
 40
21.9996953439
100
AcDbArc
 50
35.5474500292
 51
54.6681606725
  0
ARC
  5
2F8
100
AcDbEntity
  8
IMPORT_IGES
100
AcDbCircle
 62
7
  6
CONTINUOUS
 10
176.9087952955
 20
113.2770298164
 40
5.0
100
AcDbArc
 50
0.0
 51
90.0
  0
ARC
  5
2F9
100
AcDbEntity
  8
IMPORT_IGES
100
AcDbCircle
 62
7
  6
CONTINUOUS
 10
166.8694510229
 20
127.1198082549
 40
2.5437860249
100
AcDbArc
 50
264.5289251334
 51
84.5289251334
  0
ARC
  5
2FA
100
AcDbEntity
  8
IMPORT_IGES
100
AcDbCircle
 62
7
  6
CONTINUOUS
 10
204.0113832519
 20
120.3297736927
 40
10.0
100
AcDbArc
 50
180.0
 51
270.0
  0
ELLIPSE
  5
2FB
100
AcDbEntity
  8
IMPORT_IGES
100
AcDbEllipse
 62
7
  6
CONTINUOUS
 10
168.3832085451
 20
98.6665821225
 30
0.0
 11
42.6502812641
 21
-16.3745544284
 31
0.0
 40
0.9944677349
 41
1.6705336367
 42
1.6838469986
  0
ELLIPSE
  5
2FC
100
AcDbEntity
  8
IMPORT_IGES
100
AcDbEllipse
 62
7
  6
CONTINUOUS
 10
161.4102446244
 20
101.3284185965
 30
0.0
 11
37.1629732691
 21
-14.2678338919
 31
0.0
 40
0.9975475002
 41
1.4975105397
 42
1.5127361497
  0
ELLIPSE
  5
2FD
100
AcDbEntity
  8
IMPORT_IGES
100
AcDbEllipse
 62
7
  6
CONTINUOUS
 10
165.1136235268
 20
99.9065949272
 30
0.0
 11
36.9751940267
 21
-14.195740546
 31
0.0
 40
0.9995555753
 41
1.481366932
 42
1.5778701757
  0
ELLIPSE
  5
2FE
100
AcDbEntity
  8
IMPORT_IGES
100
AcDbEllipse
 62
7
  6
CONTINUOUS
 10
162.0089361162
 20
101.1138314192
 30
0.0
 11
42.3392988099
 21
-16.2551601588
 31
0.0
 40
0.9989987489
 41
1.4187667421
 42
1.5034736851
  0
ELLIPSE
  5
2FF
100
AcDbEntity
  8
IMPORT_IGES
100
AcDbEllipse
 62
7
  6
CONTINUOUS
 10
159.6395579587
 20
101.9929652628
 30
0.0
 11
42.6502812641
 21
-16.3745544284
 31
0.0
 40
0.9944677349
 41
-1.4710590169
 42
-1.457745655
  0
ELLIPSE
  5
300
100
AcDbEntity
  8
IMPORT_IGES
100
AcDbEllipse
 62
7
  6
CONTINUOUS
 10
166.6125218795
 20
99.3311287888
 30
0.0
 11
37.1629732691
 21
-14.2678338919
 31
0.0
 40
0.9975475002
 41
-1.6440821138
 42
-1.6288565039
  0
ELLIPSE
  5
301
100
AcDbEntity
  8
IMPORT_IGES
100
AcDbEllipse
 62
7
  6
CONTINUOUS
 10
162.9091429771
 20
100.7529524581
 30
0.0
 11
36.9751940267
 21
-14.195740546
 31
0.0
 40
0.9995555753
 41
-1.6602257216
 42
-1.5637224779
  0
ELLIPSE
  5
302
100
AcDbEntity
  8
IMPORT_IGES
100
AcDbEllipse
 62
7
  6
CONTINUOUS
 10
166.0138303876
 20
99.5457159661
 30
0.0
 11
42.3392988099
 21
-16.2551601588
 31
0.0
 40
0.9989987489
 41
-1.7228259115
 42
-1.6381189685
  0
ELLIPSE
  5
303
100
AcDbEntity
  8
IMPORT_IGES
100
AcDbEllipse
 62
7
  6
CONTINUOUS
 10
149.2074456051
 20
65.9680455334
 30
0.0
 11
1.7931862059
 21
4.6706550935
 31
0.0
 40
0.9993898435
 41
-0.0402040782
 42
1.5707963293
  0
ELLIPSE
  5
304
100
AcDbEntity
  8
IMPORT_IGES
100
AcDbEllipse
 62
7
  6
CONTINUOUS
 10
164.0113832519
 20
118.2889624402
 30
0.0
 11
-0.0
 21
53.9213806339
 31
0.0
 40
0.942904759
 41
-2.1193263346
 42
-2.1133490287
  0
ELLIPSE
  5
305
100
AcDbEntity
  8
IMPORT_IGES
100
AcDbEllipse
 62
7
  6
CONTINUOUS
 10
164.0113832519
 20
82.3705849451
 30
0.0
 11
0.0
 21
53.9213806339
 31
0.0
 40
0.942904759
 41
1.022266319
 42
1.0282436248
  0
ELLIPSE
  5
306
100
AcDbEntity
  8
IMPORT_IGES
100
AcDbEllipse
 62
7
  6
CONTINUOUS
 10
178.8153208987
 20
134.6915018519
 30
0.0
 11
-1.7931862059
 21
-4.6706550935
 31
0.0
 40
0.9993898435
 41
-0.0402040782
 42
1.5707963293
  0
ELLIPSE
  5
307
100
AcDbEntity
  8
IMPORT_IGES
100
AcDbEllipse
 62
7
  6
CONTINUOUS
 10
164.0113832519
 20
82.3705849451
 30
0.0
 11
0.0
 21
53.9213806339
 31
0.0
 40
0.942904759
 41
-1.0284727579
 42
-1.022266319
  0
ELLIPSE
  5
308
100
AcDbEntity
  8
IMPORT_IGES
100
AcDbEllipse
 62
7
  6
CONTINUOUS
 10
164.0113832519
 20
118.2889624402
 30
0.0
 11
-0.0
 21
53.9213806339
 31
0.0
 40
0.942904759
 41
-4.1700654115
 42
-4.1638589726
  0
ENDSEC
  0
SECTION
  2
OBJECTS
  0
DICTIONARY
  5
C
100
AcDbDictionary
280
0
281
1
  3
ACAD_GROUP
350
D
  3
ACAD_MLINESTYLE
350
17
  3
ACAD_LAYOUT
350
1A
  3
ACAD_PLOTSETTINGS
350
19
  3
ACAD_PLOTSTYLENAME
350
E
  0
DICTIONARY
  5
D
102
{ACAD_REACTORS
330
C
102
}
100
AcDbDictionary
280
0
281
1
  0
ACDBDICTIONARYWDFLT
  5
E
102
{ACAD_REACTORS
330
C
102
}
100
AcDbDictionary
281
1
  3
Normal
350
F
100
AcDbDictionaryWithDefault
340
F
  0
DICTIONARY
  5
17
102
{ACAD_REACTORS
330
C
102
}
100
AcDbDictionary
280
0
281
1
  3
Standard
350
18
  0
DICTIONARY
  5
19
102
{ACAD_REACTORS
330
C
102
}
100
AcDbDictionary
281
1
  0
DICTIONARY
  5
1A
102
{ACAD_REACTORS
330
C
102
}
100
AcDbDictionary
281
1
  3
Model
350
309
  3
Layout1
350
30A
  0
ACDBPLACEHOLDER
  5
F
102
{ACAD_REACTORS
330
E
102
}
  0
MLINESTYLE
  5
18
102
{ACAD_REACTORS
330
17
102
}
100
AcDbMlineStyle
  2
STANDARD
 70
0
  3

 62
256
 51
90.0
 52
90.0
 71
2
 49
0.5
 62
256
  6
BYLAYER
 49
-0.5
 62
256
  6
BYLAYER
  0
LAYOUT
  5
309
102
{ACAD_REACTORS
330
1A
102
}
100
AcDbPlotSettings
  1

  2
none_device
  4
ISO_A4_(297.00_x_210.00_MM)
  6

 40
0.0
 41
0.0
 42
0.0
 43
0.0
 44
297.0
 45
210.0
 46
0.0
 47
0.0
 48
0.0
 49
0.0
140
0.0
141
0.0
142
1.0
143
1.0
 70
1024
 72
1
 73
0
 74
0
  7

 75
0
147
1.0
148
0.0
149
0.0
100
AcDbLayout
  1
Model
 70
0
 71
0
 10
0.0
 20
0.0
 11
297.0
 21
210.0
 12
0.0
 22
0.0
 32
0.0
 14
0.0
 24
0.0
 34
0.0
 15
0.0
 25
0.0
 35
0.0
146
0.0
 13
0.0
 23
0.0
 33
0.0
 16
1.0
 26
0.0
 36
0.0
 17
0.0
 27
1.0
 37
0.0
 76
0
330
213
345
0
346
0
  0
LAYOUT
  5
30A
102
{ACAD_REACTORS
330
1A
102
}
100
AcDbPlotSettings
  1

  2
none_device
  4
ISO_A4_(297.00_x_210.00_MM)
  6

 40
0.0
 41
0.0
 42
0.0
 43
0.0
 44
297.0
 45
210.0
 46
0.0
 47
0.0
 48
0.0
 49
0.0
140
0.0
141
0.0
142
1.0
143
1.0
 70
0
 72
1
 73
0
 74
0
  7

 75
0
147
1.0
148
0.0
149
0.0
100
AcDbLayout
  1
Layout1
 70
0
 71
1
 10
0.0
 20
0.0
 11
297.0
 21
210.0
 12
0.0
 22
0.0
 32
0.0
 14
0.0
 24
0.0
 34
0.0
 15
0.0
 25
0.0
 35
0.0
146
0.0
 13
0.0
 23
0.0
 33
0.0
 16
1.0
 26
0.0
 36
0.0
 17
0.0
 27
1.0
 37
0.0
 76
0
330
214
345
0
346
0
  0
ENDSEC
  0
EOF
