  0
SECTION
  2
HEADER
  9
$ACADVER
  1
AC1015
  9
$DWGCODEPAGE
  3
ANSI_1252
  9
$EXTMAX
 10
297.0
 20
210.0
 30
0.0
  9
$EXTMIN
 10
0.0
 20
0.0
 30
0.0
  9
$LIMMIN
 10
0.0
 20
0.0
  9
$LIMMAX
 10
297.0
 20
210.0
  9
$VIEWCTR
 10
148.5
 20
105.0
  9
$VIEWSIZE
 40
210.0
  9
$CLAYER
  8
0
  9
$LTSCALE
 40
16.335
  9
$CELTYPE
  6
BYLAYER
  9
$DIMSCALE
 40
1.0
  9
$DIMASZ
 40
3.0
  9
$DIMEXO
 40
0.5
  9
$DIMDLI
 40
11.286
  9
$DIMEXE
 40
1.5
  9
$DIMCEN
 40
2.673
  9
$DIMLFAC
 40
1.0
  9
$DIMBLK
  1
_FILLED
  9
$DIMTXT
 40
3.0
  9
$DIMTOL
 70
1
  9
$DIMLIM
 70
0
  9
$DIMTFAC
 40
1.0
  9
$DIMTP
 40
0.01
  9
$DIMTM
 40
0.01
  9
$DIMGAP
 40
0.625
  9
$DIMDSEP
 70
44
  9
$PDMODE
 70
3
  9
$PDSIZE
 40
3.0
  9
$HANDSEED
  5
71C
  9
$TILEMODE
 70
1
  9
$MEASUREMENT
 70
1
  9
$INSUNITS
 70
4
  0
ENDSEC
  0
SECTION
  2
CLASSES
  0
CLASS
  1
ACDBDICTIONARYWDFLT
  2
AcDbDictionaryWithDefault
  3
AutoCAD 2000
 90
0
280
0
281
0
  0
CLASS
  1
ACDBPLACEHOLDER
  2
AcDbPlaceHolder
  3
AutoCAD 2000
 90
0
280
0
281
0
  0
CLASS
  1
LAYOUT
  2
AcDbLayout
  3
AutoCAD 2000
 90
0
280
0
281
0
  0
ENDSEC
  0
SECTION
  2
TABLES
  0
TABLE
  2
VPORT
  5
8
100
AcDbSymbolTable
 70
2
  0
VPORT
  5
1F4
100
AcDbSymbolTableRecord
100
AcDbViewportTableRecord
  2
*ACTIVE
 70
0
 10
0.0
 20
0.0
 11
1.0
 21
1.0
 12
148.5
 22
105.0
 13
0.0
 23
0.0
 14
1.0
 24
1.0
 15
0.0
 25
0.0
 16
0.0
 26
0.0
 36
1.0
 17
0.0
 27
0.0
 37
0.0
 40
210.0
 41
1.4142857143
 42
50.0
 43
0.0
 44
0.0
 50
0.0
 51
0.0
 71
0
 72
100
 73
1
 74
1
 75
0
 76
0
 77
0
 78
0
  0
ENDTAB
  0
TABLE
  2
LTYPE
  5
5
100
AcDbSymbolTable
 70
6
  0
LTYPE
  5
14
100
AcDbSymbolTableRecord
100
AcDbLinetypeTableRecord
  2
BYBLOCK
 70
0
  3

 72
65
 73
0
 40
0.0
  0
LTYPE
  5
15
100
AcDbSymbolTableRecord
100
AcDbLinetypeTableRecord
  2
BYLAYER
 70
0
  3

 72
65
 73
0
 40
0.0
  0
LTYPE
  5
16
100
AcDbSymbolTableRecord
100
AcDbLinetypeTableRecord
  2
CONTINUOUS
 70
64
  3
Solid line
 72
65
 73
0
 40
0.0
  0
LTYPE
  5
1F5
100
AcDbSymbolTableRecord
100
AcDbLinetypeTableRecord
  2
CENTER
 70
64
  3
____ _ ____ _ ____ _ ____ _ ____ _ ____ _ ____
 72
65
 73
4
 40
0.6
 49
0.375
 74
0
 49
-0.075
 74
0
 49
0.075
 74
0
 49
-0.075
 74
0
  0
LTYPE
  5
1F6
100
AcDbSymbolTableRecord
100
AcDbLinetypeTableRecord
  2
HIDDEN
 70
64
  3
- - - - - - - - - - - - - - - - - - - -
 72
65
 73
2
 40
0.2
 49
0.1
 74
0
 49
-0.1
 74
0
  0
LTYPE
  5
1F7
100
AcDbSymbolTableRecord
100
AcDbLinetypeTableRecord
  2
PHANTOM
 70
64
  3
_____ _ _ _____ _ _ _____ _ _ _____
 72
65
 73
6
 40
0.8
 49
0.45
 74
0
 49
-0.05
 74
0
 49
0.1
 74
0
 49
-0.05
 74
0
 49
0.1
 74
0
 49
-0.05
 74
0
  0
LTYPE
  5
1F8
100
AcDbSymbolTableRecord
100
AcDbLinetypeTableRecord
  2
DOT
 70
64
  3
. . . . . . . . . . . . . . . . . . . .
 72
65
 73
2
 40
0.2
 49
0.1
 74
0
 49
-0.1
 74
0
  0
LTYPE
  5
1F9
100
AcDbSymbolTableRecord
100
AcDbLinetypeTableRecord
  2
DASHED
 70
64
  3
- - - - - - - - - - - - - - - - - - - -
 72
65
 73
2
 40
0.2
 49
0.1
 74
0
 49
-0.1
 74
0
  0
ENDTAB
  0
TABLE
  2
LAYER
  5
2
100
AcDbSymbolTable
 70
36
  0
LAYER
  5
10
100
AcDbSymbolTableRecord
100
AcDbLayerTableRecord
  2
0
 70
0
 62
7
  6
CONTINUOUS
370
-3
390
F
  0
LAYER
  5
1FA
100
AcDbSymbolTableRecord
100
AcDbLayerTableRecord
  2
DEFAULT_1
 70
0
 62
7
  6
CENTER
370
-3
390
F
  0
LAYER
  5
1FB
100
AcDbSymbolTableRecord
100
AcDbLayerTableRecord
  2
DEFAULT_2
 70
0
 62
7
  6
HIDDEN
370
-3
390
F
  0
LAYER
  5
1FC
100
AcDbSymbolTableRecord
100
AcDbLayerTableRecord
  2
DEFAULT_3
 70
0
 62
7
  6
PHANTOM
370
-3
390
F
  0
LAYER
  5
1FD
100
AcDbSymbolTableRecord
100
AcDbLayerTableRecord
  2
102A_65000
 70
0
 62
7
  6
CONTINUOUS
370
-3
390
F
  0
LAYER
  5
1FE
100
AcDbSymbolTableRecord
100
AcDbLayerTableRecord
  2
102A_65000_1
 70
0
 62
7
  6
CONTINUOUS
370
-3
390
F
  0
LAYER
  5
1FF
100
AcDbSymbolTableRecord
100
AcDbLayerTableRecord
  2
133A_110000
 70
0
 62
7
  6
CONTINUOUS
370
-3
390
F
  0
LAYER
  5
200
100
AcDbSymbolTableRecord
100
AcDbLayerTableRecord
  2
133A_110000_1
 70
0
 62
7
  6
CONTINUOUS
370
-3
390
F
  0
LAYER
  5
201
100
AcDbSymbolTableRecord
100
AcDbLayerTableRecord
  2
1608-CC-RF-VIMAR_80000
 70
0
 62
7
  6
CONTINUOUS
370
-3
390
F
  0
LAYER
  5
202
100
AcDbSymbolTableRecord
100
AcDbLayerTableRecord
  2
1608-CC-RF-VIMAR_80000_1
 70
0
 62
7
  6
CONTINUOUS
370
-3
390
F
  0
LAYER
  5
203
100
AcDbSymbolTableRecord
100
AcDbLayerTableRecord
  2
1608-CC-RF-VIMAR_80000_10
 70
0
 62
7
  6
CONTINUOUS
370
-3
390
F
  0
LAYER
  5
204
100
AcDbSymbolTableRecord
100
AcDbLayerTableRecord
  2
1608-CC-RF-VIMAR_80000_11
 70
0
 62
7
  6
CONTINUOUS
370
-3
390
F
  0
LAYER
  5
205
100
AcDbSymbolTableRecord
100
AcDbLayerTableRecord
  2
1608-CC-RF-VIMAR_80000_12
 70
0
 62
7
  6
CONTINUOUS
370
-3
390
F
  0
LAYER
  5
206
100
AcDbSymbolTableRecord
100
AcDbLayerTableRecord
  2
1608-CC-RF-VIMAR_80000_13
 70
0
 62
7
  6
CONTINUOUS
370
-3
390
F
  0
LAYER
  5
207
100
AcDbSymbolTableRecord
100
AcDbLayerTableRecord
  2
1608-CC-RF-VIMAR_80000_14
 70
0
 62
7
  6
CONTINUOUS
370
-3
390
F
  0
LAYER
  5
208
100
AcDbSymbolTableRecord
100
AcDbLayerTableRecord
  2
1608-CC-RF-VIMAR_80000_15
 70
0
 62
7
  6
CONTINUOUS
370
-3
390
F
  0
LAYER
  5
209
100
AcDbSymbolTableRecord
100
AcDbLayerTableRecord
  2
1608-CC-RF-VIMAR_80000_16
 70
0
 62
7
  6
CONTINUOUS
370
-3
390
F
  0
LAYER
  5
20A
100
AcDbSymbolTableRecord
100
AcDbLayerTableRecord
  2
1608-CC-RF-VIMAR_80000_17
 70
0
 62
7
  6
CONTINUOUS
370
-3
390
F
  0
LAYER
  5
20B
100
AcDbSymbolTableRecord
100
AcDbLayerTableRecord
  2
1608-CC-RF-VIMAR_80000_18
 70
0
 62
7
  6
CONTINUOUS
370
-3
390
F
  0
LAYER
  5
20C
100
AcDbSymbolTableRecord
100
AcDbLayerTableRecord
  2
1608-CC-RF-VIMAR_80000_19
 70
0
 62
7
  6
CONTINUOUS
370
-3
390
F
  0
LAYER
  5
20D
100
AcDbSymbolTableRecord
100
AcDbLayerTableRecord
  2
1608-CC-RF-VIMAR_80000_2
 70
0
 62
7
  6
CONTINUOUS
370
-3
390
F
  0
LAYER
  5
20E
100
AcDbSymbolTableRecord
100
AcDbLayerTableRecord
  2
1608-CC-RF-VIMAR_80000_20
 70
0
 62
7
  6
CONTINUOUS
370
-3
390
F
  0
LAYER
  5
20F
100
AcDbSymbolTableRecord
100
AcDbLayerTableRecord
  2
1608-CC-RF-VIMAR_80000_21
 70
0
 62
7
  6
CONTINUOUS
370
-3
390
F
  0
LAYER
  5
210
100
AcDbSymbolTableRecord
100
AcDbLayerTableRecord
  2
1608-CC-RF-VIMAR_80000_22
 70
0
 62
7
  6
CONTINUOUS
370
-3
390
F
  0
LAYER
  5
211
100
AcDbSymbolTableRecord
100
AcDbLayerTableRecord
  2
1608-CC-RF-VIMAR_80000_23
 70
0
 62
7
  6
CONTINUOUS
370
-3
390
F
  0
LAYER
  5
212
100
AcDbSymbolTableRecord
100
AcDbLayerTableRecord
  2
1608-CC-RF-VIMAR_80000_24
 70
0
 62
7
  6
CONTINUOUS
370
-3
390
F
  0
LAYER
  5
213
100
AcDbSymbolTableRecord
100
AcDbLayerTableRecord
  2
1608-CC-RF-VIMAR_80000_25
 70
0
 62
7
  6
CONTINUOUS
370
-3
390
F
  0
LAYER
  5
214
100
AcDbSymbolTableRecord
100
AcDbLayerTableRecord
  2
1608-CC-RF-VIMAR_80000_26
 70
0
 62
7
  6
CONTINUOUS
370
-3
390
F
  0
LAYER
  5
215
100
AcDbSymbolTableRecord
100
AcDbLayerTableRecord
  2
1608-CC-RF-VIMAR_80000_27
 70
0
 62
7
  6
CONTINUOUS
370
-3
390
F
  0
LAYER
  5
216
100
AcDbSymbolTableRecord
100
AcDbLayerTableRecord
  2
1608-CC-RF-VIMAR_80000_28
 70
0
 62
7
  6
CONTINUOUS
370
-3
390
F
  0
LAYER
  5
217
100
AcDbSymbolTableRecord
100
AcDbLayerTableRecord
  2
1608-CC-RF-VIMAR_80000_29
 70
0
 62
7
  6
CONTINUOUS
370
-3
390
F
  0
LAYER
  5
218
100
AcDbSymbolTableRecord
100
AcDbLayerTableRecord
  2
1608-CC-RF-VIMAR_80000_3
 70
0
 62
7
  6
CONTINUOUS
370
-3
390
F
  0
LAYER
  5
219
100
AcDbSymbolTableRecord
100
AcDbLayerTableRecord
  2
1608-CC-RF-VIMAR_80000_30
 70
0
 62
7
  6
CONTINUOUS
370
-3
390
F
  0
LAYER
  5
21A
100
AcDbSymbolTableRecord
100
AcDbLayerTableRecord
  2
1608-CC-RF-VIMAR_80000_31
 70
0
 62
7
  6
CONTINUOUS
370
-3
390
F
  0
LAYER
  5
21B
100
AcDbSymbolTableRecord
100
AcDbLayerTableRecord
  2
1608-CC-RF-VIMAR_80000_32
 70
0
 62
7
  6
CONTINUOUS
370
-3
390
F
  0
LAYER
  5
21C
100
AcDbSymbolTableRecord
100
AcDbLayerTableRecord
  2
1608-CC-RF-VIMAR_80000_33
 70
0
 62
7
  6
CONTINUOUS
370
-3
390
F
  0
LAYER
  5
21D
100
AcDbSymbolTableRecord
100
AcDbLayerTableRecord
  2
1608-CC-RF-VIMAR_80000_34
 70
0
 62
7
  6
CONTINUOUS
370
-3
390
F
  0
LAYER
  5
21E
100
AcDbSymbolTableRecord
100
AcDbLayerTableRecord
  2
1608-CC-RF-VIMAR_80000_35
 70
0
 62
7
  6
CONTINUOUS
370
-3
390
F
  0
LAYER
  5
21F
100
AcDbSymbolTableRecord
100
AcDbLayerTableRecord
  2
1608-CC-RF-VIMAR_80000_36
 70
0
 62
7
  6
CONTINUOUS
370
-3
390
F
  0
LAYER
  5
220
100
AcDbSymbolTableRecord
100
AcDbLayerTableRecord
  2
1608-CC-RF-VIMAR_80000_37
 70
0
 62
7
  6
CONTINUOUS
370
-3
390
F
  0
LAYER
  5
221
100
AcDbSymbolTableRecord
100
AcDbLayerTableRecord
  2
1608-CC-RF-VIMAR_80000_38
 70
0
 62
7
  6
CONTINUOUS
370
-3
390
F
  0
LAYER
  5
222
100
AcDbSymbolTableRecord
100
AcDbLayerTableRecord
  2
1608-CC-RF-VIMAR_80000_4
 70
0
 62
7
  6
CONTINUOUS
370
-3
390
F
  0
LAYER
  5
223
100
AcDbSymbolTableRecord
100
AcDbLayerTableRecord
  2
1608-CC-RF-VIMAR_80000_5
 70
0
 62
7
  6
CONTINUOUS
370
-3
390
F
  0
LAYER
  5
224
100
AcDbSymbolTableRecord
100
AcDbLayerTableRecord
  2
1608-CC-RF-VIMAR_80000_6
 70
0
 62
7
  6
CONTINUOUS
370
-3
390
F
  0
LAYER
  5
225
100
AcDbSymbolTableRecord
100
AcDbLayerTableRecord
  2
1608-CC-RF-VIMAR_80000_7
 70
0
 62
7
  6
CONTINUOUS
370
-3
390
F
  0
LAYER
  5
226
100
AcDbSymbolTableRecord
100
AcDbLayerTableRecord
  2
1608-CC-RF-VIMAR_80000_8
 70
0
 62
7
  6
CONTINUOUS
370
-3
390
F
  0
LAYER
  5
227
100
AcDbSymbolTableRecord
100
AcDbLayerTableRecord
  2
1608-CC-RF-VIMAR_80000_9
 70
0
 62
7
  6
CONTINUOUS
370
-3
390
F
  0
LAYER
  5
228
100
AcDbSymbolTableRecord
100
AcDbLayerTableRecord
  2
1608-R-RF-VIMAR_45000
 70
0
 62
7
  6
CONTINUOUS
370
-3
390
F
  0
LAYER
  5
229
100
AcDbSymbolTableRecord
100
AcDbLayerTableRecord
  2
1608-R-RF-VIMAR_45000_1
 70
0
 62
7
  6
CONTINUOUS
370
-3
390
F
  0
LAYER
  5
22A
100
AcDbSymbolTableRecord
100
AcDbLayerTableRecord
  2
1608-R-RF-VIMAR_45000_10
 70
0
 62
7
  6
CONTINUOUS
370
-3
390
F
  0
LAYER
  5
22B
100
AcDbSymbolTableRecord
100
AcDbLayerTableRecord
  2
1608-R-RF-VIMAR_45000_11
 70
0
 62
7
  6
CONTINUOUS
370
-3
390
F
  0
LAYER
  5
22C
100
AcDbSymbolTableRecord
100
AcDbLayerTableRecord
  2
1608-R-RF-VIMAR_45000_12
 70
0
 62
7
  6
CONTINUOUS
370
-3
390
F
  0
LAYER
  5
22D
100
AcDbSymbolTableRecord
100
AcDbLayerTableRecord
  2
1608-R-RF-VIMAR_45000_13
 70
0
 62
7
  6
CONTINUOUS
370
-3
390
F
  0
LAYER
  5
22E
100
AcDbSymbolTableRecord
100
AcDbLayerTableRecord
  2
1608-R-RF-VIMAR_45000_14
 70
0
 62
7
  6
CONTINUOUS
370
-3
390
F
  0
LAYER
  5
22F
100
AcDbSymbolTableRecord
100
AcDbLayerTableRecord
  2
1608-R-RF-VIMAR_45000_15
 70
0
 62
7
  6
CONTINUOUS
370
-3
390
F
  0
LAYER
  5
230
100
AcDbSymbolTableRecord
100
AcDbLayerTableRecord
  2
1608-R-RF-VIMAR_45000_16
 70
0
 62
7
  6
CONTINUOUS
370
-3
390
F
  0
LAYER
  5
231
100
AcDbSymbolTableRecord
100
AcDbLayerTableRecord
  2
1608-R-RF-VIMAR_45000_17
 70
0
 62
7
  6
CONTINUOUS
370
-3
390
F
  0
LAYER
  5
232
100
AcDbSymbolTableRecord
100
AcDbLayerTableRecord
  2
1608-R-RF-VIMAR_45000_18
 70
0
 62
7
  6
CONTINUOUS
370
-3
390
F
  0
LAYER
  5
233
100
AcDbSymbolTableRecord
100
AcDbLayerTableRecord
  2
1608-R-RF-VIMAR_45000_19
 70
0
 62
7
  6
CONTINUOUS
370
-3
390
F
  0
LAYER
  5
234
100
AcDbSymbolTableRecord
100
AcDbLayerTableRecord
  2
1608-R-RF-VIMAR_45000_2
 70
0
 62
7
  6
CONTINUOUS
370
-3
390
F
  0
LAYER
  5
235
100
AcDbSymbolTableRecord
100
AcDbLayerTableRecord
  2
1608-R-RF-VIMAR_45000_20
 70
0
 62
7
  6
CONTINUOUS
370
-3
390
F
  0
LAYER
  5
236
100
AcDbSymbolTableRecord
100
AcDbLayerTableRecord
  2
1608-R-RF-VIMAR_45000_21
 70
0
 62
7
  6
CONTINUOUS
370
-3
390
F
  0
LAYER
  5
237
100
AcDbSymbolTableRecord
100
AcDbLayerTableRecord
  2
1608-R-RF-VIMAR_45000_22
 70
0
 62
7
  6
CONTINUOUS
370
-3
390
F
  0
LAYER
  5
238
100
AcDbSymbolTableRecord
100
AcDbLayerTableRecord
  2
1608-R-RF-VIMAR_45000_23
 70
0
 62
7
  6
CONTINUOUS
370
-3
390
F
  0
LAYER
  5
239
100
AcDbSymbolTableRecord
100
AcDbLayerTableRecord
  2
1608-R-RF-VIMAR_45000_24
 70
0
 62
7
  6
CONTINUOUS
370
-3
390
F
  0
LAYER
  5
23A
100
AcDbSymbolTableRecord
100
AcDbLayerTableRecord
  2
1608-R-RF-VIMAR_45000_25
 70
0
 62
7
  6
CONTINUOUS
370
-3
390
F
  0
LAYER
  5
23B
100
AcDbSymbolTableRecord
100
AcDbLayerTableRecord
  2
1608-R-RF-VIMAR_45000_26
 70
0
 62
7
  6
CONTINUOUS
370
-3
390
F
  0
LAYER
  5
23C
100
AcDbSymbolTableRecord
100
AcDbLayerTableRecord
  2
1608-R-RF-VIMAR_45000_27
 70
0
 62
7
  6
CONTINUOUS
370
-3
390
F
  0
LAYER
  5
23D
100
AcDbSymbolTableRecord
100
AcDbLayerTableRecord
  2
1608-R-RF-VIMAR_45000_28
 70
0
 62
7
  6
CONTINUOUS
370
-3
390
F
  0
LAYER
  5
23E
100
AcDbSymbolTableRecord
100
AcDbLayerTableRecord
  2
1608-R-RF-VIMAR_45000_29
 70
0
 62
7
  6
CONTINUOUS
370
-3
390
F
  0
LAYER
  5
23F
100
AcDbSymbolTableRecord
100
AcDbLayerTableRecord
  2
1608-R-RF-VIMAR_45000_3
 70
0
 62
7
  6
CONTINUOUS
370
-3
390
F
  0
LAYER
  5
240
100
AcDbSymbolTableRecord
100
AcDbLayerTableRecord
  2
1608-R-RF-VIMAR_45000_30
 70
0
 62
7
  6
CONTINUOUS
370
-3
390
F
  0
LAYER
  5
241
100
AcDbSymbolTableRecord
100
AcDbLayerTableRecord
  2
1608-R-RF-VIMAR_45000_31
 70
0
 62
7
  6
CONTINUOUS
370
-3
390
F
  0
LAYER
  5
242
100
AcDbSymbolTableRecord
100
AcDbLayerTableRecord
  2
1608-R-RF-VIMAR_45000_32
 70
0
 62
7
  6
CONTINUOUS
370
-3
390
F
  0
LAYER
  5
243
100
AcDbSymbolTableRecord
100
AcDbLayerTableRecord
  2
1608-R-RF-VIMAR_45000_33
 70
0
 62
7
  6
CONTINUOUS
370
-3
390
F
  0
LAYER
  5
244
100
AcDbSymbolTableRecord
100
AcDbLayerTableRecord
  2
1608-R-RF-VIMAR_45000_34
 70
0
 62
7
  6
CONTINUOUS
370
-3
390
F
  0
LAYER
  5
245
100
AcDbSymbolTableRecord
100
AcDbLayerTableRecord
  2
1608-R-RF-VIMAR_45000_35
 70
0
 62
7
  6
CONTINUOUS
370
-3
390
F
  0
LAYER
  5
246
100
AcDbSymbolTableRecord
100
AcDbLayerTableRecord
  2
1608-R-RF-VIMAR_45000_36
 70
0
 62
7
  6
CONTINUOUS
370
-3
390
F
  0
LAYER
  5
247
100
AcDbSymbolTableRecord
100
AcDbLayerTableRecord
  2
1608-R-RF-VIMAR_45000_37
 70
0
 62
7
  6
CONTINUOUS
370
-3
390
F
  0
LAYER
  5
248
100
AcDbSymbolTableRecord
100
AcDbLayerTableRecord
  2
1608-R-RF-VIMAR_45000_38
 70
0
 62
7
  6
CONTINUOUS
370
-3
390
F
  0
LAYER
  5
249
100
AcDbSymbolTableRecord
100
AcDbLayerTableRecord
  2
1608-R-RF-VIMAR_45000_39
 70
0
 62
7
  6
CONTINUOUS
370
-3
390
F
  0
LAYER
  5
24A
100
AcDbSymbolTableRecord
100
AcDbLayerTableRecord
  2
1608-R-RF-VIMAR_45000_4
 70
0
 62
7
  6
CONTINUOUS
370
-3
390
F
  0
LAYER
  5
24B
100
AcDbSymbolTableRecord
100
AcDbLayerTableRecord
  2
1608-R-RF-VIMAR_45000_40
 70
0
 62
7
  6
CONTINUOUS
370
-3
390
F
  0
LAYER
  5
24C
100
AcDbSymbolTableRecord
100
AcDbLayerTableRecord
  2
1608-R-RF-VIMAR_45000_41
 70
0
 62
7
  6
CONTINUOUS
370
-3
390
F
  0
LAYER
  5
24D
100
AcDbSymbolTableRecord
100
AcDbLayerTableRecord
  2
1608-R-RF-VIMAR_45000_42
 70
0
 62
7
  6
CONTINUOUS
370
-3
390
F
  0
LAYER
  5
24E
100
AcDbSymbolTableRecord
100
AcDbLayerTableRecord
  2
1608-R-RF-VIMAR_45000_43
 70
0
 62
7
  6
CONTINUOUS
370
-3
390
F
  0
LAYER
  5
24F
100
AcDbSymbolTableRecord
100
AcDbLayerTableRecord
  2
1608-R-RF-VIMAR_45000_44
 70
0
 62
7
  6
CONTINUOUS
370
-3
390
F
  0
LAYER
  5
250
100
AcDbSymbolTableRecord
100
AcDbLayerTableRecord
  2
1608-R-RF-VIMAR_45000_45
 70
0
 62
7
  6
CONTINUOUS
370
-3
390
F
  0
LAYER
  5
251
100
AcDbSymbolTableRecord
100
AcDbLayerTableRecord
  2
1608-R-RF-VIMAR_45000_46
 70
0
 62
7
  6
CONTINUOUS
370
-3
390
F
  0
LAYER
  5
252
100
AcDbSymbolTableRecord
100
AcDbLayerTableRecord
  2
1608-R-RF-VIMAR_45000_47
 70
0
 62
7
  6
CONTINUOUS
370
-3
390
F
  0
LAYER
  5
253
100
AcDbSymbolTableRecord
100
AcDbLayerTableRecord
  2
1608-R-RF-VIMAR_45000_48
 70
0
 62
7
  6
CONTINUOUS
370
-3
390
F
  0
LAYER
  5
254
100
AcDbSymbolTableRecord
100
AcDbLayerTableRecord
  2
1608-R-RF-VIMAR_45000_49
 70
0
 62
7
  6
CONTINUOUS
370
-3
390
F
  0
LAYER
  5
255
100
AcDbSymbolTableRecord
100
AcDbLayerTableRecord
  2
1608-R-RF-VIMAR_45000_5
 70
0
 62
7
  6
CONTINUOUS
370
-3
390
F
  0
LAYER
  5
256
100
AcDbSymbolTableRecord
100
AcDbLayerTableRecord
  2
1608-R-RF-VIMAR_45000_50
 70
0
 62
7
  6
CONTINUOUS
370
-3
390
F
  0
LAYER
  5
257
100
AcDbSymbolTableRecord
100
AcDbLayerTableRecord
  2
1608-R-RF-VIMAR_45000_51
 70
0
 62
7
  6
CONTINUOUS
370
-3
390
F
  0
LAYER
  5
258
100
AcDbSymbolTableRecord
100
AcDbLayerTableRecord
  2
1608-R-RF-VIMAR_45000_52
 70
0
 62
7
  6
CONTINUOUS
370
-3
390
F
  0
LAYER
  5
259
100
AcDbSymbolTableRecord
100
AcDbLayerTableRecord
  2
1608-R-RF-VIMAR_45000_53
 70
0
 62
7
  6
CONTINUOUS
370
-3
390
F
  0
LAYER
  5
25A
100
AcDbSymbolTableRecord
100
AcDbLayerTableRecord
  2
1608-R-RF-VIMAR_45000_54
 70
0
 62
7
  6
CONTINUOUS
370
-3
390
F
  0
LAYER
  5
25B
100
AcDbSymbolTableRecord
100
AcDbLayerTableRecord
  2
1608-R-RF-VIMAR_45000_55
 70
0
 62
7
  6
CONTINUOUS
370
-3
390
F
  0
LAYER
  5
25C
100
AcDbSymbolTableRecord
100
AcDbLayerTableRecord
  2
1608-R-RF-VIMAR_45000_56
 70
0
 62
7
  6
CONTINUOUS
370
-3
390
F
  0
LAYER
  5
25D
100
AcDbSymbolTableRecord
100
AcDbLayerTableRecord
  2
1608-R-RF-VIMAR_45000_57
 70
0
 62
7
  6
CONTINUOUS
370
-3
390
F
  0
LAYER
  5
25E
100
AcDbSymbolTableRecord
100
AcDbLayerTableRecord
  2
1608-R-RF-VIMAR_45000_58
 70
0
 62
7
  6
CONTINUOUS
370
-3
390
F
  0
LAYER
  5
25F
100
AcDbSymbolTableRecord
100
AcDbLayerTableRecord
  2
1608-R-RF-VIMAR_45000_59
 70
0
 62
7
  6
CONTINUOUS
370
-3
390
F
  0
LAYER
  5
260
100
AcDbSymbolTableRecord
100
AcDbLayerTableRecord
  2
1608-R-RF-VIMAR_45000_6
 70
0
 62
7
  6
CONTINUOUS
370
-3
390
F
  0
LAYER
  5
261
100
AcDbSymbolTableRecord
100
AcDbLayerTableRecord
  2
1608-R-RF-VIMAR_45000_60
 70
0
 62
7
  6
CONTINUOUS
370
-3
390
F
  0
LAYER
  5
262
100
AcDbSymbolTableRecord
100
AcDbLayerTableRecord
  2
1608-R-RF-VIMAR_45000_61
 70
0
 62
7
  6
CONTINUOUS
370
-3
390
F
  0
LAYER
  5
263
100
AcDbSymbolTableRecord
100
AcDbLayerTableRecord
  2
1608-R-RF-VIMAR_45000_62
 70
0
 62
7
  6
CONTINUOUS
370
-3
390
F
  0
LAYER
  5
264
100
AcDbSymbolTableRecord
100
AcDbLayerTableRecord
  2
1608-R-RF-VIMAR_45000_63
 70
0
 62
7
  6
CONTINUOUS
370
-3
390
F
  0
LAYER
  5
265
100
AcDbSymbolTableRecord
100
AcDbLayerTableRecord
  2
1608-R-RF-VIMAR_45000_64
 70
0
 62
7
  6
CONTINUOUS
370
-3
390
F
  0
LAYER
  5
266
100
AcDbSymbolTableRecord
100
AcDbLayerTableRecord
  2
1608-R-RF-VIMAR_45000_65
 70
0
 62
7
  6
CONTINUOUS
370
-3
390
F
  0
LAYER
  5
267
100
AcDbSymbolTableRecord
100
AcDbLayerTableRecord
  2
1608-R-RF-VIMAR_45000_7
 70
0
 62
7
  6
CONTINUOUS
370
-3
390
F
  0
LAYER
  5
268
100
AcDbSymbolTableRecord
100
AcDbLayerTableRecord
  2
1608-R-RF-VIMAR_45000_8
 70
0
 62
7
  6
CONTINUOUS
370
-3
390
F
  0
LAYER
  5
269
100
AcDbSymbolTableRecord
100
AcDbLayerTableRecord
  2
1608-R-RF-VIMAR_45000_9
 70
0
 62
7
  6
CONTINUOUS
370
-3
390
F
  0
LAYER
  5
26A
100
AcDbSymbolTableRecord
100
AcDbLayerTableRecord
  2
200A_170000
 70
0
 62
7
  6
CONTINUOUS
370
-3
390
F
  0
LAYER
  5
26B
100
AcDbSymbolTableRecord
100
AcDbLayerTableRecord
  2
200A_170000_1
 70
0
 62
7
  6
CONTINUOUS
370
-3
390
F
  0
LAYER
  5
26C
100
AcDbSymbolTableRecord
100
AcDbLayerTableRecord
  2
210_120000
 70
0
 62
7
  6
CONTINUOUS
370
-3
390
F
  0
LAYER
  5
26D
100
AcDbSymbolTableRecord
100
AcDbLayerTableRecord
  2
210_120000_1
 70
0
 62
7
  6
CONTINUOUS
370
-3
390
F
  0
LAYER
  5
26E
100
AcDbSymbolTableRecord
100
AcDbLayerTableRecord
  2
210_120000_10
 70
0
 62
7
  6
CONTINUOUS
370
-3
390
F
  0
LAYER
  5
26F
100
AcDbSymbolTableRecord
100
AcDbLayerTableRecord
  2
210_120000_11
 70
0
 62
7
  6
CONTINUOUS
370
-3
390
F
  0
LAYER
  5
270
100
AcDbSymbolTableRecord
100
AcDbLayerTableRecord
  2
210_120000_12
 70
0
 62
7
  6
CONTINUOUS
370
-3
390
F
  0
LAYER
  5
271
100
AcDbSymbolTableRecord
100
AcDbLayerTableRecord
  2
210_120000_2
 70
0
 62
7
  6
CONTINUOUS
370
-3
390
F
  0
LAYER
  5
272
100
AcDbSymbolTableRecord
100
AcDbLayerTableRecord
  2
210_120000_3
 70
0
 62
7
  6
CONTINUOUS
370
-3
390
F
  0
LAYER
  5
273
100
AcDbSymbolTableRecord
100
AcDbLayerTableRecord
  2
210_120000_4
 70
0
 62
7
  6
CONTINUOUS
370
-3
390
F
  0
LAYER
  5
274
100
AcDbSymbolTableRecord
100
AcDbLayerTableRecord
  2
210_120000_5
 70
0
 62
7
  6
CONTINUOUS
370
-3
390
F
  0
LAYER
  5
275
100
AcDbSymbolTableRecord
100
AcDbLayerTableRecord
  2
210_120000_6
 70
0
 62
7
  6
CONTINUOUS
370
-3
390
F
  0
LAYER
  5
276
100
AcDbSymbolTableRecord
100
AcDbLayerTableRecord
  2
210_120000_7
 70
0
 62
7
  6
CONTINUOUS
370
-3
390
F
  0
LAYER
  5
277
100
AcDbSymbolTableRecord
100
AcDbLayerTableRecord
  2
210_120000_8
 70
0
 62
7
  6
CONTINUOUS
370
-3
390
F
  0
LAYER
  5
278
100
AcDbSymbolTableRecord
100
AcDbLayerTableRecord
  2
210_120000_9
 70
0
 62
7
  6
CONTINUOUS
370
-3
390
F
  0
LAYER
  5
279
100
AcDbSymbolTableRecord
100
AcDbLayerTableRecord
  2
3216-CF-RF-VIMAR_100000
 70
0
 62
7
  6
CONTINUOUS
370
-3
390
F
  0
LAYER
  5
27A
100
AcDbSymbolTableRecord
100
AcDbLayerTableRecord
  2
3216-CF-RF-VIMAR_100000_1
 70
0
 62
7
  6
CONTINUOUS
370
-3
390
F
  0
LAYER
  5
27B
100
AcDbSymbolTableRecord
100
AcDbLayerTableRecord
  2
3216-CS2-RF_1_180000
 70
0
 62
7
  6
CONTINUOUS
370
-3
390
F
  0
LAYER
  5
27C
100
AcDbSymbolTableRecord
100
AcDbLayerTableRecord
  2
3528-CS-RF_190000
 70
0
 62
7
  6
CONTINUOUS
370
-3
390
F
  0
LAYER
  5
27D
100
AcDbSymbolTableRecord
100
AcDbLayerTableRecord
  2
43000610A0
 70
0
 62
7
  6
CONTINUOUS
370
-3
390
F
  0
LAYER
  5
27E
100
AcDbSymbolTableRecord
100
AcDbLayerTableRecord
  2
43000611A0
 70
0
 62
7
  6
CONTINUOUS
370
-3
390
F
  0
LAYER
  5
27F
100
AcDbSymbolTableRecord
100
AcDbLayerTableRecord
  2
43900610A0
 70
0
 62
7
  6
CONTINUOUS
370
-3
390
F
  0
LAYER
  5
280
100
AcDbSymbolTableRecord
100
AcDbLayerTableRecord
  2
43900611A0
 70
0
 62
7
  6
CONTINUOUS
370
-3
390
F
  0
LAYER
  5
281
100
AcDbSymbolTableRecord
100
AcDbLayerTableRecord
  2
7343-CS1-RF_280000
 70
0
 62
7
  6
CONTINUOUS
370
-3
390
F
  0
LAYER
  5
282
100
AcDbSymbolTableRecord
100
AcDbLayerTableRecord
  2
7343-CS1-RF_280000_1
 70
0
 62
7
  6
CONTINUOUS
370
-3
390
F
  0
LAYER
  5
283
100
AcDbSymbolTableRecord
100
AcDbLayerTableRecord
  2
ASSI
 70
0
 62
7
  6
CONTINUOUS
370
-3
390
F
  0
LAYER
  5
284
100
AcDbSymbolTableRecord
100
AcDbLayerTableRecord
  2
BZ-8_5X8-5XH3_0_320000
 70
0
 62
7
  6
CONTINUOUS
370
-3
390
F
  0
LAYER
  5
285
100
AcDbSymbolTableRecord
100
AcDbLayerTableRecord
  2
CAPMP7343X430N_430000
 70
0
 62
7
  6
CONTINUOUS
370
-3
390
F
  0
LAYER
  5
286
100
AcDbSymbolTableRecord
100
AcDbLayerTableRecord
  2
CAPMP7343X430N_430000_1
 70
0
 62
7
  6
CONTINUOUS
370
-3
390
F
  0
LAYER
  5
287
100
AcDbSymbolTableRecord
100
AcDbLayerTableRecord
  2
CAPMP7343X430N_430000_2
 70
0
 62
7
  6
CONTINUOUS
370
-3
390
F
  0
LAYER
  5
288
100
AcDbSymbolTableRecord
100
AcDbLayerTableRecord
  2
CN-PTSM_0_5_4-2_5H_SMD_R24-VIMA
 70
0
 62
7
  6
CONTINUOUS
370
-3
390
F
  0
LAYER
  5
289
100
AcDbSymbolTableRecord
100
AcDbLayerTableRecord
  2
CN-SMD-03S-SPRING-P2_5-H7_2-VIM
 70
0
 62
7
  6
CONTINUOUS
370
-3
390
F
  0
LAYER
  5
28A
100
AcDbSymbolTableRecord
100
AcDbLayerTableRecord
  2
CN-SMD-03S-SPRING-P2_5-H7_2-V_1
 70
0
 62
7
  6
CONTINUOUS
370
-3
390
F
  0
LAYER
  5
28B
100
AcDbSymbolTableRecord
100
AcDbLayerTableRecord
  2
CN-SMD-04S-SPRING-P2_5-H7_2-VIM
 70
0
 62
7
  6
CONTINUOUS
370
-3
390
F
  0
LAYER
  5
28C
100
AcDbSymbolTableRecord
100
AcDbLayerTableRecord
  2
CN-SMD-04S-SPRING-P2_5-H7_2-V_1
 70
0
 62
7
  6
CONTINUOUS
370
-3
390
F
  0
LAYER
  5
28D
100
AcDbSymbolTableRecord
100
AcDbLayerTableRecord
  2
CN08-HEADER-SMD2_54-1-VIMAR_918
 70
0
 62
7
  6
CONTINUOUS
370
-3
390
F
  0
LAYER
  5
28E
100
AcDbSymbolTableRecord
100
AcDbLayerTableRecord
  2
CN1-300165750_1800000
 70
0
 62
7
  6
CONTINUOUS
370
-3
390
F
  0
LAYER
  5
28F
100
AcDbSymbolTableRecord
100
AcDbLayerTableRecord
  2
CN1-300165750_1800000_1
 70
0
 62
7
  6
CONTINUOUS
370
-3
390
F
  0
LAYER
  5
290
100
AcDbSymbolTableRecord
100
AcDbLayerTableRecord
  2
CN1-300165750_1800000_2
 70
0
 62
7
  6
CONTINUOUS
370
-3
390
F
  0
LAYER
  5
291
100
AcDbSymbolTableRecord
100
AcDbLayerTableRecord
  2
CN1-300165750_1800000_3
 70
0
 62
7
  6
CONTINUOUS
370
-3
390
F
  0
LAYER
  5
292
100
AcDbSymbolTableRecord
100
AcDbLayerTableRecord
  2
CN1-REF_SQUAREHOLE12_SPEA-VIMAR
 70
0
 62
7
  6
CONTINUOUS
370
-3
390
F
  0
LAYER
  5
293
100
AcDbSymbolTableRecord
100
AcDbLayerTableRecord
  2
CN1-REF_SQUAREHOLE12_SPEA-VIM_1
 70
0
 62
7
  6
CONTINUOUS
370
-3
390
F
  0
LAYER
  5
294
100
AcDbSymbolTableRecord
100
AcDbLayerTableRecord
  2
CN1-REF_SQUAREHOLE12_SPEA-VIM_2
 70
0
 62
7
  6
CONTINUOUS
370
-3
390
F
  0
LAYER
  5
295
100
AcDbSymbolTableRecord
100
AcDbLayerTableRecord
  2
CN1-REF_SQUAREHOLE12_SPEA-VIM_3
 70
0
 62
7
  6
CONTINUOUS
370
-3
390
F
  0
LAYER
  5
296
100
AcDbSymbolTableRecord
100
AcDbLayerTableRecord
  2
CN1-TP15_SMD-VIMAR_5000
 70
0
 62
7
  6
CONTINUOUS
370
-3
390
F
  0
LAYER
  5
297
100
AcDbSymbolTableRecord
100
AcDbLayerTableRecord
  2
CN1-TP15_SMD-VIMAR_5000_1
 70
0
 62
7
  6
CONTINUOUS
370
-3
390
F
  0
LAYER
  5
298
100
AcDbSymbolTableRecord
100
AcDbLayerTableRecord
  2
CN1-TP15_SMD-VIMAR_5000_2
 70
0
 62
7
  6
CONTINUOUS
370
-3
390
F
  0
LAYER
  5
299
100
AcDbSymbolTableRecord
100
AcDbLayerTableRecord
  2
CN1-TP15_SMD-VIMAR_5000_3
 70
0
 62
7
  6
CONTINUOUS
370
-3
390
F
  0
LAYER
  5
29A
100
AcDbSymbolTableRecord
100
AcDbLayerTableRecord
  2
CN1-TP15_SMD-VIMAR_5000_4
 70
0
 62
7
  6
CONTINUOUS
370
-3
390
F
  0
LAYER
  5
29B
100
AcDbSymbolTableRecord
100
AcDbLayerTableRecord
  2
CN1-TP15_SMD-VIMAR_5000_5
 70
0
 62
7
  6
CONTINUOUS
370
-3
390
F
  0
LAYER
  5
29C
100
AcDbSymbolTableRecord
100
AcDbLayerTableRecord
  2
CN1-TP15_SMD-VIMAR_5000_6
 70
0
 62
7
  6
CONTINUOUS
370
-3
390
F
  0
LAYER
  5
29D
100
AcDbSymbolTableRecord
100
AcDbLayerTableRecord
  2
CN1-TP15_SMD-VIMAR_5000_7
 70
0
 62
7
  6
CONTINUOUS
370
-3
390
F
  0
LAYER
  5
29E
100
AcDbSymbolTableRecord
100
AcDbLayerTableRecord
  2
CN20-VASCHETTA_2500000
 70
0
 62
7
  6
CONTINUOUS
370
-3
390
F
  0
LAYER
  5
29F
100
AcDbSymbolTableRecord
100
AcDbLayerTableRecord
  2
COLOR1
 70
0
 62
7
  6
CONTINUOUS
370
-3
390
F
  0
LAYER
  5
2A0
100
AcDbSymbolTableRecord
100
AcDbLayerTableRecord
  2
COLOR5
 70
0
 62
7
  6
CONTINUOUS
370
-3
390
F
  0
LAYER
  5
2A1
100
AcDbSymbolTableRecord
100
AcDbLayerTableRecord
  2
COLOR6
 70
0
 62
7
  6
CONTINUOUS
370
-3
390
F
  0
LAYER
  5
2A2
100
AcDbSymbolTableRecord
100
AcDbLayerTableRecord
  2
COLOR8
 70
0
 62
7
  6
CONTINUOUS
370
-3
390
F
  0
LAYER
  5
2A3
100
AcDbSymbolTableRecord
100
AcDbLayerTableRecord
  2
COORDINATE
 70
0
 62
7
  6
CONTINUOUS
370
-3
390
F
  0
LAYER
  5
2A4
100
AcDbSymbolTableRecord
100
AcDbLayerTableRecord
  2
COORD_ORIGINE
 70
0
 62
7
  6
CONTINUOUS
370
-3
390
F
  0
LAYER
  5
2A5
100
AcDbSymbolTableRecord
100
AcDbLayerTableRecord
  2
COPY_PUBLISH
 70
0
 62
7
  6
CONTINUOUS
370
-3
390
F
  0
LAYER
  5
2A6
100
AcDbSymbolTableRecord
100
AcDbLayerTableRecord
  2
COSMETICI
 70
0
 62
7
  6
CONTINUOUS
370
-3
390
F
  0
LAYER
  5
2A7
100
AcDbSymbolTableRecord
100
AcDbLayerTableRecord
  2
CP-DO-214AC-D-VIMAR_240000
 70
0
 62
7
  6
CONTINUOUS
370
-3
390
F
  0
LAYER
  5
2A8
100
AcDbSymbolTableRecord
100
AcDbLayerTableRecord
  2
CP-SUPERCAP-SMD_190000
 70
0
 62
7
  6
CONTINUOUS
370
-3
390
F
  0
LAYER
  5
2A9
100
AcDbSymbolTableRecord
100
AcDbLayerTableRecord
  2
CURVE
 70
0
 62
7
  6
CONTINUOUS
370
-3
390
F
  0
LAYER
  5
2AA
100
AcDbSymbolTableRecord
100
AcDbLayerTableRecord
  2
DRAFT
 70
0
 62
7
  6
CONTINUOUS
370
-3
390
F
  0
LAYER
  5
2AB
100
AcDbSymbolTableRecord
100
AcDbLayerTableRecord
  2
E2_MARK_10000
 70
0
 62
7
  6
CONTINUOUS
370
-3
390
F
  0
LAYER
  5
2AC
100
AcDbSymbolTableRecord
100
AcDbLayerTableRecord
  2
E4_MARK_10000
 70
0
 62
7
  6
CONTINUOUS
370
-3
390
F
  0
LAYER
  5
2AD
100
AcDbSymbolTableRecord
100
AcDbLayerTableRecord
  2
E4_MARK_10000_1
 70
0
 62
7
  6
CONTINUOUS
370
-3
390
F
  0
LAYER
  5
2AE
100
AcDbSymbolTableRecord
100
AcDbLayerTableRecord
  2
IGES
 70
0
 62
7
  6
CONTINUOUS
370
-3
390
F
  0
LAYER
  5
2AF
100
AcDbSymbolTableRecord
100
AcDbLayerTableRecord
  2
IMPORT_IGES
 70
0
 62
7
  6
CONTINUOUS
370
-3
390
F
  0
LAYER
  5
2B0
100
AcDbSymbolTableRecord
100
AcDbLayerTableRecord
  2
INTFCLR_7575
 70
0
 62
7
  6
CONTINUOUS
370
-3
390
F
  0
LAYER
  5
2B1
100
AcDbSymbolTableRecord
100
AcDbLayerTableRecord
  2
INTFCLR_9235
 70
0
 62
7
  6
CONTINUOUS
370
-3
390
F
  0
LAYER
  5
2B2
100
AcDbSymbolTableRecord
100
AcDbLayerTableRecord
  2
INTF_12
 70
0
 62
7
  6
CONTINUOUS
370
-3
390
F
  0
LAYER
  5
2B3
100
AcDbSymbolTableRecord
100
AcDbLayerTableRecord
  2
INTF_5
 70
0
 62
7
  6
CONTINUOUS
370
-3
390
F
  0
LAYER
  5
2B4
100
AcDbSymbolTableRecord
100
AcDbLayerTableRecord
  2
INTF_BLANK
 70
0
 62
7
  6
CONTINUOUS
370
-3
390
F
  0
LAYER
  5
2B5
100
AcDbSymbolTableRecord
100
AcDbLayerTableRecord
  2
LCD_SN278A00RBS-VIMAR_285000
 70
0
 62
7
  6
CONTINUOUS
370
-3
390
F
  0
LAYER
  5
2B6
100
AcDbSymbolTableRecord
100
AcDbLayerTableRecord
  2
LOGO_RESIST-RESTYLING_10000
 70
0
 62
7
  6
CONTINUOUS
370
-3
390
F
  0
LAYER
  5
2B7
100
AcDbSymbolTableRecord
100
AcDbLayerTableRecord
  2
LOGO_RESIST-RESTYLING_10000_1
 70
0
 62
7
  6
CONTINUOUS
370
-3
390
F
  0
LAYER
  5
2B8
100
AcDbSymbolTableRecord
100
AcDbLayerTableRecord
  2
L_SDR0603-RF-VIMAR_390000
 70
0
 62
7
  6
CONTINUOUS
370
-3
390
F
  0
LAYER
  5
2B9
100
AcDbSymbolTableRecord
100
AcDbLayerTableRecord
  2
MM2-X-7-VIMAR_90000
 70
0
 62
7
  6
CONTINUOUS
370
-3
390
F
  0
LAYER
  5
2BA
100
AcDbSymbolTableRecord
100
AcDbLayerTableRecord
  2
MM5-FMT-RF_120000
 70
0
 62
7
  6
CONTINUOUS
370
-3
390
F
  0
LAYER
  5
2BB
100
AcDbSymbolTableRecord
100
AcDbLayerTableRecord
  2
NO-PB_MARK_10000
 70
0
 62
7
  6
CONTINUOUS
370
-3
390
F
  0
LAYER
  5
2BC
100
AcDbSymbolTableRecord
100
AcDbLayerTableRecord
  2
NO-PB_MARK_10000_1
 70
0
 62
7
  6
CONTINUOUS
370
-3
390
F
  0
LAYER
  5
2BD
100
AcDbSymbolTableRecord
100
AcDbLayerTableRecord
  2
NONE
 70
0
 62
7
  6
CONTINUOUS
370
-3
390
F
  0
LAYER
  5
2BE
100
AcDbSymbolTableRecord
100
AcDbLayerTableRecord
  2
NOTE
 70
0
 62
7
  6
CONTINUOUS
370
-3
390
F
  0
LAYER
  5
2BF
100
AcDbSymbolTableRecord
100
AcDbLayerTableRecord
  2
PIANI
 70
0
 62
7
  6
CONTINUOUS
370
-3
390
F
  0
LAYER
  5
2C0
100
AcDbSymbolTableRecord
100
AcDbLayerTableRecord
  2
PIANI_DI_RIFERIMENTO
 70
0
 62
7
  6
CONTINUOUS
370
-3
390
F
  0
LAYER
  5
2C1
100
AcDbSymbolTableRecord
100
AcDbLayerTableRecord
  2
PIANI_ORIGINE
 70
0
 62
7
  6
CONTINUOUS
370
-3
390
F
  0
LAYER
  5
2C2
100
AcDbSymbolTableRecord
100
AcDbLayerTableRecord
  2
PIANI_RIFERIMENTO
 70
0
 62
7
  6
CONTINUOUS
370
-3
390
F
  0
LAYER
  5
2C3
100
AcDbSymbolTableRecord
100
AcDbLayerTableRecord
  2
PUNTI
 70
0
 62
7
  6
CONTINUOUS
370
-3
390
F
  0
LAYER
  5
2C4
100
AcDbSymbolTableRecord
100
AcDbLayerTableRecord
  2
QFN40P300X300X60-20N_60000
 70
0
 62
7
  6
CONTINUOUS
370
-3
390
F
  0
LAYER
  5
2C5
100
AcDbSymbolTableRecord
100
AcDbLayerTableRecord
  2
QFP100-F4-RF-VIMAR_160000
 70
0
 62
7
  6
CONTINUOUS
370
-3
390
F
  0
LAYER
  5
2C6
100
AcDbSymbolTableRecord
100
AcDbLayerTableRecord
  2
RACCORDO
 70
0
 62
7
  6
CONTINUOUS
370
-3
390
F
  0
LAYER
  5
2C7
100
AcDbSymbolTableRecord
100
AcDbLayerTableRecord
  2
RD-C25-NTC-1-VIMAR_1800000
 70
0
 62
7
  6
CONTINUOUS
370
-3
390
F
  0
LAYER
  5
2C8
100
AcDbSymbolTableRecord
100
AcDbLayerTableRecord
  2
SIMBOLI
 70
0
 62
7
  6
CONTINUOUS
370
-3
390
F
  0
LAYER
  5
2C9
100
AcDbSymbolTableRecord
100
AcDbLayerTableRecord
  2
SMUSSO
 70
0
 62
7
  6
CONTINUOUS
370
-3
390
F
  0
LAYER
  5
2CA
100
AcDbSymbolTableRecord
100
AcDbLayerTableRecord
  2
SNAPLINE
 70
0
 62
7
  6
CONTINUOUS
370
-3
390
F
  0
LAYER
  5
2CB
100
AcDbSymbolTableRecord
100
AcDbLayerTableRecord
  2
SOD882_50000
 70
0
 62
7
  6
CONTINUOUS
370
-3
390
F
  0
LAYER
  5
2CC
100
AcDbSymbolTableRecord
100
AcDbLayerTableRecord
  2
SOD882_50000_1
 70
0
 62
7
  6
CONTINUOUS
370
-3
390
F
  0
LAYER
  5
2CD
100
AcDbSymbolTableRecord
100
AcDbLayerTableRecord
  2
SOD882_50000_2
 70
0
 62
7
  6
CONTINUOUS
370
-3
390
F
  0
LAYER
  5
2CE
100
AcDbSymbolTableRecord
100
AcDbLayerTableRecord
  2
SOD882_50000_3
 70
0
 62
7
  6
CONTINUOUS
370
-3
390
F
  0
LAYER
  5
2CF
100
AcDbSymbolTableRecord
100
AcDbLayerTableRecord
  2
SOD882_50000_4
 70
0
 62
7
  6
CONTINUOUS
370
-3
390
F
  0
LAYER
  5
2D0
100
AcDbSymbolTableRecord
100
AcDbLayerTableRecord
  2
SOD882_50000_5
 70
0
 62
7
  6
CONTINUOUS
370
-3
390
F
  0
LAYER
  5
2D1
100
AcDbSymbolTableRecord
100
AcDbLayerTableRecord
  2
SOD882_50000_6
 70
0
 62
7
  6
CONTINUOUS
370
-3
390
F
  0
LAYER
  5
2D2
100
AcDbSymbolTableRecord
100
AcDbLayerTableRecord
  2
SOD882_50000_7
 70
0
 62
7
  6
CONTINUOUS
370
-3
390
F
  0
LAYER
  5
2D3
100
AcDbSymbolTableRecord
100
AcDbLayerTableRecord
  2
SODFL1608X70N_70000
 70
0
 62
7
  6
CONTINUOUS
370
-3
390
F
  0
LAYER
  5
2D4
100
AcDbSymbolTableRecord
100
AcDbLayerTableRecord
  2
SODFL1608X70N_70000_1
 70
0
 62
7
  6
CONTINUOUS
370
-3
390
F
  0
LAYER
  5
2D5
100
AcDbSymbolTableRecord
100
AcDbLayerTableRecord
  2
SODFL1608X70N_70000_2
 70
0
 62
7
  6
CONTINUOUS
370
-3
390
F
  0
LAYER
  5
2D6
100
AcDbSymbolTableRecord
100
AcDbLayerTableRecord
  2
SODFL1608X70N_70000_3
 70
0
 62
7
  6
CONTINUOUS
370
-3
390
F
  0
LAYER
  5
2D7
100
AcDbSymbolTableRecord
100
AcDbLayerTableRecord
  2
SODFL1608X70N_70000_4
 70
0
 62
7
  6
CONTINUOUS
370
-3
390
F
  0
LAYER
  5
2D8
100
AcDbSymbolTableRecord
100
AcDbLayerTableRecord
  2
SOP8-T1-RF-VIMAR_150000
 70
0
 62
7
  6
CONTINUOUS
370
-3
390
F
  0
LAYER
  5
2D9
100
AcDbSymbolTableRecord
100
AcDbLayerTableRecord
  2
SUPERFICI
 70
0
 62
7
  6
CONTINUOUS
370
-3
390
F
  0
LAYER
  5
2DA
100
AcDbSymbolTableRecord
100
AcDbLayerTableRecord
  2
TP15_SMD_0
 70
0
 62
7
  6
CONTINUOUS
370
-3
390
F
  0
LAYER
  5
2DB
100
AcDbSymbolTableRecord
100
AcDbLayerTableRecord
  2
TP15_SMD_0_1
 70
0
 62
7
  6
CONTINUOUS
370
-3
390
F
  0
LAYER
  5
2DC
100
AcDbSymbolTableRecord
100
AcDbLayerTableRecord
  2
TP15_SMD_0_2
 70
0
 62
7
  6
CONTINUOUS
370
-3
390
F
  0
LAYER
  5
2DD
100
AcDbSymbolTableRecord
100
AcDbLayerTableRecord
  2
TP15_SMD_0_3
 70
0
 62
7
  6
CONTINUOUS
370
-3
390
F
  0
LAYER
  5
2DE
100
AcDbSymbolTableRecord
100
AcDbLayerTableRecord
  2
TP15_SMD_0_4
 70
0
 62
7
  6
CONTINUOUS
370
-3
390
F
  0
LAYER
  5
2DF
100
AcDbSymbolTableRecord
100
AcDbLayerTableRecord
  2
TP15_SMD_0_5
 70
0
 62
7
  6
CONTINUOUS
370
-3
390
F
  0
LAYER
  5
2E0
100
AcDbSymbolTableRecord
100
AcDbLayerTableRecord
  2
TP15_SMD_0_6
 70
0
 62
7
  6
CONTINUOUS
370
-3
390
F
  0
LAYER
  5
2E1
100
AcDbSymbolTableRecord
100
AcDbLayerTableRecord
  2
TP15_SMD_0_7
 70
0
 62
7
  6
CONTINUOUS
370
-3
390
F
  0
LAYER
  5
2E2
100
AcDbSymbolTableRecord
100
AcDbLayerTableRecord
  2
TP15_SMD_0_8
 70
0
 62
7
  6
CONTINUOUS
370
-3
390
F
  0
LAYER
  5
2E3
100
AcDbSymbolTableRecord
100
AcDbLayerTableRecord
  2
TP15_SMD_0_9
 70
0
 62
7
  6
CONTINUOUS
370
-3
390
F
  0
LAYER
  5
2E4
100
AcDbSymbolTableRecord
100
AcDbLayerTableRecord
  2
TRASH
 70
0
 62
7
  6
CONTINUOUS
370
-3
390
F
  0
LAYER
  5
2E5
100
AcDbSymbolTableRecord
100
AcDbLayerTableRecord
  2
XSEC_DATUMS
 70
0
 62
7
  6
CONTINUOUS
370
-3
390
F
  0
LAYER
  5
2E6
100
AcDbSymbolTableRecord
100
AcDbLayerTableRecord
  2
___SHELL
 70
0
 62
7
  6
CONTINUOUS
370
-3
390
F
  0
ENDTAB
  0
TABLE
  2
STYLE
  5
3
100
AcDbSymbolTable
 70
1
  0
STYLE
  5
11
100
AcDbSymbolTableRecord
100
AcDbTextStyleTableRecord
  2
STANDARD
 70
0
 40
0.0
 41
0.8
 50
0.0
 71
0
 42
0.2
  3
txt
  4

  0
STYLE
  5
2E7
100
AcDbSymbolTableRecord
100
AcDbTextStyleTableRecord
  2
TEXTSTYLE_1
 70
0
 40
0.0
 41
0.8
 50
0.0
 71
0
 42
0.2
  3
gdt
  4

  0
ENDTAB
  0
TABLE
  2
VIEW
  5
6
100
AcDbSymbolTable
 70
0
  0
ENDTAB
  0
TABLE
  2
UCS
  5
7
100
AcDbSymbolTable
 70
0
  0
ENDTAB
  0
TABLE
  2
APPID
  5
9
100
AcDbSymbolTable
 70
1
  0
APPID
  5
2E8
100
AcDbSymbolTableRecord
100
AcDbRegAppTableRecord
  2
ACAD
 70
0
  0
ENDTAB
  0
TABLE
  2
BLOCK_RECORD
  5
1
100
AcDbSymbolTable
 70
0
  0
BLOCK_RECORD
  5
2E9
100
AcDbSymbolTableRecord
100
AcDbBlockTableRecord
  2
*Model_Space
  0
BLOCK_RECORD
  5
2EA
100
AcDbSymbolTableRecord
100
AcDbBlockTableRecord
  2
*Paper_Space
  0
ENDTAB
  0
TABLE
  2
DIMSTYLE
  5
A
100
AcDbSymbolTable
 70
1
100
AcDbDimStyleTable
 71
0
  0
DIMSTYLE
105
2EB
100
AcDbSymbolTableRecord
100
AcDbDimStyleTableRecord
  2
STANDARD
 70
0
  3

  4

 40
1.0
 41
3.0
 42
0.5
 43
0.38
 44
1.5
 45
0.0
 46
0.0
 47
0.01
 48
0.01
140
3.0
141
0.09
142
0.0
143
25.4
144
1.0
145
0.0
146
1.0
147
0.625
 71
1.0
 72
0.0
 73
0
 74
0
 75
0
 76
0
 77
1
 78
8
170
0
171
2
172
0
173
0
174
0
175
0
176
0
177
0
178
0
270
2
271
2
272
2
273
2
274
2
275
0
280
0
281
0
282
0
283
1
284
8
285
0
286
0
287
3
288
0
340
11
278
44
  0
ENDTAB
  0
ENDSEC
  0
SECTION
  2
BLOCKS
  0
BLOCK
  5
20
100
AcDbEntity
  8
0
100
AcDbBlockBegin
  2
*Model_Space
 70
0
 10
0.0
 20
0.0
 30
0.0
  3
*Model_Space
  1

  0
ENDBLK
  5
21
100
AcDbEntity
  8
0
100
AcDbBlockEnd
  0
BLOCK
  5
1C
100
AcDbEntity
  8
0
100
AcDbBlockBegin
  2
*Paper_Space
 70
0
 10
0.0
 20
0.0
 30
0.0
  3
*Paper_Space
  1

  0
ENDBLK
  5
1D
100
AcDbEntity
  8
0
100
AcDbBlockEnd
  0
ENDSEC
  0
SECTION
  2
ENTITIES
  0
LWPOLYLINE
  5
2EC
100
AcDbEntity
  8
RACCORDO
100
AcDbPolyline
 62
253
  6
CONTINUOUS
 90
19
 70
0
 10
49.2998197872
 20
168.641165091
 10
49.3422080104
 20
168.7218738297
 10
49.3885203488
 20
168.8023093763
 10
49.4386000804
 20
168.8821995557
 10
49.4922777562
 20
168.9612740565
 10
49.5493717156
 20
169.0392652945
 10
49.609688692
 20
169.115909322
 10
49.6730245671
 20
169.1909467971
 10
49.7391650177
 20
169.2641238278
 10
49.8078861722
 20
169.3351927863
 10
49.878955474
 20
169.4039132059
 10
49.9521324373
 20
169.4700525823
 10
50.0271694038
 20
169.5333871358
 10
50.1038124514
 20
169.5937025817
 10
50.1818022444
 20
169.650794867
 10
50.2608748735
 20
169.7044708547
 10
50.3407627767
 20
169.7545489603
 10
50.4211956451
 20
169.8008597662
 10
50.501901325
 20
169.8432466086
  0
LWPOLYLINE
  5
2ED
100
AcDbEntity
  8
RACCORDO
100
AcDbPolyline
 62
253
  6
CONTINUOUS
 90
6
 70
0
 10
50.6828731301
 20
170.1019266961
 10
50.690638148
 20
170.1135732811
 10
50.6968860481
 20
170.1227816241
 10
50.7017144683
 20
170.1295768389
 10
50.7050257706
 20
170.1339689182
 10
50.706819955
 20
170.135987533
  0
LWPOLYLINE
  5
2EE
100
AcDbEntity
  8
RACCORDO
100
AcDbPolyline
 62
253
  6
CONTINUOUS
 90
10
 70
0
 10
50.5019013152
 20
169.843246619
 10
50.5279248522
 20
169.8813611509
 10
50.5523068752
 20
169.9166579842
 10
50.5750473842
 20
169.9491368325
 10
50.5962841781
 20
169.9787288034
 10
50.6158794581
 20
170.0055578789
 10
50.6334198279
 20
170.0298711726
 10
50.6486858627
 20
170.0517300458
 10
50.6618969874
 20
170.0710381907
 10
50.6828731301
 20
170.1019266961
  0
LINE
  5
2EF
100
AcDbEntity
  8
RACCORDO
100
AcDbLine
 62
253
  6
CONTINUOUS
 10
50.6729970052
 20
76.4571315387
 11
50.705411656
 21
76.4109561062
  0
LWPOLYLINE
  5
2F0
100
AcDbEntity
  8
RACCORDO
100
AcDbPolyline
 62
253
  6
CONTINUOUS
 90
3
 70
0
 10
50.501896829
 20
76.7016822676
 10
50.6479798588
 20
76.4931075433
 10
50.6729970052
 20
76.4571315387
  0
LINE
  5
2F1
100
AcDbEntity
  8
RACCORDO
100
AcDbLine
 62
253
  6
CONTINUOUS
 10
50.705411656
 20
76.4109561062
 11
50.706819955
 21
76.408934342
  0
LWPOLYLINE
  5
2F2
100
AcDbEntity
  8
RACCORDO
100
AcDbPolyline
 62
7
  6
CONTINUOUS
 90
10
 70
0
 10
50.6206054688
 20
168.6531346071
 10
50.6316726085
 20
168.6767504499
 10
50.6431971721
 20
168.7003566177
 10
50.6551719364
 20
168.7239531107
 10
50.6675946582
 20
168.7475432571
 10
50.680448185
 20
168.7711237287
 10
50.6937004883
 20
168.79468454
 10
50.707330848
 20
168.8182223625
 10
50.721329532
 20
168.8417405247
 10
50.7356780435
 20
168.8652390267
  0
LWPOLYLINE
  5
2F3
100
AcDbEntity
  8
RACCORDO
100
AcDbPolyline
 62
253
  6
CONTINUOUS
 90
16
 70
0
 10
50.6206054688
 20
168.6531346071
 10
50.5899800349
 20
168.6294454465
 10
50.5611443622
 20
168.6038886912
 10
50.5340984505
 20
168.5764643412
 10
50.5088459473
 20
168.5472783366
 10
50.4853832051
 20
168.5162247373
 10
50.463699282
 20
168.482985723
 10
50.4436968361
 20
168.447566762
 10
50.4254732093
 20
168.4099623861
 10
50.4093094847
 20
168.3698383695
 10
50.3951361084
 20
168.3270873299
 10
50.3830226344
 20
168.2818166496
 10
50.3734588082
 20
168.2340142506
 10
50.3666078784
 20
168.1836761067
 10
50.3623065965
 20
168.1308062441
 10
50.3605549624
 20
168.0754046627
  0
LINE
  5
2F4
100
AcDbEntity
  8
RACCORDO
100
AcDbLine
 62
253
  6
CONTINUOUS
 10
49.0552760699
 20
168.4700694011
 11
49.0091006375
 21
168.4376547503
  0
LWPOLYLINE
  5
2F5
100
AcDbEntity
  8
RACCORDO
100
AcDbPolyline
 62
253
  6
CONTINUOUS
 90
3
 70
0
 10
49.2998197872
 20
168.641165091
 10
49.0912520745
 20
168.4950865474
 10
49.0552760699
 20
168.4700694011
  0
LINE
  5
2F6
100
AcDbEntity
  8
RACCORDO
100
AcDbLine
 62
253
  6
CONTINUOUS
 10
49.0091006375
 20
168.4376547503
 11
49.0070788732
 21
168.4362464512
  0
LWPOLYLINE
  5
2F7
100
AcDbEntity
  8
RACCORDO
100
AcDbPolyline
 62
253
  6
CONTINUOUS
 90
6
 70
0
 10
49.0411397102
 20
78.0847285989
 10
49.0294931251
 20
78.0924936168
 10
49.0202847822
 20
78.0987415169
 10
49.0134895673
 20
78.103569937
 10
49.0090974881
 20
78.1068812393
 10
49.0070788732
 20
78.1086754238
  0
LWPOLYLINE
  5
2F8
100
AcDbEntity
  8
RACCORDO
100
AcDbPolyline
 62
253
  6
CONTINUOUS
 90
10
 70
0
 10
49.2998197872
 20
77.903756784
 10
49.2617052553
 20
77.9297803209
 10
49.2264084221
 20
77.9541623439
 10
49.1939295738
 20
77.976902853
 10
49.1643376028
 20
77.9981396469
 10
49.1375085273
 20
78.0177349268
 10
49.1131952336
 20
78.0352752966
 10
49.0913363605
 20
78.0505413315
 10
49.0720282156
 20
78.0637524562
 10
49.0411397102
 20
78.0847285989
  0
LWPOLYLINE
  5
2F9
100
AcDbEntity
  8
RACCORDO
100
AcDbPolyline
 62
7
  6
CONTINUOUS
 90
10
 70
0
 10
50.735675707
 20
77.6796818912
 10
50.7213278447
 20
77.7031811504
 10
50.7073298162
 20
77.7266998662
 10
50.6937001162
 20
77.7502380387
 10
50.6804486063
 20
77.7737990583
 10
50.6675958743
 20
77.7973795346
 10
50.6551735499
 20
77.8209692966
 10
50.64319865
 20
77.8445649541
 10
50.6316735485
 20
77.8681698973
 10
50.6206054688
 20
77.8917841263
  0
LWPOLYLINE
  5
2FA
100
AcDbEntity
  8
RACCORDO
100
AcDbPolyline
 62
7
  6
CONTINUOUS
 90
31
 70
0
 10
48.370605466
 20
77.7720419942
 10
48.37329919
 20
77.6675827144
 10
48.3814410185
 20
77.5637044252
 10
48.3950309517
 20
77.4604071268
 10
48.4141582259
 20
77.3572730042
 10
48.4387336047
 20
77.2547198723
 10
48.4684893795
 20
77.1540011753
 10
48.5034794113
 20
77.0552611806
 10
48.5436498392
 20
76.9583556207
 10
48.5885713712
 20
76.8641051369
 10
48.6381315378
 20
76.7727048175
 10
48.6924428088
 20
76.6839595742
 10
48.7514133011
 20
76.5981047826
 10
48.8152625124
 20
76.5148780286
 10
48.8837709454
 20
76.4345417262
 10
48.9561882252
 20
76.3581184941
 10
49.032603829
 20
76.2857008239
 10
49.1129282799
 20
76.2171962238
 10
49.1961427712
 20
76.1533498368
 10
49.2819820582
 20
76.0943808006
 10
49.370711386
 20
76.0400699774
 10
49.4621076823
 20
75.9905050975
 10
49.556373677
 20
75.945569754
 10
49.6533066405
 20
75.9053803536
 10
49.7520753118
 20
75.8703738472
 10
49.8528230946
 20
75.8406065719
 10
49.9554065854
 20
75.8160221905
 10
50.0585643122
 20
75.7968886417
 10
50.1618757845
 20
75.7832952385
 10
50.2657614928
 20
75.7751526679
 10
50.3702214373
 20
75.7724609298
  0
LINE
  5
2FB
100
AcDbEntity
  8
RACCORDO
100
AcDbLine
 62
7
  6
CONTINUOUS
 10
48.370605466
 20
77.7720419942
 11
48.370605466
 21
168.7728798808
  0
LWPOLYLINE
  5
2FC
100
AcDbEntity
  8
RACCORDO
100
AcDbPolyline
 62
7
  6
CONTINUOUS
 90
28
 70
0
 10
48.673532202
 20
168.7701167518
 10
48.6763784116
 20
168.8683665916
 10
48.6849256367
 20
168.9665312276
 10
48.6991879578
 20
169.0642774642
 10
48.7191964383
 20
169.1614248004
 10
48.7449070441
 20
169.2574753811
 10
48.7761103572
 20
169.3516392682
 10
48.8125625204
 20
169.4433782858
 10
48.8541752133
 20
169.5326384441
 10
48.9009095464
 20
169.6193741409
 10
48.9526197895
 20
169.7032976707
 10
49.0091346503
 20
169.784115388
 10
49.0704298146
 20
169.8617411781
 10
49.1365271114
 20
169.9360815884
 10
49.2070736437
 20
170.006626649
 10
49.2814182767
 20
170.0727247195
 10
49.3590545843
 20
170.1340247101
 10
49.4398865973
 20
170.190545183
 10
49.5238183578
 20
170.2422553076
 10
49.610552162
 20
170.2889832745
 10
49.6998027417
 20
170.3305865865
 10
49.7915233759
 20
170.3670273543
 10
49.8856536352
 20
170.3982169047
 10
49.9816610062
 20
170.4239154401
 10
50.0787736179
 20
170.4439182286
 10
50.1765003546
 20
170.4581803043
 10
50.2746551927
 20
170.4667296678
 10
50.3729051555
 20
170.4695787032
  0
LWPOLYLINE
  5
2FD
100
AcDbEntity
  8
RACCORDO
100
AcDbPolyline
 62
253
  6
CONTINUOUS
 90
28
 70
0
 10
49.0070788732
 20
168.4362464512
 10
49.0099835481
 20
168.5350584678
 10
49.0186275545
 20
168.6335362654
 10
49.032981655
 20
168.7313467554
 10
49.0529972989
 20
168.8281591064
 10
49.0786067857
 20
168.9236458631
 10
49.1097234945
 20
169.0174840538
 10
49.1462421773
 20
169.1093562827
 10
49.188039314
 20
169.1989518039
 10
49.2349735314
 20
169.2859675721
 10
49.2868860803
 20
169.3701092676
 10
49.3436013733
 20
169.451092292
 10
49.4049275782
 20
169.5286427305
 10
49.4706572671
 20
169.6024982788
 10
49.5405681175
 20
169.6724091301
 10
49.6144236653
 20
169.7381388197
 10
49.6919741034
 20
169.7994650257
 10
49.7729571275
 20
169.8561803197
 10
49.8570988229
 20
169.9080928698
 10
49.9441145912
 20
169.9550270883
 10
50.0337101128
 20
169.9968242262
 10
50.1255823423
 20
170.03334291
 10
50.2194205335
 20
170.0644596201
 10
50.3149072909
 20
170.090069108
 10
50.4117196433
 20
170.1100847525
 10
50.5095301353
 20
170.1244388531
 10
50.6080079354
 20
170.1330828591
 10
50.706819955
 20
170.135987533
  0
LWPOLYLINE
  5
2FE
100
AcDbEntity
  8
RACCORDO
100
AcDbPolyline
 62
253
  6
CONTINUOUS
 90
22
 70
0
 10
52.8151553996
 20
165.3795873514
 10
52.8241896108
 20
165.4462519969
 10
52.8378241058
 20
165.5125901442
 10
52.8559921081
 20
165.5782768942
 10
52.8786046376
 20
165.6429905381
 10
52.9055509467
 20
165.706414133
 10
52.9366990627
 20
165.7682370542
 10
52.9718964339
 20
165.8281565163
 10
53.0109706769
 20
165.8858790566
 10
53.0537304208
 20
165.941121972
 10
53.0999662446
 20
165.9936147035
 10
53.1494517028
 20
166.0431001617
 10
53.2019444343
 20
166.0893359855
 10
53.2571873496
 20
166.1320957294
 10
53.3149098899
 20
166.1711699723
 10
53.3748293521
 20
166.2063673435
 10
53.4366522732
 20
166.2375154595
 10
53.5000758681
 20
166.2644617687
 10
53.564789512
 20
166.2870742982
 10
53.6304762621
 20
166.3052423004
 10
53.6968144094
 20
166.3188767954
 10
53.7634790549
 20
166.3279110066
  0
LWPOLYLINE
  5
2FF
100
AcDbEntity
  8
RACCORDO
100
AcDbPolyline
 62
253
  6
CONTINUOUS
 90
19
 70
0
 10
50.5019013152
 20
76.701675256
 10
50.4211925765
 20
76.7440634792
 10
50.34075703
 20
76.7903758175
 10
50.2608668506
 20
76.8404555492
 10
50.1817923498
 20
76.894133225
 10
50.1038011117
 20
76.9512271843
 10
50.0271570843
 20
77.0115441608
 10
49.9521196092
 20
77.0748800358
 10
49.8789425785
 20
77.1410204864
 10
49.8078736199
 20
77.209741641
 10
49.7391532004
 20
77.2808109427
 10
49.6730138239
 20
77.3539879061
 10
49.6096792704
 20
77.4290248725
 10
49.5493638245
 20
77.5056679201
 10
49.4922715393
 20
77.5836577131
 10
49.4385955516
 20
77.6627303422
 10
49.3885174459
 20
77.7426182455
 10
49.34220664
 20
77.8230511138
 10
49.2998197976
 20
77.9037567937
  0
LWPOLYLINE
  5
300
100
AcDbEntity
  8
RACCORDO
100
AcDbPolyline
 62
253
  6
CONTINUOUS
 90
25
 70
0
 10
49.8655954391
 20
78.4694384112
 10
49.8816358701
 20
78.3839580779
 10
49.9015477161
 20
78.301686601
 10
49.9251086842
 20
78.222757896
 10
49.9521707102
 20
78.147362844
 10
49.9824563408
 20
78.075530954
 10
50.0155603274
 20
78.0071312497
 10
50.0511803288
 20
77.9423862657
 10
50.0892327991
 20
77.8812035206
 10
50.1296920777
 20
77.8229792635
 10
50.1723108179
 20
77.7678041098
 10
50.2170703207
 20
77.7156935479
 10
50.2643803888
 20
77.6659778383
 10
50.3141092824
 20
77.6186721801
 10
50.3662307405
 20
77.5739196008
 10
50.4213961073
 20
77.5313251813
 10
50.4795717858
 20
77.4909197598
 10
50.5406828743
 20
77.4529340603
 10
50.6053661065
 20
77.4173666875
 10
50.6737289207
 20
77.3842928315
 10
50.7455355513
 20
77.3540258099
 10
50.8209087495
 20
77.3269751123
 10
50.8998163295
 20
77.3034196243
 10
50.9820705008
 20
77.2835068479
 10
51.0675374821
 20
77.2674596974
  0
LWPOLYLINE
  5
301
100
AcDbEntity
  8
RACCORDO
100
AcDbPolyline
 62
253
  6
CONTINUOUS
 90
16
 70
0
 10
50.3605549624
 20
78.4695172123
 10
50.3623021634
 20
78.4141488977
 10
50.3665997558
 20
78.361302343
 10
50.3734477396
 20
78.3109775482
 10
50.3830079267
 20
78.2631779608
 10
50.3951185052
 20
78.2179001334
 10
50.4092940393
 20
78.1751337235
 10
50.4254699953
 20
78.1349796536
 10
50.4437109069
 20
78.0973370013
 10
50.4637249398
 20
78.0618926569
 10
50.4854094655
 20
78.0286526471
 10
50.5088671124
 20
77.9976109453
 10
50.5341139312
 20
77.9684363613
 10
50.5611552719
 20
77.9410184985
 10
50.5899857844
 20
77.9154677535
 10
50.6206054688
 20
77.8917841263
  0
LINE
  5
302
100
AcDbEntity
  8
RACCORDO
100
AcDbLine
 62
7
  6
CONTINUOUS
 10
48.673532202
 20
77.7748051232
 11
48.6723276187
 21
108.1065637581
  0
LINE
  5
303
100
AcDbEntity
  8
RACCORDO
100
AcDbLine
 62
7
  6
CONTINUOUS
 10
48.6723276187
 20
108.1065637581
 11
48.6721770436
 21
123.2724609257
  0
LINE
  5
304
100
AcDbEntity
  8
RACCORDO
100
AcDbLine
 62
7
  6
CONTINUOUS
 10
48.6721770436
 20
123.2724609257
 11
48.6729968324
 21
158.6595383588
  0
LINE
  5
305
100
AcDbEntity
  8
RACCORDO
100
AcDbLine
 62
7
  6
CONTINUOUS
 10
48.9206054688
 20
168.523043485
 11
48.9206054688
 21
78.02187839
  0
LINE
  5
306
100
AcDbEntity
  8
RACCORDO
100
AcDbLine
 62
7
  6
CONTINUOUS
 10
48.9706054687
 20
78.0722020193
 11
48.9706054688
 21
168.4727198557
  0
LINE
  5
307
100
AcDbEntity
  8
RACCORDO
100
AcDbLine
 62
253
  6
CONTINUOUS
 10
49.0070788732
 20
78.1086754238
 11
49.0070788732
 21
168.4362464512
  0
LINE
  5
308
100
AcDbEntity
  8
RACCORDO
100
AcDbLine
 62
253
  6
CONTINUOUS
 10
49.2998197872
 20
77.903756784
 11
49.2998197872
 21
168.641165091
  0
LINE
  5
309
100
AcDbEntity
  8
RACCORDO
100
AcDbLine
 62
253
  6
CONTINUOUS
 10
49.8655802156
 20
168.0755529279
 11
49.8655802156
 21
78.4694231914
  0
LINE
  5
30A
100
AcDbEntity
  8
RACCORDO
100
AcDbLine
 62
253
  6
CONTINUOUS
 10
50.3605549624
 20
168.0754046627
 11
50.3605549624
 21
78.4695172123
  0
LINE
  5
30B
100
AcDbEntity
  8
RACCORDO
100
AcDbLine
 62
253
  6
CONTINUOUS
 10
50.6206054688
 20
168.6531346071
 11
50.6206054688
 21
77.8917841263
  0
LINE
  5
30C
100
AcDbEntity
  8
RACCORDO
100
AcDbLine
 62
253
  6
CONTINUOUS
 10
51.0676612686
 20
168.8773155067
 11
51.0676617447
 21
169.2774861904
  0
LINE
  5
30D
100
AcDbEntity
  8
RACCORDO
100
AcDbLine
 62
253
  6
CONTINUOUS
 10
51.0676617407
 20
77.6676064976
 11
51.0676617436
 21
77.2674356843
  0
LINE
  5
30E
100
AcDbEntity
  8
RACCORDO
100
AcDbLine
 62
7
  6
CONTINUOUS
 10
51.1206054688
 20
168.0224609375
 11
51.1206054688
 21
78.5224609375
  0
LINE
  5
30F
100
AcDbEntity
  8
RACCORDO
100
AcDbLine
 62
7
  6
CONTINUOUS
 10
51.3706054688
 20
79.7724609375
 11
51.3706054688
 21
166.7724609375
  0
LINE
  5
310
100
AcDbEntity
  8
RACCORDO
100
AcDbLine
 62
253
  6
CONTINUOUS
 10
52.8151553996
 20
81.1653345236
 11
52.8151553996
 21
165.3795873514
  0
LINE
  5
311
100
AcDbEntity
  8
RACCORDO
100
AcDbLine
 62
253
  6
CONTINUOUS
 10
53.7634790549
 20
80.2170108684
 11
53.7634790549
 21
166.3279110066
  0
LINE
  5
312
100
AcDbEntity
  8
RACCORDO
100
AcDbLine
 62
7
  6
CONTINUOUS
 10
48.6729968324
 20
158.6595383588
 11
48.673532202
 21
168.7701167518
  0
LINE
  5
313
100
AcDbEntity
  8
RACCORDO
100
AcDbLine
 62
253
  6
CONTINUOUS
 10
73.3257962898
 20
76.3943711585
 11
73.3112331064
 21
76.408934342
  0
LINE
  5
314
100
AcDbEntity
  8
RACCORDO
100
AcDbLine
 62
253
  6
CONTINUOUS
 10
73.6206054688
 20
76.6994705967
 11
73.6111874149
 21
76.7088886505
  0
LWPOLYLINE
  5
315
100
AcDbEntity
  8
RACCORDO
100
AcDbPolyline
 62
253
  6
CONTINUOUS
 90
25
 70
0
 10
180.673627995
 20
77.2674509079
 10
180.7591083283
 20
77.2834913389
 10
180.8413798052
 20
77.3034031849
 10
180.9203085102
 20
77.326964153
 10
180.9957035622
 20
77.3540261789
 10
181.0675354523
 20
77.3843118095
 10
181.1359351566
 20
77.4174157961
 10
181.2006801405
 20
77.4530357976
 10
181.2618628857
 20
77.4910882679
 10
181.3200871427
 20
77.5315475465
 10
181.3752622965
 20
77.5741662867
 10
181.4273728583
 20
77.6189257894
 10
181.477088568
 20
77.6662358576
 10
181.5243942261
 20
77.7159647512
 10
181.5691468055
 20
77.7680862093
 10
181.611741225
 20
77.8232515761
 10
181.6521466464
 20
77.8814272546
 10
181.690132346
 20
77.942538343
 10
181.7256997187
 20
78.0072215752
 10
181.7587735747
 20
78.0755843894
 10
181.7890405963
 20
78.14739102
 10
181.816091294
 20
78.2227642183
 10
181.839646782
 20
78.3016717982
 10
181.8595595583
 20
78.3839259695
 10
181.8756067088
 20
78.4693929509
  0
LINE
  5
316
100
AcDbEntity
  8
RACCORDO
100
AcDbLine
 62
7
  6
CONTINUOUS
 10
72.1078826401
 20
80.6852731365
 11
72.1077284769
 21
80.6853379293
  0
LINE
  5
317
100
AcDbEntity
  8
RACCORDO
100
AcDbLine
 62
7
  6
CONTINUOUS
 10
72.0377559008
 20
80.7553105055
 11
72.1077284769
 21
80.6853379293
  0
LWPOLYLINE
  5
318
100
AcDbEntity
  8
RACCORDO
100
AcDbPolyline
 62
7
  6
CONTINUOUS
 90
11
 70
0
 10
71.7356232624
 20
81.7551582006
 10
71.8165296469
 20
81.603842386
 10
71.8428224548
 20
81.5535648203
 10
71.8683876286
 20
81.5034074986
 10
71.8932044558
 20
81.4536087691
 10
71.9168970433
 20
81.4041550807
 10
71.9391722022
 20
81.3550599843
 10
71.9599759939
 20
81.3066024803
 10
71.9789076552
 20
81.258875569
 10
71.9953364916
 20
81.21178625
 10
72.0087303788
 20
81.1653345235
  0
LWPOLYLINE
  5
319
100
AcDbEntity
  8
RACCORDO
100
AcDbPolyline
 62
253
  6
CONTINUOUS
 90
9
 70
0
 10
73.6111874149
 20
76.7088886505
 10
73.6105617564
 20
76.7104360351
 10
73.6099408889
 20
76.7137924605
 10
73.6093248122
 20
76.7189579266
 10
73.6087117813
 20
76.7259539515
 10
73.6081035414
 20
76.7347590171
 10
73.6075053274
 20
76.7453085696
 10
73.606917254
 20
76.7576205674
 10
73.6063392065
 20
76.7716770521
  0
LWPOLYLINE
  5
31A
100
AcDbEntity
  8
RACCORDO
100
AcDbPolyline
 62
7
  6
CONTINUOUS
 90
9
 70
0
 10
72.0377559008
 20
80.7553105055
 10
72.0366416238
 20
80.7584653185
 10
72.0355397084
 20
80.7656228484
 10
72.0344501548
 20
80.776783095
 10
72.0333667794
 20
80.792064818
 10
72.0322957658
 20
80.8113492579
 10
72.0312556639
 20
80.834280136
 10
72.0302506419
 20
80.860806623
 10
72.0292765316
 20
80.8909795483
  0
LINE
  5
31B
100
AcDbEntity
  8
DRAFT
100
AcDbLine
 62
7
  6
CONTINUOUS
 10
75.9706054688
 20
160.6927873271
 11
76.0002790791
 21
160.7224609375
  0
LWPOLYLINE
  5
31C
100
AcDbEntity
  8
RACCORDO
100
AcDbPolyline
 62
7
  6
CONTINUOUS
 90
23
 70
0
 10
151.2250594018
 20
78.7765588123
 10
151.2477945625
 20
78.7813873746
 10
151.2693226994
 20
78.7877908863
 10
151.2896006111
 20
78.7955767967
 10
151.3086807455
 20
78.8046022497
 10
151.3265041719
 20
78.8146915293
 10
151.3430548913
 20
78.8256873382
 10
151.3584504485
 20
78.8375332339
 10
151.3726842559
 20
78.8501128895
 10
151.3857391172
 20
78.8632974004
 10
151.397699879
 20
78.8770619541
 10
151.4085717669
 20
78.8913209791
 10
151.4183498855
 20
78.9059720027
 10
151.4270872888
 20
78.9209947634
 10
151.4347955714
 20
78.9363242009
 10
151.4414777619
 20
78.9518737351
 10
151.4471643795
 20
78.9676061877
 10
151.4518726576
 20
78.9834667177
 10
151.455616258
 20
78.9993817217
 10
151.4584202144
 20
79.0152931068
 10
151.460310269
 20
79.0311450786
 10
151.4613128282
 20
79.0468841653
 10
151.4615029101
 20
79.0574892513
  0
LWPOLYLINE
  5
31D
100
AcDbEntity
  8
RACCORDO
100
AcDbPolyline
 62
7
  6
CONTINUOUS
 90
15
 70
0
 10
151.1986226801
 20
78.7740996058
 10
151.2289750318
 20
78.7789767193
 10
151.2585578035
 20
78.7870073033
 10
151.2870289019
 20
78.7980630104
 10
151.3141060638
 20
78.8119978697
 10
151.3395590271
 20
78.8286717834
 10
151.3631354944
 20
78.8479137054
 10
151.3845573937
 20
78.869490653
 10
151.4035834492
 20
78.8931439188
 10
151.4200173655
 20
78.9186038139
 10
151.4336947962
 20
78.9455864355
 10
151.4444748428
 20
78.9737793511
 10
151.4522579242
 20
79.00286656
 10
151.4569822332
 20
79.032534101
 10
151.4586168438
 20
79.0624609375
  0
LWPOLYLINE
  5
31E
100
AcDbEntity
  8
RACCORDO
100
AcDbPolyline
 62
7
  6
CONTINUOUS
 90
31
 70
0
 10
181.3709895002
 20
75.7724609298
 10
181.4754531182
 20
75.7751547816
 10
181.5793355254
 20
75.7832968315
 10
181.6826367217
 20
75.7968870796
 10
181.7857745438
 20
75.8160147934
 10
181.8883311551
 20
75.8405907055
 10
181.9890530457
 20
75.8703470132
 10
182.0877959169
 20
75.9053375676
 10
182.1847040676
 20
75.9455085179
 10
182.2789568845
 20
75.9904305085
 10
182.3703592965
 20
76.0399910822
 10
182.459106375
 20
76.0943026965
 10
182.5449627203
 20
76.1532733677
 10
182.6281907343
 20
76.2171225944
 10
182.7085280154
 20
76.2856308782
 10
182.7849519589
 20
76.3580477412
 10
182.8573700431
 20
76.4344626305
 10
182.9258747899
 20
76.5147860991
 10
182.98972116
 20
76.5979993281
 10
183.0486900172
 20
76.6838370604
 10
183.1030004981
 20
76.7725645532
 10
183.1525649724
 20
76.8639587588
 10
183.1974998598
 20
76.9582224254
 10
183.2376887409
 20
77.0551528049
 10
183.2726947268
 20
77.1539186051
 10
183.3024614696
 20
77.2546631975
 10
183.3270453175
 20
77.3572432108
 10
183.346178426
 20
77.4603972378
 10
183.3597715137
 20
77.5637048095
 10
183.3679138622
 20
77.667586395
 10
183.3706054715
 20
77.7720419942
  0
LWPOLYLINE
  5
31F
100
AcDbEntity
  8
RACCORDO
100
AcDbPolyline
 62
7
  6
CONTINUOUS
 90
28
 70
0
 10
50.3729051555
 20
76.0753431718
 10
50.2746606737
 20
76.0781918872
 10
50.1765013041
 20
76.0867414582
 10
50.0787602202
 20
76.101006001
 10
49.9816179294
 20
76.1210166285
 10
49.8855722472
 20
76.1467293314
 10
49.7914130288
 20
76.177934697
 10
49.6996784076
 20
76.2143889228
 10
49.6104224171
 20
76.256003728
 10
49.5236907088
 20
76.3027401981
 10
49.4397710511
 20
76.3544525944
 10
49.3589570323
 20
76.410969685
 10
49.2813346477
 20
76.4722672386
 10
49.2069973532
 20
76.5383671661
 10
49.1364551766
 20
76.6089165777
 10
49.0703597403
 20
76.6832643223
 10
49.0090621418
 20
76.7609040317
 10
48.9525439004
 20
76.8417397403
 10
48.9008359283
 20
76.9256753727
 10
48.8541100945
 20
77.0124131705
 10
48.8125088901
 20
77.1016679264
 10
48.7760701816
 20
77.1933929642
 10
48.7448826817
 20
77.2875278965
 10
48.7191862421
 20
77.3835401686
 10
48.6991856006
 20
77.4806578257
 10
48.6849257474
 20
77.5783897121
 10
48.6763787309
 20
77.676549811
 10
48.673532202
 20
77.7748051232
  0
LWPOLYLINE
  5
320
100
AcDbEntity
  8
RACCORDO
100
AcDbPolyline
 62
253
  6
CONTINUOUS
 90
22
 70
0
 10
53.7634790549
 20
80.2170108684
 10
53.6968144094
 20
80.2260450796
 10
53.6304762621
 20
80.2396795746
 10
53.564789512
 20
80.2578475768
 10
53.5000758681
 20
80.2804601063
 10
53.4366522732
 20
80.3074064155
 10
53.3748293521
 20
80.3385545315
 10
53.3149098899
 20
80.3737519027
 10
53.2571873496
 20
80.4128261456
 10
53.2019444343
 20
80.4555858895
 10
53.1494517028
 20
80.5018217133
 10
53.0999662446
 20
80.5513071715
 10
53.0537304208
 20
80.603799903
 10
53.0109706769
 20
80.6590428184
 10
52.9718964339
 20
80.7167653587
 10
52.9366990627
 20
80.7766848208
 10
52.9055509467
 20
80.838507742
 10
52.8786046376
 20
80.9019313369
 10
52.8559921081
 20
80.9666449808
 10
52.8378241058
 20
81.0323317308
 10
52.8241896108
 20
81.0986698781
 10
52.8151553996
 20
81.1653345236
  0
LWPOLYLINE
  5
321
100
AcDbEntity
  8
RACCORDO
100
AcDbPolyline
 62
7
  6
CONTINUOUS
 90
15
 70
0
 10
80.5425882574
 20
78.7740996058
 10
80.5122359057
 20
78.7789767193
 10
80.482653134
 20
78.7870073033
 10
80.4541820356
 20
78.7980630104
 10
80.4271048737
 20
78.8119978697
 10
80.4016519104
 20
78.8286717834
 10
80.3780754431
 20
78.8479137054
 10
80.3566535438
 20
78.869490653
 10
80.3376274883
 20
78.8931439188
 10
80.321193572
 20
78.9186038139
 10
80.3075161413
 20
78.9455864355
 10
80.2967360947
 20
78.9737793511
 10
80.2889530133
 20
79.00286656
 10
80.2842287043
 20
79.032534101
 10
80.2825940937
 20
79.0624609375
  0
LWPOLYLINE
  5
322
100
AcDbEntity
  8
RACCORDO
100
AcDbPolyline
 62
7
  6
CONTINUOUS
 90
23
 70
0
 10
80.5161515357
 20
78.7765588123
 10
80.493416375
 20
78.7813873746
 10
80.4718882381
 20
78.7877908863
 10
80.4516103264
 20
78.7955767967
 10
80.432530192
 20
78.8046022497
 10
80.4147067656
 20
78.8146915293
 10
80.3981560462
 20
78.8256873382
 10
80.382760489
 20
78.8375332339
 10
80.3685266816
 20
78.8501128895
 10
80.3554718203
 20
78.8632974004
 10
80.3435110585
 20
78.8770619541
 10
80.3326391706
 20
78.8913209791
 10
80.322861052
 20
78.9059720027
 10
80.3141236487
 20
78.9209947634
 10
80.3064153661
 20
78.9363242009
 10
80.2997331756
 20
78.9518737351
 10
80.294046558
 20
78.9676061877
 10
80.2893382799
 20
78.9834667177
 10
80.2855946795
 20
78.9993817217
 10
80.2827907231
 20
79.0152931068
 10
80.2809006685
 20
79.0311450786
 10
80.2798981093
 20
79.0468841653
 10
80.2797080274
 20
79.0574892513
  0
LINE
  5
323
100
AcDbEntity
  8
DRAFT
100
AcDbLine
 62
7
  6
CONTINUOUS
 10
75.9706054687
 20
85.8521345479
 11
76.0002790791
 21
85.8224609375
  0
LWPOLYLINE
  5
324
100
AcDbEntity
  8
RACCORDO
100
AcDbPolyline
 62
253
  6
CONTINUOUS
 90
8
 70
0
 10
73.3112331064
 20
76.408934342
 10
73.3106054071
 20
76.4111381022
 10
73.3099832016
 20
76.4159566088
 10
73.30936649
 20
76.4233766298
 10
73.3087537333
 20
76.4333774972
 10
73.3081464704
 20
76.4459327547
 10
73.3075493184
 20
76.4610116356
 10
73.3069622562
 20
76.4785775109
  0
LWPOLYLINE
  5
325
100
AcDbEntity
  8
RACCORDO
100
AcDbPolyline
 62
7
  6
CONTINUOUS
 90
10
 70
0
 10
72.0087303788
 20
81.1653345235
 10
72.0120848962
 20
81.1517890181
 10
72.0150755572
 20
81.1382825072
 10
72.0177023619
 20
81.1248241848
 10
72.0199677728
 20
81.1114128857
 10
72.0218693274
 20
81.0980691789
 10
72.0233996379
 20
81.084833785
 10
72.0245562417
 20
81.0717254387
 10
72.0253416014
 20
81.0587424671
 10
72.025755717
 20
81.0458937732
  0
LINE
  5
326
100
AcDbEntity
  8
RACCORDO
100
AcDbLine
 62
253
  6
CONTINUOUS
 10
71.8194428045
 20
78.7724609375
 11
71.7440839714
 21
80.2170108684
  0
LWPOLYLINE
  5
327
100
AcDbEntity
  8
RACCORDO
100
AcDbPolyline
 62
253
  6
CONTINUOUS
 90
3
 70
0
 10
72.1086168438
 20
79.0624609375
 10
72.0334407567
 20
80.5045038713
 10
72.0328562596
 20
80.5186518065
  0
LINE
  5
328
100
AcDbEntity
  8
RACCORDO
100
AcDbLine
 62
253
  6
CONTINUOUS
 10
71.7440839714
 20
80.2170108684
 11
71.7433889971
 21
80.237532128
  0
LINE
  5
329
100
AcDbEntity
  8
RACCORDO
100
AcDbLine
 62
253
  6
CONTINUOUS
 10
72.0328562596
 20
80.5186518065
 11
72.0317293918
 21
80.5520046655
  0
LINE
  5
32A
100
AcDbEntity
  8
RACCORDO
100
AcDbLine
 62
253
  6
CONTINUOUS
 10
73.6063392065
 20
76.7716770521
 11
73.6052279923
 21
76.8046864179
  0
LINE
  5
32B
100
AcDbEntity
  8
RACCORDO
100
AcDbLine
 62
253
  6
CONTINUOUS
 10
72.0317293918
 20
80.5520046655
 11
72.0306637641
 21
80.59193147
  0
LINE
  5
32C
100
AcDbEntity
  8
RACCORDO
100
AcDbLine
 62
253
  6
CONTINUOUS
 10
73.3069622562
 20
76.4785775109
 11
73.3058231449
 21
76.5209729993
  0
LINE
  5
32D
100
AcDbEntity
  8
RACCORDO
100
AcDbLine
 62
253
  6
CONTINUOUS
 10
73.6052279923
 20
76.8046864179
 11
73.6041810769
 21
76.8440451368
  0
LINE
  5
32E
100
AcDbEntity
  8
RACCORDO
100
AcDbLine
 62
7
  6
CONTINUOUS
 10
72.0292765316
 20
80.8909795483
 11
72.0274412
 21
80.9615854116
  0
LINE
  5
32F
100
AcDbEntity
  8
RACCORDO
100
AcDbLine
 62
253
  6
CONTINUOUS
 10
71.7433889971
 20
80.237532128
 11
71.7420620499
 21
80.2883161827
  0
LINE
  5
330
100
AcDbEntity
  8
RACCORDO
100
AcDbLine
 62
253
  6
CONTINUOUS
 10
73.3058231449
 20
76.5209729993
 11
73.3047436244
 21
76.572653178
  0
LINE
  5
331
100
AcDbEntity
  8
RACCORDO
100
AcDbLine
 62
7
  6
CONTINUOUS
 10
72.0274412
 20
80.9615854116
 11
72.025755715
 21
81.0458939351
  0
LINE
  5
332
100
AcDbEntity
  8
RACCORDO
100
AcDbLine
 62
253
  6
CONTINUOUS
 10
71.7420620499
 20
80.2883161827
 11
71.7408148504
 21
80.3514688418
  0
LINE
  5
333
100
AcDbEntity
  8
RACCORDO
100
AcDbLine
 62
253
  6
CONTINUOUS
 10
72.0306637641
 20
80.59193147
 11
72.0292132393
 21
80.663047019
  0
LINE
  5
334
100
AcDbEntity
  8
RACCORDO
100
AcDbLine
 62
253
  6
CONTINUOUS
 10
73.6041810769
 20
76.8440451368
 11
73.6027608416
 21
76.9138072903
  0
LINE
  5
335
100
AcDbEntity
  8
RACCORDO
100
AcDbLine
 62
253
  6
CONTINUOUS
 10
73.302806533
 20
76.701675256
 11
73.292931148
 21
77.2674356843
  0
LWPOLYLINE
  5
336
100
AcDbEntity
  8
RACCORDO
100
AcDbPolyline
 62
253
  6
CONTINUOUS
 90
3
 70
0
 10
73.3047436244
 20
76.572653178
 10
73.3032622203
 20
76.6664109996
 10
73.302806533
 20
76.701675256
  0
LINE
  5
337
100
AcDbEntity
  8
RACCORDO
100
AcDbLine
 62
253
  6
CONTINUOUS
 10
73.6027608416
 20
76.9138072903
 11
73.5922370303
 21
77.5223974911
  0
LINE
  5
338
100
AcDbEntity
  8
RACCORDO
100
AcDbLine
 62
253
  6
CONTINUOUS
 10
72.0292132393
 20
80.663047019
 11
72.0279706113
 21
80.7460742678
  0
LINE
  5
339
100
AcDbEntity
  8
RACCORDO
100
AcDbLine
 62
253
  6
CONTINUOUS
 10
71.7408148504
 20
80.3514688418
 11
71.7391403002
 21
80.4674192302
  0
LINE
  5
33A
100
AcDbEntity
  8
RACCORDO
100
AcDbLine
 62
7
  6
CONTINUOUS
 10
72.1115029101
 20
79.0574892513
 11
72.1114580135
 21
79.0624609375
  0
LWPOLYLINE
  5
33B
100
AcDbEntity
  8
RACCORDO
100
AcDbPolyline
 62
253
  6
CONTINUOUS
 90
4
 70
0
 10
73.5922370303
 20
77.5223974911
 10
73.5915538172
 20
77.5862862692
 10
73.5914163316
 20
77.603359453
 10
73.5912921732
 20
77.6208730324
  0
LINE
  5
33C
100
AcDbEntity
  8
RACCORDO
100
AcDbLine
 62
253
  6
CONTINUOUS
 10
72.0279706113
 20
80.7460742678
 11
72.0266874555
 21
80.8718697478
  0
LINE
  5
33D
100
AcDbEntity
  8
RACCORDO
100
AcDbLine
 62
253
  6
CONTINUOUS
 10
71.7391403002
 20
80.4674192302
 11
71.7373538802
 21
80.6556407696
  0
LINE
  5
33E
100
AcDbEntity
  8
RACCORDO
100
AcDbLine
 62
253
  6
CONTINUOUS
 10
73.292931148
 20
77.2674356843
 11
73.2916086176
 21
77.4523245968
  0
LINE
  5
33F
100
AcDbEntity
  8
RACCORDO
100
AcDbLine
 62
253
  6
CONTINUOUS
 10
72.0266874555
 20
80.8718697478
 11
72.025755715
 21
81.0458939351
  0
LINE
  5
340
100
AcDbEntity
  8
RACCORDO
100
AcDbLine
 62
253
  6
CONTINUOUS
 10
71.7373538802
 20
80.6556407696
 11
71.7359717254
 21
80.9298688032
  0
LINE
  5
341
100
AcDbEntity
  8
RACCORDO
100
AcDbLine
 62
253
  6
CONTINUOUS
 10
73.2916086176
 20
77.4523245968
 11
73.2909504877
 21
77.6676075208
  0
LINE
  5
342
100
AcDbEntity
  8
ASSI
100
AcDbLine
 62
7
  6
CONTINUOUS
 10
71.0706054688
 20
125.7724609375
 11
71.0706054688
 21
120.7724609375
  0
LINE
  5
343
100
AcDbEntity
  8
RACCORDO
100
AcDbLine
 62
253
  6
CONTINUOUS
 10
71.7359717254
 20
80.9298688032
 11
71.7356232624
 21
81.7551582006
  0
LINE
  5
344
100
AcDbEntity
  8
RACCORDO
100
AcDbLine
 62
7
  6
CONTINUOUS
 10
72.1115021819
 20
79.0574219684
 11
72.1115021819
 21
80.6852617769
  0
LINE
  5
345
100
AcDbEntity
  8
DRAFT
100
AcDbLine
 62
7
  6
CONTINUOUS
 10
72.2618779363
 20
120.7724609375
 11
72.2618779363
 21
125.7724609375
  0
LINE
  5
346
100
AcDbEntity
  8
DRAFT
100
AcDbLine
 62
7
  6
CONTINUOUS
 10
72.3020245856
 20
125.7724609375
 11
72.3020245856
 21
120.7724609375
  0
LINE
  5
347
100
AcDbEntity
  8
DRAFT
100
AcDbLine
 62
7
  6
CONTINUOUS
 10
85.8531517332
 20
162.2375508076
 11
85.8706054688
 21
162.2724609375
  0
LWPOLYLINE
  5
348
100
AcDbEntity
  8
RACCORDO
100
AcDbPolyline
 62
253
  6
CONTINUOUS
 90
16
 70
0
 10
151.0940839714
 20
80.2170108684
 10
151.1242869569
 20
80.2186655002
 10
151.1541613175
 20
80.2232941137
 10
151.1833820401
 20
80.2308463421
 10
151.2116312308
 20
80.2412400148
 10
151.238601554
 20
80.2543620444
 10
151.2639995795
 20
80.2700696515
 10
151.2875490028
 20
80.2881919338
 10
151.3089936366
 20
80.3085317229
 10
151.3281001837
 20
80.330867715
 10
151.3446607968
 20
80.3549568986
 10
151.3584953315
 20
80.3805371953
 10
151.3694532981
 20
80.4073302993
 10
151.3774155071
 20
80.4350447175
 10
151.3822953632
 20
80.4633789433
 10
151.384039803
 20
80.4920247284
  0
LINE
  5
349
100
AcDbEntity
  8
RACCORDO
100
AcDbLine
 62
7
  6
CONTINUOUS
 10
151.1678366183
 20
78.7724609375
 11
151.1986226801
 21
78.7740996058
  0
LWPOLYLINE
  5
34A
100
AcDbEntity
  8
RACCORDO
100
AcDbPolyline
 62
7
  6
CONTINUOUS
 90
25
 70
0
 10
152.8257962898
 20
76.3943711585
 10
152.8415828631
 20
76.3950835261
 10
152.857524527
 20
76.3966782395
 10
152.8735708714
 20
76.3991843548
 10
152.8896655894
 20
76.4026289649
 10
152.9057541935
 20
76.4070346943
 10
152.9217839116
 20
76.4124202158
 10
152.9376811567
 20
76.4187987166
 10
152.9533899977
 20
76.4261864546
 10
152.9688769051
 20
76.4346074424
 10
152.9840555723
 20
76.4440647223
 10
152.9988600649
 20
76.4545687475
 10
153.0132724073
 20
76.4661642198
 10
153.0271906761
 20
76.4788466901
 10
153.0405293593
 20
76.4926196238
 10
153.0532664493
 20
76.5075554831
 10
153.0652746085
 20
76.5236382692
 10
153.0764392488
 20
76.5408589141
 10
153.0867098082
 20
76.5593161282
 10
153.0959316186
 20
76.5789935881
 10
153.1039353214
 20
76.5998329026
 10
153.1105924162
 20
76.621869434
 10
153.1157193236
 20
76.6450566528
 10
153.1191062684
 20
76.6692538711
 10
153.1205613514
 20
76.6943254671
  0
LWPOLYLINE
  5
34B
100
AcDbEntity
  8
RACCORDO
100
AcDbPolyline
 62
253
  6
CONTINUOUS
 90
19
 70
0
 10
73.3112331064
 20
76.408934342
 10
73.3373710822
 20
76.410083303
 10
73.3633101846
 20
76.413505519
 10
73.3888530747
 20
76.4191749489
 10
73.4138054334
 20
76.4270484576
 10
73.4379774248
 20
76.437066139
 10
73.4611851409
 20
76.4491517674
 10
73.4832520258
 20
76.4632133884
 10
73.5040102078
 20
76.4791440175
 10
73.5233017632
 20
76.4968224441
 10
73.5409799346
 20
76.516114165
 10
73.5569102438
 20
76.5368724088
 10
73.5709715075
 20
76.5589392445
 10
73.5830567632
 20
76.5821467873
 10
73.5930740847
 20
76.6063184801
 10
73.6009472782
 20
76.6312704355
 10
73.6066164599
 20
76.6568128291
 10
73.6100385125
 20
76.6827513433
 10
73.6111874149
 20
76.7088886505
  0
LWPOLYLINE
  5
34C
100
AcDbEntity
  8
RACCORDO
100
AcDbPolyline
 62
253
  6
CONTINUOUS
 90
19
 70
0
 10
73.302806533
 20
76.701675256
 10
73.3287463729
 20
76.7026962469
 10
73.3544918828
 20
76.7052987893
 10
73.3798501887
 20
76.709463386
 10
73.4046313173
 20
76.7151588378
 10
73.4286496192
 20
76.7223424767
 10
73.4517251598
 20
76.7309604862
 10
73.4736850673
 20
76.7409483038
 10
73.4943648277
 20
76.7522311052
 10
73.5136095173
 20
76.7647243646
 10
73.5312749632
 20
76.778334488
 10
73.5472288238
 20
76.7929595143
 10
73.5613515796
 20
76.8084898791
 10
73.5735374292
 20
76.8248092359
 10
73.5836950816
 20
76.8417953271
 10
73.5917484399
 20
76.8593209004
 10
73.5976371721
 20
76.8772546619
 10
73.6013171623
 20
76.8954622596
 10
73.6027608416
 20
76.9138072903
  0
LWPOLYLINE
  5
34D
100
AcDbEntity
  8
RACCORDO
100
AcDbPolyline
 62
253
  6
CONTINUOUS
 90
19
 70
0
 10
73.292931148
 20
77.2674356843
 10
73.3188712927
 20
77.2684566941
 10
73.3446170757
 20
77.2710592894
 10
73.3699756177
 20
77.2752239677
 10
73.3947569447
 20
77.280919525
 10
73.4187754009
 20
77.2881032868
 10
73.4418510403
 20
77.2967214265
 10
73.4638109917
 20
77.3067093737
 10
73.4844907449
 20
77.317992297
 10
73.5037353745
 20
77.3304856592
 10
73.5214007147
 20
77.3440958587
 10
73.5373544339
 20
77.3587209287
 10
73.5514770203
 20
77.3742512962
 10
73.5636626852
 20
77.3905706098
 10
73.5738201519
 20
77.40755661
 10
73.581873338
 20
77.4250820419
 10
73.5877619264
 20
77.4430156116
 10
73.5914418172
 20
77.4612229703
 10
73.5928854566
 20
77.4795677187
  0
LWPOLYLINE
  5
34E
100
AcDbEntity
  8
RACCORDO
100
AcDbPolyline
 62
7
  6
CONTINUOUS
 90
9
 70
0
 10
180.7132333333
 20
77.6677197309
 10
180.752115798
 20
77.6681216637
 10
180.7902469825
 20
77.6688121531
 10
180.827542602
 20
77.6697664554
 10
180.8640869413
 20
77.6710093143
 10
180.9001328547
 20
77.67261496
 10
180.935764627
 20
77.674608136
 10
180.9708979735
 20
77.6769640987
 10
181.005532894
 20
77.6796828483
  0
LWPOLYLINE
  5
34F
100
AcDbEntity
  8
RACCORDO
100
AcDbPolyline
 62
7
  6
CONTINUOUS
 90
19
 70
0
 10
78.9510263381
 20
77.6564355337
 10
78.9232277517
 20
77.6561536792
 10
78.8958755137
 20
77.6553521724
 10
78.8691928143
 20
77.6540786563
 10
78.843392337
 20
77.6524150016
 10
78.8186623822
 20
77.6504011625
 10
78.7951675175
 20
77.6480322463
 10
78.7730585026
 20
77.645386375
 10
78.7524884397
 20
77.6425421658
 10
78.733597091
 20
77.6395036207
 10
78.7164854308
 20
77.6363650418
 10
78.7012379242
 20
77.6332150113
 10
78.6879326462
 20
77.6300558119
 10
78.676609006
 20
77.626985696
 10
78.6672912872
 20
77.6240946651
 10
78.6599949655
 20
77.6213741814
 10
78.6547039481
 20
77.6188805568
 10
78.6513806095
 20
77.6167326763
 10
78.6499778359
 20
77.6150114127
  0
LINE
  5
350
100
AcDbEntity
  8
RACCORDO
100
AcDbLine
 62
7
  6
CONTINUOUS
 10
181.3709895002
 20
75.7724609298
 11
50.3702214373
 21
75.7724609298
  0
LINE
  5
351
100
AcDbEntity
  8
RACCORDO
100
AcDbLine
 62
7
  6
CONTINUOUS
 10
181.368305782
 20
76.0753431718
 11
152.2582625574
 21
76.0734014923
  0
LINE
  5
352
100
AcDbEntity
  8
RACCORDO
100
AcDbLine
 62
7
  6
CONTINUOUS
 10
152.2582625574
 20
76.0734014923
 11
123.1481424952
 21
76.0725693432
  0
LINE
  5
353
100
AcDbEntity
  8
RACCORDO
100
AcDbLine
 62
7
  6
CONTINUOUS
 10
123.1481424952
 20
76.0725693432
 11
79.4829483801
 21
76.0734014923
  0
LINE
  5
354
100
AcDbEntity
  8
RACCORDO
100
AcDbLine
 62
7
  6
CONTINUOUS
 10
50.6200229212
 20
76.3224609375
 11
181.1211880163
 21
76.3224609375
  0
LINE
  5
355
100
AcDbEntity
  8
RACCORDO
100
AcDbLine
 62
7
  6
CONTINUOUS
 10
181.070864387
 20
76.3724609375
 11
50.6703465505
 21
76.3724609375
  0
LINE
  5
356
100
AcDbEntity
  8
RACCORDO
100
AcDbLine
 62
253
  6
CONTINUOUS
 10
158.4154146477
 20
76.3943711585
 11
152.8257962898
 21
76.3943711585
  0
LINE
  5
357
100
AcDbEntity
  8
RACCORDO
100
AcDbLine
 62
253
  6
CONTINUOUS
 10
78.9154146477
 20
76.3943711585
 11
73.3257962898
 21
76.3943711585
  0
LINE
  5
358
100
AcDbEntity
  8
RACCORDO
100
AcDbLine
 62
253
  6
CONTINUOUS
 10
181.0343909825
 20
76.408934342
 11
158.4299778311
 21
76.408934342
  0
LINE
  5
359
100
AcDbEntity
  8
RACCORDO
100
AcDbLine
 62
253
  6
CONTINUOUS
 10
152.8112331064
 20
76.408934342
 11
78.9299778311
 21
76.408934342
  0
LINE
  5
35A
100
AcDbEntity
  8
RACCORDO
100
AcDbLine
 62
253
  6
CONTINUOUS
 10
73.3112331064
 20
76.408934342
 11
50.706819955
 21
76.408934342
  0
LINE
  5
35B
100
AcDbEntity
  8
RACCORDO
100
AcDbLine
 62
253
  6
CONTINUOUS
 10
158.1206495861
 20
76.6943254671
 11
153.1205613514
 21
76.6943254671
  0
LINE
  5
35C
100
AcDbEntity
  8
RACCORDO
100
AcDbLine
 62
253
  6
CONTINUOUS
 10
78.6206495861
 20
76.6943254671
 11
73.6205613514
 21
76.6943254671
  0
LINE
  5
35D
100
AcDbEntity
  8
RACCORDO
100
AcDbLine
 62
253
  6
CONTINUOUS
 10
73.302806533
 20
76.701675256
 11
50.5019083268
 21
76.7016822676
  0
LINE
  5
35E
100
AcDbEntity
  8
RACCORDO
100
AcDbLine
 62
253
  6
CONTINUOUS
 10
181.2393096223
 20
76.701675256
 11
158.4384044045
 21
76.701675256
  0
LINE
  5
35F
100
AcDbEntity
  8
RACCORDO
100
AcDbLine
 62
253
  6
CONTINUOUS
 10
152.802806533
 20
76.701675256
 11
78.9384044045
 21
76.701675256
  0
LINE
  5
360
100
AcDbEntity
  8
RACCORDO
100
AcDbLine
 62
253
  6
CONTINUOUS
 10
51.0675134783
 20
77.2674356843
 11
73.292931148
 21
77.2674356843
  0
LINE
  5
361
100
AcDbEntity
  8
RACCORDO
100
AcDbLine
 62
253
  6
CONTINUOUS
 10
158.4482797895
 20
77.2674356843
 11
180.6736432148
 21
77.2674356843
  0
LINE
  5
362
100
AcDbEntity
  8
RACCORDO
100
AcDbLine
 62
253
  6
CONTINUOUS
 10
78.9484475056
 20
77.2770441365
 11
152.7927634319
 21
77.2770441365
  0
LINE
  5
363
100
AcDbEntity
  8
RACCORDO
100
AcDbLine
 62
7
  6
CONTINUOUS
 10
78.9510263312
 20
77.6564362226
 11
152.790184608
 21
77.6564363868
  0
LINE
  5
364
100
AcDbEntity
  8
RACCORDO
100
AcDbLine
 62
7
  6
CONTINUOUS
 10
180.7132333333
 20
77.6677197309
 11
158.4509137523
 21
77.6676073311
  0
LINE
  5
365
100
AcDbEntity
  8
RACCORDO
100
AcDbLine
 62
253
  6
CONTINUOUS
 10
50.3605549624
 20
78.4695172123
 11
49.8655802159
 21
78.4695172135
  0
LINE
  5
366
100
AcDbEntity
  8
RACCORDO
100
AcDbLine
 62
253
  6
CONTINUOUS
 10
181.3806559751
 20
78.4695172123
 11
181.8756307219
 21
78.4695172123
  0
LINE
  5
367
100
AcDbEntity
  8
RACCORDO
100
AcDbLine
 62
7
  6
CONTINUOUS
 10
180.6206054688
 20
78.5224609375
 11
158.4422988057
 21
78.5224609375
  0
LINE
  5
368
100
AcDbEntity
  8
RACCORDO
100
AcDbLine
 62
7
  6
CONTINUOUS
 10
152.7989121318
 20
78.5224609375
 11
78.9422988057
 21
78.5224609375
  0
LINE
  5
369
100
AcDbEntity
  8
RACCORDO
100
AcDbLine
 62
7
  6
CONTINUOUS
 10
73.2989121318
 20
78.5224609375
 11
51.1206054688
 21
78.5224609375
  0
LINE
  5
36A
100
AcDbEntity
  8
RACCORDO
100
AcDbLine
 62
7
  6
CONTINUOUS
 10
179.3706054688
 20
78.7724609375
 11
159.921768133
 21
78.7724609375
  0
LINE
  5
36B
100
AcDbEntity
  8
RACCORDO
100
AcDbLine
 62
7
  6
CONTINUOUS
 10
151.1694428045
 20
78.7724609375
 11
80.571768133
 21
78.7724609375
  0
LINE
  5
36C
100
AcDbEntity
  8
RACCORDO
100
AcDbLine
 62
7
  6
CONTINUOUS
 10
71.8194428045
 20
78.7724609375
 11
52.3706054688
 21
78.7724609375
  0
LINE
  5
36D
100
AcDbEntity
  8
RACCORDO
100
AcDbLine
 62
253
  6
CONTINUOUS
 10
159.6325940937
 20
79.0624609375
 11
159.629752924
 21
79.0624609375
  0
LINE
  5
36E
100
AcDbEntity
  8
RACCORDO
100
AcDbLine
 62
253
  6
CONTINUOUS
 10
151.4614580135
 20
79.0624609375
 11
151.4586168438
 21
79.0624609375
  0
LINE
  5
36F
100
AcDbEntity
  8
RACCORDO
100
AcDbLine
 62
253
  6
CONTINUOUS
 10
80.2825940937
 20
79.0624609375
 11
80.279752924
 21
79.0624609375
  0
LINE
  5
370
100
AcDbEntity
  8
RACCORDO
100
AcDbLine
 62
253
  6
CONTINUOUS
 10
72.1114580135
 20
79.0624609375
 11
72.1086168438
 21
79.0624609375
  0
LINE
  5
371
100
AcDbEntity
  8
RACCORDO
100
AcDbLine
 62
253
  6
CONTINUOUS
 10
177.9777318826
 20
80.2170108684
 11
159.9971269661
 21
80.2170108684
  0
LINE
  5
372
100
AcDbEntity
  8
RACCORDO
100
AcDbLine
 62
253
  6
CONTINUOUS
 10
151.0940839714
 20
80.2170108684
 11
80.6471269661
 21
80.2170108684
  0
LINE
  5
373
100
AcDbEntity
  8
RACCORDO
100
AcDbLine
 62
253
  6
CONTINUOUS
 10
71.7440839714
 20
80.2170108684
 11
53.7634790549
 21
80.2170108684
  0
LINE
  5
374
100
AcDbEntity
  8
RACCORDO
100
AcDbLine
 62
7
  6
CONTINUOUS
 10
79.4829483801
 20
76.0734014923
 11
50.3729051555
 21
76.0753431718
  0
LWPOLYLINE
  5
375
100
AcDbEntity
  8
RACCORDO
100
AcDbPolyline
 62
7
  6
CONTINUOUS
 90
10
 70
0
 10
73.290297184
 20
77.6676072044
 10
51.0280234483
 20
77.667718972
 10
50.989129426
 20
77.6681206601
 10
50.9509796767
 20
77.6688115619
 10
50.9136495785
 20
77.6697675504
 10
50.8770637532
 20
77.6710127526
 10
50.8409960669
 20
77.6726195496
 10
50.8053711414
 20
77.6746120686
 10
50.7702643547
 20
77.6769661825
 10
50.735675707
 20
77.6796818912
  0
LWPOLYLINE
  5
376
100
AcDbEntity
  8
RACCORDO
100
AcDbPolyline
 62
7
  6
CONTINUOUS
 90
19
 70
0
 10
152.7901845994
 20
77.6564355337
 10
152.8179242635
 20
77.6561529215
 10
152.8452357892
 20
77.6553548326
 10
152.8718963653
 20
77.6540864458
 10
152.89769551
 20
77.6524260071
 10
152.922440696
 20
77.6504122106
 10
152.9459578107
 20
77.6480425087
 10
152.9680946402
 20
77.6453952141
 10
152.988696226
 20
77.6425471795
 10
153.0076146565
 20
77.6395039993
 10
153.0247483463
 20
77.6363612151
 10
153.0400127032
 20
77.6332069326
 10
153.0533255152
 20
77.6300439692
 10
153.0646488172
 20
77.6269719763
 10
153.0739605291
 20
77.6240810395
 10
153.0812455804
 20
77.6213618045
 10
153.086523276
 20
77.6188706102
 10
153.0898355584
 20
77.6167269109
 10
153.0912331016
 20
77.6150114127
  0
LWPOLYLINE
  5
377
100
AcDbEntity
  8
RACCORDO
100
AcDbPolyline
 62
7
  6
CONTINUOUS
 90
19
 70
0
 10
73.2902971768
 20
77.6676064976
 10
73.3178739479
 20
77.667298001
 10
73.3450431154
 20
77.6664473242
 10
73.371584763
 20
77.6650968229
 10
73.3972895416
 20
77.6633194494
 10
73.4219666055
 20
77.6611534648
 10
73.4454438447
 20
77.6586005056
 10
73.4675681007
 20
77.6557356736
 10
73.4881818453
 20
77.6526333459
 10
73.5071349411
 20
77.6493043481
 10
73.5243217963
 20
77.6458421362
 10
73.5396533513
 20
77.6423329206
 10
73.5530430707
 20
77.6387854096
 10
73.564447277
 20
77.6352984693
 10
73.573838064
 20
77.6319614297
 10
73.5811948642
 20
77.6287714145
 10
73.5865308233
 20
77.6257873003
 10
73.589881619
 20
77.6231271837
 10
73.5912921732
 20
77.6208730324
  0
LWPOLYLINE
  5
378
100
AcDbEntity
  8
RACCORDO
100
AcDbPolyline
 62
253
  6
CONTINUOUS
 90
28
 70
0
 10
50.706819955
 20
76.408934342
 10
50.6080079384
 20
76.4118390169
 10
50.5095301408
 20
76.4204830232
 10
50.4117196508
 20
76.4348371238
 10
50.3149072998
 20
76.4548527676
 10
50.2194205431
 20
76.4804622544
 10
50.1255823525
 20
76.5115789633
 10
50.0337101235
 20
76.548097646
 10
49.9441146023
 20
76.5898947828
 10
49.8570988341
 20
76.6368290001
 10
49.7729571386
 20
76.6887415491
 10
49.6919741143
 20
76.7454568421
 10
49.6144236758
 20
76.806783047
 10
49.5405681274
 20
76.8725127358
 10
49.4706572762
 20
76.9424235863
 10
49.4049275865
 20
77.016279134
 10
49.3436013806
 20
77.0938295721
 10
49.2868860865
 20
77.1748125962
 10
49.2349735364
 20
77.2589542916
 10
49.1880393179
 20
77.34597006
 10
49.14624218
 20
77.4355655816
 10
49.1097234962
 20
77.527437811
 10
49.0786067862
 20
77.6212760022
 10
49.0529972983
 20
77.7167627597
 10
49.0329816538
 20
77.813575112
 10
49.0186275531
 20
77.911385604
 10
49.0099835472
 20
78.0098634041
 10
49.0070788732
 20
78.1086754238
  0
LWPOLYLINE
  5
379
100
AcDbEntity
  8
RACCORDO
100
AcDbPolyline
 62
253
  6
CONTINUOUS
 90
19
 70
0
 10
158.4384044045
 20
76.701675256
 10
158.4124643596
 20
76.7026962613
 10
158.3867186648
 20
76.7052988409
 10
158.3613601976
 20
76.7094634944
 10
158.3365789316
 20
76.7151590195
 10
158.3125605212
 20
76.7223427441
 10
158.2894849097
 20
76.7309608446
 10
158.2675249686
 20
76.7409487533
 10
158.2468452097
 20
76.7522316409
 10
158.2276005587
 20
76.7647249736
 10
158.2099351834
 20
76.7783351519
 10
158.1939814189
 20
76.7929602106
 10
158.1798587795
 20
76.808490579
 10
158.167673058
 20
76.8248099068
 10
158.1575155351
 20
76.841795935
 10
158.1494622976
 20
76.8593214089
 10
158.1435736668
 20
76.8772550343
 10
158.1398937469
 20
76.8954624616
 10
158.1384500959
 20
76.9138072903
  0
LWPOLYLINE
  5
37A
100
AcDbEntity
  8
RACCORDO
100
AcDbPolyline
 62
253
  6
CONTINUOUS
 90
19
 70
0
 10
158.4482797895
 20
77.2674356843
 10
158.4223399497
 20
77.2684566753
 10
158.3965944398
 20
77.2710592177
 10
158.3712361338
 20
77.2752238144
 10
158.3464550053
 20
77.2809192661
 10
158.3224367033
 20
77.2881029051
 10
158.2993611627
 20
77.2967209145
 10
158.2774012552
 20
77.3067087321
 10
158.2567214948
 20
77.3179915336
 10
158.2374768052
 20
77.330484793
 10
158.2198113593
 20
77.3440949164
 10
158.2038574987
 20
77.3587199426
 10
158.1897347429
 20
77.3742503075
 10
158.1775488933
 20
77.3905696643
 10
158.167391241
 20
77.4075557555
 10
158.1593378826
 20
77.4250813288
 10
158.1534491504
 20
77.4430150903
 10
158.1497691602
 20
77.461222688
 10
158.1483254809
 20
77.4795677187
  0
LWPOLYLINE
  5
37B
100
AcDbEntity
  8
RACCORDO
100
AcDbPolyline
 62
253
  6
CONTINUOUS
 90
19
 70
0
 10
158.4299778311
 20
76.408934342
 10
158.4038401457
 20
76.4100832775
 10
158.3779013068
 20
76.4135054211
 10
158.352358648
 20
76.4191747383
 10
158.3274064892
 20
76.4270480988
 10
158.3032346578
 20
76.4370656048
 10
158.2800270446
 20
76.4491510467
 10
158.2579602052
 20
76.4632124825
 10
158.2372020164
 20
76.4791429377
 10
158.2179103995
 20
76.4968212189
 10
158.2002321183
 20
76.5161128359
 10
158.1843016631
 20
76.5368710247
 10
158.1702402273
 20
76.5589378641
 10
158.1581547854
 20
76.5821454773
 10
158.1481372794
 20
76.6063173087
 10
158.1402639189
 20
76.6312694675
 10
158.1345946018
 20
76.6568121262
 10
158.1311724582
 20
76.6827509651
 10
158.1300235226
 20
76.7088886505
  0
LINE
  5
37C
100
AcDbEntity
  8
RACCORDO
100
AcDbLine
 62
7
  6
CONTINUOUS
 10
80.5733743192
 20
78.7724609375
 11
80.5425882574
 21
78.7740996058
  0
LWPOLYLINE
  5
37D
100
AcDbEntity
  8
RACCORDO
100
AcDbPolyline
 62
253
  6
CONTINUOUS
 90
16
 70
0
 10
80.6471269661
 20
80.2170108684
 10
80.6169243281
 20
80.218665464
 10
80.5870502696
 20
80.22329398
 10
80.5578297954
 20
80.2308460619
 10
80.5295807998
 20
80.2412395496
 10
80.5026106082
 20
80.2543613704
 10
80.4772126339
 20
80.2700687699
 10
80.4536631855
 20
80.2881908648
 10
80.4322184613
 20
80.3085305018
 10
80.4131117622
 20
80.3308664027
 10
80.3965509529
 20
80.3549555715
 10
80.3827162012
 20
80.3805359381
 10
80.3717580177
 20
80.4073292096
 10
80.3637956182
 20
80.4350438976
 10
80.3589156271
 20
80.4633784895
 10
80.3571711345
 20
80.4920247284
  0
LINE
  5
37E
100
AcDbEntity
  8
DRAFT
100
AcDbLine
 62
7
  6
CONTINUOUS
 10
76.7530743694
 20
98.7423532436
 11
76.7229666755
 21
98.7724609375
  0
LINE
  5
37F
100
AcDbEntity
  8
DRAFT
100
AcDbLine
 62
7
  6
CONTINUOUS
 10
85.8706054688
 20
84.2724609375
 11
85.8573819041
 21
84.2989100811
  0
LWPOLYLINE
  5
380
100
AcDbEntity
  8
RACCORDO
100
AcDbPolyline
 62
253
  6
CONTINUOUS
 90
19
 70
0
 10
78.6384500959
 20
76.9138072903
 10
78.6398937752
 20
76.8954622596
 10
78.6435737654
 20
76.8772546619
 10
78.6494624976
 20
76.8593209004
 10
78.6575158559
 20
76.8417953271
 10
78.6676735083
 20
76.8248092359
 10
78.6798593579
 20
76.8084898791
 10
78.6939821137
 20
76.7929595143
 10
78.7099359743
 20
76.778334488
 10
78.7276014202
 20
76.7647243646
 10
78.7468461098
 20
76.7522311052
 10
78.7675258702
 20
76.7409483038
 10
78.7894857777
 20
76.7309604862
 10
78.8125613183
 20
76.7223424767
 10
78.8365796202
 20
76.7151588378
 10
78.8613607488
 20
76.709463386
 10
78.8867190547
 20
76.7052987893
 10
78.9124645646
 20
76.7026962469
 10
78.9384044045
 20
76.701675256
  0
LWPOLYLINE
  5
381
100
AcDbEntity
  8
RACCORDO
100
AcDbPolyline
 62
253
  6
CONTINUOUS
 90
19
 70
0
 10
78.6484931971
 20
77.4891761709
 10
78.649936844
 20
77.4708313676
 10
78.6536167537
 20
77.4526239626
 10
78.6595053694
 20
77.4346903557
 10
78.667558588
 20
77.4171648965
 10
78.6777160897
 20
77.4001788787
 10
78.6899017893
 20
77.3838595567
 10
78.7040244075
 20
77.3683291897
 10
78.7199781529
 20
77.3537041281
 10
78.7376435127
 20
77.3400939432
 10
78.7568881532
 20
77.3276006007
 10
78.7775679073
 20
77.3163177009
 10
78.79952785
 20
77.3063297786
 10
78.8226034706
 20
77.297711664
 10
78.8466218975
 20
77.290527926
 10
78.8714031873
 20
77.2848323893
 10
78.8967616852
 20
77.280667727
 10
78.9225074175
 20
77.2780651425
 10
78.9484475056
 20
77.2770441372
  0
LWPOLYLINE
  5
382
100
AcDbEntity
  8
RACCORDO
100
AcDbPolyline
 62
7
  6
CONTINUOUS
 90
25
 70
0
 10
78.6206495861
 20
76.6943254671
 10
78.6224266009
 20
76.6692593924
 10
78.6257495793
 20
76.645061077
 10
78.6306185213
 20
76.621869434
 10
78.6371946463
 20
76.5998315139
 10
78.645316735
 20
76.5789942298
 10
78.6545011293
 20
76.5593161282
 10
78.6646980939
 20
76.5408576519
 10
78.6759573642
 20
76.52363863
 10
78.6879444882
 20
76.5075554831
 10
78.7006275827
 20
76.4926186978
 10
78.7140385309
 20
76.4788470034
 10
78.7279385302
 20
76.4661642198
 10
78.7423110898
 20
76.4545680652
 10
78.7571727005
 20
76.4440650196
 10
78.7723340324
 20
76.4346074424
 10
78.7877903995
 20
76.4261859308
 10
78.8035464879
 20
76.4187990031
 10
78.8194270259
 20
76.4124202158
 10
78.8354313121
 20
76.4070342581
 10
78.8515600479
 20
76.4026292171
 10
78.8676400661
 20
76.3991843548
 10
78.8836136443
 20
76.3966769915
 10
78.8995385048
 20
76.39508199
 10
78.9154146477
 20
76.3943711585
  0
LWPOLYLINE
  5
383
100
AcDbEntity
  8
RACCORDO
100
AcDbPolyline
 62
253
  6
CONTINUOUS
 90
19
 70
0
 10
78.6300235226
 20
76.7088886505
 10
78.631172422
 20
76.6827513766
 10
78.6345944668
 20
76.6568128907
 10
78.6402636366
 20
76.6312705203
 10
78.6481368155
 20
76.6063185824
 10
78.6581541211
 20
76.5821469014
 10
78.6702393608
 20
76.5589393644
 10
78.6843006097
 20
76.5368725288
 10
78.7002309064
 20
76.51611428
 10
78.7179090685
 20
76.4968225499
 10
78.7372006187
 20
76.4791441107
 10
78.7579588003
 20
76.4632134664
 10
78.7800256893
 20
76.4491518294
 10
78.8032334144
 20
76.4370661849
 10
78.8274054195
 20
76.4270484884
 10
78.8523577955
 20
76.419174967
 10
78.8779007054
 20
76.4135055274
 10
78.9038398304
 20
76.4100833052
 10
78.9299778311
 20
76.408934342
  0
LINE
  5
384
100
AcDbEntity
  8
RACCORDO
100
AcDbLine
 62
7
  6
CONTINUOUS
 10
76.0252894417
 20
161.039618225
 11
76.0154153659
 21
161.60530365
  0
LINE
  5
385
100
AcDbEntity
  8
RACCORDO
100
AcDbLine
 62
253
  6
CONTINUOUS
 10
78.6499778359
 20
77.6150114127
 11
78.6467880661
 21
77.9315294739
  0
LINE
  5
386
100
AcDbEntity
  8
RACCORDO
100
AcDbLine
 62
253
  6
CONTINUOUS
 10
78.9510263312
 20
77.6564362226
 11
78.9422988057
 21
78.5224609375
  0
LINE
  5
387
100
AcDbEntity
  8
RACCORDO
100
AcDbLine
 62
7
  6
CONTINUOUS
 10
73.5944228714
 20
80.6852617769
 11
73.5944228714
 21
77.9315294739
  0
LINE
  5
388
100
AcDbEntity
  8
RACCORDO
100
AcDbLine
 62
7
  6
CONTINUOUS
 10
73.6206054688
 20
80.6852617769
 11
73.6206054688
 21
76.6994705967
  0
LINE
  5
389
100
AcDbEntity
  8
RACCORDO
100
AcDbLine
 62
7
  6
CONTINUOUS
 10
74.3416644877
 20
127.5200540971
 11
74.3416644877
 21
119.0248677779
  0
LINE
  5
38A
100
AcDbEntity
  8
0
100
AcDbLine
 62
7
  6
CONTINUOUS
 10
75.3706054688
 20
98.0224609375
 11
75.3706054688
 21
104.5224609375
  0
LINE
  5
38B
100
AcDbEntity
  8
DRAFT
100
AcDbLine
 62
7
  6
CONTINUOUS
 10
75.8391863519
 20
120.7724609375
 11
75.8391863519
 21
125.7724609375
  0
LINE
  5
38C
100
AcDbEntity
  8
DRAFT
100
AcDbLine
 62
7
  6
CONTINUOUS
 10
75.8793330012
 20
125.7724609375
 11
75.8793330012
 21
120.7724609375
  0
LINE
  5
38D
100
AcDbEntity
  8
DRAFT
100
AcDbLine
 62
7
  6
CONTINUOUS
 10
75.8863138308
 20
162.3038800544
 11
75.8863138308
 21
160.2724609375
  0
LINE
  5
38E
100
AcDbEntity
  8
DRAFT
100
AcDbLine
 62
7
  6
CONTINUOUS
 10
75.8863138308
 20
86.5724609375
 11
75.8863138308
 21
84.2410418206
  0
LINE
  5
38F
100
AcDbEntity
  8
DRAFT
100
AcDbLine
 62
7
  6
CONTINUOUS
 10
75.9706054687
 20
85.8521345479
 11
75.9706054687
 21
86.5724609375
  0
LINE
  5
390
100
AcDbEntity
  8
DRAFT
100
AcDbLine
 62
7
  6
CONTINUOUS
 10
75.9706054688
 20
160.2724609375
 11
75.9706054688
 21
160.6927873271
  0
LINE
  5
391
100
AcDbEntity
  8
RACCORDO
100
AcDbLine
 62
7
  6
CONTINUOUS
 10
76.0002790791
 20
161.5224609375
 11
76.0002790791
 21
160.7224609375
  0
LINE
  5
392
100
AcDbEntity
  8
RACCORDO
100
AcDbLine
 62
7
  6
CONTINUOUS
 10
76.0002790791
 20
85.8224609375
 11
76.0002790791
 21
85.0224609375
  0
LINE
  5
393
100
AcDbEntity
  8
RACCORDO
100
AcDbLine
 62
7
  6
CONTINUOUS
 10
76.0273344298
 20
160.7567755126
 11
76.0273344298
 21
160.3025439528
  0
LINE
  5
394
100
AcDbEntity
  8
RACCORDO
100
AcDbLine
 62
7
  6
CONTINUOUS
 10
76.0273344298
 20
86.2423779222
 11
76.0273344298
 21
85.7881463624
  0
LINE
  5
395
100
AcDbEntity
  8
RACCORDO
100
AcDbLine
 62
7
  6
CONTINUOUS
 10
76.6706054688
 20
98.0224609375
 11
76.6706054688
 21
104.5224609375
  0
LINE
  5
396
100
AcDbEntity
  8
DRAFT
100
AcDbLine
 62
7
  6
CONTINUOUS
 10
76.7229666755
 20
98.7724609375
 11
76.7229666755
 21
103.7724609375
  0
LINE
  5
397
100
AcDbEntity
  8
RACCORDO
100
AcDbLine
 62
7
  6
CONTINUOUS
 10
76.7530743694
 20
98.0224609375
 11
76.7530743694
 21
98.7423532436
  0
LINE
  5
398
100
AcDbEntity
  8
DRAFT
100
AcDbLine
 62
7
  6
CONTINUOUS
 10
76.7530743694
 20
98.7423532436
 11
76.7530743694
 21
98.8267345611
  0
LINE
  5
399
100
AcDbEntity
  8
DRAFT
100
AcDbLine
 62
7
  6
CONTINUOUS
 10
76.7530743694
 20
103.7181873139
 11
76.7530743694
 21
103.8025686314
  0
LINE
  5
39A
100
AcDbEntity
  8
RACCORDO
100
AcDbLine
 62
7
  6
CONTINUOUS
 10
76.7530743694
 20
103.8025686314
 11
76.7530743694
 21
104.5224609375
  0
LINE
  5
39B
100
AcDbEntity
  8
DRAFT
100
AcDbLine
 62
7
  6
CONTINUOUS
 10
76.7620499542
 20
103.7181873139
 11
76.7620499542
 21
98.8267345611
  0
LINE
  5
39C
100
AcDbEntity
  8
DRAFT
100
AcDbLine
 62
7
  6
CONTINUOUS
 10
76.8706054688
 20
104.5224609375
 11
76.8706054688
 21
103.7724609375
  0
LINE
  5
39D
100
AcDbEntity
  8
DRAFT
100
AcDbLine
 62
7
  6
CONTINUOUS
 10
76.8706054688
 20
98.7724609375
 11
76.8706054688
 21
98.0224609375
  0
LINE
  5
39E
100
AcDbEntity
  8
DRAFT
100
AcDbLine
 62
7
  6
CONTINUOUS
 10
76.9020245856
 20
104.5224609375
 11
76.9020245856
 21
98.0224609375
  0
LINE
  5
39F
100
AcDbEntity
  8
ASSI
100
AcDbLine
 62
7
  6
CONTINUOUS
 10
77.0706054688
 20
120.7724609375
 11
77.0706054688
 21
125.7724609375
  0
LINE
  5
3A0
100
AcDbEntity
  8
RACCORDO
100
AcDbLine
 62
7
  6
CONTINUOUS
 10
78.6206054688
 20
76.6994705967
 11
78.6206054688
 21
80.6852617769
  0
LINE
  5
3A1
100
AcDbEntity
  8
RACCORDO
100
AcDbLine
 62
7
  6
CONTINUOUS
 10
78.6467880661
 20
77.9315294739
 11
78.6467880661
 21
80.6852617769
  0
LINE
  5
3A2
100
AcDbEntity
  8
RACCORDO
100
AcDbLine
 62
253
  6
CONTINUOUS
 10
78.9493582249
 20
77.3895589647
 11
78.9503966586
 21
77.6564365505
  0
LINE
  5
3A3
100
AcDbEntity
  8
RACCORDO
100
AcDbLine
 62
253
  6
CONTINUOUS
 10
78.9484475056
 20
77.2770441365
 11
78.9493582249
 21
77.3895589647
  0
LINE
  5
3A4
100
AcDbEntity
  8
RACCORDO
100
AcDbLine
 62
253
  6
CONTINUOUS
 10
73.2989121318
 20
78.5224609375
 11
73.290297184
 21
77.6676072044
  0
LINE
  5
3A5
100
AcDbEntity
  8
RACCORDO
100
AcDbLine
 62
253
  6
CONTINUOUS
 10
73.5944228714
 20
77.9315294739
 11
73.5912921732
 21
77.6208730324
  0
LINE
  5
3A6
100
AcDbEntity
  8
RACCORDO
100
AcDbLine
 62
253
  6
CONTINUOUS
 10
78.6493395133
 20
77.5479176436
 11
78.6499778359
 21
77.6150114127
  0
LINE
  5
3A7
100
AcDbEntity
  8
RACCORDO
100
AcDbLine
 62
253
  6
CONTINUOUS
 10
78.6484931971
 20
77.4891761709
 11
78.6493395133
 21
77.5479176436
  0
LINE
  5
3A8
100
AcDbEntity
  8
RACCORDO
100
AcDbLine
 62
7
  6
CONTINUOUS
 10
76.0154153659
 20
84.939618225
 11
76.0252894417
 21
85.50530365
  0
LINE
  5
3A9
100
AcDbEntity
  8
RACCORDO
100
AcDbLine
 62
253
  6
CONTINUOUS
 10
78.6384500959
 20
76.9138072903
 11
78.6484931971
 21
77.4891761709
  0
LWPOLYLINE
  5
3AA
100
AcDbEntity
  8
RACCORDO
100
AcDbPolyline
 62
7
  6
CONTINUOUS
 90
25
 70
0
 10
73.6205613514
 20
76.6943254671
 10
73.6191062684
 20
76.6692538711
 10
73.6157193236
 20
76.6450566528
 10
73.6105924162
 20
76.621869434
 10
73.6039353214
 20
76.5998329026
 10
73.5959316186
 20
76.5789935881
 10
73.5867098082
 20
76.5593161282
 10
73.5764392488
 20
76.5408589141
 10
73.5652746085
 20
76.5236382692
 10
73.5532664493
 20
76.5075554831
 10
73.5405293593
 20
76.4926196238
 10
73.5271906761
 20
76.4788466901
 10
73.5132724073
 20
76.4661642198
 10
73.4988600649
 20
76.4545687475
 10
73.4840555723
 20
76.4440647223
 10
73.4688769051
 20
76.4346074424
 10
73.4533899977
 20
76.4261864546
 10
73.4376811567
 20
76.4187987166
 10
73.4217839116
 20
76.4124202158
 10
73.4057541935
 20
76.4070346943
 10
73.3896655894
 20
76.4026289649
 10
73.3735708714
 20
76.3991843548
 10
73.357524527
 20
76.3966782395
 10
73.3415828631
 20
76.3950835261
 10
73.3257962898
 20
76.3943711585
  0
LWPOLYLINE
  5
3AB
100
AcDbEntity
  8
RACCORDO
100
AcDbPolyline
 62
253
  6
CONTINUOUS
 90
16
 70
0
 10
71.7440839714
 20
80.2170108684
 10
71.7742869569
 20
80.2186655002
 10
71.8041613175
 20
80.2232941137
 10
71.8333820401
 20
80.2308463421
 10
71.8616312308
 20
80.2412400148
 10
71.888601554
 20
80.2543620444
 10
71.9139995795
 20
80.2700696515
 10
71.9375490028
 20
80.2881919338
 10
71.9589936366
 20
80.3085317229
 10
71.9781001837
 20
80.330867715
 10
71.9946607968
 20
80.3549568986
 10
72.0084953315
 20
80.3805371953
 10
72.0194532981
 20
80.4073302993
 10
72.0274155071
 20
80.4350447175
 10
72.0322953632
 20
80.4633789433
 10
72.034039803
 20
80.4920247284
  0
LWPOLYLINE
  5
3AC
100
AcDbEntity
  8
RACCORDO
100
AcDbPolyline
 62
7
  6
CONTINUOUS
 90
3
 70
0
 10
71.8194428045
 20
78.7724609375
 10
71.8446016517
 20
78.7736989689
 10
71.8696072207
 20
78.7771198493
  0
LINE
  5
3AD
100
AcDbEntity
  8
RACCORDO
100
AcDbLine
 62
7
  6
CONTINUOUS
 10
159.6333310881
 20
80.6852617769
 11
151.4578798494
 21
80.6852617769
  0
LINE
  5
3AE
100
AcDbEntity
  8
RACCORDO
100
AcDbLine
 62
7
  6
CONTINUOUS
 10
80.2833310881
 20
80.6852617769
 11
72.1078798494
 21
80.6852617769
  0
LINE
  5
3AF
100
AcDbEntity
  8
RACCORDO
100
AcDbLine
 62
253
  6
CONTINUOUS
 10
72.0377559008
 20
80.7553105055
 11
80.3534550367
 21
80.7553105055
  0
LINE
  5
3B0
100
AcDbEntity
  8
RACCORDO
100
AcDbLine
 62
253
  6
CONTINUOUS
 10
151.3877559008
 20
80.7553105055
 11
159.7034550367
 21
80.7553105055
  0
LINE
  5
3B1
100
AcDbEntity
  8
RACCORDO
100
AcDbLine
 62
253
  6
CONTINUOUS
 10
178.9260555379
 20
81.1653345236
 11
159.7324805587
 21
81.1653345235
  0
LINE
  5
3B2
100
AcDbEntity
  8
RACCORDO
100
AcDbLine
 62
253
  6
CONTINUOUS
 10
52.8151553996
 20
81.1653345236
 11
72.0087303788
 21
81.1653345235
  0
LINE
  5
3B3
100
AcDbEntity
  8
RACCORDO
100
AcDbLine
 62
253
  6
CONTINUOUS
 10
80.3824805587
 20
81.1653345235
 11
151.3587303788
 21
81.1653345235
  0
LINE
  5
3B4
100
AcDbEntity
  8
RACCORDO
100
AcDbLine
 62
253
  6
CONTINUOUS
 10
71.7356232624
 20
81.7551582006
 11
80.6555876751
 21
81.7551582006
  0
LINE
  5
3B5
100
AcDbEntity
  8
RACCORDO
100
AcDbLine
 62
253
  6
CONTINUOUS
 10
151.0856232624
 20
81.7551582006
 11
160.0055876751
 21
81.7551582006
  0
LINE
  5
3B6
100
AcDbEntity
  8
DRAFT
100
AcDbLine
 62
7
  6
CONTINUOUS
 10
155.8548971067
 20
84.2410418206
 11
145.3706054688
 21
84.2410418206
  0
LINE
  5
3B7
100
AcDbEntity
  8
DRAFT
100
AcDbLine
 62
7
  6
CONTINUOUS
 10
86.3706054688
 20
84.2410418206
 11
75.8863138308
 21
84.2410418206
  0
LINE
  5
3B8
100
AcDbEntity
  8
DRAFT
100
AcDbLine
 62
7
  6
CONTINUOUS
 10
145.8706054688
 20
84.2724609375
 11
145.3706054688
 21
84.2724609375
  0
LINE
  5
3B9
100
AcDbEntity
  8
DRAFT
100
AcDbLine
 62
7
  6
CONTINUOUS
 10
86.3706054688
 20
84.2724609375
 11
85.8706054688
 21
84.2724609375
  0
LINE
  5
3BA
100
AcDbEntity
  8
DRAFT
100
AcDbLine
 62
7
  6
CONTINUOUS
 10
155.8548971067
 20
84.2989100811
 11
145.8838290334
 21
84.2989100811
  0
LINE
  5
3BB
100
AcDbEntity
  8
DRAFT
100
AcDbLine
 62
7
  6
CONTINUOUS
 10
75.8863138308
 20
84.2989100811
 11
85.8573819041
 21
84.2989100811
  0
LINE
  5
3BC
100
AcDbEntity
  8
RACCORDO
100
AcDbLine
 62
7
  6
CONTINUOUS
 10
155.7307326095
 20
84.8224609375
 11
146.010478328
 21
84.8224609375
  0
LINE
  5
3BD
100
AcDbEntity
  8
RACCORDO
100
AcDbLine
 62
7
  6
CONTINUOUS
 10
85.7307326095
 20
84.8224609375
 11
76.010478328
 21
84.8224609375
  0
LINE
  5
3BE
100
AcDbEntity
  8
RACCORDO
100
AcDbLine
 62
253
  6
CONTINUOUS
 10
155.7257955716
 20
84.939618225
 11
146.0154153659
 21
84.939618225
  0
LINE
  5
3BF
100
AcDbEntity
  8
RACCORDO
100
AcDbLine
 62
253
  6
CONTINUOUS
 10
85.7257955716
 20
84.939618225
 11
76.0154153659
 21
84.939618225
  0
LINE
  5
3C0
100
AcDbEntity
  8
RACCORDO
100
AcDbLine
 62
253
  6
CONTINUOUS
 10
75.8863138308
 20
85.4724609375
 11
85.8514690157
 21
85.4724609375
  0
LINE
  5
3C1
100
AcDbEntity
  8
RACCORDO
100
AcDbLine
 62
253
  6
CONTINUOUS
 10
145.8897419218
 20
85.4724609375
 11
146.0002790791
 21
85.4724609375
  0
LINE
  5
3C2
100
AcDbEntity
  8
RACCORDO
100
AcDbLine
 62
253
  6
CONTINUOUS
 10
76.0252894417
 20
85.50530365
 11
85.7159214958
 21
85.50530365
  0
LINE
  5
3C3
100
AcDbEntity
  8
RACCORDO
100
AcDbLine
 62
253
  6
CONTINUOUS
 10
146.0252894417
 20
85.50530365
 11
155.7159214958
 21
85.50530365
  0
LINE
  5
3C4
100
AcDbEntity
  8
RACCORDO
100
AcDbLine
 62
7
  6
CONTINUOUS
 10
75.8863138308
 20
85.6724609375
 11
76.0002790791
 21
85.6724609375
  0
LINE
  5
3C5
100
AcDbEntity
  8
RACCORDO
100
AcDbLine
 62
7
  6
CONTINUOUS
 10
145.8927649975
 20
85.6724609375
 11
146.0002790791
 21
85.6724609375
  0
LINE
  5
3C6
100
AcDbEntity
  8
RACCORDO
100
AcDbLine
 62
253
  6
CONTINUOUS
 10
76.0273344298
 20
85.7881463624
 11
85.7138765077
 21
85.7881463624
  0
LINE
  5
3C7
100
AcDbEntity
  8
RACCORDO
100
AcDbLine
 62
253
  6
CONTINUOUS
 10
146.0273344298
 20
85.7881463624
 11
155.7138765077
 21
85.7881463624
  0
LINE
  5
3C8
100
AcDbEntity
  8
DRAFT
100
AcDbLine
 62
7
  6
CONTINUOUS
 10
75.8863138308
 20
85.8521345479
 11
75.9706054687
 21
85.8521345479
  0
LINE
  5
3C9
100
AcDbEntity
  8
DRAFT
100
AcDbLine
 62
7
  6
CONTINUOUS
 10
145.3706054688
 20
85.8521345479
 11
145.9706054688
 21
85.8521345479
  0
LINE
  5
3CA
100
AcDbEntity
  8
RACCORDO
100
AcDbLine
 62
253
  6
CONTINUOUS
 10
155.7138765077
 20
86.2423779222
 11
146.0273344298
 21
86.2423779222
  0
LINE
  5
3CB
100
AcDbEntity
  8
RACCORDO
100
AcDbLine
 62
253
  6
CONTINUOUS
 10
85.7138765077
 20
86.2423779222
 11
76.0273344298
 21
86.2423779222
  0
LINE
  5
3CC
100
AcDbEntity
  8
DRAFT
100
AcDbLine
 62
7
  6
CONTINUOUS
 10
75.8863138308
 20
86.5724609375
 11
86.3706054688
 21
86.5724609375
  0
LINE
  5
3CD
100
AcDbEntity
  8
DRAFT
100
AcDbLine
 62
7
  6
CONTINUOUS
 10
145.3706054688
 20
86.5724609375
 11
155.8548971067
 21
86.5724609375
  0
LWPOLYLINE
  5
3CE
100
AcDbEntity
  8
RACCORDO
100
AcDbPolyline
 62
7
  6
CONTINUOUS
 90
3
 70
0
 10
159.921768133
 20
78.7724609375
 10
159.8966092858
 20
78.7736989689
 10
159.8716037168
 20
78.7771198493
  0
LWPOLYLINE
  5
3CF
100
AcDbEntity
  8
RACCORDO
100
AcDbPolyline
 62
253
  6
CONTINUOUS
 90
16
 70
0
 10
159.9971269661
 20
80.2170108684
 10
159.9669243281
 20
80.218665464
 10
159.9370502696
 20
80.22329398
 10
159.9078297954
 20
80.2308460619
 10
159.8795807998
 20
80.2412395496
 10
159.8526106082
 20
80.2543613704
 10
159.8272126339
 20
80.2700687699
 10
159.8036631855
 20
80.2881908648
 10
159.7822184613
 20
80.3085305018
 10
159.7631117622
 20
80.3308664027
 10
159.7465509529
 20
80.3549555715
 10
159.7327162012
 20
80.3805359381
 10
159.7217580177
 20
80.4073292096
 10
159.7137956182
 20
80.4350438976
 10
159.7089156271
 20
80.4633784895
 10
159.7071711345
 20
80.4920247284
  0
LINE
  5
3D0
100
AcDbEntity
  8
DRAFT
100
AcDbLine
 62
7
  6
CONTINUOUS
 10
76.8706054688
 20
98.7724609375
 11
76.7620499542
 21
98.8267345611
  0
LINE
  5
3D1
100
AcDbEntity
  8
RACCORDO
100
AcDbLine
 62
7
  6
CONTINUOUS
 10
85.7159214958
 20
85.50530365
 11
85.7257955716
 21
84.939618225
  0
LINE
  5
3D2
100
AcDbEntity
  8
RACCORDO
100
AcDbLine
 62
7
  6
CONTINUOUS
 10
84.8057780222
 20
122.4552316892
 11
84.8371903631
 21
119.3382126122
  0
LINE
  5
3D3
100
AcDbEntity
  8
RACCORDO
100
AcDbLine
 62
7
  6
CONTINUOUS
 10
85.8514690157
 20
85.4724609375
 11
85.8573819041
 21
84.2989100811
  0
LINE
  5
3D4
100
AcDbEntity
  8
RACCORDO
100
AcDbLine
 62
7
  6
CONTINUOUS
 10
80.2797087556
 20
80.6852617769
 11
80.2797087556
 21
79.0574219684
  0
LINE
  5
3D5
100
AcDbEntity
  8
ASSI
100
AcDbLine
 62
7
  6
CONTINUOUS
 10
82.8706054688
 20
125.7724609375
 11
82.8706054688
 21
120.7724609375
  0
LINE
  5
3D6
100
AcDbEntity
  8
DRAFT
100
AcDbLine
 62
7
  6
CONTINUOUS
 10
84.0618779363
 20
120.7724609375
 11
84.0618779363
 21
125.7724609375
  0
LINE
  5
3D7
100
AcDbEntity
  8
DRAFT
100
AcDbLine
 62
7
  6
CONTINUOUS
 10
84.1020245856
 20
125.7724609375
 11
84.1020245856
 21
120.7724609375
  0
LINE
  5
3D8
100
AcDbEntity
  8
RACCORDO
100
AcDbLine
 62
253
  6
CONTINUOUS
 10
84.8057780222
 20
119.3604212939
 11
84.8057780222
 21
122.4552316892
  0
LINE
  5
3D9
100
AcDbEntity
  8
RACCORDO
100
AcDbLine
 62
253
  6
CONTINUOUS
 10
85.3271810147
 20
127.4287014127
 11
85.3271810147
 21
127.4546314952
  0
LINE
  5
3DA
100
AcDbEntity
  8
RACCORDO
100
AcDbLine
 62
253
  6
CONTINUOUS
 10
80.6555876751
 20
81.7551582006
 11
80.6550442073
 21
80.8725707908
  0
LINE
  5
3DB
100
AcDbEntity
  8
RACCORDO
100
AcDbLine
 62
253
  6
CONTINUOUS
 10
80.3654552225
 20
81.0458939351
 11
80.364523482
 21
80.8718697478
  0
LINE
  5
3DC
100
AcDbEntity
  8
RACCORDO
100
AcDbLine
 62
253
  6
CONTINUOUS
 10
80.6550442073
 20
80.8725707908
 11
80.6534634957
 21
80.6054554244
  0
LINE
  5
3DD
100
AcDbEntity
  8
RACCORDO
100
AcDbLine
 62
7
  6
CONTINUOUS
 10
80.2797080274
 20
79.0574892513
 11
80.279752924
 21
79.0624609375
  0
LINE
  5
3DE
100
AcDbEntity
  8
RACCORDO
100
AcDbLine
 62
253
  6
CONTINUOUS
 10
80.364523482
 20
80.8718697478
 11
80.3632403262
 21
80.7460742678
  0
LINE
  5
3DF
100
AcDbEntity
  8
RACCORDO
100
AcDbLine
 62
253
  6
CONTINUOUS
 10
80.6534634957
 20
80.6054554244
 11
80.651539912
 21
80.4261105484
  0
LINE
  5
3E0
100
AcDbEntity
  8
RACCORDO
100
AcDbLine
 62
253
  6
CONTINUOUS
 10
78.9369809413
 20
76.6018209597
 11
78.9384044045
 21
76.701675256
  0
LINE
  5
3E1
100
AcDbEntity
  8
RACCORDO
100
AcDbLine
 62
253
  6
CONTINUOUS
 10
80.3632403262
 20
80.7460742678
 11
80.3619976982
 21
80.6630470191
  0
LINE
  5
3E2
100
AcDbEntity
  8
RACCORDO
100
AcDbLine
 62
253
  6
CONTINUOUS
 10
78.9384044045
 20
76.701675256
 11
78.9484475056
 21
77.2770441365
  0
LINE
  5
3E3
100
AcDbEntity
  8
RACCORDO
100
AcDbLine
 62
7
  6
CONTINUOUS
 10
85.7257955716
 20
161.60530365
 11
85.7159214958
 21
161.039618225
  0
LINE
  5
3E4
100
AcDbEntity
  8
RACCORDO
100
AcDbLine
 62
253
  6
CONTINUOUS
 10
80.651539912
 20
80.4261105484
 11
80.6497829876
 21
80.3183981845
  0
LINE
  5
3E5
100
AcDbEntity
  8
RACCORDO
100
AcDbLine
 62
253
  6
CONTINUOUS
 10
78.9359350361
 20
76.5456879023
 11
78.9369809413
 21
76.6018209597
  0
LINE
  5
3E6
100
AcDbEntity
  8
RACCORDO
100
AcDbLine
 62
7
  6
CONTINUOUS
 10
80.3654552225
 20
81.0458939351
 11
80.3637697375
 21
80.9615854116
  0
LINE
  5
3E7
100
AcDbEntity
  8
RACCORDO
100
AcDbLine
 62
253
  6
CONTINUOUS
 10
78.6370295907
 20
76.8440342384
 11
78.6384500959
 21
76.9138072903
  0
LINE
  5
3E8
100
AcDbEntity
  8
RACCORDO
100
AcDbLine
 62
253
  6
CONTINUOUS
 10
80.3619976982
 20
80.6630470191
 11
80.3605471734
 21
80.59193147
  0
LWPOLYLINE
  5
3E9
100
AcDbEntity
  8
RACCORDO
100
AcDbPolyline
 62
253
  6
CONTINUOUS
 90
4
 70
0
 10
80.6497829876
 20
80.3183981845
 10
80.6484959142
 20
80.2613286859
 10
80.6478219404
 20
80.237532128
 10
80.6471269661
 20
80.2170108684
  0
LWPOLYLINE
  5
3EA
100
AcDbEntity
  8
RACCORDO
100
AcDbPolyline
 62
7
  6
CONTINUOUS
 90
10
 70
0
 10
80.3637697375
 20
80.9615854116
 10
80.3619344059
 20
80.8909795483
 10
80.3609602956
 20
80.860806623
 10
80.3599552736
 20
80.834280136
 10
80.3589151717
 20
80.8113492579
 10
80.3578441581
 20
80.792064818
 10
80.3567607827
 20
80.776783095
 10
80.3556712291
 20
80.7656228484
 10
80.3545693137
 20
80.7584653185
 10
80.3534550367
 20
80.7553105055
  0
LINE
  5
3EB
100
AcDbEntity
  8
RACCORDO
100
AcDbLine
 62
253
  6
CONTINUOUS
 10
78.6359832035
 20
76.8046947485
 11
78.6370295907
 21
76.8440342384
  0
LINE
  5
3EC
100
AcDbEntity
  8
RACCORDO
100
AcDbLine
 62
253
  6
CONTINUOUS
 10
80.3605471734
 20
80.59193147
 11
80.3594815457
 21
80.5520046655
  0
LWPOLYLINE
  5
3ED
100
AcDbEntity
  8
RACCORDO
100
AcDbPolyline
 62
7
  6
CONTINUOUS
 90
10
 70
0
 10
80.3654552205
 20
81.0458937732
 10
80.3658693361
 20
81.0587424671
 10
80.3666546958
 20
81.0717254387
 10
80.3678112996
 20
81.084833785
 10
80.3693416101
 20
81.0980691789
 10
80.3712431647
 20
81.1114128856
 10
80.3735085757
 20
81.1248241846
 10
80.3761353803
 20
81.138282507
 10
80.3791260413
 20
81.1517890179
 10
80.3824805587
 20
81.1653345235
  0
LWPOLYLINE
  5
3EE
100
AcDbEntity
  8
RACCORDO
100
AcDbPolyline
 62
253
  6
CONTINUOUS
 90
3
 70
0
 10
80.3594815457
 20
80.5520046655
 10
80.3583546779
 20
80.5186518065
 10
80.3577701808
 20
80.5045038713
  0
LINE
  5
3EF
100
AcDbEntity
  8
RACCORDO
100
AcDbLine
 62
253
  6
CONTINUOUS
 10
80.3577701808
 20
80.5045038713
 11
80.2825940937
 21
79.0624609375
  0
LINE
  5
3F0
100
AcDbEntity
  8
RACCORDO
100
AcDbLine
 62
253
  6
CONTINUOUS
 10
80.6471269661
 20
80.2170108684
 11
80.571768133
 21
78.7724609375
  0
LWPOLYLINE
  5
3F1
100
AcDbEntity
  8
RACCORDO
100
AcDbPolyline
 62
7
  6
CONTINUOUS
 90
17
 70
0
 10
71.8696072207
 20
78.7771198493
 10
71.8942686822
 20
78.7827095303
 10
71.9184208697
 20
78.7904509456
 10
71.9418498852
 20
78.8002895408
 10
71.9643034459
 20
78.812113157
 10
71.9855896735
 20
78.8258138602
 10
72.0055786628
 20
78.8412952018
 10
72.0241322089
 20
78.8584265464
 10
72.041113926
 20
78.8770812205
 10
72.0564009263
 20
78.8971200555
 10
72.0698901126
 20
78.9183819887
 10
72.0814825045
 20
78.9407133892
 10
72.0910948028
 20
78.9639531965
 10
72.0986633128
 20
78.9879215793
 10
72.1041323673
 20
79.0124436386
 10
72.1074586009
 20
79.037349186
 10
72.1086168438
 20
79.0624609375
  0
LWPOLYLINE
  5
3F2
100
AcDbEntity
  8
RACCORDO
100
AcDbPolyline
 62
7
  6
CONTINUOUS
 90
23
 70
0
 10
71.8750594018
 20
78.7765588123
 10
71.8977945625
 20
78.7813873746
 10
71.9193226994
 20
78.7877908863
 10
71.9396006111
 20
78.7955767967
 10
71.9586807455
 20
78.8046022497
 10
71.9765041719
 20
78.8146915293
 10
71.9930548913
 20
78.8256873382
 10
72.0084504485
 20
78.8375332339
 10
72.0226842559
 20
78.8501128895
 10
72.0357391172
 20
78.8632974004
 10
72.047699879
 20
78.8770619541
 10
72.0585717669
 20
78.8913209791
 10
72.0683498855
 20
78.9059720027
 10
72.0770872888
 20
78.9209947634
 10
72.0847955714
 20
78.9363242009
 10
72.0914777619
 20
78.9518737351
 10
72.0971643795
 20
78.9676061877
 10
72.1018726576
 20
78.9834667177
 10
72.105616258
 20
78.9993817217
 10
72.1084202144
 20
79.0152931068
 10
72.110310269
 20
79.0311450786
 10
72.1113128282
 20
79.0468841653
 10
72.1115029101
 20
79.0574892513
  0
LWPOLYLINE
  5
3F3
100
AcDbEntity
  8
RACCORDO
100
AcDbPolyline
 62
7
  6
CONTINUOUS
 90
23
 70
0
 10
159.8661515357
 20
78.7765588123
 10
159.843416375
 20
78.7813873746
 10
159.8218882381
 20
78.7877908863
 10
159.8016103264
 20
78.7955767967
 10
159.782530192
 20
78.8046022497
 10
159.7647067656
 20
78.8146915293
 10
159.7481560462
 20
78.8256873382
 10
159.732760489
 20
78.8375332339
 10
159.7185266816
 20
78.8501128895
 10
159.7054718203
 20
78.8632974004
 10
159.6935110585
 20
78.8770619541
 10
159.6826391706
 20
78.8913209791
 10
159.672861052
 20
78.9059720027
 10
159.6641236487
 20
78.9209947634
 10
159.6564153661
 20
78.9363242009
 10
159.6497331756
 20
78.9518737351
 10
159.644046558
 20
78.9676061877
 10
159.6393382799
 20
78.9834667177
 10
159.6355946795
 20
78.9993817217
 10
159.6327907231
 20
79.0152931068
 10
159.6309006685
 20
79.0311450786
 10
159.6298981093
 20
79.0468841653
 10
159.6297080274
 20
79.0574892513
  0
LWPOLYLINE
  5
3F4
100
AcDbEntity
  8
RACCORDO
100
AcDbPolyline
 62
7
  6
CONTINUOUS
 90
17
 70
0
 10
159.8716037168
 20
78.7771198493
 10
159.8469422553
 20
78.7827095303
 10
159.8227900678
 20
78.7904509456
 10
159.7993610523
 20
78.8002895408
 10
159.7769074916
 20
78.812113157
 10
159.755621264
 20
78.8258138602
 10
159.7356322747
 20
78.8412952018
 10
159.7170787286
 20
78.8584265464
 10
159.7000970115
 20
78.8770812205
 10
159.6848100112
 20
78.8971200555
 10
159.6713208249
 20
78.9183819887
 10
159.659728433
 20
78.9407133892
 10
159.6501161347
 20
78.9639531965
 10
159.6425476247
 20
78.9879215793
 10
159.6370785702
 20
79.0124436386
 10
159.6337523366
 20
79.037349186
 10
159.6325940937
 20
79.0624609375
  0
LWPOLYLINE
  5
3F5
100
AcDbEntity
  8
RACCORDO
100
AcDbPolyline
 62
253
  6
CONTINUOUS
 90
34
 70
0
 10
87.526845944
 20
125.2290364834
 10
87.5243297627
 20
125.3339144941
 10
87.5168869808
 20
125.4381360005
 10
87.5045175982
 20
125.5417010025
 10
87.4871715329
 20
125.6448573073
 10
87.4648988669
 20
125.7473571077
 10
87.4378498469
 20
125.8484569825
 10
87.4059915083
 20
125.9481325001
 10
87.3693568156
 20
126.0464080922
 10
87.3281949098
 20
126.1426136319
 10
87.2824760833
 20
126.2367322151
 10
87.2322300436
 20
126.328780746
 10
87.1777950536
 20
126.418139811
 10
87.1191421013
 20
126.5047928242
 10
87.0563001987
 20
126.5887563715
 10
86.9896946446
 20
126.6694607967
 10
86.9192995913
 20
126.7468840064
 10
86.8451408865
 20
126.821048094
 10
86.7677213717
 20
126.8914496839
 10
86.6870184335
 20
126.9580632032
 10
86.6030546853
 20
127.0209142249
 10
86.5164008093
 20
127.0795760916
 10
86.4270404765
 20
127.1340193788
 10
86.334990016
 20
127.184273511
 10
86.240869097
 20
127.230000105
 10
86.1446607655
 20
127.2711695037
 10
86.0463819756
 20
127.3078113643
 10
85.9467032581
 20
127.3396762745
 10
85.8456034019
 20
127.36673108
 10
85.7431036181
 20
127.3890089351
 10
85.6399380711
 20
127.4063598909
 10
85.5363514822
 20
127.4187339642
 10
85.4320991301
 20
127.4261811382
 10
85.3271810147
 20
127.4287014127
  0
LINE
  5
3F6
100
AcDbEntity
  8
RACCORDO
100
AcDbLine
 62
253
  6
CONTINUOUS
 10
89.8423443288
 20
117.3686137374
 11
89.8413485983
 21
117.4180014201
  0
LINE
  5
3F7
100
AcDbEntity
  8
RACCORDO
100
AcDbLine
 62
253
  6
CONTINUOUS
 10
90.7981998291
 20
120.027941808
 11
90.783189195
 21
120.7724609375
  0
LINE
  5
3F8
100
AcDbEntity
  8
RACCORDO
100
AcDbLine
 62
253
  6
CONTINUOUS
 10
87.6351749785
 20
115.4047866179
 11
87.6286008001
 21
115.8036360458
  0
LINE
  5
3F9
100
AcDbEntity
  8
RACCORDO
100
AcDbLine
 62
253
  6
CONTINUOUS
 10
88.0349340453
 20
115.5514650028
 11
88.0283571303
 21
115.997484986
  0
LINE
  5
3FA
100
AcDbEntity
  8
RACCORDO
100
AcDbLine
 62
253
  6
CONTINUOUS
 10
87.5608805021
 20
120.2538295258
 11
87.5249751158
 21
123.8166895716
  0
LINE
  5
3FB
100
AcDbEntity
  8
RACCORDO
100
AcDbLine
 62
253
  6
CONTINUOUS
 10
87.6398969641
 20
114.9842683916
 11
87.6351749785
 21
115.4047866179
  0
LINE
  5
3FC
100
AcDbEntity
  8
RACCORDO
100
AcDbLine
 62
253
  6
CONTINUOUS
 10
88.0396519933
 20
115.0819516832
 11
88.0349340453
 21
115.5514650028
  0
LINE
  5
3FD
100
AcDbEntity
  8
RACCORDO
100
AcDbLine
 62
253
  6
CONTINUOUS
 10
87.642672767
 20
114.550483239
 11
87.6398969641
 21
114.9842683916
  0
LINE
  5
3FE
100
AcDbEntity
  8
RACCORDO
100
AcDbLine
 62
253
  6
CONTINUOUS
 10
88.0424290978
 20
114.596902437
 11
88.0396519933
 21
115.0819516832
  0
LINE
  5
3FF
100
AcDbEntity
  8
RACCORDO
100
AcDbLine
 62
7
  6
CONTINUOUS
 10
85.7138765077
 20
85.7881463624
 11
85.7138765077
 21
86.2423779222
  0
LINE
  5
400
100
AcDbEntity
  8
RACCORDO
100
AcDbLine
 62
7
  6
CONTINUOUS
 10
85.7138765077
 20
160.3025439528
 11
85.7138765077
 21
160.7567755126
  0
LINE
  5
401
100
AcDbEntity
  8
RACCORDO
100
AcDbLine
 62
7
  6
CONTINUOUS
 10
85.7409318584
 20
160.7224609375
 11
85.7409318584
 21
161.5224609375
  0
LINE
  5
402
100
AcDbEntity
  8
RACCORDO
100
AcDbLine
 62
7
  6
CONTINUOUS
 10
85.7706054688
 20
160.6927873271
 11
85.7706054688
 21
160.2724609375
  0
LINE
  5
403
100
AcDbEntity
  8
RACCORDO
100
AcDbLine
 62
7
  6
CONTINUOUS
 10
85.8531517332
 20
161.5224609375
 11
85.8531517332
 21
162.2375508076
  0
LINE
  5
404
100
AcDbEntity
  8
RACCORDO
100
AcDbLine
 62
253
  6
CONTINUOUS
 10
85.8706054688
 20
108.5224609375
 11
85.8706054688
 21
110.5132793475
  0
LINE
  5
405
100
AcDbEntity
  8
DRAFT
100
AcDbLine
 62
7
  6
CONTINUOUS
 10
86.3706054688
 20
162.3038800544
 11
86.3706054688
 21
160.2724609375
  0
LINE
  5
406
100
AcDbEntity
  8
DRAFT
100
AcDbLine
 62
7
  6
CONTINUOUS
 10
86.3706054688
 20
86.5724609375
 11
86.3706054688
 21
84.2410418206
  0
LINE
  5
407
100
AcDbEntity
  8
RACCORDO
100
AcDbLine
 62
7
  6
CONTINUOUS
 10
86.3706054688
 20
109.0224609375
 11
86.3706054688
 21
110.4504699269
  0
LINE
  5
408
100
AcDbEntity
  8
RACCORDO
100
AcDbLine
 62
253
  6
CONTINUOUS
 10
86.8877610809
 20
115.9614426213
 11
86.8877610811
 21
114.5819017969
  0
LINE
  5
409
100
AcDbEntity
  8
RACCORDO
100
AcDbLine
 62
253
  6
CONTINUOUS
 10
87.3874564949
 20
115.9614426213
 11
87.3874564949
 21
114.5819017979
  0
LINE
  5
40A
100
AcDbEntity
  8
RACCORDO
100
AcDbLine
 62
253
  6
CONTINUOUS
 10
87.526845944
 20
123.8166895716
 11
87.526845944
 21
125.2290364834
  0
LINE
  5
40B
100
AcDbEntity
  8
DRAFT
100
AcDbLine
 62
7
  6
CONTINUOUS
 10
87.6391863519
 20
120.7724609375
 11
87.6391863519
 21
125.7724609375
  0
LINE
  5
40C
100
AcDbEntity
  8
DRAFT
100
AcDbLine
 62
7
  6
CONTINUOUS
 10
87.6793330012
 20
125.7724609375
 11
87.6793330012
 21
120.7724609375
  0
LINE
  5
40D
100
AcDbEntity
  8
0
100
AcDbLine
 62
7
  6
CONTINUOUS
 10
88.3706054688
 20
136.2442968413
 11
88.3706054688
 21
130.9232458995
  0
LINE
  5
40E
100
AcDbEntity
  8
0
100
AcDbLine
 62
7
  6
CONTINUOUS
 10
88.4020245856
 20
136.1994256922
 11
88.4020245856
 21
130.945245802
  0
LINE
  5
40F
100
AcDbEntity
  8
ASSI
100
AcDbLine
 62
7
  6
CONTINUOUS
 10
88.8706054688
 20
120.7724609375
 11
88.8706054688
 21
125.7724609375
  0
LINE
  5
410
100
AcDbEntity
  8
0
100
AcDbLine
 62
7
  6
CONTINUOUS
 10
89.4439167414
 20
133.2221346867
 11
89.4439167414
 21
133.5280161431
  0
LINE
  5
411
100
AcDbEntity
  8
RACCORDO
100
AcDbLine
 62
253
  6
CONTINUOUS
 10
90.0877610813
 20
129.9482019223
 11
90.0877610813
 21
120.7724609375
  0
LINE
  5
412
100
AcDbEntity
  8
RACCORDO
100
AcDbLine
 62
253
  6
CONTINUOUS
 10
90.5874564949
 20
129.7752911775
 11
90.5874564949
 21
120.7724609375
  0
LINE
  5
413
100
AcDbEntity
  8
0
100
AcDbLine
 62
7
  6
CONTINUOUS
 10
90.7801300857
 20
133.0416742592
 11
90.7801300857
 21
132.7357928028
  0
LINE
  5
414
100
AcDbEntity
  8
RACCORDO
100
AcDbLine
 62
253
  6
CONTINUOUS
 10
90.7981998291
 20
135.5736321327
 11
90.7983041956
 21
119.9735468544
  0
LINE
  5
415
100
AcDbEntity
  8
RACCORDO
100
AcDbLine
 62
253
  6
CONTINUOUS
 10
91.0871519084
 20
136.2840708805
 11
91.0871519081
 21
136.783766294
  0
LWPOLYLINE
  5
416
100
AcDbEntity
  8
0
100
AcDbPolyline
 62
7
  6
CONTINUOUS
 90
13
 70
0
 10
89.4212723919
 20
136.0504834407
 10
89.4213287876
 20
136.1133952322
 10
89.4229308481
 20
136.1730059669
 10
89.4259297072
 20
136.2289066381
 10
89.4305041857
 20
136.2806690663
 10
89.4361532783
 20
136.3278362363
 10
89.4417376789
 20
136.370036387
 10
89.4470987357
 20
136.4069355591
 10
89.4521360973
 20
136.4381561068
 10
89.4558793417
 20
136.4634844758
 10
89.4579724872
 20
136.4827601675
 10
89.4586242504
 20
136.495739073
 10
89.4577617372
 20
136.5022209173
  0
LWPOLYLINE
  5
417
100
AcDbEntity
  8
RACCORDO
100
AcDbPolyline
 62
253
  6
CONTINUOUS
 90
40
 70
0
 10
91.2978952426
 20
136.0733275462
 10
91.2977887401
 20
119.9691695529
 10
91.2968248144
 20
119.9072077649
 10
91.2950034654
 20
119.842056444
 10
91.2924267751
 20
119.7734979983
 10
91.2889926615
 20
119.7017500198
 10
91.2843948796
 20
119.6274652836
 10
91.2786190066
 20
119.5506128514
 10
91.2716794653
 20
119.4712236617
 10
91.2633132784
 20
119.3900433046
 10
91.2535026664
 20
119.3070698821
 10
91.2422654089
 20
119.2223052924
 10
91.2293918678
 20
119.1365008199
 10
91.2148621876
 20
119.0496550677
 10
91.1986962239
 20
118.9617694329
 10
91.1807439052
 20
118.8735993914
 10
91.160982862
 20
118.7851419776
 10
91.1394354638
 20
118.6964001573
 10
91.1160187475
 20
118.6081383033
 10
91.090701778
 20
118.520342729
 10
91.0635154904
 20
118.433027121
 10
91.0344697271
 20
118.346996913
 10
91.0035185674
 20
118.262235899
 10
90.9707079321
 20
118.1787602848
 10
90.9361854256
 20
118.097424122
 10
90.899892928
 20
118.0182362432
 10
90.8618885593
 20
117.9411878157
 10
90.8224942839
 20
117.8671063928
 10
90.7816563362
 20
117.7960519268
 10
90.7394284818
 20
117.7279644655
 10
90.6962939813
 20
117.6634917051
 10
90.6522500152
 20
117.6027650045
 10
90.607299403
 20
117.5456530047
 10
90.5619338641
 20
117.4924093256
 10
90.5162562914
 20
117.443196332
 10
90.4701637919
 20
117.397851659
 10
90.4238394064
 20
117.3561418324
 10
90.3773441483
 20
117.3179890274
 10
90.3306170042
 20
117.2834710687
 10
90.283657974
 20
117.2525879564
  0
LWPOLYLINE
  5
418
100
AcDbEntity
  8
RACCORDO
100
AcDbPolyline
 62
253
  6
CONTINUOUS
 90
48
 70
0
 10
90.7983041956
 20
119.9735468544
 10
90.7979869821
 20
119.9161663851
 10
90.7971775408
 20
119.855806071
 10
90.7957993002
 20
119.7922776992
 10
90.7937749334
 20
119.725786104
 10
90.7910388838
 20
119.6569287731
 10
90.7875200582
 20
119.5856948416
 10
90.7831448187
 20
119.5121227161
 10
90.7778646726
 20
119.4368853084
 10
90.7716190087
 20
119.3600038105
 10
90.7643426777
 20
119.2814951561
 10
90.7560033394
 20
119.2020264555
 10
90.7465517023
 20
119.1216228392
 10
90.735934739
 20
119.0403067348
 10
90.7241364322
 20
118.9587408713
 10
90.7111197318
 20
118.8769516899
 10
90.6968460547
 20
118.7949679253
 10
90.681318026
 20
118.7134543706
 10
90.6645087138
 20
118.6324273132
 10
90.6463986038
 20
118.5519308358
 10
90.6270237205
 20
118.4726681497
 10
90.6063676644
 20
118.3946513382
 10
90.5844351247
 20
118.3179293287
 10
90.5613212917
 20
118.2432532955
 10
90.5370267576
 20
118.1706531347
 10
90.5115816607
 20
118.1001522644
 10
90.4851595544
 20
118.0324783919
 10
90.4577874268
 20
117.9676963355
 10
90.4295145284
 20
117.9057756647
 10
90.40058399
 20
117.847280615
 10
90.3710758423
 20
117.7923339339
 10
90.3410242413
 20
117.740817929
 10
90.3106291831
 20
117.6929156324
 10
90.2800258904
 20
117.6487539501
 10
90.2492038233
 20
117.6081863696
 10
90.2181465351
 20
117.5709801981
 10
90.186932187
 20
117.5371331313
 10
90.1555846776
 20
117.5066307391
 10
90.1239939769
 20
117.4792325932
 10
90.0921053774
 20
117.4548668027
 10
90.0600539811
 20
117.4336035648
 10
90.0280107164
 20
117.4154160751
 10
89.9959158162
 20
117.400333733
 10
89.963909192
 20
117.3883085166
 10
89.932467594
 20
117.3791691841
 10
89.9017769643
 20
117.3728274608
 10
89.8717261317
 20
117.3693014563
 10
89.8423454391
 20
117.3685586667
  0
LWPOLYLINE
  5
419
100
AcDbEntity
  8
RACCORDO
100
AcDbPolyline
 62
253
  6
CONTINUOUS
 90
10
 70
0
 10
88.0283571303
 20
115.997484986
 10
88.0284254897
 20
116.0043475454
 10
88.0288511674
 20
116.0111351344
 10
88.0296341634
 20
116.0178479546
 10
88.0307800787
 20
116.02451026
 10
88.0322833123
 20
116.0310981437
 10
88.0341270608
 20
116.0375398079
 10
88.0363057231
 20
116.0438117168
 10
88.0388249005
 20
116.0499383255
 10
88.0416845927
 20
116.0559200561
  0
LWPOLYLINE
  5
41A
100
AcDbEntity
  8
RACCORDO
100
AcDbPolyline
 62
253
  6
CONTINUOUS
 90
10
 70
0
 10
87.3874564949
 20
114.5819017979
 10
87.3872695765
 20
114.5683020076
 10
87.3867130379
 20
114.5547122808
 10
87.385787291
 20
114.5411426733
 10
87.3844930208
 20
114.5276032263
 10
87.382831185
 20
114.5141039585
 10
87.3808030133
 20
114.5006548588
 10
87.3784100065
 20
114.4872658793
 10
87.3756539353
 20
114.4739469273
 10
87.3725368391
 20
114.4607078584
  0
LWPOLYLINE
  5
41B
100
AcDbEntity
  8
RACCORDO
100
AcDbPolyline
 62
253
  6
CONTINUOUS
 90
10
 70
0
 10
87.6286016043
 20
115.803636046
 10
87.6294134512
 20
115.8338884091
 10
87.63203466
 20
115.8639747561
 10
87.6364552442
 20
115.8938098675
 10
87.6426660422
 20
115.9233323956
 10
87.6506425507
 20
115.9524385488
 10
87.6603422053
 20
115.980979608
 10
87.6717289105
 20
116.0088520706
 10
87.6847793986
 20
116.0359976207
 10
87.6994592844
 20
116.0623373392
  0
LWPOLYLINE
  5
41C
100
AcDbEntity
  8
RACCORDO
100
AcDbPolyline
 62
253
  6
CONTINUOUS
 90
22
 70
0
 10
90.7981998291
 20
135.5736321327
 10
90.799621928
 20
135.6107025437
 10
90.8037999382
 20
135.647633947
 10
90.8107253611
 20
135.6842204474
 10
90.8203807314
 20
135.7202773507
 10
90.8327231693
 20
135.7555779467
 10
90.847668832
 20
135.789860119
 10
90.865122216
 20
135.8229115343
 10
90.8849943691
 20
135.8545695039
 10
90.9071771326
 20
135.8846608085
 10
90.9315493928
 20
135.9130188677
 10
90.9579738844
 20
135.9394818853
 10
90.9863000133
 20
135.9638983182
 10
91.0163679493
 20
135.9861306219
 10
91.0480107333
 20
136.0060555589
 10
91.0810518613
 20
136.0235618968
 10
91.1153069904
 20
136.038551751
 10
91.1505841509
 20
136.0509409111
 10
91.1866852349
 20
136.0606597539
 10
91.223407998
 20
136.0676539114
 10
91.2605472566
 20
136.0718843824
 10
91.2978952426
 20
136.0733275462
  0
LWPOLYLINE
  5
41D
100
AcDbEntity
  8
RACCORDO
100
AcDbPolyline
 62
253
  6
CONTINUOUS
 90
7
 70
0
 10
88.0162161201
 20
114.3530003598
 10
88.0243469876
 20
114.3932167043
 10
88.0309730399
 20
114.4336135058
 10
88.036094277
 20
114.4741857279
 10
88.0397106991
 20
114.5149281935
 10
88.041822306
 20
114.5558355838
 10
88.0424290978
 20
114.596902437
  0
LINE
  5
41E
100
AcDbEntity
  8
RACCORDO
100
AcDbLine
 62
253
  6
CONTINUOUS
 10
87.9722970737
 20
114.1559200561
 11
88.0162161201
 21
114.3530003598
  0
LWPOLYLINE
  5
41F
100
AcDbEntity
  8
RACCORDO
100
AcDbPolyline
 62
253
  6
CONTINUOUS
 90
7
 70
0
 10
87.6283955139
 20
114.4292102162
 10
87.632861761
 20
114.449071287
 10
87.6365026037
 20
114.4691170815
 10
87.6393100757
 20
114.4893146485
 10
87.6412775478
 20
114.5096306659
 10
87.642399746
 20
114.5300314958
 10
87.642672767
 20
114.550483239
  0
LINE
  5
420
100
AcDbEntity
  8
RACCORDO
100
AcDbLine
 62
253
  6
CONTINUOUS
 10
86.8877610811
 20
114.5819017969
 11
85.8706054688
 21
110.5132793475
  0
LINE
  5
421
100
AcDbEntity
  8
RACCORDO
100
AcDbLine
 62
253
  6
CONTINUOUS
 10
87.3725368391
 20
114.4607078584
 11
86.3703008823
 21
110.451764031
  0
LINE
  5
422
100
AcDbEntity
  8
DRAFT
100
AcDbLine
 62
7
  6
CONTINUOUS
 10
86.3706054688
 20
110.3784789164
 11
86.406600974
 21
110.5224609375
  0
LINE
  5
423
100
AcDbEntity
  8
RACCORDO
100
AcDbLine
 62
253
  6
CONTINUOUS
 10
86.6667390316
 20
110.5819254638
 11
87.6283955139
 21
114.4292102162
  0
LINE
  5
424
100
AcDbEntity
  8
RACCORDO
100
AcDbLine
 62
253
  6
CONTINUOUS
 10
87.0796406561
 20
110.5852943856
 11
87.9722970737
 21
114.1559200561
  0
LWPOLYLINE
  5
425
100
AcDbEntity
  8
0
100
AcDbPolyline
 62
7
  6
CONTINUOUS
 90
11
 70
0
 10
90.7731864238
 20
135.9065155018
 10
90.7657985277
 20
135.8850833184
 10
90.7586720781
 20
135.8622443846
 10
90.7518256676
 20
135.8382359088
 10
90.745720894
 20
135.812916484
 10
90.7404407048
 20
135.7863398228
 10
90.7360087703
 20
135.7587451427
 10
90.732786211
 20
135.7302375286
 10
90.7309293939
 20
135.7009509006
 10
90.73038599
 20
135.6710371804
 10
90.7312039232
 20
135.6406280386
  0
LINE
  5
426
100
AcDbEntity
  8
0
100
AcDbLine
 62
7
  6
CONTINUOUS
 10
90.7876962919
 20
135.944800432
 11
90.7731864238
 21
135.9065155018
  0
LINE
  5
427
100
AcDbEntity
  8
0
100
AcDbLine
 62
253
  6
CONTINUOUS
 10
105.3706054688
 20
155.122415246
 11
105.3391863519
 21
155.0909961292
  0
LINE
  5
428
100
AcDbEntity
  8
0
100
AcDbLine
 62
253
  6
CONTINUOUS
 10
105.6705597773
 20
154.8224609375
 11
105.6391406604
 21
154.7910418206
  0
LINE
  5
429
100
AcDbEntity
  8
0
100
AcDbLine
 62
7
  6
CONTINUOUS
 10
112.3706054688
 20
156.5724609375
 11
112.2938031831
 21
156.4956586518
  0
LINE
  5
42A
100
AcDbEntity
  8
0
100
AcDbLine
 62
253
  6
CONTINUOUS
 10
113.0706511602
 20
156.5724609375
 11
113.1020702771
 21
156.6038800544
  0
LINE
  5
42B
100
AcDbEntity
  8
0
100
AcDbLine
 62
253
  6
CONTINUOUS
 10
113.3706054688
 20
156.272506629
 11
113.4020245856
 21
156.3039257458
  0
LINE
  5
42C
100
AcDbEntity
  8
DRAFT
100
AcDbLine
 62
7
  6
CONTINUOUS
 10
155.018244262
 20
98.8267947018
 11
154.9791609833
 21
98.8267345611
  0
LINE
  5
42D
100
AcDbEntity
  8
DRAFT
100
AcDbLine
 62
7
  6
CONTINUOUS
 10
156.3706054688
 20
98.0224609375
 11
154.8391863519
 21
98.0224609375
  0
LINE
  5
42E
100
AcDbEntity
  8
DRAFT
100
AcDbLine
 62
7
  6
CONTINUOUS
 10
76.9020245856
 20
98.0224609375
 11
75.3706054688
 21
98.0224609375
  0
LINE
  5
42F
100
AcDbEntity
  8
DRAFT
100
AcDbLine
 62
7
  6
CONTINUOUS
 10
76.7620499542
 20
98.8267345611
 11
76.7229666755
 21
98.8267947018
  0
LINE
  5
430
100
AcDbEntity
  8
RACCORDO
100
AcDbLine
 62
7
  6
CONTINUOUS
 10
151.4578826401
 20
80.6852731365
 11
151.4577284769
 21
80.6853379293
  0
LWPOLYLINE
  5
431
100
AcDbEntity
  8
RACCORDO
100
AcDbPolyline
 62
253
  6
CONTINUOUS
 90
13
 70
0
 10
88.0851369201
 20
116.0958153904
 10
88.068394986
 20
116.1220678919
 10
88.0517846349
 20
116.1465421468
 10
88.035436417
 20
116.1690457977
 10
88.0194788225
 20
116.1894019756
 10
88.0040372714
 20
116.2074506892
 10
87.9892331278
 20
116.2230500834
 10
87.9751827459
 20
116.2360775533
 10
87.9619965559
 20
116.2464307086
 10
87.9497781959
 20
116.2540281778
 10
87.9386236972
 20
116.2588102482
 10
87.9286207293
 20
116.2607393346
 10
87.9198479113
 20
116.2598002751
  0
LINE
  5
432
100
AcDbEntity
  8
RACCORDO
100
AcDbLine
 62
253
  6
CONTINUOUS
 10
87.6939859846
 20
116.422292309
 11
87.500820062
 21
116.8831419936
  0
LINE
  5
433
100
AcDbEntity
  8
RACCORDO
100
AcDbLine
 62
7
  6
CONTINUOUS
 10
92.8706054688
 20
114.1559200561
 11
92.8706054688
 21
112.5853705424
  0
LINE
  5
434
100
AcDbEntity
  8
0
100
AcDbLine
 62
7
  6
CONTINUOUS
 10
92.8706054688
 20
114.1559200561
 11
92.8706054688
 21
117.2525879564
  0
LINE
  5
435
100
AcDbEntity
  8
RACCORDO
100
AcDbLine
 62
7
  6
CONTINUOUS
 10
92.8706054688
 20
117.2525879564
 11
92.8706054688
 21
118.6852943856
  0
LINE
  5
436
100
AcDbEntity
  8
RACCORDO
100
AcDbLine
 62
7
  6
CONTINUOUS
 10
93.0206054688
 20
111.6509006216
 11
93.0206054688
 21
118.5224609375
  0
LINE
  5
437
100
AcDbEntity
  8
RACCORDO
100
AcDbLine
 62
253
  6
CONTINUOUS
 10
93.4206054688
 20
118.5224609375
 11
93.4206054688
 21
111.6744631647
  0
LINE
  5
438
100
AcDbEntity
  8
RACCORDO
100
AcDbLine
 62
253
  6
CONTINUOUS
 10
93.5206054688
 20
118.6224609375
 11
93.5206054445
 21
119.0224609375
  0
LINE
  5
439
100
AcDbEntity
  8
RACCORDO
100
AcDbLine
 62
253
  6
CONTINUOUS
 10
93.6206054688
 20
111.6744631647
 11
93.6206054688
 21
117.6224609375
  0
LINE
  5
43A
100
AcDbEntity
  8
RACCORDO
100
AcDbLine
 62
7
  6
CONTINUOUS
 10
94.0206054688
 20
111.6709724175
 11
94.0206054688
 21
117.6224609375
  0
LINE
  5
43B
100
AcDbEntity
  8
RACCORDO
100
AcDbLine
 62
253
  6
CONTINUOUS
 10
94.4206054688
 20
118.4224609375
 11
94.4206054688
 21
118.0224609375
  0
LWPOLYLINE
  5
43C
100
AcDbEntity
  8
RACCORDO
100
AcDbPolyline
 62
253
  6
CONTINUOUS
 90
10
 70
0
 10
78.9299778311
 20
76.408934342
 10
78.9306055766
 20
76.4111383667
 10
78.9312278143
 20
76.4159573652
 10
78.9318445441
 20
76.4233778914
 10
78.9324572991
 20
76.4333788915
 10
78.9330645462
 20
76.4459337956
 10
78.9336616868
 20
76.4610123889
 10
78.9342487491
 20
76.4785785941
 10
78.934825705
 20
76.4985852404
 10
78.9359350361
 20
76.5456879023
  0
LWPOLYLINE
  5
43D
100
AcDbEntity
  8
RACCORDO
100
AcDbPolyline
 62
7
  6
CONTINUOUS
 90
10
 70
0
 10
80.3824805587
 20
81.1653345235
 10
80.3958744459
 20
81.21178625
 10
80.4123032823
 20
81.258875569
 10
80.4312349436
 20
81.3066024803
 10
80.4520387353
 20
81.3550599843
 10
80.4743138942
 20
81.4041550807
 10
80.4980064817
 20
81.4536087691
 10
80.5228233089
 20
81.5034074986
 10
80.5483884827
 20
81.5535648203
 10
80.5746812906
 20
81.603842386
  0
LWPOLYLINE
  5
43E
100
AcDbEntity
  8
RACCORDO
100
AcDbPolyline
 62
253
  6
CONTINUOUS
 90
22
 70
0
 10
89.8413485983
 20
117.4180014201
 10
89.9071055182
 20
117.5269256452
 10
89.9729789831
 20
117.6411944326
 10
90.03863956
 20
117.7608369603
 10
90.1037122031
 20
117.885790825
 10
90.167883422
 20
118.0161382655
 10
90.2308949879
 20
118.1521179374
 10
90.292400355
 20
118.2938169009
 10
90.3519904554
 20
118.4411132098
 10
90.4092940016
 20
118.5939224886
 10
90.4639339308
 20
118.7522828936
 10
90.5155053426
 20
118.9160286063
 10
90.5635995207
 20
119.0847426364
 10
90.6078544708
 20
119.2584358673
 10
90.6478888371
 20
119.4368615587
 10
90.6833073879
 20
119.6191804604
 10
90.7138112866
 20
119.8053868576
 10
90.7390897681
 20
119.9951402402
 10
90.7588348203
 20
120.1870607847
 10
90.7728532351
 20
120.3805392452
 10
90.7810112621
 20
120.5757485753
 10
90.783189195
 20
120.7724609375
  0
LWPOLYLINE
  5
43F
100
AcDbEntity
  8
RACCORDO
100
AcDbPolyline
 62
253
  6
CONTINUOUS
 90
10
 70
0
 10
88.0416845927
 20
116.0559200561
 10
88.0452481878
 20
116.0616411953
 10
88.0491443262
 20
116.0670549658
 10
88.053373008
 20
116.0721613675
 10
88.0579561438
 20
116.0769800158
 10
88.062871823
 20
116.0814912954
 10
88.0680543135
 20
116.0856363604
 10
88.0734817044
 20
116.0893955957
 10
88.0791759066
 20
116.0927886165
 10
88.0851369201
 20
116.0958154228
  0
LWPOLYLINE
  5
440
100
AcDbEntity
  8
RACCORDO
100
AcDbPolyline
 62
253
  6
CONTINUOUS
 90
10
 70
0
 10
87.6994583306
 20
116.0623379143
 10
87.7176017621
 20
116.0904966935
 10
87.7375509298
 20
116.1173274921
 10
87.7592201661
 20
116.1427306798
 10
87.7825390347
 20
116.1666181595
 10
87.8074109771
 20
116.1888851809
 10
87.8336993032
 20
116.2094198685
 10
87.8612654352
 20
116.2281305567
 10
87.8900137009
 20
116.2449470608
 10
87.9198506796
 20
116.25979417
  0
LINE
  5
441
100
AcDbEntity
  8
0
100
AcDbLine
 62
253
  6
CONTINUOUS
 10
120.3706054688
 20
155.122415246
 11
120.3391863519
 21
155.0909961292
  0
LINE
  5
442
100
AcDbEntity
  8
0
100
AcDbLine
 62
253
  6
CONTINUOUS
 10
120.6705597773
 20
154.8224609375
 11
120.6391406604
 21
154.7910418206
  0
LINE
  5
443
100
AcDbEntity
  8
0
100
AcDbLine
 62
253
  6
CONTINUOUS
 10
88.4020245856
 20
130.945245802
 11
88.3706054688
 21
130.9232458995
  0
LINE
  5
444
100
AcDbEntity
  8
0
100
AcDbLine
 62
253
  6
CONTINUOUS
 10
88.7309644072
 20
130.4754710514
 11
88.6995452903
 21
130.453471149
  0
LINE
  5
445
100
AcDbEntity
  8
0
100
AcDbLine
 62
7
  6
CONTINUOUS
 10
89.3706054688
 20
130.2426607444
 11
89.3958955317
 21
130.2603690372
  0
LINE
  5
446
100
AcDbEntity
  8
DRAFT
100
AcDbLine
 62
7
  6
CONTINUOUS
 10
76.7620499542
 20
103.7181873139
 11
76.7229666755
 21
103.7181271732
  0
LINE
  5
447
100
AcDbEntity
  8
DRAFT
100
AcDbLine
 62
7
  6
CONTINUOUS
 10
75.3706054688
 20
104.5224609375
 11
76.9020245856
 21
104.5224609375
  0
LINE
  5
448
100
AcDbEntity
  8
DRAFT
100
AcDbLine
 62
7
  6
CONTINUOUS
 10
154.8391863519
 20
104.5224609375
 11
156.3706054688
 21
104.5224609375
  0
LINE
  5
449
100
AcDbEntity
  8
DRAFT
100
AcDbLine
 62
7
  6
CONTINUOUS
 10
155.018244262
 20
103.7181271732
 11
154.9791609833
 21
103.7181873139
  0
LWPOLYLINE
  5
44A
100
AcDbEntity
  8
RACCORDO
100
AcDbPolyline
 62
253
  6
CONTINUOUS
 90
13
 70
0
 10
89.8413485982
 20
117.4180039288
 10
89.8094616032
 20
117.4377680516
 10
89.7778925134
 20
117.4553408075
 10
89.7469561246
 20
117.4705469681
 10
89.7169609232
 20
117.4832349039
 10
89.6882060106
 20
117.493278096
 10
89.6609781203
 20
117.5005763981
 10
89.6355487591
 20
117.5050570348
 10
89.6121714995
 20
117.5066753274
 10
89.5910794513
 20
117.5054151396
 10
89.5724829367
 20
117.5012890378
 10
89.5565673939
 20
117.4943381667
 10
89.5434915269
 20
117.4846318382
  0
LINE
  5
44B
100
AcDbEntity
  8
RACCORDO
100
AcDbLine
 62
253
  6
CONTINUOUS
 10
87.5488759483
 20
115.8552481365
 11
87.6286008001
 21
115.8036360458
  0
LINE
  5
44C
100
AcDbEntity
  8
RACCORDO
100
AcDbLine
 62
253
  6
CONTINUOUS
 10
87.468494526
 20
115.9078396148
 11
87.5488759483
 21
115.8552481365
  0
LINE
  5
44D
100
AcDbEntity
  8
RACCORDO
100
AcDbLine
 62
253
  6
CONTINUOUS
 10
87.3874564949
 20
115.9614426213
 11
87.468494526
 21
115.9078396148
  0
LINE
  5
44E
100
AcDbEntity
  8
RACCORDO
100
AcDbLine
 62
253
  6
CONTINUOUS
 10
87.8450385428
 20
116.312966346
 11
87.9198480683
 21
116.2597999285
  0
LINE
  5
44F
100
AcDbEntity
  8
RACCORDO
100
AcDbLine
 62
253
  6
CONTINUOUS
 10
87.7697480487
 20
116.3671204488
 11
87.8450385428
 21
116.312966346
  0
LINE
  5
450
100
AcDbEntity
  8
RACCORDO
100
AcDbLine
 62
253
  6
CONTINUOUS
 10
87.6939859845
 20
116.4222923089
 11
87.7697480487
 21
116.3671204488
  0
LWPOLYLINE
  5
451
100
AcDbEntity
  8
0
100
AcDbPolyline
 62
7
  6
CONTINUOUS
 90
6
 70
0
 10
90.8037374832
 20
136.0123258097
 10
90.8058119564
 20
136.0074993077
 10
90.8057990449
 20
135.9995846871
 10
90.8038435011
 20
135.9889796519
 10
90.7998158457
 20
135.9762010782
 10
90.7876962919
 20
135.944800432
  0
LWPOLYLINE
  5
452
100
AcDbEntity
  8
RACCORDO
100
AcDbPolyline
 62
253
  6
CONTINUOUS
 90
10
 70
0
 10
78.6300235226
 20
76.7088886505
 10
78.630648854
 20
76.7104322697
 10
78.6312695578
 20
76.7137870125
 10
78.631885634
 20
76.7189528787
 10
78.632498918
 20
76.725952308
 10
78.6331075744
 20
76.7347628608
 10
78.633706097
 20
76.7453172183
 10
78.6342942733
 20
76.7576334735
 10
78.6348723158
 20
76.7716935333
 10
78.6359832035
 20
76.8046947485
  0
LWPOLYLINE
  5
453
100
AcDbEntity
  8
RACCORDO
100
AcDbPolyline
 62
253
  6
CONTINUOUS
 90
22
 70
0
 10
89.543496644
 20
117.4846272579
 10
89.629352031
 20
117.5863572802
 10
89.7152608171
 20
117.6936774488
 10
89.8008777097
 20
117.8067419338
 10
89.8858726086
 20
117.9257426625
 10
89.9698231866
 20
118.0507650234
 10
90.0522297719
 20
118.1817756732
 10
90.1327178458
 20
118.3189240749
 10
90.2108202066
 20
118.462229353
 10
90.2859170769
 20
118.6114078368
 10
90.3576099122
 20
118.7665336478
 10
90.4254221538
 20
118.9275416923
 10
90.4886849641
 20
119.0938614675
 10
90.5470198213
 20
119.2654929395
 10
90.5999753251
 20
119.4422517177
 10
90.646908008
 20
119.6231986324
 10
90.6875130184
 20
119.8082721641
 10
90.7214217634
 20
119.9971481992
 10
90.7481249806
 20
120.18840185
 10
90.7673962358
 20
120.3813624701
 10
90.7791385904
 20
120.576146274
 10
90.7831891788
 20
120.7724609375
  0
LINE
  5
454
100
AcDbEntity
  8
RACCORDO
100
AcDbLine
 62
253
  6
CONTINUOUS
 10
51.0675134783
 20
77.2674356843
 11
50.5019083268
 21
76.7016822676
  0
LINE
  5
455
100
AcDbEntity
  8
0
100
AcDbLine
 62
253
  6
CONTINUOUS
 10
110.8706054688
 20
140.922415246
 11
110.8391863519
 21
140.8909961292
  0
LINE
  5
456
100
AcDbEntity
  8
0
100
AcDbLine
 62
253
  6
CONTINUOUS
 10
111.1705597773
 20
140.6224609375
 11
111.1391406604
 21
140.5910418206
  0
LINE
  5
457
100
AcDbEntity
  8
0
100
AcDbLine
 62
7
  6
CONTINUOUS
 10
127.3706054688
 20
156.5724609375
 11
127.2938031831
 21
156.4956586518
  0
LINE
  5
458
100
AcDbEntity
  8
RACCORDO
100
AcDbLine
 62
253
  6
CONTINUOUS
 10
49.0070788732
 20
78.1086754238
 11
48.9706054687
 21
78.0722020193
  0
LINE
  5
459
100
AcDbEntity
  8
RACCORDO
100
AcDbLine
 62
253
  6
CONTINUOUS
 10
48.673532202
 20
77.7748051232
 11
48.9206054688
 21
78.02187839
  0
LINE
  5
45A
100
AcDbEntity
  8
0
100
AcDbLine
 62
7
  6
CONTINUOUS
 10
111.8706054688
 20
140.6224609375
 11
111.9474077544
 21
140.6992632232
  0
LINE
  5
45B
100
AcDbEntity
  8
0
100
AcDbLine
 62
253
  6
CONTINUOUS
 10
128.0706511602
 20
156.5724609375
 11
128.1020702771
 21
156.6038800544
  0
LINE
  5
45C
100
AcDbEntity
  8
RACCORDO
100
AcDbLine
 62
253
  6
CONTINUOUS
 10
52.8151553996
 20
81.1653345236
 11
51.3718766185
 21
79.7220557425
  0
LINE
  5
45D
100
AcDbEntity
  8
0
100
AcDbLine
 62
253
  6
CONTINUOUS
 10
128.3706054688
 20
156.272506629
 11
128.4020245856
 21
156.3039257458
  0
LINE
  5
45E
100
AcDbEntity
  8
DRAFT
100
AcDbLine
 62
7
  6
CONTINUOUS
 10
76.7530743694
 20
103.8025686314
 11
76.7229666755
 21
103.7724609375
  0
LINE
  5
45F
100
AcDbEntity
  8
RACCORDO
100
AcDbLine
 62
253
  6
CONTINUOUS
 10
53.7634790549
 20
80.2170108684
 11
52.3202002737
 21
78.7737320873
  0
LINE
  5
460
100
AcDbEntity
  8
0
100
AcDbLine
 62
253
  6
CONTINUOUS
 10
116.5706511602
 20
142.3724609375
 11
116.6020702771
 21
142.4038800544
  0
LINE
  5
461
100
AcDbEntity
  8
RACCORDO
100
AcDbLine
 62
253
  6
CONTINUOUS
 10
50.3729051555
 20
76.0753431718
 11
50.6200229212
 21
76.3224609375
  0
LINE
  5
462
100
AcDbEntity
  8
RACCORDO
100
AcDbLine
 62
253
  6
CONTINUOUS
 10
50.706819955
 20
76.408934342
 11
50.6703465505
 21
76.3724609375
  0
LINE
  5
463
100
AcDbEntity
  8
0
100
AcDbLine
 62
253
  6
CONTINUOUS
 10
116.8706054688
 20
142.072506629
 11
116.9020245856
 21
142.1039257458
  0
LINE
  5
464
100
AcDbEntity
  8
RACCORDO
100
AcDbLine
 62
253
  6
CONTINUOUS
 10
49.8655802156
 20
78.4694231914
 11
49.2998197872
 21
77.903756784
  0
LINE
  5
465
100
AcDbEntity
  8
RACCORDO
100
AcDbLine
 62
253
  6
CONTINUOUS
 10
143.7689138638
 20
114.1559200561
 11
144.15673447
 21
114.2528752077
  0
LINE
  5
466
100
AcDbEntity
  8
RACCORDO
100
AcDbLine
 62
253
  6
CONTINUOUS
 10
144.3686740984
 20
114.4607078584
 11
144.8534498562
 21
114.5819017979
  0
LWPOLYLINE
  5
467
100
AcDbEntity
  8
RACCORDO
100
AcDbPolyline
 62
253
  6
CONTINUOUS
 90
18
 70
0
 10
143.7249948174
 20
114.3530003594
 10
143.7903985738
 20
114.3688889211
 10
143.822514823
 20
114.3764679227
 10
143.8539330139
 20
114.3837304441
 10
143.8844282518
 20
114.3906244994
 10
143.9137822487
 20
114.3971007402
 10
143.9417848856
 20
114.4031128089
 10
143.9682357167
 20
114.4086176705
 10
143.9929454042
 20
114.4135759207
 10
144.0157370736
 20
114.4179520678
 10
144.0364475798
 20
114.4217147869
 10
144.0549286749
 20
114.4248371439
 10
144.0710480691
 20
114.4272967889
 10
144.0846903784
 20
114.4290761153
 10
144.0957579495
 20
114.4301623866
 10
144.1041715596
 20
114.4305478271
 10
144.1098709834
 20
114.4302296779
 10
144.1128154236
 20
114.4292102162
  0
LINE
  5
468
100
AcDbEntity
  8
RACCORDO
100
AcDbLine
 62
253
  6
CONTINUOUS
 10
144.1128154236
 20
114.4292102162
 11
144.3686740984
 21
114.4607078584
  0
LINE
  5
469
100
AcDbEntity
  8
RACCORDO
100
AcDbLine
 62
253
  6
CONTINUOUS
 10
144.0985381705
 20
114.550483239
 11
144.3537544426
 21
114.5819017979
  0
LINE
  5
46A
100
AcDbEntity
  8
RACCORDO
100
AcDbLine
 62
7
  6
CONTINUOUS
 10
145.3709100552
 20
110.451764031
 11
145.8706054688
 21
110.5132793475
  0
LINE
  5
46B
100
AcDbEntity
  8
RACCORDO
100
AcDbLine
 62
253
  6
CONTINUOUS
 10
145.8706054688
 20
108.5224609375
 11
85.8706054688
 21
108.5224609375
  0
LINE
  5
46C
100
AcDbEntity
  8
RACCORDO
100
AcDbLine
 62
7
  6
CONTINUOUS
 10
145.3706054688
 20
109.0224609375
 11
86.3706054688
 21
109.0224609375
  0
LINE
  5
46D
100
AcDbEntity
  8
0
100
AcDbLine
 62
7
  6
CONTINUOUS
 10
105.6706054688
 20
110.2724609375
 11
134.6706054688
 21
110.2724609375
  0
LINE
  5
46E
100
AcDbEntity
  8
RACCORDO
100
AcDbLine
 62
7
  6
CONTINUOUS
 10
144.6615702814
 20
110.5852943856
 11
142.8706054688
 21
110.5852943856
  0
LINE
  5
46F
100
AcDbEntity
  8
RACCORDO
100
AcDbLine
 62
7
  6
CONTINUOUS
 10
90.8706054688
 20
110.5852943856
 11
87.0796406561
 21
110.5852943856
  0
LINE
  5
470
100
AcDbEntity
  8
RACCORDO
100
AcDbLine
 62
7
  6
CONTINUOUS
 10
92.628532517
 20
111.6399920369
 11
141.1126784205
 21
111.6399920369
  0
LINE
  5
471
100
AcDbEntity
  8
RACCORDO
100
AcDbLine
 62
7
  6
CONTINUOUS
 10
92.6344552948
 20
111.6509006216
 11
93.0206054688
 21
111.6509006216
  0
LINE
  5
472
100
AcDbEntity
  8
RACCORDO
100
AcDbLine
 62
7
  6
CONTINUOUS
 10
140.7206054687
 20
111.6509006216
 11
141.1067556427
 21
111.6509006216
  0
LINE
  5
473
100
AcDbEntity
  8
DRAFT
100
AcDbLine
 62
7
  6
CONTINUOUS
 10
94.0206054688
 20
111.6570094291
 11
139.7206054688
 21
111.6570094291
  0
LINE
  5
474
100
AcDbEntity
  8
RACCORDO
100
AcDbLine
 62
7
  6
CONTINUOUS
 10
93.4206054688
 20
111.6744631647
 11
93.6206054688
 21
111.6744631647
  0
LINE
  5
475
100
AcDbEntity
  8
RACCORDO
100
AcDbLine
 62
7
  6
CONTINUOUS
 10
140.1206054688
 20
111.6744631647
 11
140.3206054688
 21
111.6744631647
  0
LINE
  5
476
100
AcDbEntity
  8
RACCORDO
100
AcDbLine
 62
253
  6
CONTINUOUS
 10
87.3725368391
 20
114.4607078584
 11
87.6283955139
 21
114.4292102162
  0
LINE
  5
477
100
AcDbEntity
  8
RACCORDO
100
AcDbLine
 62
253
  6
CONTINUOUS
 10
87.3874564949
 20
114.5819017979
 11
87.642672767
 21
114.550483239
  0
LWPOLYLINE
  5
478
100
AcDbEntity
  8
RACCORDO
100
AcDbPolyline
 62
7
  6
CONTINUOUS
 90
3
 70
0
 10
86.3703008823
 20
110.451764031
 10
86.3623573402
 20
110.4527336979
 10
85.8706054688
 20
110.5132793475
  0
LWPOLYLINE
  5
479
100
AcDbEntity
  8
RACCORDO
100
AcDbPolyline
 62
253
  6
CONTINUOUS
 90
17
 70
0
 10
87.9508124066
 20
114.3688888654
 10
87.9186961884
 20
114.3764678375
 10
87.8872780334
 20
114.383730332
 10
87.8567828353
 20
114.3906243633
 10
87.827428881
 20
114.3971005832
 10
87.7994262884
 20
114.4031126343
 10
87.7729755022
 20
114.4086174819
 10
87.7482658591
 20
114.4135757215
 10
87.7254742328
 20
114.4179518616
 10
87.7047637673
 20
114.4217145772
 10
87.6862827098
 20
114.4248369345
 10
87.670163349
 20
114.4272965831
 10
87.6565210687
 20
114.4290759165
 10
87.6454535212
 20
114.4301621979
 10
87.6370399288
 20
114.4305476515
 10
87.6313405167
 20
114.4302295179
 10
87.6283960817
 20
114.4292100742
  0
LINE
  5
47A
100
AcDbEntity
  8
RACCORDO
100
AcDbLine
 62
253
  6
CONTINUOUS
 10
88.0162161201
 20
114.3530003694
 11
87.9508124066
 21
114.3688888654
  0
LINE
  5
47B
100
AcDbEntity
  8
RACCORDO
100
AcDbLine
 62
253
  6
CONTINUOUS
 10
87.9722970737
 20
114.1559200561
 11
87.5844764675
 21
114.2528752077
  0
LINE
  5
47C
100
AcDbEntity
  8
RACCORDO
100
AcDbLine
 62
253
  6
CONTINUOUS
 10
87.3725368391
 20
114.4607078584
 11
86.8877610813
 21
114.5819017979
  0
LWPOLYLINE
  5
47D
100
AcDbEntity
  8
RACCORDO
100
AcDbPolyline
 62
253
  6
CONTINUOUS
 90
16
 70
0
 10
88.0416845927
 20
116.0559200561
 10
88.0113484389
 20
116.0682873956
 10
87.9812304426
 20
116.0791274251
 10
87.951547203
 20
116.0883621866
 10
87.9225121928
 20
116.0959252666
 10
87.8943342229
 20
116.1017622742
 10
87.8672159408
 20
116.1058312319
 10
87.8413523731
 20
116.1081028779
 10
87.8169295231
 20
116.1085608759
 10
87.7941230327
 20
116.1072019332
 10
87.77309692
 20
116.1040358243
 10
87.754002399
 20
116.0990853199
 10
87.7369767922
 20
116.0923860242
 10
87.7221425435
 20
116.0839861179
 10
87.7096063371
 20
116.0739460122
 10
87.6994583306
 20
116.0623379143
  0
LINE
  5
47E
100
AcDbEntity
  8
RACCORDO
100
AcDbLine
 62
253
  6
CONTINUOUS
 10
49.8655802156
 20
168.0755529279
 11
49.2998197872
 21
168.641165091
  0
LINE
  5
47F
100
AcDbEntity
  8
RACCORDO
100
AcDbLine
 62
253
  6
CONTINUOUS
 10
49.0070788732
 20
168.4362464512
 11
48.9706054688
 21
168.4727198557
  0
LINE
  5
480
100
AcDbEntity
  8
RACCORDO
100
AcDbLine
 62
253
  6
CONTINUOUS
 10
48.673532202
 20
168.7701167518
 11
48.9206054688
 21
168.523043485
  0
LINE
  5
481
100
AcDbEntity
  8
RACCORDO
100
AcDbLine
 62
253
  6
CONTINUOUS
 10
51.3718766185
 20
166.8228661325
 11
52.8151553996
 21
165.3795873514
  0
LINE
  5
482
100
AcDbEntity
  8
RACCORDO
100
AcDbLine
 62
253
  6
CONTINUOUS
 10
52.3202002737
 20
167.7711897877
 11
53.7634790549
 21
166.3279110066
  0
LINE
  5
483
100
AcDbEntity
  8
RACCORDO
100
AcDbLine
 62
253
  6
CONTINUOUS
 10
51.0676617436
 20
169.2774861907
 11
50.5019013152
 21
169.843246619
  0
LINE
  5
484
100
AcDbEntity
  8
RACCORDO
100
AcDbLine
 62
253
  6
CONTINUOUS
 10
50.3729051555
 20
170.4695787032
 11
50.6200229212
 21
170.2224609375
  0
LINE
  5
485
100
AcDbEntity
  8
RACCORDO
100
AcDbLine
 62
253
  6
CONTINUOUS
 10
50.706819955
 20
170.135987533
 11
50.6703465505
 21
170.1724609375
  0
LINE
  5
486
100
AcDbEntity
  8
0
100
AcDbLine
 62
253
  6
CONTINUOUS
 10
88.4020245856
 20
136.1994256922
 11
88.3706054688
 21
136.2442968413
  0
LINE
  5
487
100
AcDbEntity
  8
0
100
AcDbLine
 62
253
  6
CONTINUOUS
 10
89.0729324592
 20
136.6692004427
 11
89.0415133423
 21
136.7140715918
  0
LINE
  5
488
100
AcDbEntity
  8
0
100
AcDbLine
 62
7
  6
CONTINUOUS
 10
105.3391863519
 20
155.0909961292
 11
105.3391863519
 21
156.3039257458
  0
LINE
  5
489
100
AcDbEntity
  8
0
100
AcDbLine
 62
7
  6
CONTINUOUS
 10
105.3706054688
 20
155.122415246
 11
105.3706054688
 21
156.272506629
  0
LINE
  5
48A
100
AcDbEntity
  8
0
100
AcDbLine
 62
7
  6
CONTINUOUS
 10
105.6706054688
 20
109.0224609375
 11
105.6706054688
 21
110.2724609375
  0
LINE
  5
48B
100
AcDbEntity
  8
0
100
AcDbLine
 62
7
  6
CONTINUOUS
 10
106.4474077544
 20
156.4224609375
 11
106.4474077544
 21
156.4956586518
  0
LINE
  5
48C
100
AcDbEntity
  8
SMUSSO
100
AcDbLine
 62
7
  6
CONTINUOUS
 10
106.8706054688
 20
119.5224609375
 11
106.8706054688
 21
119.0224609375
  0
LINE
  5
48D
100
AcDbEntity
  8
RACCORDO
100
AcDbLine
 62
7
  6
CONTINUOUS
 10
106.8706054688
 20
118.0224609375
 11
106.8706054688
 21
119.0224609375
  0
LINE
  5
48E
100
AcDbEntity
  8
SMUSSO
100
AcDbLine
 62
7
  6
CONTINUOUS
 10
109.8706054688
 20
119.5224609375
 11
109.8706054688
 21
119.0224609375
  0
LINE
  5
48F
100
AcDbEntity
  8
RACCORDO
100
AcDbLine
 62
7
  6
CONTINUOUS
 10
109.8706054688
 20
118.0224609375
 11
109.8706054688
 21
119.0224609375
  0
LINE
  5
490
100
AcDbEntity
  8
RACCORDO
100
AcDbLine
 62
7
  6
CONTINUOUS
 10
80.5746812906
 20
81.603842386
 11
80.6555876751
 21
81.7551582006
  0
LWPOLYLINE
  5
491
100
AcDbEntity
  8
RACCORDO
100
AcDbPolyline
 62
7
  6
CONTINUOUS
 90
6
 70
0
 10
86.3384946623
 20
108.9902944656
 10
86.3494041203
 20
109.001356022
 10
86.3583129304
 20
109.0101683992
 10
86.3649833518
 20
109.0165150911
 10
86.3691608091
 20
109.0206126039
 10
86.3706054688
 20
109.0224609375
  0
LWPOLYLINE
  5
492
100
AcDbEntity
  8
RACCORDO
100
AcDbPolyline
 62
7
  6
CONTINUOUS
 90
3
 70
0
 10
86.2958094687
 20
108.9476343483
 10
86.3114826571
 20
108.9634336287
 10
86.3384946623
 20
108.9902944656
  0
LINE
  5
493
100
AcDbEntity
  8
RACCORDO
100
AcDbLine
 62
7
  6
CONTINUOUS
 10
85.8706054688
 20
108.5224609375
 11
86.2607499485
 21
108.9126781494
  0
LINE
  5
494
100
AcDbEntity
  8
RACCORDO
100
AcDbLine
 62
7
  6
CONTINUOUS
 10
86.2607499485
 20
108.9126781494
 11
86.2958094687
 21
108.9476343483
  0
LWPOLYLINE
  5
495
100
AcDbEntity
  8
RACCORDO
100
AcDbPolyline
 62
253
  6
CONTINUOUS
 90
19
 70
0
 10
87.9198480683
 20
116.2597999285
 10
88.0021116707
 20
116.2990100419
 10
88.0854790038
 20
116.3407095893
 10
88.1698648648
 20
116.3849877795
 10
88.2550227076
 20
116.4318426471
 10
88.341017329
 20
116.4814466789
 10
88.4282058893
 20
116.534177537
 10
88.5164769434
 20
116.5901569438
 10
88.6056848569
 20
116.6494907323
 10
88.6960885339
 20
116.7125852155
 10
88.7875286407
 20
116.779582826
 10
88.8798161872
 20
116.8506115635
 10
88.9731104567
 20
116.9261042284
 10
89.0671971928
 20
117.0062217535
 10
89.1618280078
 20
117.0911049633
 10
89.2570468183
 20
117.181198569
 10
89.3526577147
 20
117.2767658383
 10
89.4482499457
 20
117.3778611019
 10
89.543496644
 20
117.4846272579
  0
LWPOLYLINE
  5
496
100
AcDbEntity
  8
RACCORDO
100
AcDbPolyline
 62
253
  6
CONTINUOUS
 90
19
 70
0
 10
88.0851369201
 20
116.0958154228
 10
88.1742205549
 20
116.1379628237
 10
88.2643098815
 20
116.1829901272
 10
88.3554049001
 20
116.2308973334
 10
88.4474572531
 20
116.2814762322
 10
88.5405152979
 20
116.3349350337
 10
88.6347241072
 20
116.3918983679
 10
88.7301472372
 20
116.4523382844
 10
88.8267211316
 20
116.5162827337
 10
88.9244001942
 20
116.5844401966
 10
89.0232564518
 20
116.6567869243
 10
89.1232178776
 20
116.7333466656
 10
89.2240227948
 20
116.8148991485
 10
89.3257578175
 20
116.9014309362
 10
89.4283363316
 20
116.9929554653
 10
89.5312368187
 20
117.0902927745
 10
89.634285439
 20
117.1937162097
 10
89.7376560322
 20
117.3029524249
 10
89.8413485983
 20
117.4180014201
  0
LWPOLYLINE
  5
497
100
AcDbEntity
  8
RACCORDO
100
AcDbPolyline
 62
253
  6
CONTINUOUS
 90
22
 70
0
 10
87.5008200622
 20
116.8831419937
 10
87.4505093743
 20
116.8604482552
 10
87.4016415226
 20
116.8350291298
 10
87.3542165072
 20
116.8068846172
 10
87.3080500322
 20
116.7759136992
 10
87.2633263936
 20
116.742217394
 10
87.2205984787
 20
116.7060987574
 10
87.1798985093
 20
116.667519036
 10
87.1411942637
 20
116.626516983
 10
87.1049419638
 20
116.5835119137
 10
87.0711805716
 20
116.5384749932
 10
87.0398711251
 20
116.4914350565
 10
87.0113529599
 20
116.4428979228
 10
86.9856676283
 20
116.3928394406
 10
86.962773578
 20
116.3412837616
 10
86.9428854878
 20
116.2888091599
 10
86.9260508577
 20
116.2354001753
 10
86.9122221878
 20
116.1810722681
 10
86.9014716572
 20
116.1264500936
 10
86.8938233257
 20
116.0717418702
 10
86.8892531336
 20
116.0167393794
 10
86.8877610809
 20
115.9614426213
  0
LINE
  5
498
100
AcDbEntity
  8
RACCORDO
100
AcDbLine
 62
7
  6
CONTINUOUS
 10
86.6667390316
 20
110.5819254638
 11
86.406600974
 21
110.5224609375
  0
LWPOLYLINE
  5
499
100
AcDbEntity
  8
RACCORDO
100
AcDbPolyline
 62
253
  6
CONTINUOUS
 90
19
 70
0
 10
88.0283571303
 20
115.9974849617
 10
87.9941757439
 20
115.9962696042
 10
87.9602444935
 20
115.9936446029
 10
87.9268116807
 20
115.9896291669
 10
87.8941219596
 20
115.9842526804
 10
87.8624145465
 20
115.9775544872
 10
87.8319214694
 20
115.9695836031
 10
87.80286587
 20
115.960398357
 10
87.775460371
 20
115.9500659644
 10
87.7499055197
 20
115.9386620353
 10
87.7263883212
 20
115.9262700208
 10
87.7050808692
 20
115.9129806027
 10
87.686139087
 20
115.8988910296
 10
87.6697015865
 20
115.8841044055
 10
87.6558886538
 20
115.8687289355
 10
87.6448013689
 20
115.8528771333
 10
87.6365208662
 20
115.8366649987
 10
87.6311077406
 20
115.8202111679
 10
87.6286016043
 20
115.803636046
  0
LWPOLYLINE
  5
49A
100
AcDbEntity
  8
RACCORDO
100
AcDbPolyline
 62
253
  6
CONTINUOUS
 90
19
 70
0
 10
88.0424290978
 20
114.5969021128
 10
88.0083348101
 20
114.5965959497
 10
87.9744886767
 20
114.5959541535
 10
87.9411370464
 20
114.5949813955
 10
87.9085226688
 20
114.593684756
 10
87.8768829273
 20
114.5920736726
 10
87.8464481114
 20
114.5901598713
 10
87.8174397408
 20
114.5879572818
 10
87.7900689525
 20
114.5854819356
 10
87.7645349647
 20
114.5827518495
 10
87.7410236261
 20
114.5797868943
 10
87.719706064
 20
114.5766086506
 10
87.700737438
 20
114.5732402511
 10
87.684255811
 20
114.5697062127
 10
87.6703811444
 20
114.5660322578
 10
87.6592144249
 20
114.5622451274
 10
87.6508369294
 20
114.558372386
 10
87.6453096333
 20
114.5544422213
 10
87.642672767
 20
114.550483239
  0
LINE
  5
49B
100
AcDbEntity
  8
RACCORDO
100
AcDbLine
 62
7
  6
CONTINUOUS
 10
92.8706054688
 20
112.8793294051
 11
93.0206054688
 21
112.8793294051
  0
LINE
  5
49C
100
AcDbEntity
  8
RACCORDO
100
AcDbLine
 62
7
  6
CONTINUOUS
 10
140.7206054687
 20
112.8793294051
 11
140.8706054688
 21
112.8793294051
  0
LINE
  5
49D
100
AcDbEntity
  8
DRAFT
100
AcDbLine
 62
7
  6
CONTINUOUS
 10
92.8706054688
 20
113.2724609375
 11
93.0206054688
 21
113.2724609375
  0
LINE
  5
49E
100
AcDbEntity
  8
DRAFT
100
AcDbLine
 62
7
  6
CONTINUOUS
 10
140.7206054687
 20
113.2724609375
 11
140.8706054688
 21
113.2724609375
  0
LINE
  5
49F
100
AcDbEntity
  8
RACCORDO
100
AcDbLine
 62
253
  6
CONTINUOUS
 10
140.8706054688
 20
113.2831776828
 11
140.7206054687
 21
113.2831776828
  0
LINE
  5
4A0
100
AcDbEntity
  8
RACCORDO
100
AcDbLine
 62
253
  6
CONTINUOUS
 10
93.0206054688
 20
113.2831776828
 11
92.8706054688
 21
113.2831776828
  0
LINE
  5
4A1
100
AcDbEntity
  8
RACCORDO
100
AcDbLine
 62
253
  6
CONTINUOUS
 10
140.8706054688
 20
114.0830558389
 11
140.7206054687
 21
114.0830558389
  0
LINE
  5
4A2
100
AcDbEntity
  8
RACCORDO
100
AcDbLine
 62
253
  6
CONTINUOUS
 10
93.0206054688
 20
114.0830558389
 11
92.8706054688
 21
114.0830558389
  0
LINE
  5
4A3
100
AcDbEntity
  8
0
100
AcDbLine
 62
253
  6
CONTINUOUS
 10
87.9722970737
 20
114.1559200561
 11
92.8706054688
 21
114.1559200561
  0
LINE
  5
4A4
100
AcDbEntity
  8
0
100
AcDbLine
 62
253
  6
CONTINUOUS
 10
140.8706054688
 20
114.1559200561
 11
143.7689138638
 21
114.1559200561
  0
LINE
  5
4A5
100
AcDbEntity
  8
RACCORDO
100
AcDbLine
 62
253
  6
CONTINUOUS
 10
87.3874564949
 20
114.5819017979
 11
86.8877610811
 21
114.5819017979
  0
LINE
  5
4A6
100
AcDbEntity
  8
RACCORDO
100
AcDbLine
 62
253
  6
CONTINUOUS
 10
144.3537544426
 20
114.5819017979
 11
144.8534498564
 21
114.5819017979
  0
LINE
  5
4A7
100
AcDbEntity
  8
RACCORDO
100
AcDbLine
 62
253
  6
CONTINUOUS
 10
87.3874564949
 20
115.9614426213
 11
86.8877610809
 21
115.9614426213
  0
LINE
  5
4A8
100
AcDbEntity
  8
RACCORDO
100
AcDbLine
 62
253
  6
CONTINUOUS
 10
144.3537544426
 20
115.9614426213
 11
144.8534498566
 21
115.9614426214
  0
LINE
  5
4A9
100
AcDbEntity
  8
0
100
AcDbLine
 62
253
  6
CONTINUOUS
 10
88.0416845927
 20
116.0559200561
 11
92.8706054688
 21
116.0559200561
  0
LINE
  5
4AA
100
AcDbEntity
  8
0
100
AcDbLine
 62
253
  6
CONTINUOUS
 10
140.8706054688
 20
116.0559200561
 11
143.6995263448
 21
116.0559200561
  0
LINE
  5
4AB
100
AcDbEntity
  8
0
100
AcDbLine
 62
7
  6
CONTINUOUS
 10
141.4575543828
 20
117.2525879564
 11
140.8706054688
 21
117.2525879564
  0
LINE
  5
4AC
100
AcDbEntity
  8
0
100
AcDbLine
 62
7
  6
CONTINUOUS
 10
92.8706054688
 20
117.2525879564
 11
90.283657974
 21
117.2525879564
  0
LINE
  5
4AD
100
AcDbEntity
  8
RACCORDO
100
AcDbLine
 62
253
  6
CONTINUOUS
 10
140.1206054688
 20
117.6224609375
 11
139.7206054688
 21
117.6224609375
  0
LINE
  5
4AE
100
AcDbEntity
  8
RACCORDO
100
AcDbLine
 62
253
  6
CONTINUOUS
 10
93.6206054688
 20
117.6224609375
 11
94.0206054688
 21
117.6224609375
  0
LWPOLYLINE
  5
4AF
100
AcDbEntity
  8
RACCORDO
100
AcDbPolyline
 62
253
  6
CONTINUOUS
 90
19
 70
0
 10
143.6987818399
 20
114.5969012877
 10
143.732876205
 20
114.5965950624
 10
143.7667224579
 20
114.5959532202
 10
143.8000742445
 20
114.5949804321
 10
143.8326888099
 20
114.5936837781
 10
143.8643287652
 20
114.5920726952
 10
143.8947638152
 20
114.590158909
 10
143.9237724347
 20
114.5879563485
 10
143.9511434812
 20
114.5854810443
 10
143.9766777311
 20
114.5827510124
 10
144.0001893305
 20
114.5797861226
 10
144.0215071473
 20
114.5766079542
 10
144.0404760174
 20
114.5732396388
 10
144.0569578735
 20
114.5697056919
 10
144.0708327505
 20
114.5660318347
 10
144.0819996585
 20
114.5622448066
 10
144.0903773177
 20
114.5583721708
 10
144.0959047505
 20
114.5544421134
 10
144.0985417247
 20
114.5504832386
  0
LWPOLYLINE
  5
4B0
100
AcDbEntity
  8
RACCORDO
100
AcDbPolyline
 62
253
  6
CONTINUOUS
 90
19
 70
0
 10
143.7128538072
 20
115.9974834671
 10
143.7470350942
 20
115.9962682092
 10
143.7809662523
 20
115.9936433108
 10
143.8143989825
 20
115.9896279799
 10
143.8470886332
 20
115.9842515999
 10
143.8787959901
 20
115.9775535135
 10
143.9092890274
 20
115.9695827355
 10
143.9383446053
 20
115.960397594
 10
143.9657501029
 20
115.9500653033
 10
143.9913049741
 20
115.9386614725
 10
144.0148222152
 20
115.9262695516
 10
144.0361297334
 20
115.9129802213
 10
144.055071606
 20
115.8988907295
 10
144.0715092215
 20
115.8841041792
 10
144.0853222939
 20
115.8687287745
 10
144.0964097427
 20
115.8528770284
 10
144.1046904331
 20
115.8366649396
 10
144.1101037691
 20
115.820211144
 10
144.1126101374
 20
115.803636046
  0
LWPOLYLINE
  5
4B1
100
AcDbEntity
  8
RACCORDO
100
AcDbPolyline
 62
7
  6
CONTINUOUS
 90
10
 70
0
 10
90.2835326502
 20
117.2525879564
 10
90.2233964107
 20
117.2547867721
 10
90.1659652792
 20
117.2598731336
 10
90.1112392555
 20
117.267847041
 10
90.0591200454
 20
117.2789942427
 10
90.0097059433
 20
117.2930289903
 10
89.9632918322
 20
117.3090940381
 10
89.9199760066
 20
117.3269036377
 10
89.8796601722
 20
117.3467435374
 10
89.8423443288
 20
117.3686137374
  0
LINE
  5
4B2
100
AcDbEntity
  8
RACCORDO
100
AcDbLine
 62
7
  6
CONTINUOUS
 10
145.0744719059
 20
110.5819254638
 11
145.3346099635
 21
110.5224609375
  0
LINE
  5
4B3
100
AcDbEntity
  8
0
100
AcDbLine
 62
253
  6
CONTINUOUS
 10
90.7981998291
 20
135.5736321327
 11
90.7312039232
 21
135.6406280386
  0
LINE
  5
4B4
100
AcDbEntity
  8
RACCORDO
100
AcDbLine
 62
253
  6
CONTINUOUS
 10
91.0871519084
 20
136.2840708805
 11
91.2978952426
 21
136.0733275462
  0
LINE
  5
4B5
100
AcDbEntity
  8
RACCORDO
100
AcDbLine
 62
253
  6
CONTINUOUS
 10
152.8112331064
 20
76.408934342
 11
152.8257962898
 21
76.3943711585
  0
LINE
  5
4B6
100
AcDbEntity
  8
RACCORDO
100
AcDbLine
 62
253
  6
CONTINUOUS
 10
153.1111874149
 20
76.7088886505
 11
153.1206054688
 21
76.6994705967
  0
LINE
  5
4B7
100
AcDbEntity
  8
0
100
AcDbLine
 62
7
  6
CONTINUOUS
 10
110.8391863519
 20
140.8909961292
 11
110.8391863519
 21
142.1039257458
  0
LINE
  5
4B8
100
AcDbEntity
  8
0
100
AcDbLine
 62
7
  6
CONTINUOUS
 10
110.8706054688
 20
140.922415246
 11
110.8706054688
 21
142.072506629
  0
LINE
  5
4B9
100
AcDbEntity
  8
IMPORT_IGES
100
AcDbLine
 62
7
  6
CONTINUOUS
 10
111.2706054688
 20
142.1724609375
 11
111.2706054688
 21
140.9724609375
  0
LINE
  5
4BA
100
AcDbEntity
  8
0
100
AcDbLine
 62
7
  6
CONTINUOUS
 10
111.9474077544
 20
141.2224609375
 11
111.9474077544
 21
140.6992632232
  0
LINE
  5
4BB
100
AcDbEntity
  8
0
100
AcDbLine
 62
7
  6
CONTINUOUS
 10
112.2938031831
 20
156.4224609375
 11
112.2938031831
 21
156.4956586518
  0
LINE
  5
4BC
100
AcDbEntity
  8
0
100
AcDbLine
 62
7
  6
CONTINUOUS
 10
113.3706054688
 20
156.272506629
 11
113.3706054688
 21
155.122415246
  0
LINE
  5
4BD
100
AcDbEntity
  8
0
100
AcDbLine
 62
7
  6
CONTINUOUS
 10
113.4020245856
 20
156.3039257458
 11
113.4020245856
 21
155.0909961292
  0
LINE
  5
4BE
100
AcDbEntity
  8
IMPORT_IGES
100
AcDbLine
 62
7
  6
CONTINUOUS
 10
114.2206054687
 20
141.1224609375
 11
114.2206054687
 21
142.0224609375
  0
LINE
  5
4BF
100
AcDbEntity
  8
IMPORT_IGES
100
AcDbLine
 62
7
  6
CONTINUOUS
 10
115.5206054687
 20
142.0224609375
 11
115.5206054687
 21
141.1224609375
  0
LINE
  5
4C0
100
AcDbEntity
  8
0
100
AcDbLine
 62
7
  6
CONTINUOUS
 10
115.7938031831
 20
141.2224609375
 11
115.7938031831
 21
140.6992632232
  0
LINE
  5
4C1
100
AcDbEntity
  8
DRAFT
100
AcDbLine
 62
253
  6
CONTINUOUS
 10
115.8706054687
 20
170.7724609343
 11
115.8706054687
 21
170.4723872047
  0
LINE
  5
4C2
100
AcDbEntity
  8
DRAFT
100
AcDbLine
 62
253
  6
CONTINUOUS
 10
115.8706054688
 20
75.7724609407
 11
115.8706054688
 21
76.0725346703
  0
LINE
  5
4C3
100
AcDbEntity
  8
DRAFT
100
AcDbLine
 62
7
  6
CONTINUOUS
 10
145.9706054688
 20
160.6927873271
 11
146.0002790791
 21
160.7224609375
  0
LINE
  5
4C4
100
AcDbEntity
  8
DRAFT
100
AcDbLine
 62
7
  6
CONTINUOUS
 10
76.8706054688
 20
103.7724609375
 11
76.7620499542
 21
103.7181873139
  0
LWPOLYLINE
  5
4C5
100
AcDbEntity
  8
RACCORDO
100
AcDbPolyline
 62
253
  6
CONTINUOUS
 90
22
 70
0
 10
87.6939865735
 20
116.4222909037
 10
87.6689322463
 20
116.410996163
 10
87.6444438184
 20
116.3982868922
 10
87.6206012278
 20
116.3841869747
 10
87.5974721965
 20
116.3687122808
 10
87.5751527932
 20
116.3518996901
 10
87.5537592014
 20
116.3338212966
 10
87.5333673847
 20
116.3145270105
 10
87.5140515904
 20
116.2940664669
 10
87.4959081723
 20
116.2725329522
 10
87.4789969779
 20
116.249996028
 10
87.4633751715
 20
116.2265222093
 10
87.4491146102
 20
116.2022170288
 10
87.4362546203
 20
116.177159498
 10
87.4248353364
 20
116.1514316094
 10
87.4149071706
 20
116.1251557241
 10
87.4064880739
 20
116.098417945
 10
87.3995947281
 20
116.0713089812
 10
87.394250075
 20
116.0439658257
 10
87.3904531883
 20
116.0164923118
 10
87.3881918657
 20
115.9889569239
 10
87.387457225
 20
115.9614426213
  0
LWPOLYLINE
  5
4C6
100
AcDbEntity
  8
RACCORDO
100
AcDbPolyline
 62
253
  6
CONTINUOUS
 90
32
 70
0
 10
146.6819751315
 20
127.343223788
 10
146.5859487444
 20
127.3197499181
 10
146.4519857344
 20
127.2807010929
 10
146.3195941667
 20
127.235774079
 10
146.1895347898
 20
127.185226419
 10
146.0618242443
 20
127.1290268921
 10
145.9364458897
 20
127.067206719
 10
145.8141105534
 20
127.0001171035
 10
145.6948350785
 20
126.9277282165
 10
145.5786026219
 20
126.8500698872
 10
145.4660734826
 20
126.7675828061
 10
145.3572676471
 20
126.6802384865
 10
145.2521651289
 20
126.5880654153
 10
145.1513662671
 20
126.4915897441
 10
145.054896014
 20
126.3907867961
 10
144.9627294175
 20
126.2856812482
 10
144.8753919599
 20
126.1768732834
 10
144.7929120837
 20
126.0643430084
 10
144.7152613464
 20
125.9481103166
 10
144.6428799037
 20
125.8288350704
 10
144.5757974293
 20
125.7065003592
 10
144.5139842495
 20
125.5811230936
 10
144.4577914996
 20
125.4534138676
 10
144.4072504342
 20
125.3233560198
 10
144.3623297985
 20
125.1909662117
 10
144.3232869637
 20
125.0570050205
 10
144.2901563688
 20
124.9214508314
 10
144.2629035748
 20
124.7843252593
 10
144.2416826349
 20
124.6464537266
 10
144.2265449003
 20
124.5081113743
 10
144.2174390198
 20
124.3690230615
 10
144.2143649935
 20
124.2291887882
  0
LINE
  5
4C7
100
AcDbEntity
  8
RACCORDO
100
AcDbLine
 62
7
  6
CONTINUOUS
 10
94.4206054688
 20
118.0224609375
 11
139.3206054688
 21
118.0224609375
  0
LINE
  5
4C8
100
AcDbEntity
  8
RACCORDO
100
AcDbLine
 62
253
  6
CONTINUOUS
 10
94.4206054688
 20
118.4224609375
 11
106.8706054688
 21
118.4224609375
  0
LINE
  5
4C9
100
AcDbEntity
  8
RACCORDO
100
AcDbLine
 62
253
  6
CONTINUOUS
 10
109.8706054688
 20
118.4224609375
 11
133.1206054688
 21
118.4224609375
  0
LINE
  5
4CA
100
AcDbEntity
  8
RACCORDO
100
AcDbLine
 62
253
  6
CONTINUOUS
 10
136.1206054688
 20
118.4224609375
 11
139.3206054688
 21
118.4224609375
  0
LINE
  5
4CB
100
AcDbEntity
  8
RACCORDO
100
AcDbLine
 62
253
  6
CONTINUOUS
 10
93.4206054688
 20
118.5224609375
 11
93.0206054688
 21
118.5224609375
  0
LINE
  5
4CC
100
AcDbEntity
  8
RACCORDO
100
AcDbLine
 62
253
  6
CONTINUOUS
 10
106.8706054688
 20
118.5224609375
 11
109.8706054688
 21
118.5224609375
  0
LINE
  5
4CD
100
AcDbEntity
  8
RACCORDO
100
AcDbLine
 62
253
  6
CONTINUOUS
 10
133.1206054688
 20
118.5224609375
 11
136.1206054688
 21
118.5224609375
  0
LINE
  5
4CE
100
AcDbEntity
  8
RACCORDO
100
AcDbLine
 62
253
  6
CONTINUOUS
 10
140.3206054688
 20
118.5224609375
 11
140.7206054688
 21
118.5224609372
  0
LINE
  5
4CF
100
AcDbEntity
  8
RACCORDO
100
AcDbLine
 62
253
  6
CONTINUOUS
 10
140.2206054688
 20
118.6224609375
 11
136.1206054688
 21
118.6224609375
  0
LINE
  5
4D0
100
AcDbEntity
  8
RACCORDO
100
AcDbLine
 62
253
  6
CONTINUOUS
 10
133.1206054688
 20
118.6224609375
 11
109.8706054688
 21
118.6224609375
  0
LINE
  5
4D1
100
AcDbEntity
  8
RACCORDO
100
AcDbLine
 62
253
  6
CONTINUOUS
 10
106.8706054688
 20
118.6224609375
 11
93.5206054688
 21
118.6224609375
  0
LINE
  5
4D2
100
AcDbEntity
  8
RACCORDO
100
AcDbLine
 62
7
  6
CONTINUOUS
 10
140.2206054688
 20
119.0224609375
 11
136.1206054688
 21
119.0224609375
  0
LINE
  5
4D3
100
AcDbEntity
  8
SMUSSO
100
AcDbLine
 62
7
  6
CONTINUOUS
 10
136.1206054688
 20
119.0224609375
 11
133.1206054688
 21
119.0224609375
  0
LINE
  5
4D4
100
AcDbEntity
  8
RACCORDO
100
AcDbLine
 62
7
  6
CONTINUOUS
 10
133.1206054688
 20
119.0224609375
 11
109.8706054688
 21
119.0224609375
  0
LINE
  5
4D5
100
AcDbEntity
  8
SMUSSO
100
AcDbLine
 62
7
  6
CONTINUOUS
 10
109.8706054688
 20
119.0224609375
 11
106.8706054688
 21
119.0224609375
  0
LINE
  5
4D6
100
AcDbEntity
  8
RACCORDO
100
AcDbLine
 62
7
  6
CONTINUOUS
 10
106.8706054688
 20
119.0224609375
 11
93.5206054688
 21
119.0224609375
  0
LINE
  5
4D7
100
AcDbEntity
  8
RACCORDO
100
AcDbLine
 62
7
  6
CONTINUOUS
 10
140.3706054687
 20
119.1852943856
 11
136.1206054688
 21
119.1852943856
  0
LINE
  5
4D8
100
AcDbEntity
  8
RACCORDO
100
AcDbLine
 62
7
  6
CONTINUOUS
 10
133.1206054688
 20
119.1852943856
 11
109.8706054688
 21
119.1852943856
  0
LINE
  5
4D9
100
AcDbEntity
  8
RACCORDO
100
AcDbLine
 62
7
  6
CONTINUOUS
 10
106.8706054688
 20
119.1852943856
 11
93.3706054688
 21
119.1852943856
  0
LINE
  5
4DA
100
AcDbEntity
  8
SMUSSO
100
AcDbLine
 62
7
  6
CONTINUOUS
 10
136.1206054688
 20
119.5224609375
 11
133.1206054688
 21
119.5224609375
  0
LINE
  5
4DB
100
AcDbEntity
  8
SMUSSO
100
AcDbLine
 62
7
  6
CONTINUOUS
 10
109.8706054688
 20
119.5224609375
 11
106.8706054688
 21
119.5224609375
  0
LINE
  5
4DC
100
AcDbEntity
  8
RACCORDO
100
AcDbLine
 62
253
  6
CONTINUOUS
 10
140.9430111084
 20
120.027941808
 11
140.4433156949
 21
120.027941808
  0
LINE
  5
4DD
100
AcDbEntity
  8
RACCORDO
100
AcDbLine
 62
253
  6
CONTINUOUS
 10
90.7981998291
 20
120.027941808
 11
91.2978952426
 21
120.027941808
  0
LINE
  5
4DE
100
AcDbEntity
  8
DRAFT
100
AcDbLine
 62
253
  6
CONTINUOUS
 10
72.2618779363
 20
120.7724609375
 11
72.3020245856
 21
120.7724609375
  0
LINE
  5
4DF
100
AcDbEntity
  8
DRAFT
100
AcDbLine
 62
253
  6
CONTINUOUS
 10
75.8391863519
 20
120.7724609375
 11
75.8793330012
 21
120.7724609375
  0
LINE
  5
4E0
100
AcDbEntity
  8
DRAFT
100
AcDbLine
 62
253
  6
CONTINUOUS
 10
84.0618779363
 20
120.7724609375
 11
84.1020245856
 21
120.7724609375
  0
LINE
  5
4E1
100
AcDbEntity
  8
DRAFT
100
AcDbLine
 62
253
  6
CONTINUOUS
 10
87.6391863519
 20
120.7724609375
 11
87.6793330012
 21
120.7724609375
  0
LINE
  5
4E2
100
AcDbEntity
  8
RACCORDO
100
AcDbLine
 62
253
  6
CONTINUOUS
 10
90.0877610813
 20
120.7724609375
 11
90.783189195
 21
120.7724609375
  0
LINE
  5
4E3
100
AcDbEntity
  8
RACCORDO
100
AcDbLine
 62
253
  6
CONTINUOUS
 10
140.9580217425
 20
120.7724609375
 11
141.6534498562
 21
120.7724609375
  0
LINE
  5
4E4
100
AcDbEntity
  8
DRAFT
100
AcDbLine
 62
253
  6
CONTINUOUS
 10
144.0618779363
 20
120.7724609375
 11
144.1020245856
 21
120.7724609375
  0
LINE
  5
4E5
100
AcDbEntity
  8
DRAFT
100
AcDbLine
 62
253
  6
CONTINUOUS
 10
147.6391863519
 20
120.7724609375
 11
147.6793330012
 21
120.7724609375
  0
LINE
  5
4E6
100
AcDbEntity
  8
DRAFT
100
AcDbLine
 62
253
  6
CONTINUOUS
 10
155.8618779363
 20
120.7724609375
 11
155.9020245856
 21
120.7724609375
  0
LINE
  5
4E7
100
AcDbEntity
  8
DRAFT
100
AcDbLine
 62
253
  6
CONTINUOUS
 10
159.4391863519
 20
120.7724609375
 11
159.4793330012
 21
120.7724609375
  0
LINE
  5
4E8
100
AcDbEntity
  8
DRAFT
100
AcDbLine
 62
253
  6
CONTINUOUS
 10
48.6721770436
 20
123.2724609256
 11
48.3706054645
 21
123.2724609256
  0
LINE
  5
4E9
100
AcDbEntity
  8
DRAFT
100
AcDbLine
 62
253
  6
CONTINUOUS
 10
183.0690338939
 20
123.2724609494
 11
183.370605473
 21
123.2724609494
  0
LINE
  5
4EA
100
AcDbEntity
  8
RACCORDO
100
AcDbLine
 62
7
  6
CONTINUOUS
 10
84.1020245856
 20
123.8166895716
 11
87.5249751158
 21
123.8166895716
  0
LINE
  5
4EB
100
AcDbEntity
  8
RACCORDO
100
AcDbLine
 62
7
  6
CONTINUOUS
 10
144.2162358217
 20
123.8166895716
 11
147.6391863519
 21
123.8166895716
  0
LWPOLYLINE
  5
4EC
100
AcDbEntity
  8
RACCORDO
100
AcDbPolyline
 62
253
  6
CONTINUOUS
 90
49
 70
0
 10
141.8988655627
 20
117.3685618578
 10
141.8696437575
 20
117.369291445
 10
141.8397478994
 20
117.3727787835
 10
141.80920789
 20
117.3790563611
 10
141.7779305188
 20
117.388092648
 10
141.7460826377
 20
117.399988739
 10
141.7140857549
 20
117.4149580439
 10
141.6820511638
 20
117.4330635351
 10
141.6499498227
 20
117.4542675877
 10
141.6179870476
 20
117.4786055877
 10
141.5862839302
 20
117.5060384626
 10
141.5548021374
 20
117.5366099202
 10
141.5235082988
 20
117.5704744217
 10
141.4924279014
 20
117.607662066
 10
141.4616332813
 20
117.6481539847
 10
141.4311668825
 20
117.6920343858
 10
141.4010379564
 20
117.7394075265
 10
141.3713458238
 20
117.7901760836
 10
141.3422624459
 20
117.8441142154
 10
141.3138319069
 20
117.9012783583
 10
141.286105449
 20
117.9615980782
 10
141.2592470279
 20
118.0246423521
 10
141.2333041508
 20
118.090410511
 10
141.2082987322
 20
118.1588700906
 10
141.1843351209
 20
118.229530194
 10
141.1614376476
 20
118.302393474
 10
141.139625362
 20
118.3774133431
 10
141.1189740969
 20
118.454016661
 10
141.099487911
 20
118.5322133612
 10
141.0811761415
 20
118.611942825
 10
141.0640985733
 20
118.6925191299
 10
141.048243557
 20
118.7739313732
 10
141.0335993423
 20
118.8561359082
 10
141.0201980215
 20
118.9383921274
 10
141.0080094636
 20
119.0206752745
 10
140.9970027534
 20
119.1029563242
 10
140.9871804277
 20
119.1844847745
 10
140.978493699
 20
119.265236978
 10
140.9708958851
 20
119.3451880184
 10
140.9643643299
 20
119.4235839278
 10
140.95883417
 20
119.5004076959
 10
140.9542447715
 20
119.575636269
 10
140.9505512546
 20
119.6485065832
 10
140.9476773147
 20
119.7189770915
 10
140.9455490199
 20
119.7870598869
 10
140.9440993526
 20
119.8520736923
 10
140.943246462
 20
119.9137852863
 10
140.9429086646
 20
119.9724100136
 10
140.9430111084
 20
135.5736321327
  0
LINE
  5
4ED
100
AcDbEntity
  8
0
100
AcDbLine
 62
7
  6
CONTINUOUS
 10
88.6995452903
 20
130.453471149
 11
90.0877610813
 21
129.9482019223
  0
LINE
  5
4EE
100
AcDbEntity
  8
0
100
AcDbLine
 62
7
  6
CONTINUOUS
 10
88.7309644072
 20
130.4754710514
 11
89.3706054688
 21
130.2426607444
  0
LINE
  5
4EF
100
AcDbEntity
  8
0
100
AcDbLine
 62
253
  6
CONTINUOUS
 10
90.6840583952
 20
129.791516098
 11
89.3958955317
 21
130.2603690372
  0
LINE
  5
4F0
100
AcDbEntity
  8
0
100
AcDbLine
 62
253
  6
CONTINUOUS
 10
90.7801300857
 20
132.7357928028
 11
89.4439167414
 21
133.2221346867
  0
LINE
  5
4F1
100
AcDbEntity
  8
0
100
AcDbLine
 62
253
  6
CONTINUOUS
 10
90.7801300857
 20
133.0416742592
 11
89.4439167414
 21
133.5280161431
  0
LINE
  5
4F2
100
AcDbEntity
  8
DRAFT
100
AcDbLine
 62
7
  6
CONTINUOUS
 10
154.9791609833
 20
103.7181873139
 11
154.8706054688
 21
103.7724609375
  0
LWPOLYLINE
  5
4F3
100
AcDbEntity
  8
RACCORDO
100
AcDbPolyline
 62
7
  6
CONTINUOUS
 90
8
 70
0
 10
90.7004215791
 20
136.1014466104
 10
90.697242468
 20
136.1033656149
 10
90.6907457566
 20
136.1064788697
 10
90.6809314449
 20
136.1107863748
 10
90.6676869449
 20
136.1163354257
 10
90.6511248447
 20
136.1230787268
 10
90.6315829082
 20
136.1308743917
 10
90.5834415402
 20
136.1496624364
  0
LINE
  5
4F4
100
AcDbEntity
  8
DRAFT
100
AcDbLine
 62
7
  6
CONTINUOUS
 10
145.9706054688
 20
85.8521345479
 11
146.0002790791
 21
85.8224609375
  0
LINE
  5
4F5
100
AcDbEntity
  8
RACCORDO
100
AcDbLine
 62
7
  6
CONTINUOUS
 10
151.3877559008
 20
80.7553105055
 11
151.4577284769
 21
80.6853379293
  0
LINE
  5
4F6
100
AcDbEntity
  8
0
100
AcDbLine
 62
7
  6
CONTINUOUS
 10
116.8706054688
 20
142.072506629
 11
116.8706054688
 21
140.922415246
  0
LINE
  5
4F7
100
AcDbEntity
  8
0
100
AcDbLine
 62
7
  6
CONTINUOUS
 10
116.9020245856
 20
142.1039257458
 11
116.9020245856
 21
140.8909961292
  0
LINE
  5
4F8
100
AcDbEntity
  8
0
100
AcDbLine
 62
7
  6
CONTINUOUS
 10
120.3391863519
 20
155.0909961292
 11
120.3391863519
 21
156.3039257458
  0
LINE
  5
4F9
100
AcDbEntity
  8
0
100
AcDbLine
 62
7
  6
CONTINUOUS
 10
120.3706054688
 20
155.122415246
 11
120.3706054688
 21
156.272506629
  0
LINE
  5
4FA
100
AcDbEntity
  8
0
100
AcDbLine
 62
7
  6
CONTINUOUS
 10
121.4474077544
 20
156.4224609375
 11
121.4474077544
 21
156.4956586518
  0
LINE
  5
4FB
100
AcDbEntity
  8
RACCORDO
100
AcDbLine
 62
7
  6
CONTINUOUS
 10
80.3534550367
 20
80.7553105055
 11
80.2834824606
 21
80.6853379293
  0
LINE
  5
4FC
100
AcDbEntity
  8
RACCORDO
100
AcDbLine
 62
253
  6
CONTINUOUS
 10
78.6206054688
 20
76.6994705967
 11
78.6300235226
 21
76.7088886505
  0
LINE
  5
4FD
100
AcDbEntity
  8
RACCORDO
100
AcDbLine
 62
253
  6
CONTINUOUS
 10
78.9154146477
 20
76.3943711585
 11
78.9299778311
 21
76.408934342
  0
LWPOLYLINE
  5
4FE
100
AcDbEntity
  8
RACCORDO
100
AcDbPolyline
 62
7
  6
CONTINUOUS
 90
4
 70
0
 10
87.6391863519
 20
123.8193833372
 10
87.631241326
 20
123.8189901197
 10
87.5783204541
 20
123.817350025
 10
87.5249751158
 20
123.8166895716
  0
LINE
  5
4FF
100
AcDbEntity
  8
RACCORDO
100
AcDbLine
 62
253
  6
CONTINUOUS
 10
144.2143649935
 20
124.2291887882
 11
144.1020245856
 21
124.2291887882
  0
LINE
  5
500
100
AcDbEntity
  8
RACCORDO
100
AcDbLine
 62
253
  6
CONTINUOUS
 10
87.526845944
 20
125.2290364834
 11
87.6391863519
 21
125.2290364843
  0
LINE
  5
501
100
AcDbEntity
  8
DRAFT
100
AcDbLine
 62
253
  6
CONTINUOUS
 10
155.9020245856
 20
125.7724609375
 11
155.8618779363
 21
125.7724609375
  0
LINE
  5
502
100
AcDbEntity
  8
DRAFT
100
AcDbLine
 62
253
  6
CONTINUOUS
 10
144.1020245856
 20
125.7724609375
 11
144.0618779363
 21
125.7724609375
  0
LINE
  5
503
100
AcDbEntity
  8
DRAFT
100
AcDbLine
 62
253
  6
CONTINUOUS
 10
84.1020245856
 20
125.7724609375
 11
84.0618779363
 21
125.7724609375
  0
LINE
  5
504
100
AcDbEntity
  8
DRAFT
100
AcDbLine
 62
253
  6
CONTINUOUS
 10
72.3020245856
 20
125.7724609375
 11
72.2618779363
 21
125.7724609375
  0
LINE
  5
505
100
AcDbEntity
  8
DRAFT
100
AcDbLine
 62
253
  6
CONTINUOUS
 10
75.8391863519
 20
125.7724609375
 11
75.8793330012
 21
125.7724609375
  0
LINE
  5
506
100
AcDbEntity
  8
DRAFT
100
AcDbLine
 62
253
  6
CONTINUOUS
 10
87.6391863519
 20
125.7724609375
 11
87.6793330012
 21
125.7724609375
  0
LINE
  5
507
100
AcDbEntity
  8
DRAFT
100
AcDbLine
 62
253
  6
CONTINUOUS
 10
147.6391863519
 20
125.7724609375
 11
147.6793330012
 21
125.7724609375
  0
LINE
  5
508
100
AcDbEntity
  8
DRAFT
100
AcDbLine
 62
253
  6
CONTINUOUS
 10
159.4391863519
 20
125.7724609375
 11
159.4793330012
 21
125.7724609375
  0
LINE
  5
509
100
AcDbEntity
  8
RACCORDO
100
AcDbLine
 62
253
  6
CONTINUOUS
 10
85.3271810147
 20
127.4287014127
 11
85.252310027
 21
127.4287014127
  0
LWPOLYLINE
  5
50A
100
AcDbEntity
  8
RACCORDO
100
AcDbPolyline
 62
7
  6
CONTINUOUS
 90
4
 70
0
 10
144.1020245856
 20
123.8194140276
 10
144.1093053989
 20
123.8190582207
 10
144.1617107943
 20
123.8174227482
 10
144.2143649935
 20
123.8166895716
  0
LINE
  5
50B
100
AcDbEntity
  8
0
100
AcDbLine
 62
253
  6
CONTINUOUS
 10
90.8037374832
 20
136.0123258097
 11
89.4577617372
 21
136.5022209173
  0
LINE
  5
50C
100
AcDbEntity
  8
0
100
AcDbLine
 62
7
  6
CONTINUOUS
 10
89.0729324592
 20
136.6692004427
 11
89.4354016795
 21
136.5372724357
  0
LINE
  5
50D
100
AcDbEntity
  8
0
100
AcDbLine
 62
7
  6
CONTINUOUS
 10
89.0415133423
 20
136.7140715918
 11
90.2218041017
 21
136.2844808876
  0
LINE
  5
50E
100
AcDbEntity
  8
RACCORDO
100
AcDbLine
 62
7
  6
CONTINUOUS
 10
90.3433368573
 20
136.2399408096
 11
90.2218041017
 21
136.2844808876
  0
LINE
  5
50F
100
AcDbEntity
  8
RACCORDO
100
AcDbLine
 62
7
  6
CONTINUOUS
 10
90.4570629452
 20
136.1976523381
 11
90.3433368573
 21
136.2399408096
  0
LINE
  5
510
100
AcDbEntity
  8
RACCORDO
100
AcDbLine
 62
7
  6
CONTINUOUS
 10
90.5248443177
 20
136.1720847688
 11
90.4570629452
 21
136.1976523381
  0
LINE
  5
511
100
AcDbEntity
  8
RACCORDO
100
AcDbLine
 62
7
  6
CONTINUOUS
 10
90.5834415402
 20
136.1496624364
 11
90.5248443177
 21
136.1720847688
  0
LWPOLYLINE
  5
512
100
AcDbEntity
  8
RACCORDO
100
AcDbPolyline
 62
253
  6
CONTINUOUS
 90
10
 70
0
 10
143.8213602558
 20
116.2597941661
 10
143.8511972617
 20
116.2449470536
 10
143.8799455321
 20
116.2281305487
 10
143.9075116552
 20
116.2094198615
 10
143.933799968
 20
116.1888851757
 10
143.9586719019
 20
116.1666181566
 10
143.9819907678
 20
116.142730679
 10
144.0036600053
 20
116.1173274925
 10
144.023609175
 20
116.0904966941
 10
144.0417526072
 20
116.0623379142
  0
LWPOLYLINE
  5
513
100
AcDbEntity
  8
RACCORDO
100
AcDbPolyline
 62
253
  6
CONTINUOUS
 90
10
 70
0
 10
143.6560740174
 20
116.0958154228
 10
143.6620350312
 20
116.0927886168
 10
143.6677292335
 20
116.0893955962
 10
143.6731566245
 20
116.0856363609
 10
143.6783391147
 20
116.0814912957
 10
143.6832547936
 20
116.0769800158
 10
143.6878379292
 20
116.0721613673
 10
143.692066611
 20
116.0670549655
 10
143.6959627495
 20
116.0616411951
 10
143.6995263448
 20
116.0559200561
  0
LINE
  5
514
100
AcDbEntity
  8
DRAFT
100
AcDbLine
 62
7
  6
CONTINUOUS
 10
85.7706054688
 20
160.6927873271
 11
85.7409318584
 21
160.7224609375
  0
LINE
  5
515
100
AcDbEntity
  8
0
100
AcDbLine
 62
7
  6
CONTINUOUS
 10
127.2938031831
 20
156.4224609375
 11
127.2938031831
 21
156.4956586518
  0
LINE
  5
516
100
AcDbEntity
  8
0
100
AcDbLine
 62
7
  6
CONTINUOUS
 10
128.3706054688
 20
156.272506629
 11
128.3706054688
 21
155.122415246
  0
LINE
  5
517
100
AcDbEntity
  8
0
100
AcDbLine
 62
7
  6
CONTINUOUS
 10
128.4020245856
 20
156.3039257458
 11
128.4020245856
 21
155.0909961292
  0
LINE
  5
518
100
AcDbEntity
  8
RACCORDO
100
AcDbLine
 62
253
  6
CONTINUOUS
 10
140.4433156949
 20
136.0733275462
 11
140.6540590291
 21
136.2840708805
  0
LINE
  5
519
100
AcDbEntity
  8
RACCORDO
100
AcDbLine
 62
253
  6
CONTINUOUS
 10
140.9430111084
 20
135.5736321327
 11
141.1537544426
 21
135.784375467
  0
LINE
  5
51A
100
AcDbEntity
  8
RACCORDO
100
AcDbLine
 62
253
  6
CONTINUOUS
 10
181.0343909825
 20
170.135987533
 11
181.070864387
 21
170.1724609375
  0
LINE
  5
51B
100
AcDbEntity
  8
RACCORDO
100
AcDbLine
 62
253
  6
CONTINUOUS
 10
181.1211880163
 20
170.2224609375
 11
181.368305782
 21
170.4695787032
  0
LINE
  5
51C
100
AcDbEntity
  8
0
100
AcDbLine
 62
7
  6
CONTINUOUS
 10
90.5874564949
 20
129.7752911775
 11
90.6840583952
 21
129.791516098
  0
LINE
  5
51D
100
AcDbEntity
  8
RACCORDO
100
AcDbLine
 62
253
  6
CONTINUOUS
 10
90.7981998291
 20
135.5736321327
 11
140.9430111084
 21
135.5736321327
  0
LINE
  5
51E
100
AcDbEntity
  8
RACCORDO
100
AcDbLine
 62
253
  6
CONTINUOUS
 10
141.1537544426
 20
135.784375467
 11
141.6534498561
 21
135.7843754671
  0
LINE
  5
51F
100
AcDbEntity
  8
RACCORDO
100
AcDbLine
 62
253
  6
CONTINUOUS
 10
89.4236390342
 20
135.9511405939
 11
88.4020245856
 21
135.9511405939
  0
LINE
  5
520
100
AcDbEntity
  8
RACCORDO
100
AcDbLine
 62
253
  6
CONTINUOUS
 10
91.2978952426
 20
136.0733275462
 11
140.4433156949
 21
136.0733275462
  0
LINE
  5
521
100
AcDbEntity
  8
RACCORDO
100
AcDbLine
 62
253
  6
CONTINUOUS
 10
140.6540590291
 20
136.2840708805
 11
91.0871519084
 21
136.2840708805
  0
LWPOLYLINE
  5
522
100
AcDbEntity
  8
0
100
AcDbPolyline
 62
253
  6
CONTINUOUS
 90
16
 70
0
 10
141.4575543828
 20
117.2525879564
 10
141.4155373005
 20
117.2801091462
 10
141.3737561709
 20
117.3104463686
 10
141.3322109941
 20
117.3435996235
 10
141.2908487608
 20
117.3795452813
 10
141.2497224803
 20
117.4183069717
 10
141.20899118
 20
117.4599555837
 10
141.168614252
 20
117.5045643588
 10
141.1286323042
 20
117.5520600554
 10
141.0893261885
 20
117.6022938379
 10
141.0507020482
 20
117.6553187653
 10
141.01275374
 20
117.7110817784
 10
140.9757436858
 20
117.7692748644
 10
140.9397593596
 20
117.8297953521
 10
140.9047132874
 20
117.8927459127
 10
140.8706054693
 20
117.9581265461
  0
LWPOLYLINE
  5
523
100
AcDbEntity
  8
RACCORDO
100
AcDbPolyline
 62
7
  6
CONTINUOUS
 90
6
 70
0
 10
145.4027719407
 20
108.9903501311
 10
145.3917103843
 20
109.001259589
 10
145.3828980071
 20
109.0101683992
 10
145.3765513151
 20
109.0168388205
 10
145.3724538024
 20
109.0210162779
 10
145.3706054688
 20
109.0224609375
  0
LWPOLYLINE
  5
524
100
AcDbEntity
  8
RACCORDO
100
AcDbPolyline
 62
7
  6
CONTINUOUS
 90
3
 70
0
 10
145.445432058
 20
108.9476649375
 10
145.4296327775
 20
108.9633381258
 10
145.4027719407
 20
108.9903501311
  0
LINE
  5
525
100
AcDbEntity
  8
0
100
AcDbLine
 62
253
  6
CONTINUOUS
 10
110.8706054688
 20
142.072506629
 11
110.8391863519
 21
142.1039257458
  0
LINE
  5
526
100
AcDbEntity
  8
0
100
AcDbLine
 62
253
  6
CONTINUOUS
 10
111.1705597773
 20
142.3724609375
 11
111.1391406604
 21
142.4038800544
  0
LINE
  5
527
100
AcDbEntity
  8
0
100
AcDbLine
 62
7
  6
CONTINUOUS
 10
115.8706054688
 20
140.6224609375
 11
115.7938031831
 21
140.6992632232
  0
LINE
  5
528
100
AcDbEntity
  8
0
100
AcDbLine
 62
253
  6
CONTINUOUS
 10
116.5706511602
 20
140.6224609375
 11
116.6020702771
 21
140.5910418206
  0
LINE
  5
529
100
AcDbEntity
  8
RACCORDO
100
AcDbLine
 62
253
  6
CONTINUOUS
 10
181.0343909825
 20
76.408934342
 11
181.070864387
 21
76.3724609375
  0
LINE
  5
52A
100
AcDbEntity
  8
RACCORDO
100
AcDbLine
 62
253
  6
CONTINUOUS
 10
181.368305782
 20
76.0753431718
 11
181.1211880163
 21
76.3224609375
  0
LINE
  5
52B
100
AcDbEntity
  8
0
100
AcDbLine
 62
253
  6
CONTINUOUS
 10
116.8706054688
 20
140.922415246
 11
116.9020245856
 21
140.8909961292
  0
LINE
  5
52C
100
AcDbEntity
  8
RACCORDO
100
AcDbLine
 62
7
  6
CONTINUOUS
 10
145.8706054688
 20
108.5224609375
 11
145.4803882568
 21
108.9126054173
  0
LINE
  5
52D
100
AcDbEntity
  8
RACCORDO
100
AcDbLine
 62
7
  6
CONTINUOUS
 10
145.4803882568
 20
108.9126054173
 11
145.445432058
 21
108.9476649375
  0
LWPOLYLINE
  5
52E
100
AcDbEntity
  8
RACCORDO
100
AcDbPolyline
 62
7
  6
CONTINUOUS
 90
11
 70
0
 10
151.0856232624
 20
81.7551582006
 10
151.1665296469
 20
81.603842386
 10
151.1928224548
 20
81.5535648203
 10
151.2183876286
 20
81.5034074986
 10
151.2432044558
 20
81.4536087691
 10
151.2668970433
 20
81.4041550807
 10
151.2891722022
 20
81.3550599843
 10
151.3099759939
 20
81.3066024803
 10
151.3289076552
 20
81.258875569
 10
151.3453364916
 20
81.21178625
 10
151.3587303788
 20
81.1653345235
  0
LINE
  5
52F
100
AcDbEntity
  8
SMUSSO
100
AcDbLine
 62
7
  6
CONTINUOUS
 10
133.1206054688
 20
119.5224609375
 11
133.1206054688
 21
119.0224609375
  0
LINE
  5
530
100
AcDbEntity
  8
RACCORDO
100
AcDbLine
 62
7
  6
CONTINUOUS
 10
133.1206054688
 20
118.0224609375
 11
133.1206054688
 21
119.0224609375
  0
LINE
  5
531
100
AcDbEntity
  8
0
100
AcDbLine
 62
7
  6
CONTINUOUS
 10
134.6706054687
 20
110.2724609375
 11
134.6706054687
 21
109.0224609375
  0
LINE
  5
532
100
AcDbEntity
  8
RACCORDO
100
AcDbLine
 62
253
  6
CONTINUOUS
 10
180.6736974592
 20
169.2774861907
 11
181.2393026107
 21
169.8432396074
  0
LINE
  5
533
100
AcDbEntity
  8
RACCORDO
100
AcDbLine
 62
253
  6
CONTINUOUS
 10
177.9777318826
 20
166.3279110066
 11
179.4210106638
 21
167.7711897877
  0
LINE
  5
534
100
AcDbEntity
  8
RACCORDO
100
AcDbLine
 62
253
  6
CONTINUOUS
 10
178.9260555379
 20
165.3795873514
 11
180.369334319
 21
166.8228661325
  0
LINE
  5
535
100
AcDbEntity
  8
RACCORDO
100
AcDbLine
 62
253
  6
CONTINUOUS
 10
181.8756307219
 20
168.0754046627
 11
182.4413911503
 21
168.641165091
  0
LINE
  5
536
100
AcDbEntity
  8
RACCORDO
100
AcDbLine
 62
253
  6
CONTINUOUS
 10
182.8206054688
 20
168.523043485
 11
183.0676787355
 21
168.7701167518
  0
LINE
  5
537
100
AcDbEntity
  8
RACCORDO
100
AcDbLine
 62
253
  6
CONTINUOUS
 10
182.7341320643
 20
168.4362464512
 11
182.7706054688
 21
168.4727198557
  0
LWPOLYLINE
  5
538
100
AcDbEntity
  8
RACCORDO
100
AcDbPolyline
 62
253
  6
CONTINUOUS
 90
13
 70
0
 10
141.8998623392
 20
117.4180014366
 10
141.9317487608
 20
117.4377648245
 10
141.9633172351
 20
117.4553369136
 10
141.9942529875
 20
117.4705424897
 10
142.0242475526
 20
117.4832299355
 10
142.0530018496
 20
117.4932727423
 10
142.0802291647
 20
117.5005707717
 10
142.1056580098
 20
117.5050512538
 10
142.1290348298
 20
117.506669513
 10
142.1501265304
 20
117.5054094134
 10
142.1687228028
 20
117.5012835196
 10
142.1846382206
 20
117.4943329715
 10
142.1977140885
 20
117.4846270744
  0
LWPOLYLINE
  5
539
100
AcDbEntity
  8
RACCORDO
100
AcDbPolyline
 62
7
  6
CONTINUOUS
 90
10
 70
0
 10
141.898866609
 20
117.3686137507
 10
141.8603639357
 20
117.3462554775
 10
141.8192342745
 20
117.3261041847
 10
141.7754776253
 20
117.3081598722
 10
141.7290975588
 20
117.2922096743
 10
141.6800905043
 20
117.2784664568
 10
141.6284457497
 20
117.2675688165
 10
141.5741597241
 20
117.2597296192
 10
141.5172359983
 20
117.2547359992
 10
141.4576745724
 20
117.2525879564
  0
LWPOLYLINE
  5
53A
100
AcDbEntity
  8
RACCORDO
100
AcDbPolyline
 62
253
  6
CONTINUOUS
 90
16
 70
0
 10
143.6995263448
 20
116.0559200403
 10
143.7298624277
 20
116.0682873452
 10
143.7599803552
 20
116.0791273392
 10
143.7896635277
 20
116.0883620641
 10
143.8186984722
 20
116.0959251068
 10
143.8468763776
 20
116.1017620763
 10
143.8739945961
 20
116.1058309953
 10
143.8998581009
 20
116.108102602
 10
143.9242808886
 20
116.1085605606
 10
143.9470873169
 20
116.1072015786
 10
143.9681133679
 20
116.1040354304
 10
143.9872078275
 20
116.0990848874
 10
144.0042333731
 20
116.0923855539
 10
144.019067561
 20
116.083985611
 10
144.031603707
 20
116.0739454703
 10
144.0417516539
 20
116.0623373392
  0
LWPOLYLINE
  5
53B
100
AcDbEntity
  8
RACCORDO
100
AcDbPolyline
 62
253
  6
CONTINUOUS
 90
16
 70
0
 10
91.0871519084
 20
136.2840708805
 10
91.0585809766
 20
136.283290508
 10
91.0299329704
 20
136.2808611411
 10
91.0013047086
 20
136.2767609314
 10
90.9727802633
 20
136.2709703745
 10
90.94447793
 20
136.2634808365
 10
90.9165475225
 20
136.2543037302
 10
90.8890869607
 20
136.2434470202
 10
90.8622057756
 20
136.2309293898
 10
90.8360648973
 20
136.2168064811
 10
90.8107669369
 20
136.2011215978
 10
90.7864018795
 20
136.1839182391
 10
90.7630990208
 20
136.1652787407
 10
90.7409545234
 20
136.1452780874
 10
90.720036502
 20
136.1239760625
 10
90.7004215722
 20
136.1014466164
  0
LWPOLYLINE
  5
53C
100
AcDbEntity
  8
RACCORDO
100
AcDbPolyline
 62
253
  6
CONTINUOUS
 90
19
 70
0
 10
91.0871519084
 20
136.783766294
 10
91.0306488275
 20
136.7822419592
 10
90.9743604705
 20
136.7774568551
 10
90.9182868373
 20
136.7694109819
 10
90.8622005732
 20
136.7580972696
 10
90.806329033
 20
136.7435227882
 10
90.7513542812
 20
136.7257087468
 10
90.6972744174
 20
136.704593147
 10
90.644091342
 20
136.6802379874
 10
90.5924928203
 20
136.6528504729
 10
90.5425099316
 20
136.6223795018
 10
90.4941115966
 20
136.5888761757
 10
90.4478923427
 20
136.552701005
 10
90.4038919186
 20
136.5138179143
 10
90.3620705755
 20
136.4722629789
 10
90.3229035942
 20
136.4285049349
 10
90.2865494016
 20
136.3827000277
 10
90.2528495708
 20
136.334692012
 10
90.2218041017
 20
136.2844808876
  0
LINE
  5
53D
100
AcDbEntity
  8
RACCORDO
100
AcDbLine
 62
253
  6
CONTINUOUS
 10
140.6540590291
 20
136.783766294
 11
91.0871519084
 21
136.783766294
  0
LINE
  5
53E
100
AcDbEntity
  8
0
100
AcDbLine
 62
7
  6
CONTINUOUS
 10
116.6020702771
 20
140.5910418206
 11
111.1391406604
 21
140.5910418206
  0
LINE
  5
53F
100
AcDbEntity
  8
0
100
AcDbLine
 62
7
  6
CONTINUOUS
 10
116.5706511602
 20
140.6224609375
 11
115.8706054688
 21
140.6224609375
  0
LINE
  5
540
100
AcDbEntity
  8
0
100
AcDbLine
 62
7
  6
CONTINUOUS
 10
111.8706054688
 20
140.6224609375
 11
111.1705597773
 21
140.6224609375
  0
LINE
  5
541
100
AcDbEntity
  8
RACCORDO
100
AcDbLine
 62
7
  6
CONTINUOUS
 10
112.1706054688
 20
140.6724609375
 11
115.5706054688
 21
140.6724609375
  0
LINE
  5
542
100
AcDbEntity
  8
0
100
AcDbLine
 62
7
  6
CONTINUOUS
 10
115.7938031831
 20
140.6992632232
 11
115.5706054688
 21
140.6992632232
  0
LINE
  5
543
100
AcDbEntity
  8
0
100
AcDbLine
 62
7
  6
CONTINUOUS
 10
112.1706054688
 20
140.6992632232
 11
111.9474077544
 21
140.6992632232
  0
LINE
  5
544
100
AcDbEntity
  8
IMPORT_IGES
100
AcDbLine
 62
7
  6
CONTINUOUS
 10
111.2706054688
 20
140.9724609375
 11
110.8706054688
 21
140.9724609375
  0
LINE
  5
545
100
AcDbEntity
  8
IMPORT_IGES
100
AcDbLine
 62
7
  6
CONTINUOUS
 10
115.5206054687
 20
141.1224609375
 11
114.2206054687
 21
141.1224609375
  0
LINE
  5
546
100
AcDbEntity
  8
IMPORT_IGES
100
AcDbLine
 62
7
  6
CONTINUOUS
 10
114.2206054687
 20
142.0224609375
 11
115.5206054687
 21
142.0224609375
  0
LINE
  5
547
100
AcDbEntity
  8
IMPORT_IGES
100
AcDbLine
 62
7
  6
CONTINUOUS
 10
110.88788204
 20
142.1724609375
 11
111.2706054688
 21
142.1724609375
  0
LINE
  5
548
100
AcDbEntity
  8
0
100
AcDbLine
 62
7
  6
CONTINUOUS
 10
111.1705597773
 20
142.3724609375
 11
116.5706511602
 21
142.3724609375
  0
LINE
  5
549
100
AcDbEntity
  8
0
100
AcDbLine
 62
7
  6
CONTINUOUS
 10
111.1391406604
 20
142.4038800544
 11
116.6020702771
 21
142.4038800544
  0
LWPOLYLINE
  5
54A
100
AcDbEntity
  8
RACCORDO
100
AcDbPolyline
 62
253
  6
CONTINUOUS
 90
22
 70
0
 10
140.4433156949
 20
136.0733275462
 10
140.4806291068
 20
136.0718870147
 10
140.5177341703
 20
136.0676643572
 10
140.5544237004
 20
136.060683152
 10
140.5904928322
 20
136.0509823802
 10
140.6257401651
 20
136.0386162086
 10
140.659968887
 20
136.0236536866
 10
140.6929878738
 20
136.006178361
 10
140.7246127559
 20
135.9862878095
 10
140.7546669482
 20
135.9640930958
 10
140.7829826359
 20
135.9397181495
 10
140.8094017116
 20
135.9132990738
 10
140.833776658
 20
135.884983386
 10
140.8559713717
 20
135.8549291937
 10
140.8758619232
 20
135.8233043116
 10
140.8933372487
 20
135.7902853249
 10
140.9082997708
 20
135.7560566029
 10
140.9206659424
 20
135.72080927
 10
140.9303667141
 20
135.6847401382
 10
140.9373479194
 20
135.6480506082
 10
140.9415705769
 20
135.6109455447
 10
140.9430111084
 20
135.5736321327
  0
LINE
  5
54B
100
AcDbEntity
  8
RACCORDO
100
AcDbLine
 62
253
  6
CONTINUOUS
 10
181.8756307219
 20
78.4693689471
 11
182.4413841387
 21
77.9037637956
  0
LINE
  5
54C
100
AcDbEntity
  8
RACCORDO
100
AcDbLine
 62
253
  6
CONTINUOUS
 10
177.9777318826
 20
80.2170108684
 11
179.4210106638
 21
78.7737320873
  0
LINE
  5
54D
100
AcDbEntity
  8
DRAFT
100
AcDbLine
 62
7
  6
CONTINUOUS
 10
154.9881365681
 20
103.8025686314
 11
155.018244262
 21
103.7724609375
  0
LINE
  5
54E
100
AcDbEntity
  8
RACCORDO
100
AcDbLine
 62
253
  6
CONTINUOUS
 10
178.9260555379
 20
81.1653345236
 11
180.369334319
 21
79.7220557425
  0
LINE
  5
54F
100
AcDbEntity
  8
RACCORDO
100
AcDbLine
 62
253
  6
CONTINUOUS
 10
183.0676787355
 20
77.7748051232
 11
182.8206054688
 21
78.02187839
  0
LINE
  5
550
100
AcDbEntity
  8
RACCORDO
100
AcDbLine
 62
253
  6
CONTINUOUS
 10
182.7341320643
 20
78.1086754238
 11
182.7706054688
 21
78.0722020193
  0
LINE
  5
551
100
AcDbEntity
  8
0
100
AcDbLine
 62
253
  6
CONTINUOUS
 10
105.3706054688
 20
156.272506629
 11
105.3391863519
 21
156.3039257458
  0
LINE
  5
552
100
AcDbEntity
  8
0
100
AcDbLine
 62
253
  6
CONTINUOUS
 10
105.6705597773
 20
156.5724609375
 11
105.6391406604
 21
156.6038800544
  0
LINE
  5
553
100
AcDbEntity
  8
0
100
AcDbLine
 62
7
  6
CONTINUOUS
 10
106.3706054688
 20
156.5724609375
 11
106.4474077544
 21
156.4956586518
  0
LINE
  5
554
100
AcDbEntity
  8
RACCORDO
100
AcDbLine
 62
253
  6
CONTINUOUS
 10
180.6736432148
 20
77.2674356843
 11
181.2393096223
 21
76.701675256
  0
LWPOLYLINE
  5
555
100
AcDbEntity
  8
RACCORDO
100
AcDbPolyline
 62
253
  6
CONTINUOUS
 90
19
 70
0
 10
141.8998623392
 20
117.4180014201
 10
142.0038224688
 20
117.3026779379
 10
142.1074174528
 20
117.1932241645
 10
142.2106472911
 20
117.0896400999
 10
142.3136843824
 20
116.992207087
 10
142.4163563281
 20
116.9006437828
 10
142.5181459329
 20
116.8141061585
 10
142.6189638992
 20
116.7325794468
 10
142.7188995246
 20
116.6560784151
 10
142.8177035065
 20
116.5838033367
 10
142.9153019821
 20
116.5157288605
 10
143.0117688142
 20
116.4518803377
 10
143.1070762887
 20
116.3915340948
 10
143.2011575817
 20
116.3346615647
 10
143.2940795172
 20
116.2812913146
 10
143.3860148528
 20
116.2307853725
 10
143.4770211743
 20
116.1829310812
 10
143.5670408958
 20
116.137941098
 10
143.6560740174
 20
116.0958154228
  0
LWPOLYLINE
  5
556
100
AcDbEntity
  8
RACCORDO
100
AcDbPolyline
 62
253
  6
CONTINUOUS
 90
19
 70
0
 10
142.1977142935
 20
117.4846272579
 10
142.2932011236
 20
117.3775999828
 10
142.3890024076
 20
117.2763044464
 10
142.4847861801
 20
117.180594003
 10
142.5801322621
 20
117.0904149806
 10
142.674845151
 20
117.0054955332
 10
142.7689801598
 20
116.9253744328
 10
142.8622863453
 20
116.8499082753
 10
142.9545475323
 20
116.7789333806
 10
143.0459376936
 20
116.7120024846
 10
143.1362668113
 20
116.6489862424
 10
143.2253749964
 20
116.5897407609
 10
143.3135383516
 20
116.5338473685
 10
143.4006091025
 20
116.4812013158
 10
143.4864781481
 20
116.4316793145
 10
143.5715281799
 20
116.3848899478
 10
143.6558334477
 20
116.3406576341
 10
143.7391398367
 20
116.2989902859
 10
143.8213628692
 20
116.2597999285
  0
LWPOLYLINE
  5
557
100
AcDbEntity
  8
RACCORDO
100
AcDbPolyline
 62
7
  6
CONTINUOUS
 90
9
 70
0
 10
151.3877559008
 20
80.7553105055
 10
151.3866416238
 20
80.7584653185
 10
151.3855397084
 20
80.7656228484
 10
151.3844501548
 20
80.776783095
 10
151.3833667794
 20
80.792064818
 10
151.3822957658
 20
80.8113492579
 10
151.3812556639
 20
80.834280136
 10
151.3802506419
 20
80.860806623
 10
151.3792765316
 20
80.8909795483
  0
LWPOLYLINE
  5
558
100
AcDbEntity
  8
RACCORDO
100
AcDbPolyline
 62
253
  6
CONTINUOUS
 90
28
 70
0
 10
141.1537544426
 20
135.784375467
 10
141.1529902307
 20
135.8126556186
 10
141.1506108024
 20
135.8410104618
 10
141.1465951913
 20
135.8693461855
 10
141.1409244768
 20
135.8975822612
 10
141.1335904523
 20
135.9256032795
 10
141.1246049198
 20
135.9532616468
 10
141.1139762526
 20
135.980461947
 10
141.1017224627
 20
136.0070992619
 10
141.087897212
 20
136.0330179074
 10
141.0725426071
 20
136.0581182789
 10
141.0557003414
 20
136.0823139956
 10
141.0374484971
 20
136.105481133
 10
141.0178513241
 20
136.1275344484
 10
140.9969727813
 20
136.1483988712
 10
140.9749080576
 20
136.1679795828
 10
140.9517317335
 20
136.1862135974
 10
140.9275300477
 20
136.2030364032
 10
140.9024297493
 20
136.2183689177
 10
140.8765186516
 20
136.2321698649
 10
140.849895711
 20
136.2443987361
 10
140.8227164083
 20
136.2550030587
 10
140.7950866651
 20
136.2639654876
 10
140.7671009099
 20
136.271278978
 10
140.7389031949
 20
136.2769332559
 10
140.7106074404
 20
136.280936985
 10
140.6822949135
 20
136.283309117
 10
140.6540590291
 20
136.2840708805
  0
LWPOLYLINE
  5
559
100
AcDbEntity
  8
RACCORDO
100
AcDbPolyline
 62
253
  6
CONTINUOUS
 90
22
 70
0
 10
140.9580217425
 20
120.7724609375
 10
140.9620704474
 20
120.5761932844
 10
140.9738083877
 20
120.381441326
 10
140.9930745158
 20
120.1884973472
 10
141.0197748964
 20
119.9972375782
 10
141.0536842352
 20
119.8083406678
 10
141.0942895458
 20
119.6232545248
 10
141.1412173762
 20
119.4423170562
 10
141.1941648072
 20
119.2655753128
 10
141.2524943862
 20
119.0939491658
 10
141.3157610535
 20
118.9276107862
 10
141.3835833057
 20
118.7665736821
 10
141.4552843671
 20
118.6114275029
 10
141.5303822961
 20
118.4622454863
 10
141.6084816199
 20
118.318944368
 10
141.6889660673
 20
118.181800508
 10
141.771368673
 20
118.0507943909
 10
141.8553146408
 20
117.92577689
 10
141.9403082701
 20
117.8067758508
 10
142.0259290683
 20
117.6937044157
 10
142.1118460549
 20
117.5863728354
 10
142.1977142935
 20
117.4846272579
  0
LWPOLYLINE
  5
55A
100
AcDbEntity
  8
RACCORDO
100
AcDbPolyline
 62
253
  6
CONTINUOUS
 90
22
 70
0
 10
140.9580217425
 20
120.7724609375
 10
140.9601988411
 20
120.5757799146
 10
140.96835472
 20
120.3805913725
 10
140.9823706574
 20
120.1871231314
 10
141.0021145989
 20
119.995196107
 10
141.0273938842
 20
119.8054259286
 10
141.0578980887
 20
119.6192109853
 10
141.0933130832
 20
119.4369042698
 10
141.1333413611
 20
119.25849848
 10
141.1775923542
 20
119.0848133298
 10
141.2256894371
 20
118.916083073
 10
141.2772681633
 20
118.7523103102
 10
141.3319137967
 20
118.5939313707
 10
141.389217638
 20
118.4411204344
 10
141.4488050383
 20
118.2938301772
 10
141.5103072243
 20
118.1521375891
 10
141.5733150821
 20
118.0161642974
 10
141.6374821531
 20
117.8858234769
 10
141.7025535085
 20
117.760870557
 10
141.7682169268
 20
117.6412216911
 10
141.8340963563
 20
117.5269415988
 10
141.8998623392
 20
117.4180014201
  0
LINE
  5
55B
100
AcDbEntity
  8
SMUSSO
100
AcDbLine
 62
7
  6
CONTINUOUS
 10
136.1206054688
 20
119.5224609375
 11
136.1206054688
 21
119.0224609375
  0
LINE
  5
55C
100
AcDbEntity
  8
RACCORDO
100
AcDbLine
 62
7
  6
CONTINUOUS
 10
136.1206054688
 20
118.0224609375
 11
136.1206054688
 21
119.0224609375
  0
LINE
  5
55D
100
AcDbEntity
  8
RACCORDO
100
AcDbLine
 62
253
  6
CONTINUOUS
 10
139.3206054688
 20
118.4224609375
 11
139.3206054688
 21
118.0224609375
  0
LINE
  5
55E
100
AcDbEntity
  8
RACCORDO
100
AcDbLine
 62
7
  6
CONTINUOUS
 10
139.7206054688
 20
117.6224609375
 11
139.7206054688
 21
111.6709724175
  0
LINE
  5
55F
100
AcDbEntity
  8
RACCORDO
100
AcDbLine
 62
253
  6
CONTINUOUS
 10
140.1206054688
 20
117.6224609375
 11
140.1206054688
 21
111.6744631647
  0
LINE
  5
560
100
AcDbEntity
  8
RACCORDO
100
AcDbLine
 62
253
  6
CONTINUOUS
 10
140.2206054688
 20
118.6224609375
 11
140.2206054688
 21
119.0224609375
  0
LINE
  5
561
100
AcDbEntity
  8
RACCORDO
100
AcDbLine
 62
253
  6
CONTINUOUS
 10
140.3206054688
 20
111.6744631647
 11
140.3206054688
 21
118.5224609375
  0
LINE
  5
562
100
AcDbEntity
  8
RACCORDO
100
AcDbLine
 62
253
  6
CONTINUOUS
 10
140.4433156949
 20
120.027941808
 11
140.4433156949
 21
136.0733275462
  0
LINE
  5
563
100
AcDbEntity
  8
RACCORDO
100
AcDbLine
 62
253
  6
CONTINUOUS
 10
140.6540590291
 20
136.2840708805
 11
140.6540590291
 21
136.783766294
  0
LINE
  5
564
100
AcDbEntity
  8
RACCORDO
100
AcDbLine
 62
7
  6
CONTINUOUS
 10
140.7206054688
 20
111.6509006216
 11
140.7206054688
 21
118.5224609375
  0
LINE
  5
565
100
AcDbEntity
  8
RACCORDO
100
AcDbLine
 62
7
  6
CONTINUOUS
 10
140.8706054688
 20
118.6852943856
 11
140.8706054688
 21
117.9581265465
  0
LINE
  5
566
100
AcDbEntity
  8
RACCORDO
100
AcDbLine
 62
7
  6
CONTINUOUS
 10
140.8706054688
 20
114.1559200561
 11
140.8706054688
 21
112.5853705424
  0
LINE
  5
567
100
AcDbEntity
  8
0
100
AcDbLine
 62
7
  6
CONTINUOUS
 10
140.8706054688
 20
114.1559200561
 11
140.8706054693
 21
117.9581265461
  0
LINE
  5
568
100
AcDbEntity
  8
RACCORDO
100
AcDbLine
 62
253
  6
CONTINUOUS
 10
141.1537544426
 20
120.7724609375
 11
141.1537544426
 21
135.784375467
  0
LINE
  5
569
100
AcDbEntity
  8
RACCORDO
100
AcDbLine
 62
253
  6
CONTINUOUS
 10
140.9580217425
 20
120.7724609375
 11
140.9430111084
 21
120.027941808
  0
LINE
  5
56A
100
AcDbEntity
  8
RACCORDO
100
AcDbLine
 62
253
  6
CONTINUOUS
 10
143.9714628887
 20
116.3671204487
 11
144.047224953
 21
116.4222923089
  0
LINE
  5
56B
100
AcDbEntity
  8
RACCORDO
100
AcDbLine
 62
253
  6
CONTINUOUS
 10
143.8961723942
 20
116.3129663456
 11
143.9714628887
 21
116.3671204487
  0
LINE
  5
56C
100
AcDbEntity
  8
RACCORDO
100
AcDbLine
 62
253
  6
CONTINUOUS
 10
143.8213628692
 20
116.2597999285
 11
143.8961723942
 21
116.3129663456
  0
LINE
  5
56D
100
AcDbEntity
  8
RACCORDO
100
AcDbLine
 62
253
  6
CONTINUOUS
 10
144.2727164118
 20
115.907839615
 11
144.3537544426
 21
115.9614426213
  0
LINE
  5
56E
100
AcDbEntity
  8
RACCORDO
100
AcDbLine
 62
253
  6
CONTINUOUS
 10
144.1923349896
 20
115.8552481368
 11
144.2727164118
 21
115.907839615
  0
LINE
  5
56F
100
AcDbEntity
  8
RACCORDO
100
AcDbLine
 62
253
  6
CONTINUOUS
 10
144.1126101374
 20
115.8036360458
 11
144.1923349896
 21
115.8552481368
  0
LINE
  5
570
100
AcDbEntity
  8
RACCORDO
100
AcDbLine
 62
7
  6
CONTINUOUS
 10
80.2834824606
 20
80.6853379293
 11
80.2833282974
 21
80.6852731365
  0
LINE
  5
571
100
AcDbEntity
  8
0
100
AcDbLine
 62
253
  6
CONTINUOUS
 10
113.0706511602
 20
154.8224609375
 11
113.1020702771
 21
154.7910418206
  0
LINE
  5
572
100
AcDbEntity
  8
0
100
AcDbLine
 62
253
  6
CONTINUOUS
 10
113.3706054688
 20
155.122415246
 11
113.4020245856
 21
155.0909961292
  0
LWPOLYLINE
  5
573
100
AcDbEntity
  8
RACCORDO
100
AcDbPolyline
 62
253
  6
CONTINUOUS
 90
10
 70
0
 10
144.0417516539
 20
116.0623373392
 10
144.0564315387
 20
116.035997621
 10
144.0694820264
 20
116.008852071
 10
144.0808687315
 20
115.9809796085
 10
144.0905683863
 20
115.9524385495
 10
144.098544895
 20
115.9233323969
 10
144.1047556934
 20
115.8938098694
 10
144.1091762777
 20
115.8639747585
 10
144.1117974864
 20
115.833888411
 10
144.1126093328
 20
115.8036360461
  0
LWPOLYLINE
  5
574
100
AcDbEntity
  8
RACCORDO
100
AcDbPolyline
 62
253
  6
CONTINUOUS
 90
10
 70
0
 10
143.6995263448
 20
116.0559200561
 10
143.702386037
 20
116.0499383255
 10
143.7049052143
 20
116.0438117168
 10
143.7070838766
 20
116.0375398078
 10
143.7089276252
 20
116.0310981436
 10
143.7104308589
 20
116.02451026
 10
143.7115767742
 20
116.0178479546
 10
143.7123597702
 20
116.0111351344
 10
143.7127854478
 20
116.0043475454
 10
143.7128538072
 20
115.997484986
  0
LINE
  5
575
100
AcDbEntity
  8
RACCORDO
100
AcDbLine
 62
253
  6
CONTINUOUS
 10
143.7689138638
 20
114.1559200561
 11
144.6615702814
 21
110.5852943856
  0
LINE
  5
576
100
AcDbEntity
  8
RACCORDO
100
AcDbLine
 62
253
  6
CONTINUOUS
 10
144.15673447
 20
114.2528752077
 11
145.0744719059
 21
110.5819254638
  0
LINE
  5
577
100
AcDbEntity
  8
DRAFT
100
AcDbLine
 62
7
  6
CONTINUOUS
 10
145.3706054688
 20
110.3784789164
 11
145.3346099635
 21
110.5224609375
  0
LINE
  5
578
100
AcDbEntity
  8
RACCORDO
100
AcDbLine
 62
253
  6
CONTINUOUS
 10
145.3709100552
 20
110.451764031
 11
144.3686740984
 21
114.4607078584
  0
LINE
  5
579
100
AcDbEntity
  8
RACCORDO
100
AcDbLine
 62
253
  6
CONTINUOUS
 10
144.1128154236
 20
114.4292102162
 11
144.15673447
 21
114.2528752077
  0
LWPOLYLINE
  5
57A
100
AcDbEntity
  8
RACCORDO
100
AcDbPolyline
 62
7
  6
CONTINUOUS
 90
10
 70
0
 10
151.3587303788
 20
81.1653345235
 10
151.3620848962
 20
81.1517890181
 10
151.3650755572
 20
81.1382825072
 10
151.3677023619
 20
81.1248241848
 10
151.3699677728
 20
81.1114128857
 10
151.3718693274
 20
81.0980691789
 10
151.3733996379
 20
81.084833785
 10
151.3745562417
 20
81.0717254387
 10
151.3753416014
 20
81.0587424671
 10
151.375755717
 20
81.0458937732
  0
LINE
  5
57B
100
AcDbEntity
  8
RACCORDO
100
AcDbLine
 62
253
  6
CONTINUOUS
 10
143.7249948174
 20
114.3530003598
 11
143.7689138638
 21
114.1559200561
  0
LWPOLYLINE
  5
57C
100
AcDbEntity
  8
RACCORDO
100
AcDbPolyline
 62
253
  6
CONTINUOUS
 90
10
 70
0
 10
140.507197483
 20
119.1662752809
 10
140.4941376059
 20
119.2568543677
 10
140.4825345959
 20
119.3488819596
 10
140.4723884532
 20
119.4423580566
 10
140.4636543672
 20
119.5374934526
 10
140.4563771483
 20
119.6340773537
 10
140.4506912285
 20
119.7314773779
 10
140.4466414183
 20
119.8294827314
 10
140.4441829071
 20
119.9283042081
 10
140.4433156949
 20
120.027941808
  0
LWPOLYLINE
  5
57D
100
AcDbEntity
  8
RACCORDO
100
AcDbPolyline
 62
253
  6
CONTINUOUS
 90
28
 70
0
 10
141.6534498562
 20
135.784375467
 10
141.6519055976
 20
135.84119842
 10
141.6470682432
 20
135.8977915909
 10
141.638937793
 20
135.9541549798
 10
141.6275048662
 20
136.0105193933
 10
141.6127788436
 20
136.0666540248
 10
141.5947878673
 20
136.1218664539
 10
141.5734686552
 20
136.1761574497
 10
141.5488844893
 20
136.2295262431
 10
141.5212533582
 20
136.2812781064
 10
141.4905256196
 20
136.3313787909
 10
141.4567509156
 20
136.3798625453
 10
141.420296161
 20
136.4261373882
 10
141.3811242606
 20
136.4701645567
 10
141.3392723095
 20
136.5119828137
 10
141.295218508
 20
136.5511164668
 10
141.2489225612
 20
136.5875288663
 10
141.2004247639
 20
136.621256662
 10
141.1503242008
 20
136.65193411
 10
141.0985889559
 20
136.6795096781
 10
141.0452509451
 20
136.7040348987
 10
140.9910050009
 20
136.7252986248
 10
140.9358528589
 20
136.7432379193
 10
140.8797927834
 20
136.7579157194
 10
140.8235144001
 20
136.7693096904
 10
140.7672475842
 20
136.7774123874
 10
140.7107624606
 20
136.7822312552
 10
140.6540590291
 20
136.783766294
  0
LWPOLYLINE
  5
57E
100
AcDbEntity
  8
RACCORDO
100
AcDbPolyline
 62
253
  6
CONTINUOUS
 90
22
 70
0
 10
144.8534498566
 20
115.9614426213
 10
144.8519578069
 20
116.0167393798
 10
144.8473876164
 20
116.0717418707
 10
144.8397392851
 20
116.126450094
 10
144.8289887523
 20
116.1810722678
 10
144.8151600787
 20
116.235400174
 10
144.7983254464
 20
116.2888091581
 10
144.7784373575
 20
116.3412837604
 10
144.7555433099
 20
116.3928394406
 10
144.72985798
 20
116.4428979233
 10
144.7013398138
 20
116.4914350562
 10
144.6700303653
 20
116.5384749916
 10
144.6362689721
 20
116.5835119116
 10
144.6000166736
 20
116.6265169825
 10
144.5613124304
 20
116.667519038
 10
144.5206124621
 20
116.7060987603
 10
144.4778845455
 20
116.7422173946
 10
144.4331609039
 20
116.7759136958
 10
144.3869944271
 20
116.8068846115
 10
144.3395694117
 20
116.8350291244
 10
144.2907015611
 20
116.8604482518
 10
144.2403908753
 20
116.8831419937
  0
LWPOLYLINE
  5
57F
100
AcDbEntity
  8
RACCORDO
100
AcDbPolyline
 62
253
  6
CONTINUOUS
 90
22
 70
0
 10
144.3537537116
 20
115.9614426213
 10
144.3530190719
 20
115.9889569631
 10
144.3507577484
 20
116.0164923554
 10
144.3469608597
 20
116.0439658559
 10
144.3416162046
 20
116.0713089982
 10
144.3347228571
 20
116.0984179589
 10
144.3263037591
 20
116.1251557412
 10
144.3163755922
 20
116.1514316311
 10
144.3049563071
 20
116.1771595217
 10
144.2920963157
 20
116.2022170523
 10
144.2778357525
 20
116.2265222317
 10
144.2622139434
 20
116.2499960498
 10
144.2453027463
 20
116.2725329741
 10
144.2271593266
 20
116.2940664886
 10
144.2078435332
 20
116.3145270309
 10
144.1874517188
 20
116.3338213149
 10
144.1660581266
 20
116.351899707
 10
144.1437387156
 20
116.3687122991
 10
144.1206096681
 20
116.3841869973
 10
144.0967670658
 20
116.3982869174
 10
144.0722786476
 20
116.4109961827
 10
144.0472243648
 20
116.4222909047
  0
LINE
  5
580
100
AcDbEntity
  8
RACCORDO
100
AcDbLine
 62
7
  6
CONTINUOUS
 10
146.0252894417
 20
161.039618225
 11
146.0154153659
 21
161.60530365
  0
LWPOLYLINE
  5
581
100
AcDbEntity
  8
RACCORDO
100
AcDbPolyline
 62
253
  6
CONTINUOUS
 90
7
 70
0
 10
143.6987818397
 20
114.596902437
 10
143.6993886426
 20
114.555835585
 10
143.7015002562
 20
114.5149281954
 10
143.7051166805
 20
114.4741857301
 10
143.7102379154
 20
114.4336135077
 10
143.716863961
 20
114.3932167055
 10
143.7249948174
 20
114.3530003598
  0
LWPOLYLINE
  5
582
100
AcDbEntity
  8
RACCORDO
100
AcDbPolyline
 62
253
  6
CONTINUOUS
 90
7
 70
0
 10
144.0985381705
 20
114.550483239
 10
144.0988111918
 20
114.530031495
 10
144.0999333901
 20
114.5096306646
 10
144.1019008623
 20
114.489314647
 10
144.1047083343
 20
114.4691170803
 10
144.1083491769
 20
114.4490712862
 10
144.1128154236
 20
114.4292102162
  0
LINE
  5
583
100
AcDbEntity
  8
RACCORDO
100
AcDbLine
 62
253
  6
CONTINUOUS
 10
141.6534498562
 20
120.7724609375
 11
141.6534498562
 21
135.784375467
  0
LINE
  5
584
100
AcDbEntity
  8
ASSI
100
AcDbLine
 62
7
  6
CONTINUOUS
 10
142.8706054688
 20
125.7724609375
 11
142.8706054688
 21
120.7724609375
  0
LINE
  5
585
100
AcDbEntity
  8
DRAFT
100
AcDbLine
 62
7
  6
CONTINUOUS
 10
144.0618779363
 20
120.7724609375
 11
144.0618779363
 21
125.7724609375
  0
LINE
  5
586
100
AcDbEntity
  8
DRAFT
100
AcDbLine
 62
7
  6
CONTINUOUS
 10
144.1020245856
 20
125.7724609375
 11
144.1020245856
 21
120.7724609375
  0
LINE
  5
587
100
AcDbEntity
  8
RACCORDO
100
AcDbLine
 62
253
  6
CONTINUOUS
 10
144.2143649935
 20
124.2291887882
 11
144.2143649935
 21
123.8166895716
  0
LINE
  5
588
100
AcDbEntity
  8
RACCORDO
100
AcDbLine
 62
253
  6
CONTINUOUS
 10
144.3537544426
 20
114.5819017979
 11
144.3537544426
 21
115.9614426213
  0
LINE
  5
589
100
AcDbEntity
  8
RACCORDO
100
AcDbLine
 62
253
  6
CONTINUOUS
 10
144.8534498564
 20
114.5819017969
 11
144.8534498566
 21
115.9614426213
  0
LINE
  5
58A
100
AcDbEntity
  8
RACCORDO
100
AcDbLine
 62
7
  6
CONTINUOUS
 10
145.3706054688
 20
110.4504699269
 11
145.3706054688
 21
109.0224609375
  0
LINE
  5
58B
100
AcDbEntity
  8
DRAFT
100
AcDbLine
 62
7
  6
CONTINUOUS
 10
145.3706054688
 20
84.2410418206
 11
145.3706054688
 21
86.5724609375
  0
LINE
  5
58C
100
AcDbEntity
  8
DRAFT
100
AcDbLine
 62
7
  6
CONTINUOUS
 10
145.3706054688
 20
160.2724609375
 11
145.3706054688
 21
162.3038800544
  0
LINE
  5
58D
100
AcDbEntity
  8
RACCORDO
100
AcDbLine
 62
253
  6
CONTINUOUS
 10
145.8706054688
 20
110.5132793475
 11
145.8706054688
 21
108.5224609375
  0
LINE
  5
58E
100
AcDbEntity
  8
RACCORDO
100
AcDbLine
 62
7
  6
CONTINUOUS
 10
145.8880592043
 20
161.5224609375
 11
145.8880592043
 21
162.2375508076
  0
LINE
  5
58F
100
AcDbEntity
  8
DRAFT
100
AcDbLine
 62
7
  6
CONTINUOUS
 10
145.9706054688
 20
85.8521345479
 11
145.9706054688
 21
86.5724609375
  0
LINE
  5
590
100
AcDbEntity
  8
RACCORDO
100
AcDbLine
 62
7
  6
CONTINUOUS
 10
145.9706054687
 20
160.2724609375
 11
145.9706054687
 21
160.6927873271
  0
LINE
  5
591
100
AcDbEntity
  8
RACCORDO
100
AcDbLine
 62
7
  6
CONTINUOUS
 10
146.0002790791
 20
161.5224609375
 11
146.0002790791
 21
160.7224609375
  0
LINE
  5
592
100
AcDbEntity
  8
RACCORDO
100
AcDbLine
 62
7
  6
CONTINUOUS
 10
146.0002790791
 20
85.0224609375
 11
146.0002790791
 21
85.8224609375
  0
LINE
  5
593
100
AcDbEntity
  8
RACCORDO
100
AcDbLine
 62
7
  6
CONTINUOUS
 10
146.0273344298
 20
160.7567755126
 11
146.0273344298
 21
160.3025439528
  0
LINE
  5
594
100
AcDbEntity
  8
RACCORDO
100
AcDbLine
 62
7
  6
CONTINUOUS
 10
146.0273344298
 20
86.2423779222
 11
146.0273344298
 21
85.7881463624
  0
LINE
  5
595
100
AcDbEntity
  8
RACCORDO
100
AcDbLine
 62
253
  6
CONTINUOUS
 10
146.9354329153
 20
122.4552316892
 11
146.9354329153
 21
119.3604212939
  0
LINE
  5
596
100
AcDbEntity
  8
DRAFT
100
AcDbLine
 62
7
  6
CONTINUOUS
 10
147.6391863519
 20
120.7724609375
 11
147.6391863519
 21
125.7724609375
  0
LINE
  5
597
100
AcDbEntity
  8
DRAFT
100
AcDbLine
 62
7
  6
CONTINUOUS
 10
147.6793330012
 20
125.7724609375
 11
147.6793330012
 21
120.7724609375
  0
LINE
  5
598
100
AcDbEntity
  8
RACCORDO
100
AcDbLine
 62
7
  6
CONTINUOUS
 10
145.8897419218
 20
85.4724609375
 11
145.8838290334
 21
84.2989100811
  0
LINE
  5
599
100
AcDbEntity
  8
RACCORDO
100
AcDbLine
 62
253
  6
CONTINUOUS
 10
144.1013139734
 20
114.9842683916
 11
144.0985381705
 21
114.550483239
  0
LINE
  5
59A
100
AcDbEntity
  8
RACCORDO
100
AcDbLine
 62
253
  6
CONTINUOUS
 10
143.7025596335
 20
115.2011064077
 11
143.6987818397
 21
114.596902437
  0
LINE
  5
59B
100
AcDbEntity
  8
RACCORDO
100
AcDbLine
 62
253
  6
CONTINUOUS
 10
144.2162358217
 20
123.8166895716
 11
144.1803304354
 21
120.2538295258
  0
LINE
  5
59C
100
AcDbEntity
  8
RACCORDO
100
AcDbLine
 62
7
  6
CONTINUOUS
 10
146.9354329153
 20
122.4552316892
 11
146.9040205744
 21
119.3382126122
  0
LINE
  5
59D
100
AcDbEntity
  8
RACCORDO
100
AcDbLine
 62
253
  6
CONTINUOUS
 10
143.7077499817
 20
115.6654732251
 11
143.7025596335
 21
115.2011064077
  0
LINE
  5
59E
100
AcDbEntity
  8
RACCORDO
100
AcDbLine
 62
253
  6
CONTINUOUS
 10
144.106035959
 20
115.4047866179
 11
144.1013139734
 21
114.9842683916
  0
LINE
  5
59F
100
AcDbEntity
  8
RACCORDO
100
AcDbLine
 62
253
  6
CONTINUOUS
 10
143.7128538072
 20
115.997484986
 11
143.7077499817
 21
115.6654732251
  0
LINE
  5
5A0
100
AcDbEntity
  8
RACCORDO
100
AcDbLine
 62
7
  6
CONTINUOUS
 10
146.0154153659
 20
84.939618225
 11
146.0252894417
 21
85.50530365
  0
LINE
  5
5A1
100
AcDbEntity
  8
RACCORDO
100
AcDbLine
 62
253
  6
CONTINUOUS
 10
144.1126101374
 20
115.8036360458
 11
144.106035959
 21
115.4047866179
  0
LINE
  5
5A2
100
AcDbEntity
  8
RACCORDO
100
AcDbLine
 62
253
  6
CONTINUOUS
 10
141.8998623392
 20
117.4180014201
 11
141.898866609
 21
117.3686137507
  0
LINE
  5
5A3
100
AcDbEntity
  8
RACCORDO
100
AcDbLine
 62
253
  6
CONTINUOUS
 10
144.0472249529
 20
116.422292309
 11
144.2403908753
 21
116.8831419937
  0
LWPOLYLINE
  5
5A4
100
AcDbEntity
  8
RACCORDO
100
AcDbPolyline
 62
253
  6
CONTINUOUS
 90
13
 70
0
 10
143.6560740174
 20
116.0958154228
 10
143.6728156792
 20
116.1220675439
 10
143.6894257646
 20
116.1465413882
 10
143.7057737238
 20
116.1690445991
 10
143.721731067
 20
116.1894003087
 10
143.7371723746
 20
116.2074485279
 10
143.7519762827
 20
116.2230474036
 10
143.766026437
 20
116.2360743339
 10
143.7792124076
 20
116.2464269316
 10
143.7914305564
 20
116.2540238289
 10
143.802584852
 20
116.258805317
 10
143.8125876249
 20
116.260733815
 10
143.8213602558
 20
116.2597941661
  0
LINE
  5
5A5
100
AcDbEntity
  8
0
100
AcDbLine
 62
7
  6
CONTINUOUS
 10
128.1020702771
 20
154.7910418206
 11
120.6391406604
 21
154.7910418206
  0
LINE
  5
5A6
100
AcDbEntity
  8
0
100
AcDbLine
 62
7
  6
CONTINUOUS
 10
113.1020702771
 20
154.7910418206
 11
105.6391406604
 21
154.7910418206
  0
LINE
  5
5A7
100
AcDbEntity
  8
0
100
AcDbLine
 62
7
  6
CONTINUOUS
 10
128.0706511602
 20
154.8224609375
 11
120.6705597773
 21
154.8224609375
  0
LINE
  5
5A8
100
AcDbEntity
  8
0
100
AcDbLine
 62
7
  6
CONTINUOUS
 10
113.0706511602
 20
154.8224609375
 11
105.6705597773
 21
154.8224609375
  0
LINE
  5
5A9
100
AcDbEntity
  8
0
100
AcDbLine
 62
253
  6
CONTINUOUS
 10
120.3706054688
 20
156.272506629
 11
120.3391863519
 21
156.3039257458
  0
LINE
  5
5AA
100
AcDbEntity
  8
0
100
AcDbLine
 62
253
  6
CONTINUOUS
 10
120.6705597773
 20
156.5724609375
 11
120.6391406604
 21
156.6038800544
  0
LINE
  5
5AB
100
AcDbEntity
  8
0
100
AcDbLine
 62
7
  6
CONTINUOUS
 10
121.3706054688
 20
156.5724609375
 11
121.4474077544
 21
156.4956586518
  0
LINE
  5
5AC
100
AcDbEntity
  8
0
100
AcDbLine
 62
253
  6
CONTINUOUS
 10
128.0706511602
 20
154.8224609375
 11
128.1020702771
 21
154.7910418206
  0
LINE
  5
5AD
100
AcDbEntity
  8
0
100
AcDbLine
 62
253
  6
CONTINUOUS
 10
128.3706054688
 20
155.122415246
 11
128.4020245856
 21
155.0909961292
  0
LINE
  5
5AE
100
AcDbEntity
  8
RACCORDO
100
AcDbLine
 62
253
  6
CONTINUOUS
 10
145.8706054688
 20
110.5132793475
 11
144.8534498564
 21
114.5819017969
  0
LWPOLYLINE
  5
5AF
100
AcDbEntity
  8
RACCORDO
100
AcDbPolyline
 62
253
  6
CONTINUOUS
 90
10
 70
0
 10
144.3686740984
 20
114.4607078584
 10
144.3655570022
 20
114.4739469273
 10
144.362800931
 20
114.4872658793
 10
144.3604079242
 20
114.5006548588
 10
144.3583797525
 20
114.5141039585
 10
144.3567179167
 20
114.5276032263
 10
144.3554236465
 20
114.5411426733
 10
144.3544978996
 20
114.5547122808
 10
144.353941361
 20
114.5683020076
 10
144.3537544426
 20
114.5819017979
  0
LINE
  5
5B0
100
AcDbEntity
  8
RACCORDO
100
AcDbLine
 62
253
  6
CONTINUOUS
 10
151.1694428045
 20
78.7724609375
 11
151.0940839714
 21
80.2170108684
  0
LWPOLYLINE
  5
5B1
100
AcDbEntity
  8
RACCORDO
100
AcDbPolyline
 62
253
  6
CONTINUOUS
 90
3
 70
0
 10
151.4586168438
 20
79.0624609375
 10
151.3834407567
 20
80.5045038713
 10
151.3828562596
 20
80.5186518065
  0
LWPOLYLINE
  5
5B2
100
AcDbEntity
  8
RACCORDO
100
AcDbPolyline
 62
253
  6
CONTINUOUS
 90
9
 70
0
 10
153.1063386217
 20
76.7716935333
 10
153.1069166642
 20
76.7576334735
 10
153.1075048405
 20
76.7453172183
 10
153.1081033631
 20
76.7347628608
 10
153.1087120195
 20
76.725952308
 10
153.1093253035
 20
76.7189528786
 10
153.1099413797
 20
76.7137870124
 10
153.1105620835
 20
76.7104322697
 10
153.1111874149
 20
76.7088886505
  0
LINE
  5
5B3
100
AcDbEntity
  8
RACCORDO
100
AcDbLine
 62
253
  6
CONTINUOUS
 10
151.0940839714
 20
80.2170108684
 11
151.0933889971
 21
80.237532128
  0
LWPOLYLINE
  5
5B4
100
AcDbEntity
  8
RACCORDO
100
AcDbPolyline
 62
253
  6
CONTINUOUS
 90
8
 70
0
 10
152.8069621884
 20
76.4785785941
 10
152.8075492507
 20
76.4610123889
 10
152.8081463913
 20
76.4459337956
 10
152.8087536384
 20
76.4333788915
 10
152.8093663934
 20
76.4233778914
 10
152.8099831232
 20
76.4159573652
 10
152.8106053609
 20
76.4111383667
 10
152.8112331064
 20
76.408934342
  0
LINE
  5
5B5
100
AcDbEntity
  8
RACCORDO
100
AcDbLine
 62
253
  6
CONTINUOUS
 10
151.3828562596
 20
80.5186518065
 11
151.3817293918
 21
80.5520046655
  0
LINE
  5
5B6
100
AcDbEntity
  8
RACCORDO
100
AcDbLine
 62
253
  6
CONTINUOUS
 10
153.105227734
 20
76.8046947485
 11
153.1063386217
 21
76.7716935333
  0
LINE
  5
5B7
100
AcDbEntity
  8
RACCORDO
100
AcDbLine
 62
253
  6
CONTINUOUS
 10
151.3817293918
 20
80.5520046655
 11
151.3806637641
 21
80.59193147
  0
LINE
  5
5B8
100
AcDbEntity
  8
RACCORDO
100
AcDbLine
 62
253
  6
CONTINUOUS
 10
152.805823067
 20
76.5209758142
 11
152.8069621884
 21
76.4785785941
  0
LINE
  5
5B9
100
AcDbEntity
  8
RACCORDO
100
AcDbLine
 62
253
  6
CONTINUOUS
 10
153.1041813468
 20
76.8440342385
 11
153.105227734
 21
76.8046947485
  0
LINE
  5
5BA
100
AcDbEntity
  8
RACCORDO
100
AcDbLine
 62
7
  6
CONTINUOUS
 10
151.3792765316
 20
80.8909795483
 11
151.3774412
 21
80.9615854116
  0
LINE
  5
5BB
100
AcDbEntity
  8
RACCORDO
100
AcDbLine
 62
253
  6
CONTINUOUS
 10
151.0933889971
 20
80.237532128
 11
151.0920620499
 21
80.2883161827
  0
LINE
  5
5BC
100
AcDbEntity
  8
RACCORDO
100
AcDbLine
 62
253
  6
CONTINUOUS
 10
152.8047435262
 20
76.572658575
 11
152.805823067
 21
76.5209758142
  0
LINE
  5
5BD
100
AcDbEntity
  8
RACCORDO
100
AcDbLine
 62
7
  6
CONTINUOUS
 10
151.3774412
 20
80.9615854116
 11
151.375755715
 21
81.0458939351
  0
LINE
  5
5BE
100
AcDbEntity
  8
RACCORDO
100
AcDbLine
 62
253
  6
CONTINUOUS
 10
151.0920620499
 20
80.2883161827
 11
151.0908148504
 21
80.3514688418
  0
LINE
  5
5BF
100
AcDbEntity
  8
RACCORDO
100
AcDbLine
 62
253
  6
CONTINUOUS
 10
151.3806637641
 20
80.59193147
 11
151.3792132393
 21
80.663047019
  0
LINE
  5
5C0
100
AcDbEntity
  8
RACCORDO
100
AcDbLine
 62
253
  6
CONTINUOUS
 10
153.1027608416
 20
76.9138072903
 11
153.1041813468
 21
76.8440342385
  0
LINE
  5
5C1
100
AcDbEntity
  8
RACCORDO
100
AcDbLine
 62
253
  6
CONTINUOUS
 10
152.7927634319
 20
77.2770441365
 11
152.802806533
 21
76.701675256
  0
LINE
  5
5C2
100
AcDbEntity
  8
RACCORDO
100
AcDbLine
 62
253
  6
CONTINUOUS
 10
153.0921287631
 20
77.5275496805
 11
153.1027608416
 21
76.9138072903
  0
LINE
  5
5C3
100
AcDbEntity
  8
RACCORDO
100
AcDbLine
 62
253
  6
CONTINUOUS
 10
151.3792132393
 20
80.663047019
 11
151.3779706113
 21
80.7460742678
  0
LWPOLYLINE
  5
5C4
100
AcDbEntity
  8
RACCORDO
100
AcDbPolyline
 62
253
  6
CONTINUOUS
 90
3
 70
0
 10
152.802806533
 20
76.701675256
 10
152.8032621755
 20
76.6664143189
 10
152.8047435262
 20
76.572658575
  0
LINE
  5
5C5
100
AcDbEntity
  8
RACCORDO
100
AcDbLine
 62
253
  6
CONTINUOUS
 10
151.0908148504
 20
80.3514688418
 11
151.0891403002
 21
80.4674192302
  0
LINE
  5
5C6
100
AcDbEntity
  8
RACCORDO
100
AcDbLine
 62
7
  6
CONTINUOUS
 10
151.4615029101
 20
79.0574892513
 11
151.4614580135
 21
79.0624609375
  0
LINE
  5
5C7
100
AcDbEntity
  8
RACCORDO
100
AcDbLine
 62
253
  6
CONTINUOUS
 10
151.3779706113
 20
80.7460742678
 11
151.3766874555
 21
80.8718697478
  0
LWPOLYLINE
  5
5C8
100
AcDbEntity
  8
RACCORDO
100
AcDbPolyline
 62
253
  6
CONTINUOUS
 90
3
 70
0
 10
153.0912331016
 20
77.6150114127
 10
153.0914217304
 20
77.5918066405
 10
153.0921287631
 20
77.5275496805
  0
LINE
  5
5C9
100
AcDbEntity
  8
RACCORDO
100
AcDbLine
 62
253
  6
CONTINUOUS
 10
151.0891403002
 20
80.4674192302
 11
151.0873538802
 21
80.6556407696
  0
LINE
  5
5CA
100
AcDbEntity
  8
RACCORDO
100
AcDbLine
 62
253
  6
CONTINUOUS
 10
152.7913869521
 20
77.473091637
 11
152.7927634319
 21
77.2770441365
  0
LINE
  5
5CB
100
AcDbEntity
  8
RACCORDO
100
AcDbLine
 62
253
  6
CONTINUOUS
 10
151.3766874555
 20
80.8718697478
 11
151.375755715
 21
81.0458939351
  0
LINE
  5
5CC
100
AcDbEntity
  8
RACCORDO
100
AcDbLine
 62
253
  6
CONTINUOUS
 10
151.0873538802
 20
80.6556407696
 11
151.0859717254
 21
80.9298688032
  0
LINE
  5
5CD
100
AcDbEntity
  8
RACCORDO
100
AcDbLine
 62
253
  6
CONTINUOUS
 10
152.7908142782
 20
77.6564367929
 11
152.7913869521
 21
77.473091637
  0
LINE
  5
5CE
100
AcDbEntity
  8
ASSI
100
AcDbLine
 62
7
  6
CONTINUOUS
 10
148.8706054688
 20
120.7724609375
 11
148.8706054688
 21
125.7724609375
  0
LINE
  5
5CF
100
AcDbEntity
  8
RACCORDO
100
AcDbLine
 62
253
  6
CONTINUOUS
 10
151.0859717254
 20
80.9298688032
 11
151.0856232624
 21
81.7551582006
  0
LINE
  5
5D0
100
AcDbEntity
  8
RACCORDO
100
AcDbLine
 62
7
  6
CONTINUOUS
 10
151.4615021819
 20
79.0574219684
 11
151.4615021819
 21
80.6852617769
  0
LINE
  5
5D1
100
AcDbEntity
  8
RACCORDO
100
AcDbLine
 62
7
  6
CONTINUOUS
 10
153.0944228714
 20
80.6852617769
 11
153.0944228714
 21
77.9315294739
  0
LINE
  5
5D2
100
AcDbEntity
  8
RACCORDO
100
AcDbLine
 62
7
  6
CONTINUOUS
 10
153.1206054688
 20
80.6852617769
 11
153.1206054688
 21
76.6994705967
  0
LINE
  5
5D3
100
AcDbEntity
  8
RACCORDO
100
AcDbLine
 62
253
  6
CONTINUOUS
 10
152.7989121318
 20
78.5224609375
 11
152.790184608
 21
77.6564363868
  0
LINE
  5
5D4
100
AcDbEntity
  8
RACCORDO
100
AcDbLine
 62
253
  6
CONTINUOUS
 10
153.0944228714
 20
77.9315294739
 11
153.0912331016
 21
77.6150114127
  0
LINE
  5
5D5
100
AcDbEntity
  8
0
100
AcDbLine
 62
7
  6
CONTINUOUS
 10
105.4107734286
 20
156.4224609375
 11
113.3304375058
 21
156.4224609375
  0
LINE
  5
5D6
100
AcDbEntity
  8
0
100
AcDbLine
 62
7
  6
CONTINUOUS
 10
120.4107734286
 20
156.4224609375
 11
128.3304375058
 21
156.4224609375
  0
LINE
  5
5D7
100
AcDbEntity
  8
0
100
AcDbLine
 62
7
  6
CONTINUOUS
 10
106.4474077544
 20
156.4956586518
 11
112.2938031831
 21
156.4956586518
  0
LINE
  5
5D8
100
AcDbEntity
  8
0
100
AcDbLine
 62
7
  6
CONTINUOUS
 10
121.4474077544
 20
156.4956586518
 11
127.2938031831
 21
156.4956586518
  0
LINE
  5
5D9
100
AcDbEntity
  8
0
100
AcDbLine
 62
7
  6
CONTINUOUS
 10
105.6705597773
 20
156.5724609375
 11
106.3706054688
 21
156.5724609375
  0
LINE
  5
5DA
100
AcDbEntity
  8
0
100
AcDbLine
 62
7
  6
CONTINUOUS
 10
112.3706054688
 20
156.5724609375
 11
113.0706511602
 21
156.5724609375
  0
LINE
  5
5DB
100
AcDbEntity
  8
0
100
AcDbLine
 62
7
  6
CONTINUOUS
 10
120.6705597773
 20
156.5724609375
 11
121.3706054688
 21
156.5724609375
  0
LINE
  5
5DC
100
AcDbEntity
  8
0
100
AcDbLine
 62
7
  6
CONTINUOUS
 10
127.3706054688
 20
156.5724609375
 11
128.0706511602
 21
156.5724609375
  0
LINE
  5
5DD
100
AcDbEntity
  8
0
100
AcDbLine
 62
7
  6
CONTINUOUS
 10
105.6391406604
 20
156.6038800544
 11
113.1020702771
 21
156.6038800544
  0
LINE
  5
5DE
100
AcDbEntity
  8
0
100
AcDbLine
 62
7
  6
CONTINUOUS
 10
120.6391406604
 20
156.6038800544
 11
128.1020702771
 21
156.6038800544
  0
LINE
  5
5DF
100
AcDbEntity
  8
DRAFT
100
AcDbLine
 62
7
  6
CONTINUOUS
 10
155.8548971067
 20
160.2724609375
 11
145.3706054688
 21
160.2724609375
  0
LINE
  5
5E0
100
AcDbEntity
  8
DRAFT
100
AcDbLine
 62
7
  6
CONTINUOUS
 10
86.3706054688
 20
160.2724609375
 11
75.8863138308
 21
160.2724609375
  0
LINE
  5
5E1
100
AcDbEntity
  8
RACCORDO
100
AcDbLine
 62
253
  6
CONTINUOUS
 10
76.0273344298
 20
160.3025439528
 11
85.7138765077
 21
160.3025439528
  0
LINE
  5
5E2
100
AcDbEntity
  8
RACCORDO
100
AcDbLine
 62
253
  6
CONTINUOUS
 10
146.0273344298
 20
160.3025439528
 11
155.7138765077
 21
160.3025439528
  0
LINE
  5
5E3
100
AcDbEntity
  8
DRAFT
100
AcDbLine
 62
7
  6
CONTINUOUS
 10
155.8548971067
 20
160.6927873271
 11
155.7706054688
 21
160.6927873271
  0
LINE
  5
5E4
100
AcDbEntity
  8
DRAFT
100
AcDbLine
 62
7
  6
CONTINUOUS
 10
145.9706054687
 20
160.6927873271
 11
145.3706054688
 21
160.6927873271
  0
LINE
  5
5E5
100
AcDbEntity
  8
DRAFT
100
AcDbLine
 62
7
  6
CONTINUOUS
 10
86.3706054688
 20
160.6927873271
 11
85.7706054688
 21
160.6927873271
  0
LINE
  5
5E6
100
AcDbEntity
  8
DRAFT
100
AcDbLine
 62
7
  6
CONTINUOUS
 10
75.9706054688
 20
160.6927873271
 11
75.8863138308
 21
160.6927873271
  0
LINE
  5
5E7
100
AcDbEntity
  8
RACCORDO
100
AcDbLine
 62
253
  6
CONTINUOUS
 10
155.7138765077
 20
160.7567755126
 11
146.0273344298
 21
160.7567755126
  0
LINE
  5
5E8
100
AcDbEntity
  8
RACCORDO
100
AcDbLine
 62
253
  6
CONTINUOUS
 10
85.7138765077
 20
160.7567755126
 11
76.0273344298
 21
160.7567755126
  0
LINE
  5
5E9
100
AcDbEntity
  8
RACCORDO
100
AcDbLine
 62
253
  6
CONTINUOUS
 10
155.7159214958
 20
161.039618225
 11
146.0252894417
 21
161.039618225
  0
LINE
  5
5EA
100
AcDbEntity
  8
RACCORDO
100
AcDbLine
 62
253
  6
CONTINUOUS
 10
85.7159214958
 20
161.039618225
 11
76.0252894417
 21
161.039618225
  0
LINE
  5
5EB
100
AcDbEntity
  8
RACCORDO
100
AcDbLine
 62
7
  6
CONTINUOUS
 10
75.8863138308
 20
161.0724609375
 11
76.0002790791
 21
161.0724609375
  0
LINE
  5
5EC
100
AcDbEntity
  8
RACCORDO
100
AcDbLine
 62
7
  6
CONTINUOUS
 10
85.7409318584
 20
161.0724609375
 11
85.8492246427
 21
161.0724609375
  0
LINE
  5
5ED
100
AcDbEntity
  8
RACCORDO
100
AcDbLine
 62
7
  6
CONTINUOUS
 10
145.8919862948
 20
161.0724609375
 11
146.0002790791
 21
161.0724609375
  0
LINE
  5
5EE
100
AcDbEntity
  8
RACCORDO
100
AcDbLine
 62
7
  6
CONTINUOUS
 10
155.7409318584
 20
161.0724609375
 11
155.8548971067
 21
161.0724609375
  0
LWPOLYLINE
  5
5EF
100
AcDbEntity
  8
RACCORDO
100
AcDbPolyline
 62
7
  6
CONTINUOUS
 90
25
 70
0
 10
158.1206495861
 20
76.6943254671
 10
158.1224266009
 20
76.6692593924
 10
158.1257495793
 20
76.645061077
 10
158.1306185213
 20
76.621869434
 10
158.1371946463
 20
76.5998315139
 10
158.145316735
 20
76.5789942298
 10
158.1545011293
 20
76.5593161282
 10
158.1646980939
 20
76.5408576519
 10
158.1759573642
 20
76.52363863
 10
158.1879444882
 20
76.5075554831
 10
158.2006275827
 20
76.4926186978
 10
158.2140385309
 20
76.4788470034
 10
158.2279385302
 20
76.4661642198
 10
158.2423110898
 20
76.4545680652
 10
158.2571727005
 20
76.4440650196
 10
158.2723340324
 20
76.4346074424
 10
158.2877903995
 20
76.4261859308
 10
158.3035464879
 20
76.4187990031
 10
158.3194270259
 20
76.4124202158
 10
158.3354313121
 20
76.4070342581
 10
158.3515600479
 20
76.4026292171
 10
158.3676400661
 20
76.3991843548
 10
158.3836136443
 20
76.3966769915
 10
158.3995385048
 20
76.39508199
 10
158.4154146477
 20
76.3943711585
  0
LINE
  5
5F0
100
AcDbEntity
  8
RACCORDO
100
AcDbLine
 62
7
  6
CONTINUOUS
 10
155.7159214958
 20
85.50530365
 11
155.7257955716
 21
84.939618225
  0
LINE
  5
5F1
100
AcDbEntity
  8
RACCORDO
100
AcDbLine
 62
253
  6
CONTINUOUS
 10
158.1499187643
 20
77.6208730324
 11
158.1467880661
 21
77.9315294739
  0
LINE
  5
5F2
100
AcDbEntity
  8
RACCORDO
100
AcDbLine
 62
253
  6
CONTINUOUS
 10
158.4509137523
 20
77.6676073311
 11
158.4422988057
 21
78.5224609375
  0
LINE
  5
5F3
100
AcDbEntity
  8
ASSI
100
AcDbLine
 62
7
  6
CONTINUOUS
 10
154.6706054688
 20
125.7724609375
 11
154.6706054688
 21
120.7724609375
  0
LINE
  5
5F4
100
AcDbEntity
  8
DRAFT
100
AcDbLine
 62
7
  6
CONTINUOUS
 10
154.8391863519
 20
98.0224609375
 11
154.8391863519
 21
104.5224609375
  0
LINE
  5
5F5
100
AcDbEntity
  8
DRAFT
100
AcDbLine
 62
7
  6
CONTINUOUS
 10
154.8706054688
 20
98.0224609375
 11
154.8706054688
 21
98.7724609375
  0
LINE
  5
5F6
100
AcDbEntity
  8
DRAFT
100
AcDbLine
 62
7
  6
CONTINUOUS
 10
154.8706054688
 20
103.7724609375
 11
154.8706054688
 21
104.5224609375
  0
LINE
  5
5F7
100
AcDbEntity
  8
DRAFT
100
AcDbLine
 62
7
  6
CONTINUOUS
 10
154.9791609833
 20
103.7181873139
 11
154.9791609833
 21
98.8267345611
  0
LINE
  5
5F8
100
AcDbEntity
  8
RACCORDO
100
AcDbLine
 62
7
  6
CONTINUOUS
 10
154.9881365681
 20
104.5224609375
 11
154.9881365681
 21
103.8025686314
  0
LINE
  5
5F9
100
AcDbEntity
  8
DRAFT
100
AcDbLine
 62
7
  6
CONTINUOUS
 10
154.9881365681
 20
103.8025686314
 11
154.9881365681
 21
103.7181873139
  0
LINE
  5
5FA
100
AcDbEntity
  8
DRAFT
100
AcDbLine
 62
7
  6
CONTINUOUS
 10
154.9881365681
 20
98.8267345611
 11
154.9881365681
 21
98.7423532436
  0
LINE
  5
5FB
100
AcDbEntity
  8
RACCORDO
100
AcDbLine
 62
7
  6
CONTINUOUS
 10
154.9881365681
 20
98.7423532436
 11
154.9881365681
 21
98.0224609375
  0
LINE
  5
5FC
100
AcDbEntity
  8
DRAFT
100
AcDbLine
 62
7
  6
CONTINUOUS
 10
155.018244262
 20
98.7724609375
 11
155.018244262
 21
103.7724609375
  0
LINE
  5
5FD
100
AcDbEntity
  8
RACCORDO
100
AcDbLine
 62
7
  6
CONTINUOUS
 10
155.0706054687
 20
104.5224609375
 11
155.0706054687
 21
98.0224609375
  0
LINE
  5
5FE
100
AcDbEntity
  8
RACCORDO
100
AcDbLine
 62
7
  6
CONTINUOUS
 10
155.7138765077
 20
85.7881463624
 11
155.7138765077
 21
86.2423779222
  0
LINE
  5
5FF
100
AcDbEntity
  8
RACCORDO
100
AcDbLine
 62
7
  6
CONTINUOUS
 10
155.7138765077
 20
160.3025439528
 11
155.7138765077
 21
160.7567755126
  0
LINE
  5
600
100
AcDbEntity
  8
RACCORDO
100
AcDbLine
 62
7
  6
CONTINUOUS
 10
155.7409318584
 20
160.7224609375
 11
155.7409318584
 21
161.5224609375
  0
LINE
  5
601
100
AcDbEntity
  8
DRAFT
100
AcDbLine
 62
7
  6
CONTINUOUS
 10
155.7706054688
 20
160.6927873271
 11
155.7706054688
 21
160.2724609375
  0
LINE
  5
602
100
AcDbEntity
  8
DRAFT
100
AcDbLine
 62
7
  6
CONTINUOUS
 10
155.8548971067
 20
84.2410418206
 11
155.8548971067
 21
86.5724609375
  0
LINE
  5
603
100
AcDbEntity
  8
DRAFT
100
AcDbLine
 62
7
  6
CONTINUOUS
 10
155.8548971067
 20
160.2724609375
 11
155.8548971067
 21
162.3038800544
  0
LINE
  5
604
100
AcDbEntity
  8
DRAFT
100
AcDbLine
 62
7
  6
CONTINUOUS
 10
155.8618779363
 20
120.7724609375
 11
155.8618779363
 21
125.7724609375
  0
LINE
  5
605
100
AcDbEntity
  8
DRAFT
100
AcDbLine
 62
7
  6
CONTINUOUS
 10
155.9020245856
 20
125.7724609375
 11
155.9020245856
 21
120.7724609375
  0
LINE
  5
606
100
AcDbEntity
  8
0
100
AcDbLine
 62
7
  6
CONTINUOUS
 10
156.3706054688
 20
104.5224609375
 11
156.3706054688
 21
98.0224609375
  0
LINE
  5
607
100
AcDbEntity
  8
RACCORDO
100
AcDbLine
 62
7
  6
CONTINUOUS
 10
157.3995464498
 20
119.0248677779
 11
157.3995464498
 21
127.5200540971
  0
LINE
  5
608
100
AcDbEntity
  8
RACCORDO
100
AcDbLine
 62
7
  6
CONTINUOUS
 10
158.1206054688
 20
76.6994705967
 11
158.1206054688
 21
80.6852617769
  0
LINE
  5
609
100
AcDbEntity
  8
RACCORDO
100
AcDbLine
 62
7
  6
CONTINUOUS
 10
158.1467880661
 20
77.9315294739
 11
158.1467880661
 21
80.6852617769
  0
LINE
  5
60A
100
AcDbEntity
  8
DRAFT
100
AcDbLine
 62
7
  6
CONTINUOUS
 10
159.4391863519
 20
120.7724609375
 11
159.4391863519
 21
125.7724609375
  0
LINE
  5
60B
100
AcDbEntity
  8
DRAFT
100
AcDbLine
 62
7
  6
CONTINUOUS
 10
159.4793330012
 20
125.7724609375
 11
159.4793330012
 21
120.7724609375
  0
LINE
  5
60C
100
AcDbEntity
  8
RACCORDO
100
AcDbLine
 62
7
  6
CONTINUOUS
 10
159.6297087556
 20
80.6852617769
 11
159.6297087556
 21
79.0574219684
  0
LINE
  5
60D
100
AcDbEntity
  8
RACCORDO
100
AcDbLine
 62
253
  6
CONTINUOUS
 10
160.0055876751
 20
81.7551582006
 11
160.0050442073
 21
80.8725707908
  0
LINE
  5
60E
100
AcDbEntity
  8
RACCORDO
100
AcDbLine
 62
253
  6
CONTINUOUS
 10
158.4502604502
 20
77.6676077041
 11
158.4494270951
 21
77.4190343302
  0
LINE
  5
60F
100
AcDbEntity
  8
RACCORDO
100
AcDbLine
 62
253
  6
CONTINUOUS
 10
159.7154552225
 20
81.0458939351
 11
159.714523482
 21
80.8718697478
  0
LINE
  5
610
100
AcDbEntity
  8
RACCORDO
100
AcDbLine
 62
7
  6
CONTINUOUS
 10
159.6297080274
 20
79.0574892513
 11
159.629752924
 21
79.0624609375
  0
LINE
  5
611
100
AcDbEntity
  8
RACCORDO
100
AcDbLine
 62
253
  6
CONTINUOUS
 10
158.4494270951
 20
77.4190343302
 11
158.4482797895
 21
77.2674356843
  0
LINE
  5
612
100
AcDbEntity
  8
RACCORDO
100
AcDbLine
 62
253
  6
CONTINUOUS
 10
159.714523482
 20
80.8718697478
 11
159.7139387042
 21
80.8071207811
  0
LINE
  5
613
100
AcDbEntity
  8
RACCORDO
100
AcDbLine
 62
253
  6
CONTINUOUS
 10
158.1499187643
 20
77.6208730324
 11
158.149256409
 21
77.5456484221
  0
LINE
  5
614
100
AcDbEntity
  8
RACCORDO
100
AcDbLine
 62
253
  6
CONTINUOUS
 10
158.4384044045
 20
76.701675256
 11
158.436980845
 21
76.601814969
  0
LINE
  5
615
100
AcDbEntity
  8
RACCORDO
100
AcDbLine
 62
253
  6
CONTINUOUS
 10
158.149256409
 20
77.5456484221
 11
158.1483254809
 21
77.4795677187
  0
LINE
  5
616
100
AcDbEntity
  8
RACCORDO
100
AcDbLine
 62
7
  6
CONTINUOUS
 10
155.7257955716
 20
161.60530365
 11
155.7159214958
 21
161.039618225
  0
LINE
  5
617
100
AcDbEntity
  8
RACCORDO
100
AcDbLine
 62
253
  6
CONTINUOUS
 10
158.4482797895
 20
77.2674356843
 11
158.4384044045
 21
76.701675256
  0
LINE
  5
618
100
AcDbEntity
  8
RACCORDO
100
AcDbLine
 62
253
  6
CONTINUOUS
 10
158.436980845
 20
76.601814969
 11
158.4359349484
 21
76.5456838797
  0
LINE
  5
619
100
AcDbEntity
  8
RACCORDO
100
AcDbLine
 62
253
  6
CONTINUOUS
 10
158.1483254809
 20
77.4795677187
 11
158.1375226905
 21
76.8658462271
  0
LINE
  5
61A
100
AcDbEntity
  8
RACCORDO
100
AcDbLine
 62
253
  6
CONTINUOUS
 10
158.1375226905
 20
76.8658462271
 11
158.1365161118
 21
76.8236392912
  0
LWPOLYLINE
  5
61B
100
AcDbEntity
  8
RACCORDO
100
AcDbPolyline
 62
253
  6
CONTINUOUS
 90
10
 70
0
 10
158.4359349484
 20
76.5456838797
 10
158.4348256325
 20
76.4985833683
 10
158.4342486812
 20
76.4785775107
 10
158.433661619
 20
76.4610116355
 10
158.4330644671
 20
76.4459327545
 10
158.4324572042
 20
76.4333774969
 10
158.4318444474
 20
76.4233766295
 10
158.4312277359
 20
76.4159566086
 10
158.4306055304
 20
76.4111381021
 10
158.4299778311
 20
76.408934342
  0
LWPOLYLINE
  5
61C
100
AcDbEntity
  8
RACCORDO
100
AcDbPolyline
 62
253
  6
CONTINUOUS
 90
11
 70
0
 10
158.1365161118
 20
76.8236392912
 10
158.1354348612
 20
76.7873595844
 10
158.1348717307
 20
76.7716770443
 10
158.1342936833
 20
76.757620563
 10
158.13370561
 20
76.745308568
 10
158.1331073961
 20
76.7347590171
 10
158.1324991562
 20
76.7259539524
 10
158.1318861255
 20
76.7189579279
 10
158.1312700488
 20
76.7137924618
 10
158.1306491811
 20
76.710436036
 10
158.1300235226
 20
76.7088886505
  0
LWPOLYLINE
  5
61D
100
AcDbEntity
  8
RACCORDO
100
AcDbPolyline
 62
253
  6
CONTINUOUS
 90
19
 70
0
 10
153.1111874149
 20
76.7088886505
 10
153.1100384793
 20
76.6827509651
 10
153.1066163357
 20
76.6568121262
 10
153.1009470186
 20
76.6312694675
 10
153.0930736581
 20
76.6063173087
 10
153.0830561521
 20
76.5821454773
 10
153.0709707102
 20
76.5589378641
 10
153.0569092745
 20
76.5368710247
 10
153.0409788193
 20
76.5161128359
 10
153.0233005381
 20
76.4968212189
 10
153.0040089211
 20
76.4791429377
 10
152.9832507324
 20
76.4632124825
 10
152.9611838929
 20
76.4491510467
 10
152.9379762797
 20
76.4370656048
 10
152.9138044483
 20
76.4270480988
 10
152.8888522895
 20
76.4191747383
 10
152.8633096307
 20
76.4135054211
 10
152.8373707918
 20
76.4100832775
 10
152.8112331064
 20
76.408934342
  0
LWPOLYLINE
  5
61E
100
AcDbEntity
  8
RACCORDO
100
AcDbPolyline
 62
253
  6
CONTINUOUS
 90
19
 70
0
 10
153.0927177404
 20
77.4891761709
 10
153.0912740611
 20
77.4708311402
 10
153.0875940709
 20
77.4526235425
 10
153.0817053388
 20
77.434689781
 10
153.0736519804
 20
77.4171642077
 10
153.0634943281
 20
77.4001781165
 10
153.0513084785
 20
77.3838587597
 10
153.0371857226
 20
77.3683283948
 10
153.0212318621
 20
77.3537033685
 10
153.0035664161
 20
77.3400932452
 10
152.9843217266
 20
77.3275999857
 10
152.9636419662
 20
77.3163171843
 10
152.9416820586
 20
77.3063293667
 10
152.918606518
 20
77.2977113573
 10
152.8945882161
 20
77.2905277183
 10
152.8698070875
 20
77.2848322666
 10
152.8444487816
 20
77.2806676698
 10
152.8187032717
 20
77.2780651275
 10
152.7927634319
 20
77.2770441365
  0
LWPOLYLINE
  5
61F
100
AcDbEntity
  8
RACCORDO
100
AcDbPolyline
 62
253
  6
CONTINUOUS
 90
19
 70
0
 10
153.1027608416
 20
76.9138072903
 10
153.1013171974
 20
76.8954625105
 10
153.0976372944
 20
76.8772551247
 10
153.0917486879
 20
76.8593215325
 10
153.0836954796
 20
76.8417960831
 10
153.0735379879
 20
76.8248100706
 10
153.0613522976
 20
76.8084907503
 10
153.0472296866
 20
76.7929603815
 10
153.0312759457
 20
76.7783353153
 10
153.013610588
 20
76.7647251241
 10
152.9943659467
 20
76.7522317738
 10
152.9736861887
 20
76.7409488652
 10
152.9517262399
 20
76.7309609343
 10
152.9286506115
 20
76.7223428114
 10
152.904632175
 20
76.7151590655
 10
152.8798508756
 20
76.7094635222
 10
152.854492369
 20
76.7052988544
 10
152.8287466285
 20
76.7026962651
 10
152.802806533
 20
76.7016752558
  0
LINE
  5
620
100
AcDbEntity
  8
DRAFT
100
AcDbLine
 62
7
  6
CONTINUOUS
 10
145.8706054688
 20
84.2724609375
 11
145.8838290334
 21
84.2989100811
  0
LINE
  5
621
100
AcDbEntity
  8
DRAFT
100
AcDbLine
 62
7
  6
CONTINUOUS
 10
154.9791609833
 20
98.8267345611
 11
154.8706054688
 21
98.7724609375
  0
LINE
  5
622
100
AcDbEntity
  8
RACCORDO
100
AcDbLine
 62
253
  6
CONTINUOUS
 10
75.8863138308
 20
161.5224609375
 11
76.0002790791
 21
161.5224609375
  0
LINE
  5
623
100
AcDbEntity
  8
RACCORDO
100
AcDbLine
 62
253
  6
CONTINUOUS
 10
85.7409318584
 20
161.5224609375
 11
85.8531517332
 21
161.5224609375
  0
LINE
  5
624
100
AcDbEntity
  8
RACCORDO
100
AcDbLine
 62
253
  6
CONTINUOUS
 10
145.8880592043
 20
161.5224609375
 11
146.0002790791
 21
161.5224609375
  0
LINE
  5
625
100
AcDbEntity
  8
RACCORDO
100
AcDbLine
 62
253
  6
CONTINUOUS
 10
155.7409318584
 20
161.5224609375
 11
155.8548971067
 21
161.5224609375
  0
LINE
  5
626
100
AcDbEntity
  8
RACCORDO
100
AcDbLine
 62
253
  6
CONTINUOUS
 10
76.0154153659
 20
161.60530365
 11
85.7257955716
 21
161.60530365
  0
LINE
  5
627
100
AcDbEntity
  8
RACCORDO
100
AcDbLine
 62
253
  6
CONTINUOUS
 10
146.0154153659
 20
161.60530365
 11
155.7257955716
 21
161.60530365
  0
LINE
  5
628
100
AcDbEntity
  8
RACCORDO
100
AcDbLine
 62
7
  6
CONTINUOUS
 10
76.010478328
 20
161.7224609375
 11
85.7307326095
 21
161.7224609375
  0
LINE
  5
629
100
AcDbEntity
  8
RACCORDO
100
AcDbLine
 62
7
  6
CONTINUOUS
 10
146.010478328
 20
161.7224609375
 11
155.7307326095
 21
161.7224609375
  0
LINE
  5
62A
100
AcDbEntity
  8
DRAFT
100
AcDbLine
 62
7
  6
CONTINUOUS
 10
155.8548971067
 20
162.2375508076
 11
145.8880592043
 21
162.2375508076
  0
LINE
  5
62B
100
AcDbEntity
  8
DRAFT
100
AcDbLine
 62
7
  6
CONTINUOUS
 10
85.8531517332
 20
162.2375508076
 11
75.8863138308
 21
162.2375508076
  0
LINE
  5
62C
100
AcDbEntity
  8
DRAFT
100
AcDbLine
 62
7
  6
CONTINUOUS
 10
85.8706054688
 20
162.2724609375
 11
86.3706054688
 21
162.2724609375
  0
LINE
  5
62D
100
AcDbEntity
  8
DRAFT
100
AcDbLine
 62
7
  6
CONTINUOUS
 10
145.3706054688
 20
162.2724609375
 11
145.8706054688
 21
162.2724609375
  0
LINE
  5
62E
100
AcDbEntity
  8
DRAFT
100
AcDbLine
 62
7
  6
CONTINUOUS
 10
75.8863138308
 20
162.3038800544
 11
86.3706054688
 21
162.3038800544
  0
LINE
  5
62F
100
AcDbEntity
  8
DRAFT
100
AcDbLine
 62
7
  6
CONTINUOUS
 10
145.3706054688
 20
162.3038800544
 11
155.8548971067
 21
162.3038800544
  0
LINE
  5
630
100
AcDbEntity
  8
RACCORDO
100
AcDbLine
 62
253
  6
CONTINUOUS
 10
52.8151553996
 20
165.3795873514
 11
178.9260555379
 21
165.3795873514
  0
LINE
  5
631
100
AcDbEntity
  8
RACCORDO
100
AcDbLine
 62
253
  6
CONTINUOUS
 10
53.7634790549
 20
166.3279110066
 11
177.9777318826
 21
166.3279110066
  0
LINE
  5
632
100
AcDbEntity
  8
DRAFT
100
AcDbLine
 62
7
  6
CONTINUOUS
 10
145.8880592043
 20
162.2375508076
 11
145.8706054688
 21
162.2724609375
  0
LINE
  5
633
100
AcDbEntity
  8
ASSI
100
AcDbLine
 62
7
  6
CONTINUOUS
 10
160.6706054688
 20
120.7724609375
 11
160.6706054688
 21
125.7724609375
  0
LINE
  5
634
100
AcDbEntity
  8
RACCORDO
100
AcDbLine
 62
253
  6
CONTINUOUS
 10
160.0050442073
 20
80.8725707908
 11
160.0034634957
 21
80.6054554244
  0
LINE
  5
635
100
AcDbEntity
  8
RACCORDO
100
AcDbLine
 62
253
  6
CONTINUOUS
 10
160.0034634957
 20
80.6054554244
 11
160.001539912
 21
80.4261105484
  0
LINE
  5
636
100
AcDbEntity
  8
RACCORDO
100
AcDbLine
 62
253
  6
CONTINUOUS
 10
159.7139387042
 20
80.8071207811
 11
159.7124360943
 21
80.689471596
  0
LINE
  5
637
100
AcDbEntity
  8
RACCORDO
100
AcDbLine
 62
253
  6
CONTINUOUS
 10
160.001539912
 20
80.4261105484
 11
159.9997829876
 21
80.3183981845
  0
LINE
  5
638
100
AcDbEntity
  8
RACCORDO
100
AcDbLine
 62
253
  6
CONTINUOUS
 10
159.7124360943
 20
80.689471596
 11
159.711051124
 21
80.6141841743
  0
LINE
  5
639
100
AcDbEntity
  8
RACCORDO
100
AcDbLine
 62
7
  6
CONTINUOUS
 10
159.7154552225
 20
81.0458939351
 11
159.7137697375
 21
80.9615854116
  0
LWPOLYLINE
  5
63A
100
AcDbEntity
  8
RACCORDO
100
AcDbPolyline
 62
253
  6
CONTINUOUS
 90
4
 70
0
 10
159.9997829876
 20
80.3183981845
 10
159.9984959142
 20
80.2613286859
 10
159.9978219404
 20
80.237532128
 10
159.9971269661
 20
80.2170108684
  0
LINE
  5
63B
100
AcDbEntity
  8
RACCORDO
100
AcDbLine
 62
253
  6
CONTINUOUS
 10
159.711051124
 20
80.6141841743
 11
159.7100239164
 21
80.5712095892
  0
LWPOLYLINE
  5
63C
100
AcDbEntity
  8
RACCORDO
100
AcDbPolyline
 62
7
  6
CONTINUOUS
 90
10
 70
0
 10
159.7137697375
 20
80.9615854116
 10
159.7119344059
 20
80.8909795483
 10
159.7109602956
 20
80.860806623
 10
159.7099552736
 20
80.834280136
 10
159.7089151717
 20
80.8113492579
 10
159.7078441581
 20
80.792064818
 10
159.7067607827
 20
80.776783095
 10
159.7056712291
 20
80.7656228484
 10
159.7045693137
 20
80.7584653185
 10
159.7034550367
 20
80.7553105055
  0
LWPOLYLINE
  5
63D
100
AcDbEntity
  8
RACCORDO
100
AcDbPolyline
 62
253
  6
CONTINUOUS
 90
4
 70
0
 10
159.7100239164
 20
80.5712095892
 10
159.7089246257
 20
80.534468534
 10
159.7083546779
 20
80.5186518065
 10
159.7077701808
 20
80.5045038713
  0
LWPOLYLINE
  5
63E
100
AcDbEntity
  8
RACCORDO
100
AcDbPolyline
 62
7
  6
CONTINUOUS
 90
10
 70
0
 10
159.7154552205
 20
81.0458937732
 10
159.7158693361
 20
81.0587424671
 10
159.7166546958
 20
81.0717254387
 10
159.7178112996
 20
81.084833785
 10
159.7193416101
 20
81.0980691789
 10
159.7212431647
 20
81.1114128856
 10
159.7235085757
 20
81.1248241846
 10
159.7261353803
 20
81.138282507
 10
159.7291260413
 20
81.1517890179
 10
159.7324805587
 20
81.1653345235
  0
LINE
  5
63F
100
AcDbEntity
  8
RACCORDO
100
AcDbLine
 62
253
  6
CONTINUOUS
 10
159.7077701808
 20
80.5045038713
 11
159.6325940937
 21
79.0624609375
  0
LINE
  5
640
100
AcDbEntity
  8
RACCORDO
100
AcDbLine
 62
253
  6
CONTINUOUS
 10
159.9971269661
 20
80.2170108684
 11
159.921768133
 21
78.7724609375
  0
LINE
  5
641
100
AcDbEntity
  8
DRAFT
100
AcDbLine
 62
7
  6
CONTINUOUS
 10
154.9881365681
 20
98.7423532436
 11
155.018244262
 21
98.7724609375
  0
LWPOLYLINE
  5
642
100
AcDbEntity
  8
RACCORDO
100
AcDbPolyline
 62
7
  6
CONTINUOUS
 90
31
 70
0
 10
50.3702214373
 20
170.7724609452
 10
50.2657578193
 20
170.7697670934
 10
50.1618754121
 20
170.7616250435
 10
50.0585742158
 20
170.7480347954
 10
49.9554363937
 20
170.7289070816
 10
49.8528797824
 20
170.7043311695
 10
49.7521578918
 20
170.6745748618
 10
49.6534150206
 20
170.6395843074
 10
49.5565068699
 20
170.5994133571
 10
49.462254053
 20
170.5544913665
 10
49.370851641
 20
170.5049307928
 10
49.2821045625
 20
170.4506191785
 10
49.1962482172
 20
170.3916485073
 10
49.1130202032
 20
170.3277992806
 10
49.0326829221
 20
170.2592909968
 10
48.9562589786
 20
170.1868741338
 10
48.8838408944
 20
170.1104592445
 10
48.8153361476
 20
170.0301357759
 10
48.7514897775
 20
169.9469225469
 10
48.6925209203
 20
169.8610848146
 10
48.6382104394
 20
169.7723573218
 10
48.5886459651
 20
169.6809631162
 10
48.5437110777
 20
169.5866994496
 10
48.5035221966
 20
169.4897690701
 10
48.4685162107
 20
169.3910032699
 10
48.4387494679
 20
169.2902586775
 10
48.41416562
 20
169.1876786642
 10
48.3950325115
 20
169.0845246372
 10
48.3814394238
 20
168.9812170655
 10
48.3732970753
 20
168.87733548
 10
48.370605466
 20
168.7728798808
  0
LWPOLYLINE
  5
643
100
AcDbEntity
  8
RACCORDO
100
AcDbPolyline
 62
7
  6
CONTINUOUS
 90
9
 70
0
 10
51.0279776042
 20
168.8772021441
 10
50.9890951395
 20
168.8768002113
 10
50.950963955
 20
168.8761097219
 10
50.9136683355
 20
168.8751554196
 10
50.8771239962
 20
168.8739125607
 10
50.8410780828
 20
168.872306915
 10
50.8054463105
 20
168.870313739
 10
50.770312964
 20
168.8679577763
 10
50.7356780435
 20
168.8652390267
  0
LINE
  5
644
100
AcDbEntity
  8
RACCORDO
100
AcDbLine
 62
7
  6
CONTINUOUS
 10
52.3706054688
 20
167.7724609375
 11
179.3706054688
 21
167.7724609375
  0
LINE
  5
645
100
AcDbEntity
  8
RACCORDO
100
AcDbLine
 62
7
  6
CONTINUOUS
 10
51.1206054688
 20
168.0224609375
 11
180.6206054688
 21
168.0224609375
  0
LINE
  5
646
100
AcDbEntity
  8
RACCORDO
100
AcDbLine
 62
253
  6
CONTINUOUS
 10
50.3605549624
 20
168.0754046627
 11
49.8655802156
 21
168.0754046627
  0
LINE
  5
647
100
AcDbEntity
  8
RACCORDO
100
AcDbLine
 62
253
  6
CONTINUOUS
 10
181.3806559751
 20
168.0754046627
 11
181.8756307216
 21
168.0754046615
  0
LINE
  5
648
100
AcDbEntity
  8
RACCORDO
100
AcDbLine
 62
7
  6
CONTINUOUS
 10
51.0279776042
 20
168.8772021441
 11
180.6735491939
 21
168.8773153774
  0
LINE
  5
649
100
AcDbEntity
  8
RACCORDO
100
AcDbLine
 62
253
  6
CONTINUOUS
 10
51.0676617436
 20
169.2774861907
 11
180.6736974592
 21
169.2774861907
  0
LINE
  5
64A
100
AcDbEntity
  8
RACCORDO
100
AcDbLine
 62
253
  6
CONTINUOUS
 10
50.5019013152
 20
169.843246619
 11
181.2393026107
 21
169.8432396074
  0
LINE
  5
64B
100
AcDbEntity
  8
RACCORDO
100
AcDbLine
 62
253
  6
CONTINUOUS
 10
50.706819955
 20
170.135987533
 11
181.0343909825
 21
170.135987533
  0
LINE
  5
64C
100
AcDbEntity
  8
RACCORDO
100
AcDbLine
 62
7
  6
CONTINUOUS
 10
50.6703465505
 20
170.1724609375
 11
181.070864387
 21
170.1724609375
  0
LINE
  5
64D
100
AcDbEntity
  8
RACCORDO
100
AcDbLine
 62
7
  6
CONTINUOUS
 10
181.1211880163
 20
170.2224609375
 11
50.6200229212
 21
170.2224609375
  0
LWPOLYLINE
  5
64E
100
AcDbEntity
  8
RACCORDO
100
AcDbPolyline
 62
7
  6
CONTINUOUS
 90
3
 70
0
 10
50.3729051555
 20
170.4695787032
 10
57.6504070348
 20
170.4701681414
 10
152.2582625574
 20
170.4715203827
  0
LINE
  5
64F
100
AcDbEntity
  8
RACCORDO
100
AcDbLine
 62
7
  6
CONTINUOUS
 10
50.3702214373
 20
170.7724609452
 11
181.3709895002
 21
170.7724609452
  0
LINE
  5
650
100
AcDbEntity
  8
RACCORDO
100
AcDbLine
 62
7
  6
CONTINUOUS
 10
152.2582625574
 20
170.4715203827
 11
181.368305782
 21
170.4695787032
  0
LWPOLYLINE
  5
651
100
AcDbEntity
  8
RACCORDO
100
AcDbPolyline
 62
7
  6
CONTINUOUS
 90
10
 70
0
 10
180.6735491939
 20
168.8773153774
 10
180.7131874892
 20
168.877202903
 10
180.7520815115
 20
168.8768012149
 10
180.7902312608
 20
168.8761103131
 10
180.827561359
 20
168.8751543246
 10
180.8641471843
 20
168.8739091224
 10
180.9002148706
 20
168.8723023254
 10
180.9358397961
 20
168.8703098064
 10
180.9709465828
 20
168.8679556925
 10
181.0055352305
 20
168.8652399838
  0
LWPOLYLINE
  5
652
100
AcDbEntity
  8
RACCORDO
100
AcDbPolyline
 62
7
  6
CONTINUOUS
 90
28
 70
0
 10
181.368305782
 20
170.4695787032
 10
181.4665557448
 20
170.4667296678
 10
181.5647105829
 20
170.4581803043
 10
181.6624373196
 20
170.4439182286
 10
181.7595499313
 20
170.4239154401
 10
181.8555573023
 20
170.3982169047
 10
181.9496875616
 20
170.3670273543
 10
182.0414081958
 20
170.3305865865
 10
182.1306587755
 20
170.2889832745
 10
182.2173925797
 20
170.2422553076
 10
182.3013243402
 20
170.190545183
 10
182.3821563532
 20
170.1340247101
 10
182.4597926608
 20
170.0727247195
 10
182.5341372938
 20
170.006626649
 10
182.6046838261
 20
169.9360815884
 10
182.6707811229
 20
169.8617411781
 10
182.7320762872
 20
169.784115388
 10
182.788591148
 20
169.7032976707
 10
182.8403013911
 20
169.6193741409
 10
182.8870357242
 20
169.5326384441
 10
182.9286484171
 20
169.4433782858
 10
182.9651005803
 20
169.3516392682
 10
182.9963038934
 20
169.2574753811
 10
183.0220144992
 20
169.1614248004
 10
183.0420229797
 20
169.0642774642
 10
183.0562853008
 20
168.9665312276
 10
183.0648325259
 20
168.8683665916
 10
183.0676787355
 20
168.7701167518
  0
LWPOLYLINE
  5
653
100
AcDbEntity
  8
RACCORDO
100
AcDbPolyline
 62
253
  6
CONTINUOUS
 90
28
 70
0
 10
181.0343909825
 20
170.135987533
 10
181.1332029991
 20
170.1330828581
 10
181.2316807967
 20
170.1244388518
 10
181.3294912867
 20
170.1100847512
 10
181.4263036377
 20
170.0900691074
 10
181.5217903944
 20
170.0644596206
 10
181.615628585
 20
170.0333429117
 10
181.707500814
 20
169.996824229
 10
181.7970963352
 20
169.9550270922
 10
181.8841121034
 20
169.9080928749
 10
181.9682537989
 20
169.8561803259
 10
182.0492368232
 20
169.7994650329
 10
182.1267872617
 20
169.738138828
 10
182.2006428101
 20
169.6724091392
 10
182.2705536613
 20
169.6024982887
 10
182.336283351
 20
169.528642741
 10
182.3976095569
 20
169.4510923029
 10
182.454324851
 20
169.3701092788
 10
182.5062374011
 20
169.2859675834
 10
182.5531716196
 20
169.198951815
 10
182.5949687575
 20
169.1093562934
 10
182.6314874413
 20
169.017484064
 10
182.6626041513
 20
168.9236458728
 10
182.6882136392
 20
168.8281591153
 10
182.7082292837
 20
168.731346763
 10
182.7225833844
 20
168.633536271
 10
182.7312273903
 20
168.5350584709
 10
182.7341320643
 20
168.4362464512
  0
LWPOLYLINE
  5
654
100
AcDbEntity
  8
RACCORDO
100
AcDbPolyline
 62
7
  6
CONTINUOUS
 90
10
 70
0
 10
159.7324805587
 20
81.1653345235
 10
159.7458744459
 20
81.21178625
 10
159.7623032823
 20
81.258875569
 10
159.7812349436
 20
81.3066024803
 10
159.8020387353
 20
81.3550599843
 10
159.8243138942
 20
81.4041550807
 10
159.8480064817
 20
81.4536087691
 10
159.8728233089
 20
81.5034074986
 10
159.8983884827
 20
81.5535648203
 10
159.9246812906
 20
81.603842386
  0
LINE
  5
655
100
AcDbEntity
  8
RACCORDO
100
AcDbLine
 62
7
  6
CONTINUOUS
 10
159.6334824606
 20
80.6853379293
 11
159.6333282974
 21
80.6852731365
  0
LWPOLYLINE
  5
656
100
AcDbEntity
  8
RACCORDO
100
AcDbPolyline
 62
253
  6
CONTINUOUS
 90
22
 70
0
 10
177.9777318826
 20
166.3279110066
 10
178.0443965281
 20
166.3188767954
 10
178.1107346754
 20
166.3052423004
 10
178.1764214255
 20
166.2870742982
 10
178.2411350694
 20
166.2644617687
 10
178.3045586643
 20
166.2375154595
 10
178.3663815854
 20
166.2063673435
 10
178.4263010476
 20
166.1711699723
 10
178.4840235879
 20
166.1320957294
 10
178.5392665032
 20
166.0893359855
 10
178.5917592347
 20
166.0431001617
 10
178.6412446929
 20
165.9936147035
 10
178.6874805167
 20
165.941121972
 10
178.7302402606
 20
165.8858790566
 10
178.7693145036
 20
165.8281565163
 10
178.8045118748
 20
165.7682370542
 10
178.8356599908
 20
165.706414133
 10
178.8626062999
 20
165.6429905381
 10
178.8852188294
 20
165.5782768942
 10
178.9033868317
 20
165.5125901442
 10
178.9170213267
 20
165.4462519969
 10
178.9260555379
 20
165.3795873514
  0
LINE
  5
657
100
AcDbEntity
  8
DRAFT
100
AcDbLine
 62
7
  6
CONTINUOUS
 10
155.7706054688
 20
160.6927873271
 11
155.7409318584
 21
160.7224609375
  0
LINE
  5
658
100
AcDbEntity
  8
RACCORDO
100
AcDbLine
 62
253
  6
CONTINUOUS
 10
177.9777318826
 20
80.2170108684
 11
177.9777318826
 21
166.3279110066
  0
LINE
  5
659
100
AcDbEntity
  8
RACCORDO
100
AcDbLine
 62
7
  6
CONTINUOUS
 10
159.9246812906
 20
81.603842386
 11
160.0055876751
 21
81.7551582006
  0
LWPOLYLINE
  5
65A
100
AcDbEntity
  8
RACCORDO
100
AcDbPolyline
 62
7
  6
CONTINUOUS
 90
19
 70
0
 10
158.1499187643
 20
77.6208730324
 10
158.1513293077
 20
77.6231271705
 10
158.1546800791
 20
77.625787278
 10
158.1600160062
 20
77.6287713877
 10
158.1673727742
 20
77.6319614
 10
158.1767635338
 20
77.635298441
 10
158.1881677156
 20
77.6387853955
 10
158.2015574131
 20
77.6423329325
 10
158.2168889525
 20
77.645842186
 10
158.2340757974
 20
77.6493044602
 10
158.2530288882
 20
77.6526335581
 10
158.2736426346
 20
77.6557360091
 10
158.2957668991
 20
77.6586009565
 10
158.3192441535
 20
77.6611540449
 10
158.3439212397
 20
77.6633201496
 10
158.3696260479
 20
77.6650975354
 10
158.3961677319
 20
77.6664479083
 10
158.4233369419
 20
77.6672983477
 10
158.4509137607
 20
77.6676064976
  0
LINE
  5
65B
100
AcDbEntity
  8
RACCORDO
100
AcDbLine
 62
7
  6
CONTINUOUS
 10
159.7034550367
 20
80.7553105055
 11
159.6334824606
 21
80.6853379293
  0
LINE
  5
65C
100
AcDbEntity
  8
RACCORDO
100
AcDbLine
 62
253
  6
CONTINUOUS
 10
158.1300235226
 20
76.7088886505
 11
158.1206054688
 21
76.6994705967
  0
LWPOLYLINE
  5
65D
100
AcDbEntity
  8
RACCORDO
100
AcDbPolyline
 62
253
  6
CONTINUOUS
 90
25
 70
0
 10
51.0676617436
 20
169.2774861907
 10
50.9821463472
 20
169.2614404241
 10
50.8998485803
 20
169.2415231903
 10
50.8209024273
 20
169.217957722
 10
50.7455016194
 20
169.1908938603
 10
50.6736726289
 20
169.1606090705
 10
50.6052757809
 20
169.1275060789
 10
50.540530797
 20
169.0918860774
 10
50.4793480518
 20
169.0538336071
 10
50.4211237948
 20
169.0133743285
 10
50.365948641
 20
168.9707555883
 10
50.3138380792
 20
168.9259960856
 10
50.2641223695
 20
168.8786860174
 10
50.2168167114
 20
168.8289571238
 10
50.172064132
 20
168.7768356657
 10
50.1294697125
 20
168.7216702989
 10
50.0890642911
 20
168.6634946204
 10
50.0510785915
 20
168.602383532
 10
50.0155112188
 20
168.5377002998
 10
49.9824373628
 20
168.4693374856
 10
49.9521703412
 20
168.397530855
 10
49.9251196435
 20
168.3221576567
 10
49.9015641555
 20
168.2432500768
 10
49.8816513792
 20
168.1609959055
 10
49.8656042287
 20
168.0755289241
  0
LWPOLYLINE
  5
65E
100
AcDbEntity
  8
RACCORDO
100
AcDbPolyline
 62
253
  6
CONTINUOUS
 90
16
 70
0
 10
181.3806559751
 20
168.0754046627
 10
181.3789087741
 20
168.1307729773
 10
181.3746111817
 20
168.183619532
 10
181.3677631979
 20
168.2339443268
 10
181.3582030108
 20
168.2817439142
 10
181.3460924323
 20
168.3270217416
 10
181.3319168982
 20
168.3697881515
 10
181.3157409422
 20
168.4099422214
 10
181.2975000306
 20
168.4475848737
 10
181.2774859977
 20
168.4830292181
 10
181.255801472
 20
168.5162692279
 10
181.2323438251
 20
168.5473109297
 10
181.2070970063
 20
168.5764855137
 10
181.1800556656
 20
168.6039033765
 10
181.1512251531
 20
168.6294541215
 10
181.1206054688
 20
168.6531377487
  0
LWPOLYLINE
  5
65F
100
AcDbEntity
  8
RACCORDO
100
AcDbPolyline
 62
7
  6
CONTINUOUS
 90
31
 70
0
 10
183.3706054715
 20
168.7728798808
 10
183.3679117475
 20
168.8773391606
 10
183.359769919
 20
168.9812174498
 10
183.3461799858
 20
169.0845147482
 10
183.3270527116
 20
169.1876488708
 10
183.3024773328
 20
169.2902020027
 10
183.272721558
 20
169.3909206997
 10
183.2377315262
 20
169.4896606944
 10
183.1975610983
 20
169.5865662543
 10
183.1526395663
 20
169.6808167381
 10
183.1030793997
 20
169.7722170575
 10
183.0487681287
 20
169.8609623008
 10
182.9897976364
 20
169.9468170924
 10
182.9259484251
 20
170.0300438464
 10
182.8574399921
 20
170.1103801488
 10
182.7850227123
 20
170.1868033809
 10
182.7086071085
 20
170.2592210511
 10
182.6282826576
 20
170.3277256512
 10
182.5450681663
 20
170.3915720382
 10
182.4592288793
 20
170.4505410744
 10
182.3704995515
 20
170.5048518976
 10
182.2791032552
 20
170.5544167775
 10
182.1848372605
 20
170.599352121
 10
182.087904297
 20
170.6395415214
 10
181.9891356257
 20
170.6745480278
 10
181.8883878429
 20
170.7043153031
 10
181.7858043521
 20
170.7288996845
 10
181.6826466253
 20
170.7480332333
 10
181.579335153
 20
170.7616266365
 10
181.4754494447
 20
170.7697692071
 10
181.3709895002
 20
170.7724609452
  0
LINE
  5
660
100
AcDbEntity
  8
RACCORDO
100
AcDbLine
 62
253
  6
CONTINUOUS
 10
178.9260555379
 20
165.3795873514
 11
178.9260555379
 21
81.1653345236
  0
LINE
  5
661
100
AcDbEntity
  8
RACCORDO
100
AcDbLine
 62
7
  6
CONTINUOUS
 10
180.3706054688
 20
166.7724609375
 11
180.3706054688
 21
79.7724609375
  0
LINE
  5
662
100
AcDbEntity
  8
RACCORDO
100
AcDbLine
 62
7
  6
CONTINUOUS
 10
180.6206054688
 20
78.5224609375
 11
180.6206054688
 21
168.0224609375
  0
LINE
  5
663
100
AcDbEntity
  8
RACCORDO
100
AcDbLine
 62
253
  6
CONTINUOUS
 10
180.6735491968
 20
168.8773153774
 11
180.6735491939
 21
169.2774861907
  0
LINE
  5
664
100
AcDbEntity
  8
RACCORDO
100
AcDbLine
 62
253
  6
CONTINUOUS
 10
180.6735496689
 20
77.6676063683
 11
180.6735491928
 21
77.2674356846
  0
LINE
  5
665
100
AcDbEntity
  8
RACCORDO
100
AcDbLine
 62
253
  6
CONTINUOUS
 10
181.1206054688
 20
77.8917872679
 11
181.1206054688
 21
168.6531377487
  0
LINE
  5
666
100
AcDbEntity
  8
RACCORDO
100
AcDbLine
 62
253
  6
CONTINUOUS
 10
181.3806559751
 20
78.4695172123
 11
181.3806559751
 21
168.0754046627
  0
LINE
  5
667
100
AcDbEntity
  8
RACCORDO
100
AcDbLine
 62
253
  6
CONTINUOUS
 10
181.8756307219
 20
78.4693689471
 11
181.8756307219
 21
168.0754046627
  0
LINE
  5
668
100
AcDbEntity
  8
RACCORDO
100
AcDbLine
 62
253
  6
CONTINUOUS
 10
182.4413911503
 20
168.641165091
 11
182.4413841387
 21
77.9037637956
  0
LINE
  5
669
100
AcDbEntity
  8
RACCORDO
100
AcDbLine
 62
253
  6
CONTINUOUS
 10
182.7341320643
 20
168.4362464512
 11
182.7341320643
 21
78.1086754238
  0
LINE
  5
66A
100
AcDbEntity
  8
RACCORDO
100
AcDbLine
 62
7
  6
CONTINUOUS
 10
182.7706054688
 20
168.4727198557
 11
182.7706054688
 21
78.0722020193
  0
LINE
  5
66B
100
AcDbEntity
  8
RACCORDO
100
AcDbLine
 62
7
  6
CONTINUOUS
 10
182.8206054688
 20
78.02187839
 11
182.8206054687
 21
168.523043485
  0
LINE
  5
66C
100
AcDbEntity
  8
RACCORDO
100
AcDbLine
 62
7
  6
CONTINUOUS
 10
183.3706054715
 20
168.7728798808
 11
183.3706054715
 21
77.7720419942
  0
LINE
  5
66D
100
AcDbEntity
  8
RACCORDO
100
AcDbLine
 62
7
  6
CONTINUOUS
 10
183.0676787355
 20
168.7701167518
 11
183.0676787355
 21
77.7748051232
  0
LWPOLYLINE
  5
66E
100
AcDbEntity
  8
RACCORDO
100
AcDbPolyline
 62
7
  6
CONTINUOUS
 90
28
 70
0
 10
183.0676787355
 20
77.7748051232
 10
183.0648325259
 20
77.6765552834
 10
183.0562853008
 20
77.5783906474
 10
183.0420229797
 20
77.4806444108
 10
183.0220144992
 20
77.3834970746
 10
182.9963038934
 20
77.2874464939
 10
182.9651005803
 20
77.1932826068
 10
182.9286484171
 20
77.1015435892
 10
182.8870357242
 20
77.0122834309
 10
182.8403013911
 20
76.9255477341
 10
182.788591148
 20
76.8416242043
 10
182.7320762872
 20
76.760806487
 10
182.6707811229
 20
76.6831806969
 10
182.6046838261
 20
76.6088402866
 10
182.5341372938
 20
76.538295226
 10
182.4597926608
 20
76.4721971555
 10
182.3821563532
 20
76.4108971649
 10
182.3013243402
 20
76.354376692
 10
182.2173925797
 20
76.3026665674
 10
182.1306587755
 20
76.2559386005
 10
182.0414081958
 20
76.2143352885
 10
181.9496875616
 20
76.1778945207
 10
181.8555573023
 20
76.1467049703
 10
181.7595499313
 20
76.1210064349
 10
181.6624373196
 20
76.1010036464
 10
181.5647105829
 20
76.0867415707
 10
181.4665557448
 20
76.0781922072
 10
181.368305782
 20
76.0753431718
  0
LWPOLYLINE
  5
66F
100
AcDbEntity
  8
RACCORDO
100
AcDbPolyline
 62
253
  6
CONTINUOUS
 90
28
 70
0
 10
182.7341320643
 20
78.1086754238
 10
182.7312273894
 20
78.0098634072
 10
182.722583383
 20
77.9113856096
 10
182.7082292825
 20
77.8135751196
 10
182.6882136386
 20
77.7167627686
 10
182.6626041518
 20
77.6212760119
 10
182.631487443
 20
77.5274378212
 10
182.5949687602
 20
77.4355655923
 10
182.5531716235
 20
77.3459700711
 10
182.5062374061
 20
77.2589543029
 10
182.4543248572
 20
77.1748126074
 10
182.3976095642
 20
77.093829583
 10
182.3362833593
 20
77.0162791445
 10
182.2705536704
 20
76.9424235962
 10
182.20064282
 20
76.8725127449
 10
182.1267872722
 20
76.8067830553
 10
182.0492368341
 20
76.7454568493
 10
181.96825381
 20
76.6887415553
 10
181.8841121146
 20
76.6368290052
 10
181.7970963463
 20
76.5898947867
 10
181.7075008247
 20
76.5480976488
 10
181.6156285952
 20
76.511578965
 10
181.521790404
 20
76.4804622549
 10
181.4263036466
 20
76.454852767
 10
181.3294912942
 20
76.4348371225
 10
181.2316808022
 20
76.4204830219
 10
181.1332030021
 20
76.4118390159
 10
181.0343909825
 20
76.408934342
  0
LWPOLYLINE
  5
670
100
AcDbEntity
  8
RACCORDO
100
AcDbPolyline
 62
253
  6
CONTINUOUS
 90
22
 70
0
 10
178.9260555379
 20
81.1653345236
 10
178.9170213267
 20
81.0986698781
 10
178.9033868317
 20
81.0323317308
 10
178.8852188294
 20
80.9666449808
 10
178.8626062999
 20
80.9019313369
 10
178.8356599908
 20
80.838507742
 10
178.8045118748
 20
80.7766848208
 10
178.7693145036
 20
80.7167653587
 10
178.7302402606
 20
80.6590428184
 10
178.6874805167
 20
80.603799903
 10
178.6412446929
 20
80.5513071715
 10
178.5917592347
 20
80.5018217133
 10
178.5392665032
 20
80.4555858895
 10
178.4840235879
 20
80.4128261456
 10
178.4263010476
 20
80.3737519027
 10
178.3663815854
 20
80.3385545315
 10
178.3045586643
 20
80.3074064155
 10
178.2411350694
 20
80.2804601063
 10
178.1764214255
 20
80.2578475768
 10
178.1107346754
 20
80.2396795746
 10
178.0443965281
 20
80.2260450796
 10
177.9777318826
 20
80.2170108684
  0
LINE
  5
671
100
AcDbEntity
  8
RACCORDO
100
AcDbLine
 62
253
  6
CONTINUOUS
 10
158.4299778311
 20
76.408934342
 11
158.4154146477
 21
76.3943711585
  0
LINE
  5
672
100
AcDbEntity
  8
RACCORDO
100
AcDbLine
 62
253
  6
CONTINUOUS
 10
182.7321103
 20
78.1072671247
 11
182.7341320643
 21
78.1086754238
  0
LINE
  5
673
100
AcDbEntity
  8
RACCORDO
100
AcDbLine
 62
253
  6
CONTINUOUS
 10
182.6281079489
 20
78.0346070884
 11
182.6859348676
 21
78.0748524739
  0
LWPOLYLINE
  5
674
100
AcDbEntity
  8
RACCORDO
100
AcDbPolyline
 62
253
  6
CONTINUOUS
 90
19
 70
0
 10
181.2393096223
 20
169.843246619
 10
181.320018361
 20
169.8008583958
 10
181.4004539075
 20
169.7545460575
 10
181.4803440869
 20
169.7044663258
 10
181.5594185877
 20
169.65078865
 10
181.6374098258
 20
169.5936946907
 10
181.7140538532
 20
169.5333777142
 10
181.7890913283
 20
169.4700418392
 10
181.862268359
 20
169.4039013886
 10
181.9333373176
 20
169.335180234
 10
182.0020577371
 20
169.2641109323
 10
182.0681971136
 20
169.1909339689
 10
182.1315316671
 20
169.1158970025
 10
182.191847113
 20
169.0392539549
 10
182.2489393982
 20
168.9612641619
 10
182.3026153859
 20
168.8821915328
 10
182.3526934916
 20
168.8023036295
 10
182.3990042975
 20
168.7218707612
 10
182.4413911399
 20
168.6411650813
  0
LWPOLYLINE
  5
675
100
AcDbEntity
  8
RACCORDO
100
AcDbPolyline
 62
253
  6
CONTINUOUS
 90
6
 70
0
 10
182.7000712273
 20
168.4601932761
 10
182.7117178124
 20
168.4524282582
 10
182.7209261553
 20
168.4461803581
 10
182.7277213702
 20
168.441351938
 10
182.7321134494
 20
168.4380406357
 10
182.7341320643
 20
168.4362464512
  0
LWPOLYLINE
  5
676
100
AcDbEntity
  8
RACCORDO
100
AcDbPolyline
 62
253
  6
CONTINUOUS
 90
10
 70
0
 10
182.4413911503
 20
168.641165091
 10
182.4795056822
 20
168.6151415541
 10
182.5148025154
 20
168.5907595311
 10
182.5472813637
 20
168.568019022
 10
182.5768733347
 20
168.5467822281
 10
182.6037024102
 20
168.5271869482
 10
182.6280157039
 20
168.5096465784
 10
182.649874577
 20
168.4943805435
 10
182.6691827219
 20
168.4811694188
 10
182.7000712273
 20
168.4601932761
  0
LWPOLYLINE
  5
677
100
AcDbEntity
  8
RACCORDO
100
AcDbPolyline
 62
253
  6
CONTINUOUS
 90
25
 70
0
 10
181.8756307219
 20
168.0754046627
 10
181.8595849554
 20
168.1609200591
 10
181.8396677215
 20
168.2432178259
 10
181.8161022533
 20
168.322163979
 10
181.7890383915
 20
168.3975647869
 10
181.7587536018
 20
168.4693937774
 10
181.7256506101
 20
168.5377906253
 10
181.6900306087
 20
168.6025356093
 10
181.6519781384
 20
168.6637183544
 10
181.6115188598
 20
168.7219426115
 10
181.5689001196
 20
168.7771177652
 10
181.5241406168
 20
168.8292283271
 10
181.4768305487
 20
168.8789440367
 10
181.4271016551
 20
168.9262496949
 10
181.374980197
 20
168.9710022742
 10
181.3198148302
 20
169.0135966937
 10
181.2616391517
 20
169.0540021152
 10
181.2005280632
 20
169.0919878147
 10
181.135844831
 20
169.1275551875
 10
181.0674820168
 20
169.1606290435
 10
180.9956753862
 20
169.1908960651
 10
180.920302188
 20
169.2179467627
 10
180.841394608
 20
169.2415022507
 10
180.7591404367
 20
169.2614150271
 10
180.6736734554
 20
169.2774621776
  0
LWPOLYLINE
  5
678
100
AcDbEntity
  8
RACCORDO
100
AcDbPolyline
 62
7
  6
CONTINUOUS
 90
10
 70
0
 10
181.1206054688
 20
77.8917872679
 10
181.109538329
 20
77.8681714251
 10
181.0980137654
 20
77.8445652573
 10
181.0860390011
 20
77.8209687643
 10
181.0736162793
 20
77.7973786179
 10
181.0607627525
 20
77.7737981463
 10
181.0475104492
 20
77.750237335
 10
181.0338800895
 20
77.7266995125
 10
181.0198814055
 20
77.7031813503
 10
181.005532894
 20
77.6796828483
  0
LWPOLYLINE
  5
679
100
AcDbEntity
  8
RACCORDO
100
AcDbPolyline
 62
253
  6
CONTINUOUS
 90
19
 70
0
 10
182.4413911503
 20
77.903756784
 10
182.3990029271
 20
77.8230480453
 10
182.3526905887
 20
77.7426124987
 10
182.3026108571
 20
77.6627223193
 10
182.2489331813
 20
77.5836478185
 10
182.1918392219
 20
77.5056565805
 10
182.1315222455
 20
77.429012553
 10
182.0681863704
 20
77.3539750779
 10
182.0020459198
 20
77.2807980472
 10
181.9333247653
 20
77.2097290887
 10
181.8622554635
 20
77.1410086691
 10
181.7890785002
 20
77.0748692927
 10
181.7140415337
 20
77.0115347392
 10
181.6373984861
 20
76.9512192933
 10
181.5594086931
 20
76.894127008
 10
181.480336064
 20
76.8404510203
 10
181.4004481608
 20
76.7903729147
 10
181.3200152924
 20
76.7440621088
 10
181.2393096125
 20
76.7016752664
  0
LWPOLYLINE
  5
67A
100
AcDbEntity
  8
RACCORDO
100
AcDbPolyline
 62
253
  6
CONTINUOUS
 90
6
 70
0
 10
181.0583378074
 20
76.4429951789
 10
181.0505727895
 20
76.4313485939
 10
181.0443248894
 20
76.4221402509
 10
181.0394964692
 20
76.4153450361
 10
181.0361851669
 20
76.4109529568
 10
181.0343909825
 20
76.408934342
  0
LWPOLYLINE
  5
67B
100
AcDbEntity
  8
RACCORDO
100
AcDbPolyline
 62
253
  6
CONTINUOUS
 90
10
 70
0
 10
181.2393096223
 20
76.701675256
 10
181.2132860853
 20
76.6635607241
 10
181.1889040623
 20
76.6282638908
 10
181.1661635533
 20
76.5957850426
 10
181.1449267594
 20
76.5661930716
 10
181.1253314794
 20
76.5393639961
 10
181.1077911096
 20
76.5150507024
 10
181.0925250748
 20
76.4931918292
 10
181.0793139501
 20
76.4738836843
 10
181.0583378074
 20
76.4429951789
  0
LWPOLYLINE
  5
67C
100
AcDbEntity
  8
RACCORDO
100
AcDbPolyline
 62
253
  6
CONTINUOUS
 90
16
 70
0
 10
181.1206054688
 20
77.8917872679
 10
181.1512309026
 20
77.9154764285
 10
181.1800665753
 20
77.9410331838
 10
181.207112487
 20
77.9684575338
 10
181.2323649902
 20
77.9976435384
 10
181.2558277324
 20
78.0286971377
 10
181.2775116555
 20
78.061936152
 10
181.2975141014
 20
78.097355113
 10
181.3157377282
 20
78.1349594889
 10
181.3319014528
 20
78.1750835055
 10
181.3460748291
 20
78.2178345451
 10
181.3581883031
 20
78.2631052254
 10
181.3677521293
 20
78.3109076244
 10
181.3746030591
 20
78.3612457683
 10
181.378904341
 20
78.4141156309
 10
181.3806559751
 20
78.4695172123
  0
LINE
  5
67D
100
AcDbEntity
  8
RACCORDO
100
AcDbLine
 62
253
  6
CONTINUOUS
 10
182.6859348676
 20
78.0748524739
 11
182.7321103
 21
78.1072671247
  0
LINE
  5
67E
100
AcDbEntity
  8
RACCORDO
100
AcDbLine
 62
253
  6
CONTINUOUS
 10
182.4413841387
 20
77.9037522978
 11
182.6281079489
 21
78.0346070884
  0
LINE
  5
67F
100
AcDbEntity
  8
RACCORDO
100
AcDbLine
 62
253
  6
CONTINUOUS
 10
181.0682139323
 20
170.0877903363
 11
181.0357992815
 21
170.1339657688
  0
LWPOLYLINE
  5
680
100
AcDbEntity
  8
RACCORDO
100
AcDbPolyline
 62
253
  6
CONTINUOUS
 90
3
 70
0
 10
181.2393141085
 20
169.8432396074
 10
181.0932310787
 20
170.0518143317
 10
181.0682139323
 20
170.0877903363
  0
LINE
  5
681
100
AcDbEntity
  8
RACCORDO
100
AcDbLine
 62
253
  6
CONTINUOUS
 10
181.0357992815
 20
170.1339657688
 11
181.0343909825
 21
170.135987533
  0
LWPOLYLINE
  5
682
100
AcDbEntity
  8
RACCORDO
100
AcDbPolyline
 62
7
  6
CONTINUOUS
 90
10
 70
0
 10
181.0055352305
 20
168.8652399838
 10
181.0198830928
 20
168.8417407246
 10
181.0338811213
 20
168.8182220088
 10
181.0475108213
 20
168.7946838363
 10
181.0607623312
 20
168.7711228167
 10
181.0736150632
 20
168.7475423404
 10
181.0860373876
 20
168.7239525784
 10
181.0980122875
 20
168.7003569209
 10
181.109537389
 20
168.6767519777
 10
181.1206054688
 20
168.6531377487
  0
ARC
  5
683
100
AcDbEntity
  8
RACCORDO
100
AcDbCircle
 62
253
  6
CONTINUOUS
 10
85.8706054688
 20
120.7724609375
 40
4.7168510261
100
AcDbArc
 50
292.7410766593
 51
360.0
  0
ARC
  5
684
100
AcDbEntity
  8
RACCORDO
100
AcDbCircle
 62
253
  6
CONTINUOUS
 10
85.8706054688
 20
120.7724609375
 40
4.2171556285
100
AcDbArc
 50
292.7410766614
 51
360.0
  0
ARC
  5
685
100
AcDbEntity
  8
ASSI
100
AcDbCircle
 62
7
  6
CONTINUOUS
 10
85.8706054688
 20
120.7724609375
 40
3.0
100
AcDbArc
 50
180.0
 51
360.0
  0
ARC
  5
686
100
AcDbEntity
  8
ASSI
100
AcDbCircle
 62
7
  6
CONTINUOUS
 10
74.0706054688
 20
120.7724609375
 40
3.0
100
AcDbArc
 50
180.0
 51
360.0
  0
CIRCLE
  5
687
100
AcDbEntity
  8
ASSI
100
AcDbCircle
 62
7
  6
CONTINUOUS
 10
60.8706054688
 20
88.2724609375
 40
3.0
  0
ARC
  5
688
100
AcDbEntity
  8
DRAFT
100
AcDbCircle
 62
7
  6
CONTINUOUS
 10
85.8706054688
 20
120.7724609375
 40
1.8087275325
100
AcDbArc
 50
180.0
 51
360.0
  0
ARC
  5
689
100
AcDbEntity
  8
DRAFT
100
AcDbCircle
 62
7
  6
CONTINUOUS
 10
74.0706054688
 20
120.7724609375
 40
1.8087275325
100
AcDbArc
 50
180.0
 51
360.0
  0
CIRCLE
  5
68A
100
AcDbEntity
  8
ASSI
100
AcDbCircle
 62
7
  6
CONTINUOUS
 10
60.8706054688
 20
88.2724609375
 40
1.8
  0
ARC
  5
68B
100
AcDbEntity
  8
DRAFT
100
AcDbCircle
 62
7
  6
CONTINUOUS
 10
74.0706054688
 20
120.7724609375
 40
1.7685808831
100
AcDbArc
 50
180.0
 51
360.0
  0
ARC
  5
68C
100
AcDbEntity
  8
DRAFT
100
AcDbCircle
 62
7
  6
CONTINUOUS
 10
85.8706054688
 20
120.7724609375
 40
1.7685808831
100
AcDbArc
 50
180.0
 51
360.0
  0
ARC
  5
68D
100
AcDbEntity
  8
RACCORDO
100
AcDbCircle
 62
7
  6
CONTINUOUS
 10
52.3706054687
 20
79.7724609375
 40
1.0
100
AcDbArc
 50
180.0
 51
270.0
  0
ARC
  5
68E
100
AcDbEntity
  8
RACCORDO
100
AcDbCircle
 62
253
  6
CONTINUOUS
 10
94.4206054688
 20
117.6224609375
 40
0.8
100
AcDbArc
 50
90.0
 51
180.0
  0
ARC
  5
68F
100
AcDbEntity
  8
RACCORDO
100
AcDbCircle
 62
7
  6
CONTINUOUS
 10
93.5206054688
 20
118.5224609375
 40
0.5
100
AcDbArc
 50
90.0
 51
180.0
  0
ARC
  5
690
100
AcDbEntity
  8
RACCORDO
100
AcDbCircle
 62
7
  6
CONTINUOUS
 10
93.3706054688
 20
118.6852943856
 40
0.5
100
AcDbArc
 50
90.0
 51
180.0
  0
ARC
  5
691
100
AcDbEntity
  8
RACCORDO
100
AcDbCircle
 62
7
  6
CONTINUOUS
 10
94.4206054688
 20
117.6224609375
 40
0.4
100
AcDbArc
 50
90.0
 51
180.0
  0
ARC
  5
692
100
AcDbEntity
  8
RACCORDO
100
AcDbCircle
 62
253
  6
CONTINUOUS
 10
93.5206054688
 20
118.5224609375
 40
0.0999972078
100
AcDbArc
 50
90.0
 51
180.0
  0
ARC
  5
693
100
AcDbEntity
  8
ASSI
100
AcDbCircle
 62
7
  6
CONTINUOUS
 10
85.8706054688
 20
125.7724609375
 40
3.0
100
AcDbArc
 50
0.0
 51
180.0
  0
ARC
  5
694
100
AcDbEntity
  8
ASSI
100
AcDbCircle
 62
7
  6
CONTINUOUS
 10
74.0706054688
 20
125.7724609375
 40
3.0
100
AcDbArc
 50
0.0
 51
180.0
  0
CIRCLE
  5
695
100
AcDbEntity
  8
ASSI
100
AcDbCircle
 62
7
  6
CONTINUOUS
 10
60.8706054688
 20
158.2724609375
 40
3.0
  0
ARC
  5
696
100
AcDbEntity
  8
DRAFT
100
AcDbCircle
 62
7
  6
CONTINUOUS
 10
85.8706054688
 20
125.7724609375
 40
1.8087275325
100
AcDbArc
 50
0.0
 51
180.0
  0
ARC
  5
697
100
AcDbEntity
  8
DRAFT
100
AcDbCircle
 62
7
  6
CONTINUOUS
 10
74.0706054688
 20
125.7724609375
 40
1.8087275325
100
AcDbArc
 50
0.0
 51
180.0
  0
CIRCLE
  5
698
100
AcDbEntity
  8
ASSI
100
AcDbCircle
 62
7
  6
CONTINUOUS
 10
60.8706054688
 20
158.2724609375
 40
1.8
  0
ARC
  5
699
100
AcDbEntity
  8
DRAFT
100
AcDbCircle
 62
7
  6
CONTINUOUS
 10
74.0706054688
 20
125.7724609375
 40
1.7685808831
100
AcDbArc
 50
0.0
 51
180.0
  0
ARC
  5
69A
100
AcDbEntity
  8
DRAFT
100
AcDbCircle
 62
7
  6
CONTINUOUS
 10
85.8706054688
 20
125.7724609375
 40
1.7685808831
100
AcDbArc
 50
0.0
 51
180.0
  0
ARC
  5
69B
100
AcDbEntity
  8
RACCORDO
100
AcDbCircle
 62
7
  6
CONTINUOUS
 10
52.3706054688
 20
166.7724609375
 40
1.0
100
AcDbArc
 50
90.0
 51
180.0
  0
ARC
  5
69C
100
AcDbEntity
  8
RACCORDO
100
AcDbCircle
 62
253
  6
CONTINUOUS
 10
145.8706054688
 20
120.7724609375
 40
4.7168510261
100
AcDbArc
 50
180.0
 51
247.2589233407
  0
ARC
  5
69D
100
AcDbEntity
  8
RACCORDO
100
AcDbCircle
 62
253
  6
CONTINUOUS
 10
145.8706054688
 20
120.7724609375
 40
4.2171556217
100
AcDbArc
 50
180.0
 51
247.2589233386
  0
ARC
  5
69E
100
AcDbEntity
  8
ASSI
100
AcDbCircle
 62
7
  6
CONTINUOUS
 10
157.6706054688
 20
120.7724609375
 40
3.0
100
AcDbArc
 50
180.0
 51
360.0
  0
ARC
  5
69F
100
AcDbEntity
  8
ASSI
100
AcDbCircle
 62
7
  6
CONTINUOUS
 10
145.8706054688
 20
120.7724609375
 40
3.0
100
AcDbArc
 50
180.0
 51
360.0
  0
CIRCLE
  5
6A0
100
AcDbEntity
  8
ASSI
100
AcDbCircle
 62
7
  6
CONTINUOUS
 10
170.8706054688
 20
88.2724609375
 40
3.0
  0
ARC
  5
6A1
100
AcDbEntity
  8
DRAFT
100
AcDbCircle
 62
7
  6
CONTINUOUS
 10
157.6706054688
 20
120.7724609375
 40
1.8087275325
100
AcDbArc
 50
180.0
 51
360.0
  0
ARC
  5
6A2
100
AcDbEntity
  8
DRAFT
100
AcDbCircle
 62
7
  6
CONTINUOUS
 10
145.8706054688
 20
120.7724609375
 40
1.8087275325
100
AcDbArc
 50
180.0
 51
360.0
  0
CIRCLE
  5
6A3
100
AcDbEntity
  8
ASSI
100
AcDbCircle
 62
7
  6
CONTINUOUS
 10
170.8706054688
 20
88.2724609375
 40
1.8
  0
ARC
  5
6A4
100
AcDbEntity
  8
DRAFT
100
AcDbCircle
 62
7
  6
CONTINUOUS
 10
145.8706054688
 20
120.7724609375
 40
1.7685808831
100
AcDbArc
 50
180.0
 51
360.0
  0
ARC
  5
6A5
100
AcDbEntity
  8
DRAFT
100
AcDbCircle
 62
7
  6
CONTINUOUS
 10
157.6706054688
 20
120.7724609375
 40
1.7685808831
100
AcDbArc
 50
180.0
 51
360.0
  0
ARC
  5
6A6
100
AcDbEntity
  8
RACCORDO
100
AcDbCircle
 62
7
  6
CONTINUOUS
 10
179.3706054687
 20
79.7724609375
 40
1.0
100
AcDbArc
 50
270.0
 51
360.0
  0
ARC
  5
6A7
100
AcDbEntity
  8
RACCORDO
100
AcDbCircle
 62
253
  6
CONTINUOUS
 10
139.3206054688
 20
117.6224609375
 40
0.8
100
AcDbArc
 50
0.0
 51
90.0
  0
ARC
  5
6A8
100
AcDbEntity
  8
RACCORDO
100
AcDbCircle
 62
7
  6
CONTINUOUS
 10
140.2206054688
 20
118.5224609375
 40
0.5
100
AcDbArc
 50
0.0
 51
90.0
  0
ARC
  5
6A9
100
AcDbEntity
  8
RACCORDO
100
AcDbCircle
 62
7
  6
CONTINUOUS
 10
140.3706054688
 20
118.6852943856
 40
0.5
100
AcDbArc
 50
0.0
 51
90.0
  0
ARC
  5
6AA
100
AcDbEntity
  8
RACCORDO
100
AcDbCircle
 62
7
  6
CONTINUOUS
 10
139.3206054688
 20
117.6224609375
 40
0.4
100
AcDbArc
 50
0.0
 51
90.0
  0
ARC
  5
6AB
100
AcDbEntity
  8
RACCORDO
100
AcDbCircle
 62
253
  6
CONTINUOUS
 10
140.2206054688
 20
118.5224609375
 40
0.0999972078
100
AcDbArc
 50
0.0
 51
90.0
  0
ARC
  5
6AC
100
AcDbEntity
  8
ASSI
100
AcDbCircle
 62
7
  6
CONTINUOUS
 10
157.6706054688
 20
125.7724609375
 40
3.0
100
AcDbArc
 50
0.0
 51
180.0
  0
ARC
  5
6AD
100
AcDbEntity
  8
ASSI
100
AcDbCircle
 62
7
  6
CONTINUOUS
 10
145.8706054688
 20
125.7724609375
 40
3.0
100
AcDbArc
 50
0.0
 51
180.0
  0
CIRCLE
  5
6AE
100
AcDbEntity
  8
ASSI
100
AcDbCircle
 62
7
  6
CONTINUOUS
 10
170.8706054688
 20
158.2724609375
 40
3.0
  0
ARC
  5
6AF
100
AcDbEntity
  8
DRAFT
100
AcDbCircle
 62
7
  6
CONTINUOUS
 10
157.6706054688
 20
125.7724609375
 40
1.8087275325
100
AcDbArc
 50
0.0
 51
180.0
  0
ARC
  5
6B0
100
AcDbEntity
  8
DRAFT
100
AcDbCircle
 62
7
  6
CONTINUOUS
 10
145.8706054688
 20
125.7724609375
 40
1.8087275325
100
AcDbArc
 50
0.0
 51
180.0
  0
CIRCLE
  5
6B1
100
AcDbEntity
  8
ASSI
100
AcDbCircle
 62
7
  6
CONTINUOUS
 10
170.8706054688
 20
158.2724609375
 40
1.8
  0
ARC
  5
6B2
100
AcDbEntity
  8
DRAFT
100
AcDbCircle
 62
7
  6
CONTINUOUS
 10
145.8706054688
 20
125.7724609375
 40
1.7685808831
100
AcDbArc
 50
0.0
 51
180.0
  0
ARC
  5
6B3
100
AcDbEntity
  8
DRAFT
100
AcDbCircle
 62
7
  6
CONTINUOUS
 10
157.6706054688
 20
125.7724609375
 40
1.7685808831
100
AcDbArc
 50
0.0
 51
180.0
  0
ARC
  5
6B4
100
AcDbEntity
  8
RACCORDO
100
AcDbCircle
 62
7
  6
CONTINUOUS
 10
179.3706054687
 20
166.7724609375
 40
1.0
100
AcDbArc
 50
0.0
 51
90.0
  0
ELLIPSE
  5
6B5
100
AcDbEntity
  8
RACCORDO
100
AcDbEllipse
 62
7
  6
CONTINUOUS
 10
140.1206054688
 20
111.6709724175
 30
0.0
 11
0.4
 21
0.0
 31
0.0
 40
0.0087268678
 41
1.5707963268
 42
3.1415926536
  0
ELLIPSE
  5
6B6
100
AcDbEntity
  8
RACCORDO
100
AcDbEllipse
 62
7
  6
CONTINUOUS
 10
93.4206054688
 20
111.6709724175
 30
0.0
 11
0.4
 21
0.0
 31
0.0
 40
0.0087268678
 41
1.5707963268
 42
3.1415926536
  0
ELLIPSE
  5
6B7
100
AcDbEntity
  8
RACCORDO
100
AcDbEllipse
 62
7
  6
CONTINUOUS
 10
140.3206054688
 20
111.6709724175
 30
0.0
 11
0.4
 21
0.0
 31
0.0
 40
0.0087268678
 41
-0.0
 42
1.5707963268
  0
ELLIPSE
  5
6B8
100
AcDbEntity
  8
RACCORDO
100
AcDbEllipse
 62
7
  6
CONTINUOUS
 10
93.6206054688
 20
111.6709724175
 30
0.0
 11
0.4
 21
0.0
 31
0.0
 40
0.0087268678
 41
-0.0
 42
1.5707963268
  0
ELLIPSE
  5
6B9
100
AcDbEntity
  8
RACCORDO
100
AcDbEllipse
 62
7
  6
CONTINUOUS
 10
50.621188216
 20
78.0230436847
 30
0.0
 11
-1.2029055159
 21
-1.2029055159
 31
0.0
 40
0.999315002
 41
-0.7850555471
 42
0.7850555471
  0
ELLIPSE
  5
6BA
100
AcDbEntity
  8
RACCORDO
100
AcDbEllipse
 62
7
  6
CONTINUOUS
 10
50.621188216
 20
168.5218781903
 30
0.0
 11
-1.2029055159
 21
1.2029055159
 31
0.0
 40
0.999315002
 41
-0.7850555471
 42
0.7850555471
  0
ELLIPSE
  5
6BB
100
AcDbEntity
  8
RACCORDO
100
AcDbEllipse
 62
7
  6
CONTINUOUS
 10
181.1200227215
 20
168.5218781903
 30
0.0
 11
-1.2029055159
 21
-1.2029055159
 31
0.0
 40
0.999315002
 41
2.3565371065
 42
3.9266482006
  0
ELLIPSE
  5
6BC
100
AcDbEntity
  8
RACCORDO
100
AcDbEllipse
 62
7
  6
CONTINUOUS
 10
181.1200227215
 20
78.0230436847
 30
0.0
 11
1.2029055159
 21
-1.2029055159
 31
0.0
 40
0.999315002
 41
-0.7850555471
 42
0.7850555471
  0
ELLIPSE
  5
6BD
100
AcDbEntity
  8
RACCORDO
100
AcDbEllipse
 62
7
  6
CONTINUOUS
 10
76.0037700921
 20
161.5224609375
 30
0.0
 11
0.0
 21
0.2
 31
0.0
 40
0.0174550649
 41
6.2831853072
 42
7.853981634
  0
ELLIPSE
  5
6BE
100
AcDbEntity
  8
RACCORDO
100
AcDbEllipse
 62
7
  6
CONTINUOUS
 10
146.0037700921
 20
161.5224609375
 30
0.0
 11
0.0
 21
0.2
 31
0.0
 40
0.0174550649
 41
6.2831853072
 42
7.853981634
  0
ELLIPSE
  5
6BF
100
AcDbEntity
  8
RACCORDO
100
AcDbEllipse
 62
7
  6
CONTINUOUS
 10
146.0037700921
 20
85.0224609375
 30
0.0
 11
0.0
 21
0.2
 31
0.0
 40
0.0174550649
 41
-4.7123889804
 42
-3.1415926536
  0
ELLIPSE
  5
6C0
100
AcDbEntity
  8
RACCORDO
100
AcDbEllipse
 62
7
  6
CONTINUOUS
 10
181.0703465111
 20
78.0727198952
 30
0.0
 11
1.2024477216
 21
-1.2024477216
 31
0.0
 40
0.9996954599
 41
-0.7852458701
 42
0.7852458701
  0
ELLIPSE
  5
6C1
100
AcDbEntity
  8
RACCORDO
100
AcDbEllipse
 62
7
  6
CONTINUOUS
 10
181.0703465111
 20
168.4722019798
 30
0.0
 11
1.2024477216
 21
1.2024477216
 31
0.0
 40
0.9996954599
 41
-0.7852458701
 42
0.7852458701
  0
ELLIPSE
  5
6C2
100
AcDbEntity
  8
RACCORDO
100
AcDbEllipse
 62
7
  6
CONTINUOUS
 10
50.6708644264
 20
168.4722019798
 30
0.0
 11
1.2024477216
 21
-1.2024477216
 31
0.0
 40
0.9996954599
 41
2.3563467834
 42
3.9268385237
  0
ELLIPSE
  5
6C3
100
AcDbEntity
  8
RACCORDO
100
AcDbEllipse
 62
7
  6
CONTINUOUS
 10
50.6708644264
 20
78.0727198952
 30
0.0
 11
1.2024477216
 21
1.2024477216
 31
0.0
 40
0.9996954599
 41
-3.9268385237
 42
-2.3563467834
  0
ELLIPSE
  5
6C4
100
AcDbEntity
  8
RACCORDO
100
AcDbEllipse
 62
7
  6
CONTINUOUS
 10
155.7374408454
 20
161.5224609375
 30
0.0
 11
-0.0
 21
0.2
 31
0.0
 40
0.0174550649
 41
-1.5707963268
 42
0.0
  0
ELLIPSE
  5
6C5
100
AcDbEntity
  8
RACCORDO
100
AcDbEllipse
 62
7
  6
CONTINUOUS
 10
76.0037700921
 20
85.0224609375
 30
0.0
 11
0.0
 21
0.2
 31
0.0
 40
0.0174550649
 41
-4.7123889804
 42
-3.1415926536
  0
ELLIPSE
  5
6C6
100
AcDbEntity
  8
RACCORDO
100
AcDbEllipse
 62
7
  6
CONTINUOUS
 10
85.7374408454
 20
161.5224609375
 30
0.0
 11
-0.0
 21
0.2
 31
0.0
 40
0.0174550649
 41
-1.5707963268
 42
-0.0
  0
ELLIPSE
  5
6C7
100
AcDbEntity
  8
RACCORDO
100
AcDbEllipse
 62
7
  6
CONTINUOUS
 10
50.6206054688
 20
78.5224609375
 30
0.0
 11
0.0
 21
0.8660254038
 31
0.0
 40
0.5773502692
 41
-2.909370622
 42
-1.5707963268
  0
ELLIPSE
  5
6C8
100
AcDbEntity
  8
RACCORDO
100
AcDbEllipse
 62
7
  6
CONTINUOUS
 10
181.1206054688
 20
168.0224609375
 30
0.0
 11
-0.0
 21
0.8660254038
 31
0.0
 40
0.5773502692
 41
0.2322220316
 42
1.5707963268
  0
ELLIPSE
  5
6C9
100
AcDbEntity
  8
RACCORDO
100
AcDbEllipse
 62
7
  6
CONTINUOUS
 10
147.7353110714
 20
122.4310489255
 30
0.0
 11
0.0
 21
1.3856406461
 31
0.0
 40
0.5773502692
 41
0.1205112491
 42
1.5533430343
  0
ELLIPSE
  5
6CA
100
AcDbEntity
  8
RACCORDO
100
AcDbEllipse
 62
7
  6
CONTINUOUS
 10
84.0058998661
 20
122.4310489255
 30
0.0
 11
-0.0
 21
1.3856406461
 31
0.0
 40
0.5773502692
 41
-1.5533430343
 42
-0.1205112491
  0
ELLIPSE
  5
6CB
100
AcDbEntity
  8
RACCORDO
100
AcDbEllipse
 62
7
  6
CONTINUOUS
 10
50.6206054688
 20
168.0224609375
 30
0.0
 11
-0.0
 21
0.8660254038
 31
0.0
 40
0.5773502692
 41
-1.5707963268
 42
-0.2322268335
  0
ELLIPSE
  5
6CC
100
AcDbEntity
  8
RACCORDO
100
AcDbEllipse
 62
7
  6
CONTINUOUS
 10
181.1206054688
 20
78.5224609375
 30
0.0
 11
-0.0
 21
0.8660254038
 31
0.0
 40
0.5773502692
 41
1.5707963268
 42
2.9093658201
  0
ELLIPSE
  5
6CD
100
AcDbEntity
  8
RACCORDO
100
AcDbEllipse
 62
7
  6
CONTINUOUS
 10
158.4206511672
 20
76.6995619866
 30
0.0
 11
0.2121966568
 21
0.2121966568
 31
0.0
 40
0.9996954599
 41
-3.9268385237
 42
-3.9096898177
  0
ELLIPSE
  5
6CE
100
AcDbEntity
  8
RACCORDO
100
AcDbEllipse
 62
7
  6
CONTINUOUS
 10
152.8205597703
 20
76.6995619866
 30
0.0
 11
0.2121966568
 21
-0.2121966568
 31
0.0
 40
0.9996954599
 41
0.7680971641
 42
0.7852458701
  0
ELLIPSE
  5
6CF
100
AcDbEntity
  8
RACCORDO
100
AcDbEllipse
 62
7
  6
CONTINUOUS
 10
73.3205597703
 20
76.6995619866
 30
0.0
 11
0.2121966568
 21
-0.2121966568
 31
0.0
 40
0.9996954599
 41
0.7680971641
 42
0.7852458701
  0
ELLIPSE
  5
6D0
100
AcDbEntity
  8
RACCORDO
100
AcDbEllipse
 62
7
  6
CONTINUOUS
 10
78.9206511672
 20
76.6995619866
 30
0.0
 11
0.2121966568
 21
0.2121966568
 31
0.0
 40
0.9996954599
 41
2.3563467834
 42
2.3734954895
  0
ELLIPSE
  5
6D1
100
AcDbEntity
  8
RACCORDO
100
AcDbEllipse
 62
7
  6
CONTINUOUS
 10
78.9468337646
 20
77.9224609375
 30
0.0
 11
-0.0060465351
 21
0.5999923837
 31
0.0
 40
0.4999809586
 41
-0.0050386087
 42
1.5506429153
  0
ELLIPSE
  5
6D2
100
AcDbEntity
  8
RACCORDO
100
AcDbEllipse
 62
7
  6
CONTINUOUS
 10
73.2943771729
 20
77.9224609375
 30
0.0
 11
0.0060465351
 21
0.5999923837
 31
0.0
 40
0.4999809586
 41
-1.5506429153
 42
0.0050386087
  0
ELLIPSE
  5
6D3
100
AcDbEntity
  8
RACCORDO
100
AcDbEllipse
 62
7
  6
CONTINUOUS
 10
152.7943771729
 20
77.9224609375
 30
0.0
 11
0.0060465351
 21
0.5999923837
 31
0.0
 40
0.4999809586
 41
-1.5506429153
 42
0.0050386087
  0
ELLIPSE
  5
6D4
100
AcDbEntity
  8
RACCORDO
100
AcDbEllipse
 62
7
  6
CONTINUOUS
 10
158.4468337646
 20
77.9224609375
 30
0.0
 11
-0.0060465351
 21
0.5999923837
 31
0.0
 40
0.4999809586
 41
-0.0050386087
 42
1.5506429153
  0
ELLIPSE
  5
6D5
100
AcDbEntity
  8
RACCORDO
100
AcDbEllipse
 62
7
  6
CONTINUOUS
 10
146.010478328
 20
85.2224609375
 30
0.0
 11
0.0
 21
0.4
 31
0.0
 40
0.0174550649
 41
-3.1415926536
 42
-2.3561944902
  0
ELLIPSE
  5
6D6
100
AcDbEntity
  8
RACCORDO
100
AcDbEllipse
 62
7
  6
CONTINUOUS
 10
146.0203524038
 20
85.7881463624
 30
0.0
 11
0.0
 21
0.4
 31
0.0
 40
0.0174550649
 41
-2.3561944902
 42
-1.5707963268
  0
ELLIPSE
  5
6D7
100
AcDbEntity
  8
RACCORDO
100
AcDbEllipse
 62
7
  6
CONTINUOUS
 10
146.0203524038
 20
86.2423779222
 30
0.0
 11
-0.0
 21
0.4
 31
0.0
 40
0.0174550649
 41
-1.5707963268
 42
-0.5998670093
  0
ELLIPSE
  5
6D8
100
AcDbEntity
  8
RACCORDO
100
AcDbEllipse
 62
7
  6
CONTINUOUS
 10
155.7208585337
 20
86.2423779222
 30
0.0
 11
0.0
 21
0.4
 31
0.0
 40
0.0174550649
 41
0.5998670093
 42
1.5707963268
  0
ELLIPSE
  5
6D9
100
AcDbEntity
  8
RACCORDO
100
AcDbEllipse
 62
7
  6
CONTINUOUS
 10
155.7208585337
 20
85.7881463624
 30
0.0
 11
-0.0
 21
0.4
 31
0.0
 40
0.0174550649
 41
-4.7123889804
 42
-3.926990817
  0
ELLIPSE
  5
6DA
100
AcDbEntity
  8
RACCORDO
100
AcDbEllipse
 62
7
  6
CONTINUOUS
 10
155.7307326095
 20
85.2224609375
 30
0.0
 11
-0.0
 21
0.4
 31
0.0
 40
0.0174550649
 41
-3.926990817
 42
-3.1415926536
  0
ELLIPSE
  5
6DB
100
AcDbEntity
  8
RACCORDO
100
AcDbEllipse
 62
7
  6
CONTINUOUS
 10
155.7307326095
 20
161.3224609375
 30
0.0
 11
0.0
 21
0.4
 31
0.0
 40
0.0174550649
 41
-0.0
 42
0.7853981634
  0
ELLIPSE
  5
6DC
100
AcDbEntity
  8
RACCORDO
100
AcDbEllipse
 62
7
  6
CONTINUOUS
 10
155.7208585337
 20
160.7567755126
 30
0.0
 11
0.0
 21
0.4
 31
0.0
 40
0.0174550649
 41
0.7853981634
 42
1.5707963268
  0
ELLIPSE
  5
6DD
100
AcDbEntity
  8
RACCORDO
100
AcDbEllipse
 62
7
  6
CONTINUOUS
 10
155.7208585337
 20
160.3025439528
 30
0.0
 11
0.0
 21
0.4
 31
0.0
 40
0.0174550649
 41
-4.7123889804
 42
-4.6370828857
  0
ELLIPSE
  5
6DE
100
AcDbEntity
  8
RACCORDO
100
AcDbEllipse
 62
7
  6
CONTINUOUS
 10
146.0203524038
 20
160.3025439528
 30
0.0
 11
0.0
 21
0.4
 31
0.0
 40
0.0174550649
 41
-1.6461024215
 42
-1.5707963268
  0
ELLIPSE
  5
6DF
100
AcDbEntity
  8
RACCORDO
100
AcDbEllipse
 62
7
  6
CONTINUOUS
 10
146.0203524038
 20
160.7567755126
 30
0.0
 11
0.0
 21
0.4
 31
0.0
 40
0.0174550649
 41
-1.5707963268
 42
-0.7853981634
  0
ELLIPSE
  5
6E0
100
AcDbEntity
  8
RACCORDO
100
AcDbEllipse
 62
7
  6
CONTINUOUS
 10
146.010478328
 20
161.3224609375
 30
0.0
 11
-0.0
 21
0.4
 31
0.0
 40
0.0174550649
 41
-0.7853981634
 42
-0.0
  0
ELLIPSE
  5
6E1
100
AcDbEntity
  8
RACCORDO
100
AcDbEllipse
 62
7
  6
CONTINUOUS
 10
76.010478328
 20
85.2224609375
 30
0.0
 11
0.0
 21
0.4
 31
0.0
 40
0.0174550649
 41
-3.1415926536
 42
-2.3561944902
  0
ELLIPSE
  5
6E2
100
AcDbEntity
  8
RACCORDO
100
AcDbEllipse
 62
7
  6
CONTINUOUS
 10
76.0203524038
 20
85.7881463624
 30
0.0
 11
0.0
 21
0.4
 31
0.0
 40
0.0174550649
 41
-2.3561944902
 42
-1.5707963268
  0
ELLIPSE
  5
6E3
100
AcDbEntity
  8
RACCORDO
100
AcDbEllipse
 62
7
  6
CONTINUOUS
 10
76.0203524038
 20
86.2423779222
 30
0.0
 11
0.0
 21
0.4
 31
0.0
 40
0.0174550649
 41
-1.5707963268
 42
-0.5998670093
  0
ELLIPSE
  5
6E4
100
AcDbEntity
  8
RACCORDO
100
AcDbEllipse
 62
7
  6
CONTINUOUS
 10
85.7208585337
 20
86.2423779222
 30
0.0
 11
-0.0
 21
0.4
 31
0.0
 40
0.0174550649
 41
0.5998670093
 42
1.5707963268
  0
ELLIPSE
  5
6E5
100
AcDbEntity
  8
RACCORDO
100
AcDbEllipse
 62
7
  6
CONTINUOUS
 10
85.7208585337
 20
85.7881463624
 30
0.0
 11
0.0
 21
0.4
 31
0.0
 40
0.0174550649
 41
-4.7123889804
 42
-3.926990817
  0
ELLIPSE
  5
6E6
100
AcDbEntity
  8
RACCORDO
100
AcDbEllipse
 62
7
  6
CONTINUOUS
 10
85.7307326095
 20
85.2224609375
 30
0.0
 11
0.0
 21
0.4
 31
0.0
 40
0.0174550649
 41
-3.926990817
 42
-3.1415926536
  0
ELLIPSE
  5
6E7
100
AcDbEntity
  8
RACCORDO
100
AcDbEllipse
 62
7
  6
CONTINUOUS
 10
76.0203524038
 20
160.3025439528
 30
0.0
 11
-0.0
 21
0.4
 31
0.0
 40
0.0174550649
 41
-1.6461024215
 42
-1.5707963268
  0
ELLIPSE
  5
6E8
100
AcDbEntity
  8
RACCORDO
100
AcDbEllipse
 62
7
  6
CONTINUOUS
 10
76.0203524038
 20
160.7567755126
 30
0.0
 11
0.0
 21
0.4
 31
0.0
 40
0.0174550649
 41
-1.5707963268
 42
-0.7853981634
  0
ELLIPSE
  5
6E9
100
AcDbEntity
  8
RACCORDO
100
AcDbEllipse
 62
7
  6
CONTINUOUS
 10
76.010478328
 20
161.3224609375
 30
0.0
 11
-0.0
 21
0.4
 31
0.0
 40
0.0174550649
 41
-0.7853981634
 42
-0.0
  0
ELLIPSE
  5
6EA
100
AcDbEntity
  8
RACCORDO
100
AcDbEllipse
 62
7
  6
CONTINUOUS
 10
85.7307326095
 20
161.3224609375
 30
0.0
 11
-0.0
 21
0.4
 31
0.0
 40
0.0174550649
 41
-0.0
 42
0.7853981634
  0
ELLIPSE
  5
6EB
100
AcDbEntity
  8
RACCORDO
100
AcDbEllipse
 62
7
  6
CONTINUOUS
 10
85.7208585337
 20
160.7567755126
 30
0.0
 11
0.0
 21
0.4
 31
0.0
 40
0.0174550649
 41
0.7853981634
 42
1.5707963268
  0
ELLIPSE
  5
6EC
100
AcDbEntity
  8
RACCORDO
100
AcDbEllipse
 62
7
  6
CONTINUOUS
 10
85.7208585337
 20
160.3025439528
 30
0.0
 11
-0.0
 21
0.4
 31
0.0
 40
0.0174550649
 41
-4.7123889804
 42
-4.6370828857
  0
ELLIPSE
  5
6ED
100
AcDbEntity
  8
0
100
AcDbEllipse
 62
7
  6
CONTINUOUS
 10
105.6706511672
 20
156.2724152391
 30
0.0
 11
0.2121966568
 21
-0.2121966568
 31
0.0
 40
0.9996954599
 41
2.3563467834
 42
3.9268385237
  0
ELLIPSE
  5
6EE
100
AcDbEntity
  8
0
100
AcDbEllipse
 62
7
  6
CONTINUOUS
 10
113.0705597703
 20
156.2724152391
 30
0.0
 11
-0.2121966568
 21
-0.2121966568
 31
0.0
 40
0.9996954599
 41
2.3563467834
 42
3.9268385237
  0
ELLIPSE
  5
6EF
100
AcDbEntity
  8
0
100
AcDbEllipse
 62
7
  6
CONTINUOUS
 10
113.0705597703
 20
155.1225066359
 30
0.0
 11
-0.2121966568
 21
0.2121966568
 31
0.0
 40
0.9996954599
 41
2.3563467834
 42
3.9268385237
  0
ELLIPSE
  5
6F0
100
AcDbEntity
  8
0
100
AcDbEllipse
 62
7
  6
CONTINUOUS
 10
105.6706511672
 20
155.1225066359
 30
0.0
 11
0.2121966568
 21
0.2121966568
 31
0.0
 40
0.9996954599
 41
2.3563467834
 42
3.9268385237
  0
ELLIPSE
  5
6F1
100
AcDbEntity
  8
0
100
AcDbEllipse
 62
7
  6
CONTINUOUS
 10
120.6706511672
 20
155.1225066359
 30
0.0
 11
0.2121966568
 21
0.2121966568
 31
0.0
 40
0.9996954599
 41
2.3563467834
 42
3.9268385237
  0
ELLIPSE
  5
6F2
100
AcDbEntity
  8
0
100
AcDbEllipse
 62
7
  6
CONTINUOUS
 10
120.6706511672
 20
156.2724152391
 30
0.0
 11
0.2121966568
 21
-0.2121966568
 31
0.0
 40
0.9996954599
 41
2.3563467834
 42
3.9268385237
  0
ELLIPSE
  5
6F3
100
AcDbEntity
  8
0
100
AcDbEllipse
 62
7
  6
CONTINUOUS
 10
128.0705597703
 20
156.2724152391
 30
0.0
 11
-0.2121966568
 21
-0.2121966568
 31
0.0
 40
0.9996954599
 41
2.3563467834
 42
3.9268385237
  0
ELLIPSE
  5
6F4
100
AcDbEntity
  8
0
100
AcDbEllipse
 62
7
  6
CONTINUOUS
 10
128.0705597703
 20
155.1225066359
 30
0.0
 11
-0.2121966568
 21
0.2121966568
 31
0.0
 40
0.9996954599
 41
2.3563467834
 42
3.9268385237
  0
ELLIPSE
  5
6F5
100
AcDbEntity
  8
0
100
AcDbEllipse
 62
7
  6
CONTINUOUS
 10
116.5705597703
 20
140.9225066359
 30
0.0
 11
-0.2121966568
 21
0.2121966568
 31
0.0
 40
0.9996954599
 41
2.3563467834
 42
3.9268385237
  0
ELLIPSE
  5
6F6
100
AcDbEntity
  8
0
100
AcDbEllipse
 62
7
  6
CONTINUOUS
 10
116.5705597703
 20
142.0724152391
 30
0.0
 11
-0.2121966568
 21
-0.2121966568
 31
0.0
 40
0.9996954599
 41
2.3563467834
 42
3.9268385237
  0
ELLIPSE
  5
6F7
100
AcDbEntity
  8
0
100
AcDbEllipse
 62
7
  6
CONTINUOUS
 10
111.1706511672
 20
140.9225066359
 30
0.0
 11
0.2121966568
 21
0.2121966568
 31
0.0
 40
0.9996954599
 41
2.3563467834
 42
3.9268385237
  0
ELLIPSE
  5
6F8
100
AcDbEntity
  8
0
100
AcDbEllipse
 62
7
  6
CONTINUOUS
 10
111.1706511672
 20
142.0724152391
 30
0.0
 11
0.2121966568
 21
-0.2121966568
 31
0.0
 40
0.9996954599
 41
2.3563467834
 42
3.9268385237
  0
ELLIPSE
  5
6F9
100
AcDbEntity
  8
0
100
AcDbEllipse
 62
7
  6
CONTINUOUS
 10
88.9021007496
 20
130.9453524551
 30
0.0
 11
0.4096689978
 21
0.2868533204
 31
0.0
 40
0.9997730469
 41
2.5308340564
 42
3.7523512508
  0
ELLIPSE
  5
6FA
100
AcDbEntity
  8
0
100
AcDbEllipse
 62
7
  6
CONTINUOUS
 10
88.9021007496
 20
136.1992081617
 30
0.0
 11
0.2869209855
 21
-0.4097656335
 31
0.0
 40
0.9995372688
 41
2.1818790451
 42
4.1013062621
  0
ELLIPSE
  5
6FB
100
AcDbEntity
  8
0
100
AcDbEllipse
 62
7
  6
CONTINUOUS
 10
89.3950425596
 20
133.5458048905
 30
0.0
 11
-0.0002918514
 21
2.9797508617
 31
0.0
 40
0.016401811
 41
-1.5767678462
 42
-0.5724699177
  0
ELLIPSE
  5
6FC
100
AcDbEntity
  8
0
100
AcDbEllipse
 62
7
  6
CONTINUOUS
 10
89.3950425596
 20
133.2399234341
 30
0.0
 11
-0.0002918514
 21
2.9797508617
 31
0.0
 40
0.016401811
 41
3.1530744268
 42
4.706417461
  0
ELLIPSE
  5
6FD
100
AcDbEntity
  8
RACCORDO
100
AcDbEllipse
 62
7
  6
CONTINUOUS
 10
90.8706054688
 20
112.5853705424
 30
0.0
 11
0.0
 21
2.0000761568
 31
0.0
 40
0.9999619231
 41
3.1415926536
 42
4.7123889804
  0
ELLIPSE
  5
6FE
100
AcDbEntity
  8
RACCORDO
100
AcDbEllipse
 62
7
  6
CONTINUOUS
 10
142.8706054688
 20
112.5853705424
 30
0.0
 11
-0.0
 21
-2.0000761568
 31
0.0
 40
0.9999619231
 41
-1.5707963268
 42
0.0
  0
ELLIPSE
  5
6FF
100
AcDbEntity
  8
RACCORDO
100
AcDbEllipse
 62
7
  6
CONTINUOUS
 10
144.6624429682
 20
110.5818036385
 30
0.0
 11
0.4123114861
 21
-0.0000073889
 31
0.0
 40
0.0084662674
 41
0.0370233099
 42
1.5729130517
  0
ELLIPSE
  5
700
100
AcDbEntity
  8
RACCORDO
100
AcDbEllipse
 62
7
  6
CONTINUOUS
 10
87.0787679693
 20
110.5818036385
 30
0.0
 11
0.4123114861
 21
0.0000073889
 31
0.0
 40
0.0084662674
 41
1.5686796019
 42
3.1045693437
  0
ELLIPSE
  5
701
100
AcDbEntity
  8
0
100
AcDbEllipse
 62
7
  6
CONTINUOUS
 10
90.6702593903
 20
136.301267985
 30
0.0
 11
-3.4295523366
 21
5.1392896556
 31
0.0
 40
0.1465432898
 41
1.427595448
 42
1.4343894693
  0
ELLIPSE
  5
702
100
AcDbEntity
  8
RACCORDO
100
AcDbEllipse
 62
7
  6
CONTINUOUS
 10
85.8492246427
 20
161.5224609375
 30
0.0
 11
0.0
 21
0.45
 31
0.0
 40
0.0087268678
 41
-3.1415926536
 42
-1.5707963268
  0
ELLIPSE
  5
703
100
AcDbEntity
  8
RACCORDO
100
AcDbEllipse
 62
7
  6
CONTINUOUS
 10
145.8919862948
 20
161.5224609375
 30
0.0
 11
0.0
 21
0.45
 31
0.0
 40
0.0087268678
 41
-4.7123889804
 42
-3.1415926536
  0
ELLIPSE
  5
704
100
AcDbEntity
  8
RACCORDO
100
AcDbEllipse
 62
7
  6
CONTINUOUS
 10
145.8927649975
 20
85.2724609375
 30
0.0
 11
-0.0
 21
0.4
 31
0.0
 40
0.0087268678
 41
0.0
 42
1.0471975512
  0
ELLIPSE
  5
705
100
AcDbEntity
  8
RACCORDO
100
AcDbEllipse
 62
7
  6
CONTINUOUS
 10
85.84844594
 20
85.2724609375
 30
0.0
 11
0.0
 21
0.4
 31
0.0
 40
0.0087268678
 41
-1.0471975512
 42
0.0
  0
ELLIPSE
  5
706
100
AcDbEntity
  8
0
100
AcDbEllipse
 62
7
  6
CONTINUOUS
 10
111.1392320503
 20
142.103834356
 30
0.0
 11
-0.2121966568
 21
0.2121966568
 31
0.0
 40
0.9996954599
 41
-0.7852458701
 42
0.7852458702
  0
ELLIPSE
  5
707
100
AcDbEntity
  8
0
100
AcDbEllipse
 62
7
  6
CONTINUOUS
 10
88.8706816328
 20
136.2440793109
 30
0.0
 11
-0.2869209855
 21
0.4097656335
 31
0.0
 40
0.9995372688
 41
-0.9597136085
 42
0.9597136085
  0
ELLIPSE
  5
708
100
AcDbEntity
  8
0
100
AcDbEllipse
 62
7
  6
CONTINUOUS
 10
90.6823519311
 20
133.077262597
 30
0.0
 11
-0.001168999
 21
2.9799102817
 31
0.0
 40
0.032810104
 41
-1.5827522367
 42
-0.5351167876
  0
ELLIPSE
  5
709
100
AcDbEntity
  8
0
100
AcDbEllipse
 62
7
  6
CONTINUOUS
 10
90.6823519311
 20
132.7713811406
 30
0.0
 11
-0.001168999
 21
2.9799102817
 31
0.0
 40
0.032810104
 41
-3.136095271
 42
-1.5827522367
  0
ELLIPSE
  5
70A
100
AcDbEntity
  8
0
100
AcDbEllipse
 62
7
  6
CONTINUOUS
 10
88.8706816328
 20
130.9233525526
 30
0.0
 11
0.4096689978
 21
0.2868533204
 31
0.0
 40
0.9997730469
 41
2.5308340564
 42
3.7523512508
  0
ELLIPSE
  5
70B
100
AcDbEntity
  8
0
100
AcDbEllipse
 62
7
  6
CONTINUOUS
 10
105.6392320503
 20
156.303834356
 30
0.0
 11
0.2121966568
 21
-0.2121966568
 31
0.0
 40
0.9996954599
 41
2.3563467834
 42
3.9268385237
  0
ELLIPSE
  5
70C
100
AcDbEntity
  8
0
100
AcDbEllipse
 62
7
  6
CONTINUOUS
 10
113.1019788872
 20
156.303834356
 30
0.0
 11
0.2121966568
 21
0.2121966568
 31
0.0
 40
0.9996954599
 41
-0.7852458701
 42
0.7852458702
  0
ELLIPSE
  5
70D
100
AcDbEntity
  8
0
100
AcDbEllipse
 62
7
  6
CONTINUOUS
 10
113.1019788872
 20
155.091087519
 30
0.0
 11
0.2121966568
 21
-0.2121966568
 31
0.0
 40
0.9996954599
 41
-0.7852458702
 42
0.7852458701
  0
ELLIPSE
  5
70E
100
AcDbEntity
  8
0
100
AcDbEllipse
 62
7
  6
CONTINUOUS
 10
105.6392320503
 20
155.091087519
 30
0.0
 11
0.2121966568
 21
0.2121966568
 31
0.0
 40
0.9996954599
 41
2.3563467834
 42
3.9268385237
  0
ELLIPSE
  5
70F
100
AcDbEntity
  8
0
100
AcDbEllipse
 62
7
  6
CONTINUOUS
 10
120.6392320503
 20
155.091087519
 30
0.0
 11
0.2121966568
 21
0.2121966568
 31
0.0
 40
0.9996954599
 41
2.3563467834
 42
3.9268385237
  0
ELLIPSE
  5
710
100
AcDbEntity
  8
RACCORDO
100
AcDbEllipse
 62
7
  6
CONTINUOUS
 10
145.8706054688
 20
108.4504699269
 30
0.0
 11
-0.4997132739
 21
2.001290792
 31
0.0
 40
0.0084598204
 41
-0.0010389897
 42
0.0338675954
  0
ELLIPSE
  5
711
100
AcDbEntity
  8
RACCORDO
100
AcDbEllipse
 62
7
  6
CONTINUOUS
 10
90.0877610813
 20
129.9574895684
 30
0.0
 11
0.4999910853
 21
-0.1820373335
 31
0.0
 40
0.016401811
 41
-1.5648248074
 42
-0.0289350657
  0
ELLIPSE
  5
712
100
AcDbEntity
  8
RACCORDO
100
AcDbEllipse
 62
7
  6
CONTINUOUS
 10
85.8706054687
 20
108.4504699269
 30
0.0
 11
0.4997132739
 21
2.001290792
 31
0.0
 40
0.0084598204
 41
-0.0338675954
 42
0.0010389897
  0
ELLIPSE
  5
713
100
AcDbEntity
  8
0
100
AcDbEllipse
 62
7
  6
CONTINUOUS
 10
89.3916656506
 20
137.4798617247
 30
0.0
 11
5.3024455473
 21
-4.6433309332
 31
0.0
 40
0.0257458377
 41
-1.2989207426
 42
-1.2787664489
  0
ELLIPSE
  5
714
100
AcDbEntity
  8
0
100
AcDbEllipse
 62
7
  6
CONTINUOUS
 10
120.6392320503
 20
156.303834356
 30
0.0
 11
0.2121966568
 21
-0.2121966568
 31
0.0
 40
0.9996954599
 41
2.3563467834
 42
3.9268385237
  0
ELLIPSE
  5
715
100
AcDbEntity
  8
0
100
AcDbEllipse
 62
7
  6
CONTINUOUS
 10
128.1019788872
 20
156.303834356
 30
0.0
 11
0.2121966568
 21
0.2121966568
 31
0.0
 40
0.9996954599
 41
-0.7852458701
 42
0.7852458701
  0
ELLIPSE
  5
716
100
AcDbEntity
  8
0
100
AcDbEllipse
 62
7
  6
CONTINUOUS
 10
128.1019788872
 20
155.091087519
 30
0.0
 11
0.2121966568
 21
-0.2121966568
 31
0.0
 40
0.9996954599
 41
-0.7852458701
 42
0.7852458701
  0
ELLIPSE
  5
717
100
AcDbEntity
  8
0
100
AcDbEllipse
 62
7
  6
CONTINUOUS
 10
116.6019788872
 20
140.891087519
 30
0.0
 11
0.2121966568
 21
-0.2121966568
 31
0.0
 40
0.9996954599
 41
-0.7852458701
 42
0.7852458701
  0
ELLIPSE
  5
718
100
AcDbEntity
  8
0
100
AcDbEllipse
 62
7
  6
CONTINUOUS
 10
116.6019788872
 20
142.103834356
 30
0.0
 11
0.2121966568
 21
0.2121966568
 31
0.0
 40
0.9996954599
 41
-0.7852458702
 42
0.7852458701
  0
ELLIPSE
  5
719
100
AcDbEntity
  8
0
100
AcDbEllipse
 62
7
  6
CONTINUOUS
 10
111.1392320503
 20
140.891087519
 30
0.0
 11
0.2121966568
 21
0.2121966568
 31
0.0
 40
0.9996954599
 41
2.3563467834
 42
3.9268385237
  0
ENDSEC
  0
SECTION
  2
OBJECTS
  0
DICTIONARY
  5
C
100
AcDbDictionary
280
0
281
1
  3
ACAD_GROUP
350
D
  3
ACAD_MLINESTYLE
350
17
  3
ACAD_LAYOUT
350
1A
  3
ACAD_PLOTSETTINGS
350
19
  3
ACAD_PLOTSTYLENAME
350
E
  0
DICTIONARY
  5
D
102
{ACAD_REACTORS
330
C
102
}
100
AcDbDictionary
280
0
281
1
  0
ACDBDICTIONARYWDFLT
  5
E
102
{ACAD_REACTORS
330
C
102
}
100
AcDbDictionary
281
1
  3
Normal
350
F
100
AcDbDictionaryWithDefault
340
F
  0
DICTIONARY
  5
17
102
{ACAD_REACTORS
330
C
102
}
100
AcDbDictionary
280
0
281
1
  3
Standard
350
18
  0
DICTIONARY
  5
19
102
{ACAD_REACTORS
330
C
102
}
100
AcDbDictionary
281
1
  0
DICTIONARY
  5
1A
102
{ACAD_REACTORS
330
C
102
}
100
AcDbDictionary
281
1
  3
Model
350
71A
  3
Layout1
350
71B
  0
ACDBPLACEHOLDER
  5
F
102
{ACAD_REACTORS
330
E
102
}
  0
MLINESTYLE
  5
18
102
{ACAD_REACTORS
330
17
102
}
100
AcDbMlineStyle
  2
STANDARD
 70
0
  3

 62
256
 51
90.0
 52
90.0
 71
2
 49
0.5
 62
256
  6
BYLAYER
 49
-0.5
 62
256
  6
BYLAYER
  0
LAYOUT
  5
71A
102
{ACAD_REACTORS
330
1A
102
}
100
AcDbPlotSettings
  1

  2
none_device
  4
ISO_A4_(297.00_x_210.00_MM)
  6

 40
0.0
 41
0.0
 42
0.0
 43
0.0
 44
297.0
 45
210.0
 46
0.0
 47
0.0
 48
0.0
 49
0.0
140
0.0
141
0.0
142
1.0
143
1.0
 70
1024
 72
1
 73
0
 74
0
  7

 75
0
147
1.0
148
0.0
149
0.0
100
AcDbLayout
  1
Model
 70
0
 71
0
 10
0.0
 20
0.0
 11
297.0
 21
210.0
 12
0.0
 22
0.0
 32
0.0
 14
0.0
 24
0.0
 34
0.0
 15
0.0
 25
0.0
 35
0.0
146
0.0
 13
0.0
 23
0.0
 33
0.0
 16
1.0
 26
0.0
 36
0.0
 17
0.0
 27
1.0
 37
0.0
 76
0
330
2E9
345
0
346
0
  0
LAYOUT
  5
71B
102
{ACAD_REACTORS
330
1A
102
}
100
AcDbPlotSettings
  1

  2
none_device
  4
ISO_A4_(297.00_x_210.00_MM)
  6

 40
0.0
 41
0.0
 42
0.0
 43
0.0
 44
297.0
 45
210.0
 46
0.0
 47
0.0
 48
0.0
 49
0.0
140
0.0
141
0.0
142
1.0
143
1.0
 70
0
 72
1
 73
0
 74
0
  7

 75
0
147
1.0
148
0.0
149
0.0
100
AcDbLayout
  1
Layout1
 70
0
 71
1
 10
0.0
 20
0.0
 11
297.0
 21
210.0
 12
0.0
 22
0.0
 32
0.0
 14
0.0
 24
0.0
 34
0.0
 15
0.0
 25
0.0
 35
0.0
146
0.0
 13
0.0
 23
0.0
 33
0.0
 16
1.0
 26
0.0
 36
0.0
 17
0.0
 27
1.0
 37
0.0
 76
0
330
2EA
345
0
346
0
  0
ENDSEC
  0
EOF
