  0
SECTION
  2
HEADER
  9
$ACADVER
  1
AC1015
  9
$DWGCODEPAGE
  3
ANSI_1252
  9
$EXTMAX
 10
297.0
 20
210.0
 30
0.0
  9
$EXTMIN
 10
0.0
 20
0.0
 30
0.0
  9
$LIMMIN
 10
0.0
 20
0.0
  9
$LIMMAX
 10
297.0
 20
210.0
  9
$VIEWCTR
 10
148.5
 20
105.0
  9
$VIEWSIZE
 40
210.0
  9
$CLAYER
  8
0
  9
$LTSCALE
 40
16.335
  9
$CELTYPE
  6
BYLAYER
  9
$DIMSCALE
 40
1.0
  9
$DIMASZ
 40
3.0
  9
$DIMEXO
 40
0.5
  9
$DIMDLI
 40
11.286
  9
$DIMEXE
 40
1.5
  9
$DIMCEN
 40
2.673
  9
$DIMLFAC
 40
1.0
  9
$DIMBLK
  1
_FILLED
  9
$DIMTXT
 40
3.0
  9
$DIMTOL
 70
1
  9
$DIMLIM
 70
0
  9
$DIMTFAC
 40
1.0
  9
$DIMTP
 40
0.01
  9
$DIMTM
 40
0.01
  9
$DIMGAP
 40
0.625
  9
$DIMDSEP
 70
44
  9
$PDMODE
 70
3
  9
$PDSIZE
 40
3.0
  9
$HANDSEED
  5
534
  9
$TILEMODE
 70
1
  9
$MEASUREMENT
 70
1
  9
$INSUNITS
 70
4
  0
ENDSEC
  0
SECTION
  2
CLASSES
  0
CLASS
  1
ACDBDICTIONARYWDFLT
  2
AcDbDictionaryWithDefault
  3
AutoCAD 2000
 90
0
280
0
281
0
  0
CLASS
  1
ACDBPLACEHOLDER
  2
AcDbPlaceHolder
  3
AutoCAD 2000
 90
0
280
0
281
0
  0
CLASS
  1
LAYOUT
  2
AcDbLayout
  3
AutoCAD 2000
 90
0
280
0
281
0
  0
ENDSEC
  0
SECTION
  2
TABLES
  0
TABLE
  2
VPORT
  5
8
100
AcDbSymbolTable
 70
2
  0
VPORT
  5
1F4
100
AcDbSymbolTableRecord
100
AcDbViewportTableRecord
  2
*ACTIVE
 70
0
 10
0.0
 20
0.0
 11
1.0
 21
1.0
 12
148.5
 22
105.0
 13
0.0
 23
0.0
 14
1.0
 24
1.0
 15
0.0
 25
0.0
 16
0.0
 26
0.0
 36
1.0
 17
0.0
 27
0.0
 37
0.0
 40
210.0
 41
1.4142857143
 42
50.0
 43
0.0
 44
0.0
 50
0.0
 51
0.0
 71
0
 72
100
 73
1
 74
1
 75
0
 76
0
 77
0
 78
0
  0
ENDTAB
  0
TABLE
  2
LTYPE
  5
5
100
AcDbSymbolTable
 70
6
  0
LTYPE
  5
14
100
AcDbSymbolTableRecord
100
AcDbLinetypeTableRecord
  2
BYBLOCK
 70
0
  3

 72
65
 73
0
 40
0.0
  0
LTYPE
  5
15
100
AcDbSymbolTableRecord
100
AcDbLinetypeTableRecord
  2
BYLAYER
 70
0
  3

 72
65
 73
0
 40
0.0
  0
LTYPE
  5
16
100
AcDbSymbolTableRecord
100
AcDbLinetypeTableRecord
  2
CONTINUOUS
 70
64
  3
Solid line
 72
65
 73
0
 40
0.0
  0
LTYPE
  5
1F5
100
AcDbSymbolTableRecord
100
AcDbLinetypeTableRecord
  2
CENTER
 70
64
  3
____ _ ____ _ ____ _ ____ _ ____ _ ____ _ ____
 72
65
 73
4
 40
0.6
 49
0.375
 74
0
 49
-0.075
 74
0
 49
0.075
 74
0
 49
-0.075
 74
0
  0
LTYPE
  5
1F6
100
AcDbSymbolTableRecord
100
AcDbLinetypeTableRecord
  2
HIDDEN
 70
64
  3
- - - - - - - - - - - - - - - - - - - -
 72
65
 73
2
 40
0.2
 49
0.1
 74
0
 49
-0.1
 74
0
  0
LTYPE
  5
1F7
100
AcDbSymbolTableRecord
100
AcDbLinetypeTableRecord
  2
PHANTOM
 70
64
  3
_____ _ _ _____ _ _ _____ _ _ _____
 72
65
 73
6
 40
0.8
 49
0.45
 74
0
 49
-0.05
 74
0
 49
0.1
 74
0
 49
-0.05
 74
0
 49
0.1
 74
0
 49
-0.05
 74
0
  0
LTYPE
  5
1F8
100
AcDbSymbolTableRecord
100
AcDbLinetypeTableRecord
  2
DOT
 70
64
  3
. . . . . . . . . . . . . . . . . . . .
 72
65
 73
2
 40
0.2
 49
0.1
 74
0
 49
-0.1
 74
0
  0
LTYPE
  5
1F9
100
AcDbSymbolTableRecord
100
AcDbLinetypeTableRecord
  2
DASHED
 70
64
  3
- - - - - - - - - - - - - - - - - - - -
 72
65
 73
2
 40
0.2
 49
0.1
 74
0
 49
-0.1
 74
0
  0
ENDTAB
  0
TABLE
  2
LAYER
  5
2
100
AcDbSymbolTable
 70
36
  0
LAYER
  5
10
100
AcDbSymbolTableRecord
100
AcDbLayerTableRecord
  2
0
 70
0
 62
7
  6
CONTINUOUS
370
-3
390
F
  0
LAYER
  5
1FA
100
AcDbSymbolTableRecord
100
AcDbLayerTableRecord
  2
DEFAULT_1
 70
0
 62
7
  6
CENTER
370
-3
390
F
  0
LAYER
  5
1FB
100
AcDbSymbolTableRecord
100
AcDbLayerTableRecord
  2
DEFAULT_2
 70
0
 62
7
  6
HIDDEN
370
-3
390
F
  0
LAYER
  5
1FC
100
AcDbSymbolTableRecord
100
AcDbLayerTableRecord
  2
DEFAULT_3
 70
0
 62
7
  6
PHANTOM
370
-3
390
F
  0
LAYER
  5
1FD
100
AcDbSymbolTableRecord
100
AcDbLayerTableRecord
  2
200A_170000
 70
0
 62
7
  6
CONTINUOUS
370
-3
390
F
  0
LAYER
  5
1FE
100
AcDbSymbolTableRecord
100
AcDbLayerTableRecord
  2
200A_170000_1
 70
0
 62
7
  6
CONTINUOUS
370
-3
390
F
  0
LAYER
  5
1FF
100
AcDbSymbolTableRecord
100
AcDbLayerTableRecord
  2
200A_170000_2
 70
0
 62
7
  6
CONTINUOUS
370
-3
390
F
  0
LAYER
  5
200
100
AcDbSymbolTableRecord
100
AcDbLayerTableRecord
  2
2125-CC-RF-VIMAR_65000
 70
0
 62
7
  6
CONTINUOUS
370
-3
390
F
  0
LAYER
  5
201
100
AcDbSymbolTableRecord
100
AcDbLayerTableRecord
  2
2125-CC-RF-VIMAR_65000_1
 70
0
 62
7
  6
CONTINUOUS
370
-3
390
F
  0
LAYER
  5
202
100
AcDbSymbolTableRecord
100
AcDbLayerTableRecord
  2
2125-CC-RF-VIMAR_65000_2
 70
0
 62
7
  6
CONTINUOUS
370
-3
390
F
  0
LAYER
  5
203
100
AcDbSymbolTableRecord
100
AcDbLayerTableRecord
  2
2125-CC-RF-VIMAR_65000_3
 70
0
 62
7
  6
CONTINUOUS
370
-3
390
F
  0
LAYER
  5
204
100
AcDbSymbolTableRecord
100
AcDbLayerTableRecord
  2
2125-CC-RF-VIMAR_65000_4
 70
0
 62
7
  6
CONTINUOUS
370
-3
390
F
  0
LAYER
  5
205
100
AcDbSymbolTableRecord
100
AcDbLayerTableRecord
  2
2125-CC-RF-VIMAR_65000_5
 70
0
 62
7
  6
CONTINUOUS
370
-3
390
F
  0
LAYER
  5
206
100
AcDbSymbolTableRecord
100
AcDbLayerTableRecord
  2
2125-CC-RF-VIMAR_65000_6
 70
0
 62
7
  6
CONTINUOUS
370
-3
390
F
  0
LAYER
  5
207
100
AcDbSymbolTableRecord
100
AcDbLayerTableRecord
  2
2125-CC-RF-VIMAR_65000_7
 70
0
 62
7
  6
CONTINUOUS
370
-3
390
F
  0
LAYER
  5
208
100
AcDbSymbolTableRecord
100
AcDbLayerTableRecord
  2
2125-CC-RF-VIMAR_65000_8
 70
0
 62
7
  6
CONTINUOUS
370
-3
390
F
  0
LAYER
  5
209
100
AcDbSymbolTableRecord
100
AcDbLayerTableRecord
  2
2125-R1-RF-VIMAR_60000
 70
0
 62
7
  6
CONTINUOUS
370
-3
390
F
  0
LAYER
  5
20A
100
AcDbSymbolTableRecord
100
AcDbLayerTableRecord
  2
2125-R1-RF-VIMAR_60000_1
 70
0
 62
7
  6
CONTINUOUS
370
-3
390
F
  0
LAYER
  5
20B
100
AcDbSymbolTableRecord
100
AcDbLayerTableRecord
  2
2125-R1-RF-VIMAR_60000_10
 70
0
 62
7
  6
CONTINUOUS
370
-3
390
F
  0
LAYER
  5
20C
100
AcDbSymbolTableRecord
100
AcDbLayerTableRecord
  2
2125-R1-RF-VIMAR_60000_11
 70
0
 62
7
  6
CONTINUOUS
370
-3
390
F
  0
LAYER
  5
20D
100
AcDbSymbolTableRecord
100
AcDbLayerTableRecord
  2
2125-R1-RF-VIMAR_60000_12
 70
0
 62
7
  6
CONTINUOUS
370
-3
390
F
  0
LAYER
  5
20E
100
AcDbSymbolTableRecord
100
AcDbLayerTableRecord
  2
2125-R1-RF-VIMAR_60000_13
 70
0
 62
7
  6
CONTINUOUS
370
-3
390
F
  0
LAYER
  5
20F
100
AcDbSymbolTableRecord
100
AcDbLayerTableRecord
  2
2125-R1-RF-VIMAR_60000_14
 70
0
 62
7
  6
CONTINUOUS
370
-3
390
F
  0
LAYER
  5
210
100
AcDbSymbolTableRecord
100
AcDbLayerTableRecord
  2
2125-R1-RF-VIMAR_60000_15
 70
0
 62
7
  6
CONTINUOUS
370
-3
390
F
  0
LAYER
  5
211
100
AcDbSymbolTableRecord
100
AcDbLayerTableRecord
  2
2125-R1-RF-VIMAR_60000_16
 70
0
 62
7
  6
CONTINUOUS
370
-3
390
F
  0
LAYER
  5
212
100
AcDbSymbolTableRecord
100
AcDbLayerTableRecord
  2
2125-R1-RF-VIMAR_60000_17
 70
0
 62
7
  6
CONTINUOUS
370
-3
390
F
  0
LAYER
  5
213
100
AcDbSymbolTableRecord
100
AcDbLayerTableRecord
  2
2125-R1-RF-VIMAR_60000_18
 70
0
 62
7
  6
CONTINUOUS
370
-3
390
F
  0
LAYER
  5
214
100
AcDbSymbolTableRecord
100
AcDbLayerTableRecord
  2
2125-R1-RF-VIMAR_60000_19
 70
0
 62
7
  6
CONTINUOUS
370
-3
390
F
  0
LAYER
  5
215
100
AcDbSymbolTableRecord
100
AcDbLayerTableRecord
  2
2125-R1-RF-VIMAR_60000_2
 70
0
 62
7
  6
CONTINUOUS
370
-3
390
F
  0
LAYER
  5
216
100
AcDbSymbolTableRecord
100
AcDbLayerTableRecord
  2
2125-R1-RF-VIMAR_60000_20
 70
0
 62
7
  6
CONTINUOUS
370
-3
390
F
  0
LAYER
  5
217
100
AcDbSymbolTableRecord
100
AcDbLayerTableRecord
  2
2125-R1-RF-VIMAR_60000_21
 70
0
 62
7
  6
CONTINUOUS
370
-3
390
F
  0
LAYER
  5
218
100
AcDbSymbolTableRecord
100
AcDbLayerTableRecord
  2
2125-R1-RF-VIMAR_60000_22
 70
0
 62
7
  6
CONTINUOUS
370
-3
390
F
  0
LAYER
  5
219
100
AcDbSymbolTableRecord
100
AcDbLayerTableRecord
  2
2125-R1-RF-VIMAR_60000_23
 70
0
 62
7
  6
CONTINUOUS
370
-3
390
F
  0
LAYER
  5
21A
100
AcDbSymbolTableRecord
100
AcDbLayerTableRecord
  2
2125-R1-RF-VIMAR_60000_24
 70
0
 62
7
  6
CONTINUOUS
370
-3
390
F
  0
LAYER
  5
21B
100
AcDbSymbolTableRecord
100
AcDbLayerTableRecord
  2
2125-R1-RF-VIMAR_60000_25
 70
0
 62
7
  6
CONTINUOUS
370
-3
390
F
  0
LAYER
  5
21C
100
AcDbSymbolTableRecord
100
AcDbLayerTableRecord
  2
2125-R1-RF-VIMAR_60000_26
 70
0
 62
7
  6
CONTINUOUS
370
-3
390
F
  0
LAYER
  5
21D
100
AcDbSymbolTableRecord
100
AcDbLayerTableRecord
  2
2125-R1-RF-VIMAR_60000_27
 70
0
 62
7
  6
CONTINUOUS
370
-3
390
F
  0
LAYER
  5
21E
100
AcDbSymbolTableRecord
100
AcDbLayerTableRecord
  2
2125-R1-RF-VIMAR_60000_28
 70
0
 62
7
  6
CONTINUOUS
370
-3
390
F
  0
LAYER
  5
21F
100
AcDbSymbolTableRecord
100
AcDbLayerTableRecord
  2
2125-R1-RF-VIMAR_60000_29
 70
0
 62
7
  6
CONTINUOUS
370
-3
390
F
  0
LAYER
  5
220
100
AcDbSymbolTableRecord
100
AcDbLayerTableRecord
  2
2125-R1-RF-VIMAR_60000_3
 70
0
 62
7
  6
CONTINUOUS
370
-3
390
F
  0
LAYER
  5
221
100
AcDbSymbolTableRecord
100
AcDbLayerTableRecord
  2
2125-R1-RF-VIMAR_60000_30
 70
0
 62
7
  6
CONTINUOUS
370
-3
390
F
  0
LAYER
  5
222
100
AcDbSymbolTableRecord
100
AcDbLayerTableRecord
  2
2125-R1-RF-VIMAR_60000_31
 70
0
 62
7
  6
CONTINUOUS
370
-3
390
F
  0
LAYER
  5
223
100
AcDbSymbolTableRecord
100
AcDbLayerTableRecord
  2
2125-R1-RF-VIMAR_60000_32
 70
0
 62
7
  6
CONTINUOUS
370
-3
390
F
  0
LAYER
  5
224
100
AcDbSymbolTableRecord
100
AcDbLayerTableRecord
  2
2125-R1-RF-VIMAR_60000_33
 70
0
 62
7
  6
CONTINUOUS
370
-3
390
F
  0
LAYER
  5
225
100
AcDbSymbolTableRecord
100
AcDbLayerTableRecord
  2
2125-R1-RF-VIMAR_60000_34
 70
0
 62
7
  6
CONTINUOUS
370
-3
390
F
  0
LAYER
  5
226
100
AcDbSymbolTableRecord
100
AcDbLayerTableRecord
  2
2125-R1-RF-VIMAR_60000_35
 70
0
 62
7
  6
CONTINUOUS
370
-3
390
F
  0
LAYER
  5
227
100
AcDbSymbolTableRecord
100
AcDbLayerTableRecord
  2
2125-R1-RF-VIMAR_60000_36
 70
0
 62
7
  6
CONTINUOUS
370
-3
390
F
  0
LAYER
  5
228
100
AcDbSymbolTableRecord
100
AcDbLayerTableRecord
  2
2125-R1-RF-VIMAR_60000_37
 70
0
 62
7
  6
CONTINUOUS
370
-3
390
F
  0
LAYER
  5
229
100
AcDbSymbolTableRecord
100
AcDbLayerTableRecord
  2
2125-R1-RF-VIMAR_60000_38
 70
0
 62
7
  6
CONTINUOUS
370
-3
390
F
  0
LAYER
  5
22A
100
AcDbSymbolTableRecord
100
AcDbLayerTableRecord
  2
2125-R1-RF-VIMAR_60000_39
 70
0
 62
7
  6
CONTINUOUS
370
-3
390
F
  0
LAYER
  5
22B
100
AcDbSymbolTableRecord
100
AcDbLayerTableRecord
  2
2125-R1-RF-VIMAR_60000_4
 70
0
 62
7
  6
CONTINUOUS
370
-3
390
F
  0
LAYER
  5
22C
100
AcDbSymbolTableRecord
100
AcDbLayerTableRecord
  2
2125-R1-RF-VIMAR_60000_40
 70
0
 62
7
  6
CONTINUOUS
370
-3
390
F
  0
LAYER
  5
22D
100
AcDbSymbolTableRecord
100
AcDbLayerTableRecord
  2
2125-R1-RF-VIMAR_60000_41
 70
0
 62
7
  6
CONTINUOUS
370
-3
390
F
  0
LAYER
  5
22E
100
AcDbSymbolTableRecord
100
AcDbLayerTableRecord
  2
2125-R1-RF-VIMAR_60000_42
 70
0
 62
7
  6
CONTINUOUS
370
-3
390
F
  0
LAYER
  5
22F
100
AcDbSymbolTableRecord
100
AcDbLayerTableRecord
  2
2125-R1-RF-VIMAR_60000_43
 70
0
 62
7
  6
CONTINUOUS
370
-3
390
F
  0
LAYER
  5
230
100
AcDbSymbolTableRecord
100
AcDbLayerTableRecord
  2
2125-R1-RF-VIMAR_60000_44
 70
0
 62
7
  6
CONTINUOUS
370
-3
390
F
  0
LAYER
  5
231
100
AcDbSymbolTableRecord
100
AcDbLayerTableRecord
  2
2125-R1-RF-VIMAR_60000_45
 70
0
 62
7
  6
CONTINUOUS
370
-3
390
F
  0
LAYER
  5
232
100
AcDbSymbolTableRecord
100
AcDbLayerTableRecord
  2
2125-R1-RF-VIMAR_60000_46
 70
0
 62
7
  6
CONTINUOUS
370
-3
390
F
  0
LAYER
  5
233
100
AcDbSymbolTableRecord
100
AcDbLayerTableRecord
  2
2125-R1-RF-VIMAR_60000_5
 70
0
 62
7
  6
CONTINUOUS
370
-3
390
F
  0
LAYER
  5
234
100
AcDbSymbolTableRecord
100
AcDbLayerTableRecord
  2
2125-R1-RF-VIMAR_60000_6
 70
0
 62
7
  6
CONTINUOUS
370
-3
390
F
  0
LAYER
  5
235
100
AcDbSymbolTableRecord
100
AcDbLayerTableRecord
  2
2125-R1-RF-VIMAR_60000_7
 70
0
 62
7
  6
CONTINUOUS
370
-3
390
F
  0
LAYER
  5
236
100
AcDbSymbolTableRecord
100
AcDbLayerTableRecord
  2
2125-R1-RF-VIMAR_60000_8
 70
0
 62
7
  6
CONTINUOUS
370
-3
390
F
  0
LAYER
  5
237
100
AcDbSymbolTableRecord
100
AcDbLayerTableRecord
  2
2125-R1-RF-VIMAR_60000_9
 70
0
 62
7
  6
CONTINUOUS
370
-3
390
F
  0
LAYER
  5
238
100
AcDbSymbolTableRecord
100
AcDbLayerTableRecord
  2
3216-CF-RF-VIMAR_100000
 70
0
 62
7
  6
CONTINUOUS
370
-3
390
F
  0
LAYER
  5
239
100
AcDbSymbolTableRecord
100
AcDbLayerTableRecord
  2
3216-CF-RF-VIMAR_100000_1
 70
0
 62
7
  6
CONTINUOUS
370
-3
390
F
  0
LAYER
  5
23A
100
AcDbSymbolTableRecord
100
AcDbLayerTableRecord
  2
3216-CF-RF-VIMAR_100000_2
 70
0
 62
7
  6
CONTINUOUS
370
-3
390
F
  0
LAYER
  5
23B
100
AcDbSymbolTableRecord
100
AcDbLayerTableRecord
  2
3216-CF-RF-VIMAR_100000_3
 70
0
 62
7
  6
CONTINUOUS
370
-3
390
F
  0
LAYER
  5
23C
100
AcDbSymbolTableRecord
100
AcDbLayerTableRecord
  2
3216-CF-RF-VIMAR_100000_4
 70
0
 62
7
  6
CONTINUOUS
370
-3
390
F
  0
LAYER
  5
23D
100
AcDbSymbolTableRecord
100
AcDbLayerTableRecord
  2
3225-CF1-RF-VIMAR_260000
 70
0
 62
7
  6
CONTINUOUS
370
-3
390
F
  0
LAYER
  5
23E
100
AcDbSymbolTableRecord
100
AcDbLayerTableRecord
  2
43000565A0
 70
0
 62
7
  6
CONTINUOUS
370
-3
390
F
  0
LAYER
  5
23F
100
AcDbSymbolTableRecord
100
AcDbLayerTableRecord
  2
435120890
 70
0
 62
7
  6
CONTINUOUS
370
-3
390
F
  0
LAYER
  5
240
100
AcDbSymbolTableRecord
100
AcDbLayerTableRecord
  2
43900565A0
 70
0
 62
7
  6
CONTINUOUS
370
-3
390
F
  0
LAYER
  5
241
100
AcDbSymbolTableRecord
100
AcDbLayerTableRecord
  2
6032-CS-RF_280000
 70
0
 62
7
  6
CONTINUOUS
370
-3
390
F
  0
LAYER
  5
242
100
AcDbSymbolTableRecord
100
AcDbLayerTableRecord
  2
ASSI
 70
0
 62
7
  6
CONTINUOUS
370
-3
390
F
  0
LAYER
  5
243
100
AcDbSymbolTableRecord
100
AcDbLayerTableRecord
  2
AX-R125-3-VIMAR_280000
 70
0
 62
7
  6
CONTINUOUS
370
-3
390
F
  0
LAYER
  5
244
100
AcDbSymbolTableRecord
100
AcDbLayerTableRecord
  2
CAPC1608N_80000
 70
0
 62
7
  6
CONTINUOUS
370
-3
390
F
  0
LAYER
  5
245
100
AcDbSymbolTableRecord
100
AcDbLayerTableRecord
  2
CAPC1608N_80000_1
 70
0
 62
7
  6
CONTINUOUS
370
-3
390
F
  0
LAYER
  5
246
100
AcDbSymbolTableRecord
100
AcDbLayerTableRecord
  2
CAPC1608N_80000_10
 70
0
 62
7
  6
CONTINUOUS
370
-3
390
F
  0
LAYER
  5
247
100
AcDbSymbolTableRecord
100
AcDbLayerTableRecord
  2
CAPC1608N_80000_11
 70
0
 62
7
  6
CONTINUOUS
370
-3
390
F
  0
LAYER
  5
248
100
AcDbSymbolTableRecord
100
AcDbLayerTableRecord
  2
CAPC1608N_80000_12
 70
0
 62
7
  6
CONTINUOUS
370
-3
390
F
  0
LAYER
  5
249
100
AcDbSymbolTableRecord
100
AcDbLayerTableRecord
  2
CAPC1608N_80000_13
 70
0
 62
7
  6
CONTINUOUS
370
-3
390
F
  0
LAYER
  5
24A
100
AcDbSymbolTableRecord
100
AcDbLayerTableRecord
  2
CAPC1608N_80000_14
 70
0
 62
7
  6
CONTINUOUS
370
-3
390
F
  0
LAYER
  5
24B
100
AcDbSymbolTableRecord
100
AcDbLayerTableRecord
  2
CAPC1608N_80000_15
 70
0
 62
7
  6
CONTINUOUS
370
-3
390
F
  0
LAYER
  5
24C
100
AcDbSymbolTableRecord
100
AcDbLayerTableRecord
  2
CAPC1608N_80000_16
 70
0
 62
7
  6
CONTINUOUS
370
-3
390
F
  0
LAYER
  5
24D
100
AcDbSymbolTableRecord
100
AcDbLayerTableRecord
  2
CAPC1608N_80000_17
 70
0
 62
7
  6
CONTINUOUS
370
-3
390
F
  0
LAYER
  5
24E
100
AcDbSymbolTableRecord
100
AcDbLayerTableRecord
  2
CAPC1608N_80000_18
 70
0
 62
7
  6
CONTINUOUS
370
-3
390
F
  0
LAYER
  5
24F
100
AcDbSymbolTableRecord
100
AcDbLayerTableRecord
  2
CAPC1608N_80000_19
 70
0
 62
7
  6
CONTINUOUS
370
-3
390
F
  0
LAYER
  5
250
100
AcDbSymbolTableRecord
100
AcDbLayerTableRecord
  2
CAPC1608N_80000_2
 70
0
 62
7
  6
CONTINUOUS
370
-3
390
F
  0
LAYER
  5
251
100
AcDbSymbolTableRecord
100
AcDbLayerTableRecord
  2
CAPC1608N_80000_20
 70
0
 62
7
  6
CONTINUOUS
370
-3
390
F
  0
LAYER
  5
252
100
AcDbSymbolTableRecord
100
AcDbLayerTableRecord
  2
CAPC1608N_80000_21
 70
0
 62
7
  6
CONTINUOUS
370
-3
390
F
  0
LAYER
  5
253
100
AcDbSymbolTableRecord
100
AcDbLayerTableRecord
  2
CAPC1608N_80000_22
 70
0
 62
7
  6
CONTINUOUS
370
-3
390
F
  0
LAYER
  5
254
100
AcDbSymbolTableRecord
100
AcDbLayerTableRecord
  2
CAPC1608N_80000_23
 70
0
 62
7
  6
CONTINUOUS
370
-3
390
F
  0
LAYER
  5
255
100
AcDbSymbolTableRecord
100
AcDbLayerTableRecord
  2
CAPC1608N_80000_24
 70
0
 62
7
  6
CONTINUOUS
370
-3
390
F
  0
LAYER
  5
256
100
AcDbSymbolTableRecord
100
AcDbLayerTableRecord
  2
CAPC1608N_80000_25
 70
0
 62
7
  6
CONTINUOUS
370
-3
390
F
  0
LAYER
  5
257
100
AcDbSymbolTableRecord
100
AcDbLayerTableRecord
  2
CAPC1608N_80000_26
 70
0
 62
7
  6
CONTINUOUS
370
-3
390
F
  0
LAYER
  5
258
100
AcDbSymbolTableRecord
100
AcDbLayerTableRecord
  2
CAPC1608N_80000_27
 70
0
 62
7
  6
CONTINUOUS
370
-3
390
F
  0
LAYER
  5
259
100
AcDbSymbolTableRecord
100
AcDbLayerTableRecord
  2
CAPC1608N_80000_28
 70
0
 62
7
  6
CONTINUOUS
370
-3
390
F
  0
LAYER
  5
25A
100
AcDbSymbolTableRecord
100
AcDbLayerTableRecord
  2
CAPC1608N_80000_29
 70
0
 62
7
  6
CONTINUOUS
370
-3
390
F
  0
LAYER
  5
25B
100
AcDbSymbolTableRecord
100
AcDbLayerTableRecord
  2
CAPC1608N_80000_3
 70
0
 62
7
  6
CONTINUOUS
370
-3
390
F
  0
LAYER
  5
25C
100
AcDbSymbolTableRecord
100
AcDbLayerTableRecord
  2
CAPC1608N_80000_30
 70
0
 62
7
  6
CONTINUOUS
370
-3
390
F
  0
LAYER
  5
25D
100
AcDbSymbolTableRecord
100
AcDbLayerTableRecord
  2
CAPC1608N_80000_31
 70
0
 62
7
  6
CONTINUOUS
370
-3
390
F
  0
LAYER
  5
25E
100
AcDbSymbolTableRecord
100
AcDbLayerTableRecord
  2
CAPC1608N_80000_32
 70
0
 62
7
  6
CONTINUOUS
370
-3
390
F
  0
LAYER
  5
25F
100
AcDbSymbolTableRecord
100
AcDbLayerTableRecord
  2
CAPC1608N_80000_33
 70
0
 62
7
  6
CONTINUOUS
370
-3
390
F
  0
LAYER
  5
260
100
AcDbSymbolTableRecord
100
AcDbLayerTableRecord
  2
CAPC1608N_80000_34
 70
0
 62
7
  6
CONTINUOUS
370
-3
390
F
  0
LAYER
  5
261
100
AcDbSymbolTableRecord
100
AcDbLayerTableRecord
  2
CAPC1608N_80000_35
 70
0
 62
7
  6
CONTINUOUS
370
-3
390
F
  0
LAYER
  5
262
100
AcDbSymbolTableRecord
100
AcDbLayerTableRecord
  2
CAPC1608N_80000_36
 70
0
 62
7
  6
CONTINUOUS
370
-3
390
F
  0
LAYER
  5
263
100
AcDbSymbolTableRecord
100
AcDbLayerTableRecord
  2
CAPC1608N_80000_37
 70
0
 62
7
  6
CONTINUOUS
370
-3
390
F
  0
LAYER
  5
264
100
AcDbSymbolTableRecord
100
AcDbLayerTableRecord
  2
CAPC1608N_80000_38
 70
0
 62
7
  6
CONTINUOUS
370
-3
390
F
  0
LAYER
  5
265
100
AcDbSymbolTableRecord
100
AcDbLayerTableRecord
  2
CAPC1608N_80000_39
 70
0
 62
7
  6
CONTINUOUS
370
-3
390
F
  0
LAYER
  5
266
100
AcDbSymbolTableRecord
100
AcDbLayerTableRecord
  2
CAPC1608N_80000_4
 70
0
 62
7
  6
CONTINUOUS
370
-3
390
F
  0
LAYER
  5
267
100
AcDbSymbolTableRecord
100
AcDbLayerTableRecord
  2
CAPC1608N_80000_40
 70
0
 62
7
  6
CONTINUOUS
370
-3
390
F
  0
LAYER
  5
268
100
AcDbSymbolTableRecord
100
AcDbLayerTableRecord
  2
CAPC1608N_80000_41
 70
0
 62
7
  6
CONTINUOUS
370
-3
390
F
  0
LAYER
  5
269
100
AcDbSymbolTableRecord
100
AcDbLayerTableRecord
  2
CAPC1608N_80000_42
 70
0
 62
7
  6
CONTINUOUS
370
-3
390
F
  0
LAYER
  5
26A
100
AcDbSymbolTableRecord
100
AcDbLayerTableRecord
  2
CAPC1608N_80000_43
 70
0
 62
7
  6
CONTINUOUS
370
-3
390
F
  0
LAYER
  5
26B
100
AcDbSymbolTableRecord
100
AcDbLayerTableRecord
  2
CAPC1608N_80000_44
 70
0
 62
7
  6
CONTINUOUS
370
-3
390
F
  0
LAYER
  5
26C
100
AcDbSymbolTableRecord
100
AcDbLayerTableRecord
  2
CAPC1608N_80000_45
 70
0
 62
7
  6
CONTINUOUS
370
-3
390
F
  0
LAYER
  5
26D
100
AcDbSymbolTableRecord
100
AcDbLayerTableRecord
  2
CAPC1608N_80000_46
 70
0
 62
7
  6
CONTINUOUS
370
-3
390
F
  0
LAYER
  5
26E
100
AcDbSymbolTableRecord
100
AcDbLayerTableRecord
  2
CAPC1608N_80000_47
 70
0
 62
7
  6
CONTINUOUS
370
-3
390
F
  0
LAYER
  5
26F
100
AcDbSymbolTableRecord
100
AcDbLayerTableRecord
  2
CAPC1608N_80000_48
 70
0
 62
7
  6
CONTINUOUS
370
-3
390
F
  0
LAYER
  5
270
100
AcDbSymbolTableRecord
100
AcDbLayerTableRecord
  2
CAPC1608N_80000_49
 70
0
 62
7
  6
CONTINUOUS
370
-3
390
F
  0
LAYER
  5
271
100
AcDbSymbolTableRecord
100
AcDbLayerTableRecord
  2
CAPC1608N_80000_5
 70
0
 62
7
  6
CONTINUOUS
370
-3
390
F
  0
LAYER
  5
272
100
AcDbSymbolTableRecord
100
AcDbLayerTableRecord
  2
CAPC1608N_80000_50
 70
0
 62
7
  6
CONTINUOUS
370
-3
390
F
  0
LAYER
  5
273
100
AcDbSymbolTableRecord
100
AcDbLayerTableRecord
  2
CAPC1608N_80000_51
 70
0
 62
7
  6
CONTINUOUS
370
-3
390
F
  0
LAYER
  5
274
100
AcDbSymbolTableRecord
100
AcDbLayerTableRecord
  2
CAPC1608N_80000_6
 70
0
 62
7
  6
CONTINUOUS
370
-3
390
F
  0
LAYER
  5
275
100
AcDbSymbolTableRecord
100
AcDbLayerTableRecord
  2
CAPC1608N_80000_7
 70
0
 62
7
  6
CONTINUOUS
370
-3
390
F
  0
LAYER
  5
276
100
AcDbSymbolTableRecord
100
AcDbLayerTableRecord
  2
CAPC1608N_80000_8
 70
0
 62
7
  6
CONTINUOUS
370
-3
390
F
  0
LAYER
  5
277
100
AcDbSymbolTableRecord
100
AcDbLayerTableRecord
  2
CAPC1608N_80000_9
 70
0
 62
7
  6
CONTINUOUS
370
-3
390
F
  0
LAYER
  5
278
100
AcDbSymbolTableRecord
100
AcDbLayerTableRecord
  2
CC-0603-VIMAR_1000
 70
0
 62
7
  6
CONTINUOUS
370
-3
390
F
  0
LAYER
  5
279
100
AcDbSymbolTableRecord
100
AcDbLayerTableRecord
  2
CC-0603-VIMAR_1000_1
 70
0
 62
7
  6
CONTINUOUS
370
-3
390
F
  0
LAYER
  5
27A
100
AcDbSymbolTableRecord
100
AcDbLayerTableRecord
  2
CC-0603-VIMAR_1000_2
 70
0
 62
7
  6
CONTINUOUS
370
-3
390
F
  0
LAYER
  5
27B
100
AcDbSymbolTableRecord
100
AcDbLayerTableRecord
  2
CC-0603-VIMAR_1000_3
 70
0
 62
7
  6
CONTINUOUS
370
-3
390
F
  0
LAYER
  5
27C
100
AcDbSymbolTableRecord
100
AcDbLayerTableRecord
  2
CC-0603-VIMAR_1000_4
 70
0
 62
7
  6
CONTINUOUS
370
-3
390
F
  0
LAYER
  5
27D
100
AcDbSymbolTableRecord
100
AcDbLayerTableRecord
  2
CN-SMD-RJ9-4P4C-RIGHT-VIMAR_115
 70
0
 62
7
  6
CONTINUOUS
370
-3
390
F
  0
LAYER
  5
27E
100
AcDbSymbolTableRecord
100
AcDbLayerTableRecord
  2
CN06-HEADER-SMD2_54-1-VIMAR_918
 70
0
 62
7
  6
CONTINUOUS
370
-3
390
F
  0
LAYER
  5
27F
100
AcDbSymbolTableRecord
100
AcDbLayerTableRecord
  2
CN1-REF_SQUAREHOLE12_SPEA-VIMAR
 70
0
 62
7
  6
CONTINUOUS
370
-3
390
F
  0
LAYER
  5
280
100
AcDbSymbolTableRecord
100
AcDbLayerTableRecord
  2
CN1-REF_SQUAREHOLE12_SPEA-VIM_1
 70
0
 62
7
  6
CONTINUOUS
370
-3
390
F
  0
LAYER
  5
281
100
AcDbSymbolTableRecord
100
AcDbLayerTableRecord
  2
CN1-REF_SQUAREHOLE12_SPEA-VIM_2
 70
0
 62
7
  6
CONTINUOUS
370
-3
390
F
  0
LAYER
  5
282
100
AcDbSymbolTableRecord
100
AcDbLayerTableRecord
  2
CN1-REF_SQUAREHOLE12_SPEA-VIM_3
 70
0
 62
7
  6
CONTINUOUS
370
-3
390
F
  0
LAYER
  5
283
100
AcDbSymbolTableRecord
100
AcDbLayerTableRecord
  2
CN1-TP15_SMD-VIMAR_5000
 70
0
 62
7
  6
CONTINUOUS
370
-3
390
F
  0
LAYER
  5
284
100
AcDbSymbolTableRecord
100
AcDbLayerTableRecord
  2
CN_SMD_HEADER_3P_P1_25_H_4_05MM
 70
0
 62
7
  6
CONTINUOUS
370
-3
390
F
  0
LAYER
  5
285
100
AcDbSymbolTableRecord
100
AcDbLayerTableRecord
  2
CN_SMD_HEADER_3P_P1_25_H_4_05_1
 70
0
 62
7
  6
CONTINUOUS
370
-3
390
F
  0
LAYER
  5
286
100
AcDbSymbolTableRecord
100
AcDbLayerTableRecord
  2
CN_SMD_HEADER_3P_P1_25_H_4_05_2
 70
0
 62
7
  6
CONTINUOUS
370
-3
390
F
  0
LAYER
  5
287
100
AcDbSymbolTableRecord
100
AcDbLayerTableRecord
  2
CN_SOCKET_2P_SMD_P1_0_H_4_25MM_
 70
0
 62
7
  6
CONTINUOUS
370
-3
390
F
  0
LAYER
  5
288
100
AcDbSymbolTableRecord
100
AcDbLayerTableRecord
  2
CN_SOCKET_2P_SMD_P1_0_H_4_25M_1
 70
0
 62
7
  6
CONTINUOUS
370
-3
390
F
  0
LAYER
  5
289
100
AcDbSymbolTableRecord
100
AcDbLayerTableRecord
  2
CN_SOCKET_2P_SMD_P1_0_H_4_25M_2
 70
0
 62
7
  6
CONTINUOUS
370
-3
390
F
  0
LAYER
  5
28A
100
AcDbSymbolTableRecord
100
AcDbLayerTableRecord
  2
CN_STRIP_2_P2_5-EH-VIMAR_600000
 70
0
 62
7
  6
CONTINUOUS
370
-3
390
F
  0
LAYER
  5
28B
100
AcDbSymbolTableRecord
100
AcDbLayerTableRecord
  2
CN_STRIP_2_P2_5-EH-VIMAR_6000_1
 70
0
 62
7
  6
CONTINUOUS
370
-3
390
F
  0
LAYER
  5
28C
100
AcDbSymbolTableRecord
100
AcDbLayerTableRecord
  2
CN_STRIP_2_P2_5-EH-VIMAR_6000_2
 70
0
 62
7
  6
CONTINUOUS
370
-3
390
F
  0
LAYER
  5
28D
100
AcDbSymbolTableRecord
100
AcDbLayerTableRecord
  2
COLOR1
 70
0
 62
7
  6
CONTINUOUS
370
-3
390
F
  0
LAYER
  5
28E
100
AcDbSymbolTableRecord
100
AcDbLayerTableRecord
  2
COLOR14
 70
0
 62
7
  6
CONTINUOUS
370
-3
390
F
  0
LAYER
  5
28F
100
AcDbSymbolTableRecord
100
AcDbLayerTableRecord
  2
COLOR15
 70
0
 62
7
  6
CONTINUOUS
370
-3
390
F
  0
LAYER
  5
290
100
AcDbSymbolTableRecord
100
AcDbLayerTableRecord
  2
COLOR6
 70
0
 62
7
  6
CONTINUOUS
370
-3
390
F
  0
LAYER
  5
291
100
AcDbSymbolTableRecord
100
AcDbLayerTableRecord
  2
COORDINATE
 70
0
 62
7
  6
CONTINUOUS
370
-3
390
F
  0
LAYER
  5
292
100
AcDbSymbolTableRecord
100
AcDbLayerTableRecord
  2
COORD_ORIGINE
 70
0
 62
7
  6
CONTINUOUS
370
-3
390
F
  0
LAYER
  5
293
100
AcDbSymbolTableRecord
100
AcDbLayerTableRecord
  2
COPY_PUBLISH
 70
0
 62
7
  6
CONTINUOUS
370
-3
390
F
  0
LAYER
  5
294
100
AcDbSymbolTableRecord
100
AcDbLayerTableRecord
  2
COSMETIC
 70
0
 62
7
  6
CONTINUOUS
370
-3
390
F
  0
LAYER
  5
295
100
AcDbSymbolTableRecord
100
AcDbLayerTableRecord
  2
COSMETICI
 70
0
 62
7
  6
CONTINUOUS
370
-3
390
F
  0
LAYER
  5
296
100
AcDbSymbolTableRecord
100
AcDbLayerTableRecord
  2
CP-CE4-RF_550000
 70
0
 62
7
  6
CONTINUOUS
370
-3
390
F
  0
LAYER
  5
297
100
AcDbSymbolTableRecord
100
AcDbLayerTableRecord
  2
CP-CE4-RF_550000_1
 70
0
 62
7
  6
CONTINUOUS
370
-3
390
F
  0
LAYER
  5
298
100
AcDbSymbolTableRecord
100
AcDbLayerTableRecord
  2
CP-CE4-RF_550000_2
 70
0
 62
7
  6
CONTINUOUS
370
-3
390
F
  0
LAYER
  5
299
100
AcDbSymbolTableRecord
100
AcDbLayerTableRecord
  2
CP-CE9-RF-VIMAR_1080000
 70
0
 62
7
  6
CONTINUOUS
370
-3
390
F
  0
LAYER
  5
29A
100
AcDbSymbolTableRecord
100
AcDbLayerTableRecord
  2
CP-DO-214AA-VIMAR_240000
 70
0
 62
7
  6
CONTINUOUS
370
-3
390
F
  0
LAYER
  5
29B
100
AcDbSymbolTableRecord
100
AcDbLayerTableRecord
  2
CP-DO-214AA-VIMAR_240000_1
 70
0
 62
7
  6
CONTINUOUS
370
-3
390
F
  0
LAYER
  5
29C
100
AcDbSymbolTableRecord
100
AcDbLayerTableRecord
  2
CP-DO-214AA-VIMAR_240000_2
 70
0
 62
7
  6
CONTINUOUS
370
-3
390
F
  0
LAYER
  5
29D
100
AcDbSymbolTableRecord
100
AcDbLayerTableRecord
  2
CP-DO-214AC-D-VIMAR_240000
 70
0
 62
7
  6
CONTINUOUS
370
-3
390
F
  0
LAYER
  5
29E
100
AcDbSymbolTableRecord
100
AcDbLayerTableRecord
  2
CP-DO-214AC-D-VIMAR_240000_1
 70
0
 62
7
  6
CONTINUOUS
370
-3
390
F
  0
LAYER
  5
29F
100
AcDbSymbolTableRecord
100
AcDbLayerTableRecord
  2
CP-DO-214AC-D-VIMAR_240000_2
 70
0
 62
7
  6
CONTINUOUS
370
-3
390
F
  0
LAYER
  5
2A0
100
AcDbSymbolTableRecord
100
AcDbLayerTableRecord
  2
CP-DO-214AC-D-VIMAR_240000_3
 70
0
 62
7
  6
CONTINUOUS
370
-3
390
F
  0
LAYER
  5
2A1
100
AcDbSymbolTableRecord
100
AcDbLayerTableRecord
  2
CURVE
 70
0
 62
7
  6
CONTINUOUS
370
-3
390
F
  0
LAYER
  5
2A2
100
AcDbSymbolTableRecord
100
AcDbLayerTableRecord
  2
CURVE_TA
 70
0
 62
7
  6
CONTINUOUS
370
-3
390
F
  0
LAYER
  5
2A3
100
AcDbSymbolTableRecord
100
AcDbLayerTableRecord
  2
DIOMELF3515N_160000
 70
0
 62
7
  6
CONTINUOUS
370
-3
390
F
  0
LAYER
  5
2A4
100
AcDbSymbolTableRecord
100
AcDbLayerTableRecord
  2
DL_SIDELED_420000
 70
0
 62
7
  6
CONTINUOUS
370
-3
390
F
  0
LAYER
  5
2A5
100
AcDbSymbolTableRecord
100
AcDbLayerTableRecord
  2
DRAFT
 70
0
 62
7
  6
CONTINUOUS
370
-3
390
F
  0
LAYER
  5
2A6
100
AcDbSymbolTableRecord
100
AcDbLayerTableRecord
  2
E4_MARK_10000
 70
0
 62
7
  6
CONTINUOUS
370
-3
390
F
  0
LAYER
  5
2A7
100
AcDbSymbolTableRecord
100
AcDbLayerTableRecord
  2
IGES_HOLGER
 70
0
 62
7
  6
CONTINUOUS
370
-3
390
F
  0
LAYER
  5
2A8
100
AcDbSymbolTableRecord
100
AcDbLayerTableRecord
  2
IMPORT_IGES
 70
0
 62
7
  6
CONTINUOUS
370
-3
390
F
  0
LAYER
  5
2A9
100
AcDbSymbolTableRecord
100
AcDbLayerTableRecord
  2
INCISIONI
 70
0
 62
7
  6
CONTINUOUS
370
-3
390
F
  0
LAYER
  5
2AA
100
AcDbSymbolTableRecord
100
AcDbLayerTableRecord
  2
INDC1711X100L_100000
 70
0
 62
7
  6
CONTINUOUS
370
-3
390
F
  0
LAYER
  5
2AB
100
AcDbSymbolTableRecord
100
AcDbLayerTableRecord
  2
INDC1711X100L_100000_1
 70
0
 62
7
  6
CONTINUOUS
370
-3
390
F
  0
LAYER
  5
2AC
100
AcDbSymbolTableRecord
100
AcDbLayerTableRecord
  2
IND_7X7_8X5_550000
 70
0
 62
7
  6
CONTINUOUS
370
-3
390
F
  0
LAYER
  5
2AD
100
AcDbSymbolTableRecord
100
AcDbLayerTableRecord
  2
INTFCLR_1
 70
0
 62
7
  6
CONTINUOUS
370
-3
390
F
  0
LAYER
  5
2AE
100
AcDbSymbolTableRecord
100
AcDbLayerTableRecord
  2
INTFCLR_2
 70
0
 62
7
  6
CONTINUOUS
370
-3
390
F
  0
LAYER
  5
2AF
100
AcDbSymbolTableRecord
100
AcDbLayerTableRecord
  2
INTFCLR_3
 70
0
 62
7
  6
CONTINUOUS
370
-3
390
F
  0
LAYER
  5
2B0
100
AcDbSymbolTableRecord
100
AcDbLayerTableRecord
  2
INTFCLR_4
 70
0
 62
7
  6
CONTINUOUS
370
-3
390
F
  0
LAYER
  5
2B1
100
AcDbSymbolTableRecord
100
AcDbLayerTableRecord
  2
INTFCLR_5
 70
0
 62
7
  6
CONTINUOUS
370
-3
390
F
  0
LAYER
  5
2B2
100
AcDbSymbolTableRecord
100
AcDbLayerTableRecord
  2
INTFCLR_6
 70
0
 62
7
  6
CONTINUOUS
370
-3
390
F
  0
LAYER
  5
2B3
100
AcDbSymbolTableRecord
100
AcDbLayerTableRecord
  2
INTFCLR_7
 70
0
 62
7
  6
CONTINUOUS
370
-3
390
F
  0
LAYER
  5
2B4
100
AcDbSymbolTableRecord
100
AcDbLayerTableRecord
  2
INTF_16
 70
0
 62
7
  6
CONTINUOUS
370
-3
390
F
  0
LAYER
  5
2B5
100
AcDbSymbolTableRecord
100
AcDbLayerTableRecord
  2
INTF_5
 70
0
 62
7
  6
CONTINUOUS
370
-3
390
F
  0
LAYER
  5
2B6
100
AcDbSymbolTableRecord
100
AcDbLayerTableRecord
  2
INTF_6
 70
0
 62
7
  6
CONTINUOUS
370
-3
390
F
  0
LAYER
  5
2B7
100
AcDbSymbolTableRecord
100
AcDbLayerTableRecord
  2
INTF_BLANK
 70
0
 62
7
  6
CONTINUOUS
370
-3
390
F
  0
LAYER
  5
2B8
100
AcDbSymbolTableRecord
100
AcDbLayerTableRecord
  2
INTF_CYAN
 70
0
 62
7
  6
CONTINUOUS
370
-3
390
F
  0
LAYER
  5
2B9
100
AcDbSymbolTableRecord
100
AcDbLayerTableRecord
  2
INTF_GREEN
 70
0
 62
7
  6
CONTINUOUS
370
-3
390
F
  0
LAYER
  5
2BA
100
AcDbSymbolTableRecord
100
AcDbLayerTableRecord
  2
INTF_YELLOW
 70
0
 62
7
  6
CONTINUOUS
370
-3
390
F
  0
LAYER
  5
2BB
100
AcDbSymbolTableRecord
100
AcDbLayerTableRecord
  2
LOGO_RESIST-RESTYLING_10000
 70
0
 62
7
  6
CONTINUOUS
370
-3
390
F
  0
LAYER
  5
2BC
100
AcDbSymbolTableRecord
100
AcDbLayerTableRecord
  2
MM2-X-1-VIMAR_430000
 70
0
 62
7
  6
CONTINUOUS
370
-3
390
F
  0
LAYER
  5
2BD
100
AcDbSymbolTableRecord
100
AcDbLayerTableRecord
  2
MM2-X-1-VIMAR_430000_1
 70
0
 62
7
  6
CONTINUOUS
370
-3
390
F
  0
LAYER
  5
2BE
100
AcDbSymbolTableRecord
100
AcDbLayerTableRecord
  2
MM2-X-2-VIMAR_250000
 70
0
 62
7
  6
CONTINUOUS
370
-3
390
F
  0
LAYER
  5
2BF
100
AcDbSymbolTableRecord
100
AcDbLayerTableRecord
  2
MM3-MPAK-RF-VIMAR_120000
 70
0
 62
7
  6
CONTINUOUS
370
-3
390
F
  0
LAYER
  5
2C0
100
AcDbSymbolTableRecord
100
AcDbLayerTableRecord
  2
MM3-MPAK-RF-VIMAR_120000_1
 70
0
 62
7
  6
CONTINUOUS
370
-3
390
F
  0
LAYER
  5
2C1
100
AcDbSymbolTableRecord
100
AcDbLayerTableRecord
  2
MM3-MPAK-RF-VIMAR_120000_2
 70
0
 62
7
  6
CONTINUOUS
370
-3
390
F
  0
LAYER
  5
2C2
100
AcDbSymbolTableRecord
100
AcDbLayerTableRecord
  2
MM3-MPAK-RF-VIMAR_120000_3
 70
0
 62
7
  6
CONTINUOUS
370
-3
390
F
  0
LAYER
  5
2C3
100
AcDbSymbolTableRecord
100
AcDbLayerTableRecord
  2
MM3-MPAK-RF-VIMAR_120000_4
 70
0
 62
7
  6
CONTINUOUS
370
-3
390
F
  0
LAYER
  5
2C4
100
AcDbSymbolTableRecord
100
AcDbLayerTableRecord
  2
MM3-SOT-89-RF-VIMAR_150000
 70
0
 62
7
  6
CONTINUOUS
370
-3
390
F
  0
LAYER
  5
2C5
100
AcDbSymbolTableRecord
100
AcDbLayerTableRecord
  2
MM3-SOT-89-RF-VIMAR_150000_1
 70
0
 62
7
  6
CONTINUOUS
370
-3
390
F
  0
LAYER
  5
2C6
100
AcDbSymbolTableRecord
100
AcDbLayerTableRecord
  2
MM5-SC70-1-VIMAR_110000
 70
0
 62
7
  6
CONTINUOUS
370
-3
390
F
  0
LAYER
  5
2C7
100
AcDbSymbolTableRecord
100
AcDbLayerTableRecord
  2
MM6-SOT563-RF_60000
 70
0
 62
7
  6
CONTINUOUS
370
-3
390
F
  0
LAYER
  5
2C8
100
AcDbSymbolTableRecord
100
AcDbLayerTableRecord
  2
NO-PB_MARK_10000
 70
0
 62
7
  6
CONTINUOUS
370
-3
390
F
  0
LAYER
  5
2C9
100
AcDbSymbolTableRecord
100
AcDbLayerTableRecord
  2
NOTE
 70
0
 62
7
  6
CONTINUOUS
370
-3
390
F
  0
LAYER
  5
2CA
100
AcDbSymbolTableRecord
100
AcDbLayerTableRecord
  2
PIANI
 70
0
 62
7
  6
CONTINUOUS
370
-3
390
F
  0
LAYER
  5
2CB
100
AcDbSymbolTableRecord
100
AcDbLayerTableRecord
  2
PIANI_ORIGINE
 70
0
 62
7
  6
CONTINUOUS
370
-3
390
F
  0
LAYER
  5
2CC
100
AcDbSymbolTableRecord
100
AcDbLayerTableRecord
  2
PIANI_RIFERIMENTO
 70
0
 62
7
  6
CONTINUOUS
370
-3
390
F
  0
LAYER
  5
2CD
100
AcDbSymbolTableRecord
100
AcDbLayerTableRecord
  2
PUNTI
 70
0
 62
7
  6
CONTINUOUS
370
-3
390
F
  0
LAYER
  5
2CE
100
AcDbSymbolTableRecord
100
AcDbLayerTableRecord
  2
QFN50P400X400X80-25N_80000
 70
0
 62
7
  6
CONTINUOUS
370
-3
390
F
  0
LAYER
  5
2CF
100
AcDbSymbolTableRecord
100
AcDbLayerTableRecord
  2
QFN50P500X500X80-29N_100000
 70
0
 62
7
  6
CONTINUOUS
370
-3
390
F
  0
LAYER
  5
2D0
100
AcDbSymbolTableRecord
100
AcDbLayerTableRecord
  2
QFN50P900X900X100-65N_100000
 70
0
 62
7
  6
CONTINUOUS
370
-3
390
F
  0
LAYER
  5
2D1
100
AcDbSymbolTableRecord
100
AcDbLayerTableRecord
  2
RACCORDO
 70
0
 62
7
  6
CONTINUOUS
370
-3
390
F
  0
LAYER
  5
2D2
100
AcDbSymbolTableRecord
100
AcDbLayerTableRecord
  2
RD-C100-5-VIMAR_1250000
 70
0
 62
7
  6
CONTINUOUS
370
-3
390
F
  0
LAYER
  5
2D3
100
AcDbSymbolTableRecord
100
AcDbLayerTableRecord
  2
RD-CE50-6_4-VIMAR_1000000
 70
0
 62
7
  6
CONTINUOUS
370
-3
390
F
  0
LAYER
  5
2D4
100
AcDbSymbolTableRecord
100
AcDbLayerTableRecord
  2
RD-ZNR50-1-VIMAR_1150000
 70
0
 62
7
  6
CONTINUOUS
370
-3
390
F
  0
LAYER
  5
2D5
100
AcDbSymbolTableRecord
100
AcDbLayerTableRecord
  2
RESC1608N_45000
 70
0
 62
7
  6
CONTINUOUS
370
-3
390
F
  0
LAYER
  5
2D6
100
AcDbSymbolTableRecord
100
AcDbLayerTableRecord
  2
RESC1608N_45000_1
 70
0
 62
7
  6
CONTINUOUS
370
-3
390
F
  0
LAYER
  5
2D7
100
AcDbSymbolTableRecord
100
AcDbLayerTableRecord
  2
RESC1608N_45000_10
 70
0
 62
7
  6
CONTINUOUS
370
-3
390
F
  0
LAYER
  5
2D8
100
AcDbSymbolTableRecord
100
AcDbLayerTableRecord
  2
RESC1608N_45000_11
 70
0
 62
7
  6
CONTINUOUS
370
-3
390
F
  0
LAYER
  5
2D9
100
AcDbSymbolTableRecord
100
AcDbLayerTableRecord
  2
RESC1608N_45000_12
 70
0
 62
7
  6
CONTINUOUS
370
-3
390
F
  0
LAYER
  5
2DA
100
AcDbSymbolTableRecord
100
AcDbLayerTableRecord
  2
RESC1608N_45000_13
 70
0
 62
7
  6
CONTINUOUS
370
-3
390
F
  0
LAYER
  5
2DB
100
AcDbSymbolTableRecord
100
AcDbLayerTableRecord
  2
RESC1608N_45000_14
 70
0
 62
7
  6
CONTINUOUS
370
-3
390
F
  0
LAYER
  5
2DC
100
AcDbSymbolTableRecord
100
AcDbLayerTableRecord
  2
RESC1608N_45000_15
 70
0
 62
7
  6
CONTINUOUS
370
-3
390
F
  0
LAYER
  5
2DD
100
AcDbSymbolTableRecord
100
AcDbLayerTableRecord
  2
RESC1608N_45000_16
 70
0
 62
7
  6
CONTINUOUS
370
-3
390
F
  0
LAYER
  5
2DE
100
AcDbSymbolTableRecord
100
AcDbLayerTableRecord
  2
RESC1608N_45000_17
 70
0
 62
7
  6
CONTINUOUS
370
-3
390
F
  0
LAYER
  5
2DF
100
AcDbSymbolTableRecord
100
AcDbLayerTableRecord
  2
RESC1608N_45000_18
 70
0
 62
7
  6
CONTINUOUS
370
-3
390
F
  0
LAYER
  5
2E0
100
AcDbSymbolTableRecord
100
AcDbLayerTableRecord
  2
RESC1608N_45000_19
 70
0
 62
7
  6
CONTINUOUS
370
-3
390
F
  0
LAYER
  5
2E1
100
AcDbSymbolTableRecord
100
AcDbLayerTableRecord
  2
RESC1608N_45000_2
 70
0
 62
7
  6
CONTINUOUS
370
-3
390
F
  0
LAYER
  5
2E2
100
AcDbSymbolTableRecord
100
AcDbLayerTableRecord
  2
RESC1608N_45000_20
 70
0
 62
7
  6
CONTINUOUS
370
-3
390
F
  0
LAYER
  5
2E3
100
AcDbSymbolTableRecord
100
AcDbLayerTableRecord
  2
RESC1608N_45000_21
 70
0
 62
7
  6
CONTINUOUS
370
-3
390
F
  0
LAYER
  5
2E4
100
AcDbSymbolTableRecord
100
AcDbLayerTableRecord
  2
RESC1608N_45000_22
 70
0
 62
7
  6
CONTINUOUS
370
-3
390
F
  0
LAYER
  5
2E5
100
AcDbSymbolTableRecord
100
AcDbLayerTableRecord
  2
RESC1608N_45000_23
 70
0
 62
7
  6
CONTINUOUS
370
-3
390
F
  0
LAYER
  5
2E6
100
AcDbSymbolTableRecord
100
AcDbLayerTableRecord
  2
RESC1608N_45000_24
 70
0
 62
7
  6
CONTINUOUS
370
-3
390
F
  0
LAYER
  5
2E7
100
AcDbSymbolTableRecord
100
AcDbLayerTableRecord
  2
RESC1608N_45000_25
 70
0
 62
7
  6
CONTINUOUS
370
-3
390
F
  0
LAYER
  5
2E8
100
AcDbSymbolTableRecord
100
AcDbLayerTableRecord
  2
RESC1608N_45000_26
 70
0
 62
7
  6
CONTINUOUS
370
-3
390
F
  0
LAYER
  5
2E9
100
AcDbSymbolTableRecord
100
AcDbLayerTableRecord
  2
RESC1608N_45000_27
 70
0
 62
7
  6
CONTINUOUS
370
-3
390
F
  0
LAYER
  5
2EA
100
AcDbSymbolTableRecord
100
AcDbLayerTableRecord
  2
RESC1608N_45000_28
 70
0
 62
7
  6
CONTINUOUS
370
-3
390
F
  0
LAYER
  5
2EB
100
AcDbSymbolTableRecord
100
AcDbLayerTableRecord
  2
RESC1608N_45000_29
 70
0
 62
7
  6
CONTINUOUS
370
-3
390
F
  0
LAYER
  5
2EC
100
AcDbSymbolTableRecord
100
AcDbLayerTableRecord
  2
RESC1608N_45000_3
 70
0
 62
7
  6
CONTINUOUS
370
-3
390
F
  0
LAYER
  5
2ED
100
AcDbSymbolTableRecord
100
AcDbLayerTableRecord
  2
RESC1608N_45000_30
 70
0
 62
7
  6
CONTINUOUS
370
-3
390
F
  0
LAYER
  5
2EE
100
AcDbSymbolTableRecord
100
AcDbLayerTableRecord
  2
RESC1608N_45000_31
 70
0
 62
7
  6
CONTINUOUS
370
-3
390
F
  0
LAYER
  5
2EF
100
AcDbSymbolTableRecord
100
AcDbLayerTableRecord
  2
RESC1608N_45000_32
 70
0
 62
7
  6
CONTINUOUS
370
-3
390
F
  0
LAYER
  5
2F0
100
AcDbSymbolTableRecord
100
AcDbLayerTableRecord
  2
RESC1608N_45000_4
 70
0
 62
7
  6
CONTINUOUS
370
-3
390
F
  0
LAYER
  5
2F1
100
AcDbSymbolTableRecord
100
AcDbLayerTableRecord
  2
RESC1608N_45000_5
 70
0
 62
7
  6
CONTINUOUS
370
-3
390
F
  0
LAYER
  5
2F2
100
AcDbSymbolTableRecord
100
AcDbLayerTableRecord
  2
RESC1608N_45000_6
 70
0
 62
7
  6
CONTINUOUS
370
-3
390
F
  0
LAYER
  5
2F3
100
AcDbSymbolTableRecord
100
AcDbLayerTableRecord
  2
RESC1608N_45000_7
 70
0
 62
7
  6
CONTINUOUS
370
-3
390
F
  0
LAYER
  5
2F4
100
AcDbSymbolTableRecord
100
AcDbLayerTableRecord
  2
RESC1608N_45000_8
 70
0
 62
7
  6
CONTINUOUS
370
-3
390
F
  0
LAYER
  5
2F5
100
AcDbSymbolTableRecord
100
AcDbLayerTableRecord
  2
RESC1608N_45000_9
 70
0
 62
7
  6
CONTINUOUS
370
-3
390
F
  0
LAYER
  5
2F6
100
AcDbSymbolTableRecord
100
AcDbLayerTableRecord
  2
SDIP6-VIMAR_400000
 70
0
 62
7
  6
CONTINUOUS
370
-3
390
F
  0
LAYER
  5
2F7
100
AcDbSymbolTableRecord
100
AcDbLayerTableRecord
  2
SDIP6-VIMAR_400000_1
 70
0
 62
7
  6
CONTINUOUS
370
-3
390
F
  0
LAYER
  5
2F8
100
AcDbSymbolTableRecord
100
AcDbLayerTableRecord
  2
SIMBOLI
 70
0
 62
7
  6
CONTINUOUS
370
-3
390
F
  0
LAYER
  5
2F9
100
AcDbSymbolTableRecord
100
AcDbLayerTableRecord
  2
SMUSSO
 70
0
 62
7
  6
CONTINUOUS
370
-3
390
F
  0
LAYER
  5
2FA
100
AcDbSymbolTableRecord
100
AcDbLayerTableRecord
  2
SNAPLINE
 70
0
 62
7
  6
CONTINUOUS
370
-3
390
F
  0
LAYER
  5
2FB
100
AcDbSymbolTableRecord
100
AcDbLayerTableRecord
  2
SO8C-VIMAR_343000
 70
0
 62
7
  6
CONTINUOUS
370
-3
390
F
  0
LAYER
  5
2FC
100
AcDbSymbolTableRecord
100
AcDbLayerTableRecord
  2
SOD123_135000
 70
0
 62
7
  6
CONTINUOUS
370
-3
390
F
  0
LAYER
  5
2FD
100
AcDbSymbolTableRecord
100
AcDbLayerTableRecord
  2
SOD123_135000_1
 70
0
 62
7
  6
CONTINUOUS
370
-3
390
F
  0
LAYER
  5
2FE
100
AcDbSymbolTableRecord
100
AcDbLayerTableRecord
  2
SOD123_135000_2
 70
0
 62
7
  6
CONTINUOUS
370
-3
390
F
  0
LAYER
  5
2FF
100
AcDbSymbolTableRecord
100
AcDbLayerTableRecord
  2
SOP8-T1-RF-FINE-VIMAR_150000
 70
0
 62
7
  6
CONTINUOUS
370
-3
390
F
  0
LAYER
  5
300
100
AcDbSymbolTableRecord
100
AcDbLayerTableRecord
  2
SOP8-T1-RF-FINE-VIMAR_150000_1
 70
0
 62
7
  6
CONTINUOUS
370
-3
390
F
  0
LAYER
  5
301
100
AcDbSymbolTableRecord
100
AcDbLayerTableRecord
  2
SUPERFICI
 70
0
 62
7
  6
CONTINUOUS
370
-3
390
F
  0
LAYER
  5
302
100
AcDbSymbolTableRecord
100
AcDbLayerTableRecord
  2
TASSELLO
 70
0
 62
7
  6
CONTINUOUS
370
-3
390
F
  0
LAYER
  5
303
100
AcDbSymbolTableRecord
100
AcDbLayerTableRecord
  2
TP10_SMD_0
 70
0
 62
7
  6
CONTINUOUS
370
-3
390
F
  0
LAYER
  5
304
100
AcDbSymbolTableRecord
100
AcDbLayerTableRecord
  2
TP10_SMD_0_1
 70
0
 62
7
  6
CONTINUOUS
370
-3
390
F
  0
LAYER
  5
305
100
AcDbSymbolTableRecord
100
AcDbLayerTableRecord
  2
TP10_SMD_0_2
 70
0
 62
7
  6
CONTINUOUS
370
-3
390
F
  0
LAYER
  5
306
100
AcDbSymbolTableRecord
100
AcDbLayerTableRecord
  2
TP15_SMD_0
 70
0
 62
7
  6
CONTINUOUS
370
-3
390
F
  0
LAYER
  5
307
100
AcDbSymbolTableRecord
100
AcDbLayerTableRecord
  2
TP15_SMD_0_1
 70
0
 62
7
  6
CONTINUOUS
370
-3
390
F
  0
LAYER
  5
308
100
AcDbSymbolTableRecord
100
AcDbLayerTableRecord
  2
TP15_SMD_0_2
 70
0
 62
7
  6
CONTINUOUS
370
-3
390
F
  0
LAYER
  5
309
100
AcDbSymbolTableRecord
100
AcDbLayerTableRecord
  2
TP15_SMD_0_3
 70
0
 62
7
  6
CONTINUOUS
370
-3
390
F
  0
LAYER
  5
30A
100
AcDbSymbolTableRecord
100
AcDbLayerTableRecord
  2
TP15_SMD_0_4
 70
0
 62
7
  6
CONTINUOUS
370
-3
390
F
  0
LAYER
  5
30B
100
AcDbSymbolTableRecord
100
AcDbLayerTableRecord
  2
TP15_SMD_0_5
 70
0
 62
7
  6
CONTINUOUS
370
-3
390
F
  0
LAYER
  5
30C
100
AcDbSymbolTableRecord
100
AcDbLayerTableRecord
  2
TQFP48-F1-RF-VIMAR_160000
 70
0
 62
7
  6
CONTINUOUS
370
-3
390
F
  0
LAYER
  5
30D
100
AcDbSymbolTableRecord
100
AcDbLayerTableRecord
  2
TRASH
 70
0
 62
7
  6
CONTINUOUS
370
-3
390
F
  0
LAYER
  5
30E
100
AcDbSymbolTableRecord
100
AcDbLayerTableRecord
  2
TR_5V_SMD_1020000
 70
0
 62
7
  6
CONTINUOUS
370
-3
390
F
  0
LAYER
  5
30F
100
AcDbSymbolTableRecord
100
AcDbLayerTableRecord
  2
TSSOP8-RF-VIMAR_110000
 70
0
 62
7
  6
CONTINUOUS
370
-3
390
F
  0
LAYER
  5
310
100
AcDbSymbolTableRecord
100
AcDbLayerTableRecord
  2
WHITE
 70
0
 62
7
  6
CONTINUOUS
370
-3
390
F
  0
LAYER
  5
311
100
AcDbSymbolTableRecord
100
AcDbLayerTableRecord
  2
___SHELL
 70
0
 62
7
  6
CONTINUOUS
370
-3
390
F
  0
ENDTAB
  0
TABLE
  2
STYLE
  5
3
100
AcDbSymbolTable
 70
1
  0
STYLE
  5
11
100
AcDbSymbolTableRecord
100
AcDbTextStyleTableRecord
  2
STANDARD
 70
0
 40
0.0
 41
0.8
 50
0.0
 71
0
 42
0.2
  3
txt
  4

  0
STYLE
  5
312
100
AcDbSymbolTableRecord
100
AcDbTextStyleTableRecord
  2
TEXTSTYLE_1
 70
0
 40
0.0
 41
0.8
 50
0.0
 71
0
 42
0.2
  3
gdt
  4

  0
ENDTAB
  0
TABLE
  2
VIEW
  5
6
100
AcDbSymbolTable
 70
0
  0
ENDTAB
  0
TABLE
  2
UCS
  5
7
100
AcDbSymbolTable
 70
0
  0
ENDTAB
  0
TABLE
  2
APPID
  5
9
100
AcDbSymbolTable
 70
1
  0
APPID
  5
313
100
AcDbSymbolTableRecord
100
AcDbRegAppTableRecord
  2
ACAD
 70
0
  0
ENDTAB
  0
TABLE
  2
BLOCK_RECORD
  5
1
100
AcDbSymbolTable
 70
0
  0
BLOCK_RECORD
  5
314
100
AcDbSymbolTableRecord
100
AcDbBlockTableRecord
  2
*Model_Space
  0
BLOCK_RECORD
  5
315
100
AcDbSymbolTableRecord
100
AcDbBlockTableRecord
  2
*Paper_Space
  0
ENDTAB
  0
TABLE
  2
DIMSTYLE
  5
A
100
AcDbSymbolTable
 70
1
100
AcDbDimStyleTable
 71
0
  0
DIMSTYLE
105
316
100
AcDbSymbolTableRecord
100
AcDbDimStyleTableRecord
  2
STANDARD
 70
0
  3

  4

 40
1.0
 41
3.0
 42
0.5
 43
0.38
 44
1.5
 45
0.0
 46
0.0
 47
0.01
 48
0.01
140
3.0
141
0.09
142
0.0
143
25.4
144
1.0
145
0.0
146
1.0
147
0.625
 71
1.0
 72
0.0
 73
0
 74
0
 75
0
 76
0
 77
1
 78
8
170
0
171
2
172
0
173
0
174
0
175
0
176
0
177
0
178
0
270
2
271
2
272
2
273
2
274
2
275
0
280
0
281
0
282
0
283
1
284
8
285
0
286
0
287
3
288
0
340
11
278
44
  0
ENDTAB
  0
ENDSEC
  0
SECTION
  2
BLOCKS
  0
BLOCK
  5
20
100
AcDbEntity
  8
0
100
AcDbBlockBegin
  2
*Model_Space
 70
0
 10
0.0
 20
0.0
 30
0.0
  3
*Model_Space
  1

  0
ENDBLK
  5
21
100
AcDbEntity
  8
0
100
AcDbBlockEnd
  0
BLOCK
  5
1C
100
AcDbEntity
  8
0
100
AcDbBlockBegin
  2
*Paper_Space
 70
0
 10
0.0
 20
0.0
 30
0.0
  3
*Paper_Space
  1

  0
ENDBLK
  5
1D
100
AcDbEntity
  8
0
100
AcDbBlockEnd
  0
ENDSEC
  0
SECTION
  2
ENTITIES
  0
LINE
  5
317
100
AcDbEntity
  8
0
100
AcDbLine
 62
7
  6
CONTINUOUS
 10
9.7222547468
 20
-56.3750961124
 11
13.7222547468
 21
-56.3750961124
  0
LINE
  5
318
100
AcDbEntity
  8
ASSI
100
AcDbLine
 62
7
  6
CONTINUOUS
 10
-23.2777452532
 20
-54.8851535705
 11
-14.6725095313
 21
-54.7349486223
  0
LINE
  5
319
100
AcDbEntity
  8
0
100
AcDbLine
 62
7
  6
CONTINUOUS
 10
-23.2777452532
 20
-54.8851535705
 11
-14.6725095313
 21
-54.7349486223
  0
LINE
  5
31A
100
AcDbEntity
  8
ASSI
100
AcDbLine
 62
253
  6
CONTINUOUS
 10
-23.2777452532
 20
-54.3852297229
 11
-14.6725095313
 21
-54.2350247747
  0
LINE
  5
31B
100
AcDbEntity
  8
0
100
AcDbLine
 62
253
  6
CONTINUOUS
 10
-23.2777452532
 20
-54.3852297229
 11
-14.6725095313
 21
-54.2350247747
  0
LINE
  5
31C
100
AcDbEntity
  8
ASSI
100
AcDbLine
 62
7
  6
CONTINUOUS
 10
-16.16901905
 20
-53.4610702931
 11
-23.2777452532
 21
-53.5851535705
  0
LINE
  5
31D
100
AcDbEntity
  8
0
100
AcDbLine
 62
7
  6
CONTINUOUS
 10
-16.16901905
 20
-53.4610702931
 11
-23.2777452532
 21
-53.5851535705
  0
LINE
  5
31E
100
AcDbEntity
  8
ASSI
100
AcDbLine
 62
253
  6
CONTINUOUS
 10
-23.2777452532
 20
-53.0852297229
 11
-16.16901905
 21
-52.9611464455
  0
LINE
  5
31F
100
AcDbEntity
  8
0
100
AcDbLine
 62
253
  6
CONTINUOUS
 10
-23.2777452532
 20
-53.0852297229
 11
-16.16901905
 21
-52.9611464455
  0
LINE
  5
320
100
AcDbEntity
  8
0
100
AcDbLine
 62
253
  6
CONTINUOUS
 10
-32.1777452532
 20
-54.2350247747
 11
-31.8829809752
 21
-54.2350247747
  0
LINE
  5
321
100
AcDbEntity
  8
ASSI
100
AcDbLine
 62
253
  6
CONTINUOUS
 10
-14.3777452532
 20
-54.2350247747
 11
-14.6725095313
 21
-54.2350247756
  0
LINE
  5
322
100
AcDbEntity
  8
0
100
AcDbLine
 62
253
  6
CONTINUOUS
 10
-14.3777452532
 20
-54.2350247747
 11
-14.6725095313
 21
-54.2350247756
  0
LINE
  5
323
100
AcDbEntity
  8
0
100
AcDbLine
 62
253
  6
CONTINUOUS
 10
-30.8777452532
 20
-52.9611464455
 11
-30.3864714565
 21
-52.9611464455
  0
LINE
  5
324
100
AcDbEntity
  8
ASSI
100
AcDbLine
 62
253
  6
CONTINUOUS
 10
-15.6777452532
 20
-52.9611464455
 11
-16.16901905
 21
-52.9611464455
  0
LINE
  5
325
100
AcDbEntity
  8
0
100
AcDbLine
 62
253
  6
CONTINUOUS
 10
-15.6777452532
 20
-52.9611464455
 11
-16.16901905
 21
-52.9611464455
  0
LINE
  5
326
100
AcDbEntity
  8
0
100
AcDbLine
 62
7
  6
CONTINUOUS
 10
-23.2777452532
 20
-54.8851535705
 11
-31.8829809752
 21
-54.7349486223
  0
LINE
  5
327
100
AcDbEntity
  8
0
100
AcDbLine
 62
253
  6
CONTINUOUS
 10
-23.2777452532
 20
-54.3852297229
 11
-31.8829809752
 21
-54.2350773504
  0
LINE
  5
328
100
AcDbEntity
  8
0
100
AcDbLine
 62
7
  6
CONTINUOUS
 10
-30.3864714565
 20
-53.4610702931
 11
-23.2777452532
 21
-53.5851535705
  0
LINE
  5
329
100
AcDbEntity
  8
0
100
AcDbLine
 62
253
  6
CONTINUOUS
 10
-30.3864714565
 20
-52.9611464455
 11
-23.2777452532
 21
-53.0852297229
  0
LINE
  5
32A
100
AcDbEntity
  8
0
100
AcDbLine
 62
253
  6
CONTINUOUS
 10
-23.2777452532
 20
-47.4850774181
 11
-30.3864714565
 21
-47.6091606955
  0
LINE
  5
32B
100
AcDbEntity
  8
0
100
AcDbLine
 62
253
  6
CONTINUOUS
 10
-30.8777452532
 20
-47.6091606955
 11
-30.3864714565
 21
-47.6091606955
  0
LINE
  5
32C
100
AcDbEntity
  8
ASSI
100
AcDbLine
 62
253
  6
CONTINUOUS
 10
-15.6777452532
 20
-47.6091606955
 11
-16.16901905
 21
-47.6091606955
  0
LINE
  5
32D
100
AcDbEntity
  8
0
100
AcDbLine
 62
253
  6
CONTINUOUS
 10
-15.6777452532
 20
-47.6091606955
 11
-16.16901905
 21
-47.6091606955
  0
LINE
  5
32E
100
AcDbEntity
  8
ASSI
100
AcDbLine
 62
253
  6
CONTINUOUS
 10
-16.16901905
 20
-47.6091606955
 11
-23.2777452532
 21
-47.4850774181
  0
LINE
  5
32F
100
AcDbEntity
  8
0
100
AcDbLine
 62
253
  6
CONTINUOUS
 10
-16.16901905
 20
-47.6091606955
 11
-23.2777452532
 21
-47.4850774181
  0
LINE
  5
330
100
AcDbEntity
  8
ASSI
100
AcDbLine
 62
7
  6
CONTINUOUS
 10
-16.16901905
 20
-47.109236848
 11
-23.2777452532
 21
-46.9851535705
  0
LINE
  5
331
100
AcDbEntity
  8
0
100
AcDbLine
 62
7
  6
CONTINUOUS
 10
-16.16901905
 20
-47.109236848
 11
-23.2777452532
 21
-46.9851535705
  0
LWPOLYLINE
  5
332
100
AcDbEntity
  8
0
100
AcDbPolyline
 62
253
  6
CONTINUOUS
 90
8
 70
0
 10
-30.3864714565
 20
-53.4610702931
 10
-30.3871918514
 20
-53.4591914412
 10
-30.3878433525
 20
-53.4535755645
 10
-30.3884204937
 20
-53.4442355334
 10
-30.3889187016
 20
-53.4312000467
 10
-30.389333007
 20
-53.4145462905
 10
-30.3896588409
 20
-53.3944303939
 10
-30.3898935356
 20
-53.3710291433
  0
LINE
  5
333
100
AcDbEntity
  8
0
100
AcDbLine
 62
7
  6
CONTINUOUS
 10
-23.2777452532
 20
-46.9851535705
 11
-30.3864714565
 21
-47.109236848
  0
LWPOLYLINE
  5
334
100
AcDbEntity
  8
0
100
AcDbPolyline
 62
253
  6
CONTINUOUS
 90
6
 70
0
 10
-31.8829809752
 20
-54.7349486223
 10
-31.8833554764
 20
-54.7335442892
 10
-31.8837009816
 20
-54.7293526942
 10
-31.884014276
 20
-54.7223973074
 10
-31.8842915804
 20
-54.7127170619
 10
-31.8845311917
 20
-54.7003660904
  0
LINE
  5
335
100
AcDbEntity
  8
0
100
AcDbLine
 62
7
  6
CONTINUOUS
 10
-29.3300812095
 20
-38.0679640836
 11
-23.2777452532
 21
-38.3851535705
  0
LINE
  5
336
100
AcDbEntity
  8
ASSI
100
AcDbLine
 62
7
  6
CONTINUOUS
 10
-23.2777452532
 20
-38.0851535705
 11
-27.7562491876
 21
-37.8504451248
  0
LINE
  5
337
100
AcDbEntity
  8
0
100
AcDbLine
 62
7
  6
CONTINUOUS
 10
-23.2777452532
 20
-38.0851535705
 11
-27.7562491876
 21
-37.8504451248
  0
LINE
  5
338
100
AcDbEntity
  8
0
100
AcDbLine
 62
7
  6
CONTINUOUS
 10
-23.3777452532
 20
-34.983883339
 11
-26.3777452532
 21
-35.0886456475
  0
LINE
  5
339
100
AcDbEntity
  8
0
100
AcDbLine
 62
7
  6
CONTINUOUS
 10
-29.1777452532
 20
-35.186423802
 11
-32.1777452532
 21
-35.2911861105
  0
LINE
  5
33A
100
AcDbEntity
  8
ASSI
100
AcDbLine
 62
7
  6
CONTINUOUS
 10
-14.3777452532
 20
-35.4946143497
 11
-26.3777452532
 21
-35.2851535705
  0
LINE
  5
33B
100
AcDbEntity
  8
0
100
AcDbLine
 62
7
  6
CONTINUOUS
 10
-14.3777452532
 20
-35.4946143497
 11
-26.3777452532
 21
-35.2851535705
  0
LINE
  5
33C
100
AcDbEntity
  8
0
100
AcDbLine
 62
253
  6
CONTINUOUS
 10
-30.3884342454
 20
-47.4795901792
 11
-30.3864714565
 21
-47.6091606955
  0
LINE
  5
33D
100
AcDbEntity
  8
0
100
AcDbLine
 62
253
  6
CONTINUOUS
 10
-31.8845311917
 20
-54.7003660904
 11
-31.8848970274
 21
-54.6679426598
  0
LINE
  5
33E
100
AcDbEntity
  8
0
100
AcDbLine
 62
253
  6
CONTINUOUS
 10
-31.8845311917
 20
21.4996339096
 11
-31.8848970274
 21
21.5320573402
  0
LINE
  5
33F
100
AcDbEntity
  8
0
100
AcDbLine
 62
253
  6
CONTINUOUS
 10
-30.3896665574
 20
-47.3588704231
 11
-30.3884342454
 21
-47.4795901792
  0
LINE
  5
340
100
AcDbEntity
  8
0
100
AcDbLine
 62
253
  6
CONTINUOUS
 10
-31.8829809752
 20
-17.5852823663
 11
-31.884733498
 21
-17.3683915447
  0
LINE
  5
341
100
AcDbEntity
  8
0
100
AcDbLine
 62
253
  6
CONTINUOUS
 10
-31.8829809752
 20
55.8647176337
 11
-31.884733498
 21
56.0816084553
  0
LINE
  5
342
100
AcDbEntity
  8
0
100
AcDbLine
 62
253
  6
CONTINUOUS
 10
-30.3900383958
 20
-47.2874227076
 11
-30.3896665574
 21
-47.3588704231
  0
LINE
  5
343
100
AcDbEntity
  8
0
100
AcDbLine
 62
253
  6
CONTINUOUS
 10
-31.8848970274
 20
-54.6679426598
 11
-31.8851022055
 21
-54.6258511552
  0
LINE
  5
344
100
AcDbEntity
  8
0
100
AcDbLine
 62
253
  6
CONTINUOUS
 10
-31.8848970274
 20
21.5320573402
 11
-31.8851022055
 21
21.5741488448
  0
LINE
  5
345
100
AcDbEntity
  8
0
100
AcDbLine
 62
253
  6
CONTINUOUS
 10
-30.3898935356
 20
-53.3710291433
 11
-30.3900840789
 21
-53.3150493438
  0
LINE
  5
346
100
AcDbEntity
  8
0
100
AcDbLine
 62
253
  6
CONTINUOUS
 10
-31.884733498
 20
-17.3683915447
 11
-31.885143794
 21
-17.2452757314
  0
LINE
  5
347
100
AcDbEntity
  8
0
100
AcDbLine
 62
253
  6
CONTINUOUS
 10
-31.884733498
 20
56.0816084553
 11
-31.885143794
 21
56.2047242686
  0
LINE
  5
348
100
AcDbEntity
  8
0
100
AcDbLine
 62
7
  6
CONTINUOUS
 10
-32.1777452532
 20
-54.4349943137
 11
-32.1777452532
 21
56.0646871727
  0
LINE
  5
349
100
AcDbEntity
  8
0
100
AcDbLine
 62
253
  6
CONTINUOUS
 10
-31.8829809752
 20
-54.2350773504
 11
-31.8829809752
 21
-35.2808927151
  0
LINE
  5
34A
100
AcDbEntity
  8
0
100
AcDbLine
 62
253
  6
CONTINUOUS
 10
-31.8829809752
 20
-31.0894144259
 11
-31.8829809752
 21
-17.5852823663
  0
LINE
  5
34B
100
AcDbEntity
  8
0
100
AcDbLine
 62
253
  6
CONTINUOUS
 10
-31.8829809752
 20
-17.0853585188
 11
-31.8829809752
 21
-1.2808927151
  0
LINE
  5
34C
100
AcDbEntity
  8
0
100
AcDbLine
 62
253
  6
CONTINUOUS
 10
-31.8829809752
 20
2.9105855741
 11
-31.8829809752
 21
21.4650513777
  0
LINE
  5
34D
100
AcDbEntity
  8
0
100
AcDbLine
 62
253
  6
CONTINUOUS
 10
-31.8829809752
 20
21.9649226496
 11
-31.8829809752
 21
55.8647176337
  0
LINE
  5
34E
100
AcDbEntity
  8
0
100
AcDbLine
 62
7
  6
CONTINUOUS
 10
-30.8777452532
 20
-47.6091606955
 11
-30.8777452532
 21
-52.9611464455
  0
LINE
  5
34F
100
AcDbEntity
  8
0
100
AcDbLine
 62
253
  6
CONTINUOUS
 10
-30.3864714565
 20
-47.6091606955
 11
-30.3864714565
 21
-52.9611464455
  0
LINE
  5
350
100
AcDbEntity
  8
0
100
AcDbLine
 62
7
  6
CONTINUOUS
 10
-30.2777452532
 20
4.6990274078
 11
-30.2777452532
 21
2.8545295075
  0
LINE
  5
351
100
AcDbEntity
  8
0
100
AcDbLine
 62
7
  6
CONTINUOUS
 10
-30.2777452532
 20
-1.2248366485
 11
-30.2777452532
 21
-3.0693345488
  0
LINE
  5
352
100
AcDbEntity
  8
0
100
AcDbLine
 62
7
  6
CONTINUOUS
 10
-30.2777452532
 20
-29.3009725922
 11
-30.2777452532
 21
-31.1454704925
  0
LINE
  5
353
100
AcDbEntity
  8
0
100
AcDbLine
 62
7
  6
CONTINUOUS
 10
-30.2777452532
 20
-35.2248366485
 11
-30.2777452532
 21
-37.0693345488
  0
LINE
  5
354
100
AcDbEntity
  8
0
100
AcDbLine
 62
253
  6
CONTINUOUS
 10
-31.8851022055
 20
21.5741488448
 11
-31.8851021148
 21
21.6533035461
  0
LINE
  5
355
100
AcDbEntity
  8
0
100
AcDbLine
 62
253
  6
CONTINUOUS
 10
-31.8851022055
 20
-54.6258511552
 11
-31.8851021148
 21
-54.5466964539
  0
LINE
  5
356
100
AcDbEntity
  8
0
100
AcDbLine
 62
253
  6
CONTINUOUS
 10
-31.885143794
 20
56.2047242686
 11
-31.885019675
 21
56.2777441384
  0
LINE
  5
357
100
AcDbEntity
  8
0
100
AcDbLine
 62
253
  6
CONTINUOUS
 10
-31.885143794
 20
-17.2452757314
 11
-31.885019675
 21
-17.1722558616
  0
LINE
  5
358
100
AcDbEntity
  8
0
100
AcDbLine
 62
253
  6
CONTINUOUS
 10
-30.3900840789
 20
-53.3150493438
 11
-30.389898867
 21
-53.2482564714
  0
LINE
  5
359
100
AcDbEntity
  8
0
100
AcDbLine
 62
253
  6
CONTINUOUS
 10
-31.8851021148
 20
21.6533035461
 11
-31.8842913597
 21
21.8176349695
  0
LINE
  5
35A
100
AcDbEntity
  8
0
100
AcDbLine
 62
253
  6
CONTINUOUS
 10
-31.8851021148
 20
-54.5466964539
 11
-31.8842913597
 21
-54.3823650305
  0
LWPOLYLINE
  5
35B
100
AcDbEntity
  8
0
100
AcDbPolyline
 62
253
  6
CONTINUOUS
 90
8
 70
0
 10
-31.885019675
 20
56.2777441384
 10
-31.8847331945
 20
56.3151060402
 10
-31.8845309115
 20
56.3300594619
 10
-31.8842913597
 20
56.3424109226
 10
-31.8840141451
 20
56.3520900736
 10
-31.8837009985
 20
56.3590437645
 10
-31.8833557282
 20
56.3632349475
 10
-31.8829815694
 20
56.3646414681
  0
LWPOLYLINE
  5
35C
100
AcDbEntity
  8
0
100
AcDbPolyline
 62
253
  6
CONTINUOUS
 90
8
 70
0
 10
-31.885019675
 20
-17.1722558616
 10
-31.8847331945
 20
-17.1348939598
 10
-31.8845309115
 20
-17.1199405381
 10
-31.8842913597
 20
-17.1075890774
 10
-31.8840141451
 20
-17.0979099264
 10
-31.8837009985
 20
-17.0909562355
 10
-31.8833557282
 20
-17.0867650525
 10
-31.8829815694
 20
-17.0853585319
  0
LINE
  5
35D
100
AcDbEntity
  8
0
100
AcDbLine
 62
253
  6
CONTINUOUS
 10
-31.8842913597
 20
21.8176349695
 11
-31.8829815694
 21
21.96492266
  0
LINE
  5
35E
100
AcDbEntity
  8
0
100
AcDbLine
 62
253
  6
CONTINUOUS
 10
-31.8842913597
 20
-54.3823650305
 11
-31.8829815694
 21
-54.23507734
  0
LWPOLYLINE
  5
35F
100
AcDbEntity
  8
0
100
AcDbPolyline
 62
253
  6
CONTINUOUS
 90
3
 70
0
 10
-30.389898867
 20
-53.2482564714
 10
-30.3889314437
 20
-53.1323660858
 10
-30.3884342452
 20
-53.0907169461
  0
LINE
  5
360
100
AcDbEntity
  8
ASSI
100
AcDbLine
 62
7
  6
CONTINUOUS
 10
-14.3777452532
 20
-30.8756927914
 11
-26.3777452532
 21
-31.0851535705
  0
LINE
  5
361
100
AcDbEntity
  8
0
100
AcDbLine
 62
7
  6
CONTINUOUS
 10
-14.3777452532
 20
-30.8756927914
 11
-26.3777452532
 21
-31.0851535705
  0
LINE
  5
362
100
AcDbEntity
  8
0
100
AcDbLine
 62
7
  6
CONTINUOUS
 10
-23.3777452532
 20
-31.386423802
 11
-26.3777452532
 21
-31.2816614936
  0
LINE
  5
363
100
AcDbEntity
  8
0
100
AcDbLine
 62
7
  6
CONTINUOUS
 10
-29.1777452532
 20
-31.183883339
 11
-32.1777452532
 21
-31.0791210305
  0
LWPOLYLINE
  5
364
100
AcDbEntity
  8
ASSI
100
AcDbPolyline
 62
253
  6
CONTINUOUS
 90
8
 70
0
 10
-16.16901905
 20
-47.109236848
 10
-16.1682986551
 20
-47.1111156998
 10
-16.167647154
 20
-47.1167315765
 10
-16.1670700128
 20
-47.1260716076
 10
-16.1665718049
 20
-47.1391070943
 10
-16.1661574995
 20
-47.1557608505
 10
-16.1658316656
 20
-47.1758767471
 10
-16.1655969709
 20
-47.1992779977
  0
LWPOLYLINE
  5
365
100
AcDbEntity
  8
0
100
AcDbPolyline
 62
253
  6
CONTINUOUS
 90
8
 70
0
 10
-16.16901905
 20
-47.109236848
 10
-16.1682986551
 20
-47.1111156998
 10
-16.167647154
 20
-47.1167315765
 10
-16.1670700128
 20
-47.1260716076
 10
-16.1665718049
 20
-47.1391070943
 10
-16.1661574995
 20
-47.1557608505
 10
-16.1658316656
 20
-47.1758767471
 10
-16.1655969709
 20
-47.1992779977
  0
LINE
  5
366
100
AcDbEntity
  8
RACCORDO
100
AcDbLine
 62
7
  6
CONTINUOUS
 10
-27.6580235221
 20
21.0069960262
 11
-27.6571318054
 21
20.9193050172
  0
LINE
  5
367
100
AcDbEntity
  8
DRAFT
100
AcDbLine
 62
7
  6
CONTINUOUS
 10
-27.6553960542
 20
20.0148464295
 11
-27.6567991753
 21
20.3148464295
  0
LINE
  5
368
100
AcDbEntity
  8
RACCORDO
100
AcDbLine
 62
7
  6
CONTINUOUS
 10
-27.6571318054
 20
20.9193050172
 11
-27.6567991753
 21
20.8148464295
  0
LINE
  5
369
100
AcDbEntity
  8
ASSI
100
AcDbLine
 62
7
  6
CONTINUOUS
 10
-29.1777452532
 20
-36.3525008227
 11
-29.1777452532
 21
-30.0178063184
  0
LINE
  5
36A
100
AcDbEntity
  8
0
100
AcDbLine
 62
7
  6
CONTINUOUS
 10
-29.1777452532
 20
-36.3525008227
 11
-29.1777452532
 21
-30.0178063184
  0
LINE
  5
36B
100
AcDbEntity
  8
ASSI
100
AcDbLine
 62
7
  6
CONTINUOUS
 10
-29.1777452532
 20
-2.3525008227
 11
-29.1777452532
 21
3.9821936816
  0
LINE
  5
36C
100
AcDbEntity
  8
0
100
AcDbLine
 62
7
  6
CONTINUOUS
 10
-29.1777452532
 20
-2.3525008227
 11
-29.1777452532
 21
3.9821936816
  0
LINE
  5
36D
100
AcDbEntity
  8
0
100
AcDbLine
 62
7
  6
CONTINUOUS
 10
-27.9777452532
 20
21.3968852346
 11
-27.9777452532
 21
16.5395385129
  0
LINE
  5
36E
100
AcDbEntity
  8
RACCORDO
100
AcDbLine
 62
7
  6
CONTINUOUS
 10
-27.6777452532
 20
21.1148464295
 11
-27.6777452532
 21
21.3916487152
  0
LINE
  5
36F
100
AcDbEntity
  8
RACCORDO
100
AcDbLine
 62
7
  6
CONTINUOUS
 10
-27.6567991753
 20
20.3148464295
 11
-27.6567991753
 21
20.8148464295
  0
LINE
  5
370
100
AcDbEntity
  8
ASSI
100
AcDbLine
 62
7
  6
CONTINUOUS
 10
-26.3777452532
 20
-35.2851535705
 11
-26.3777452532
 21
-31.0851535705
  0
LINE
  5
371
100
AcDbEntity
  8
0
100
AcDbLine
 62
7
  6
CONTINUOUS
 10
-26.3777452532
 20
-35.2851535705
 11
-26.3777452532
 21
-31.0851535705
  0
LINE
  5
372
100
AcDbEntity
  8
ASSI
100
AcDbLine
 62
7
  6
CONTINUOUS
 10
-26.3777452532
 20
-1.2851535705
 11
-26.3777452532
 21
2.9148464295
  0
LINE
  5
373
100
AcDbEntity
  8
0
100
AcDbLine
 62
7
  6
CONTINUOUS
 10
-26.3777452532
 20
-1.2851535705
 11
-26.3777452532
 21
2.9148464295
  0
LINE
  5
374
100
AcDbEntity
  8
0
100
AcDbLine
 62
7
  6
CONTINUOUS
 10
-26.2777452532
 20
-35.0851535705
 11
-26.2777452532
 21
-31.2851535705
  0
LINE
  5
375
100
AcDbEntity
  8
0
100
AcDbLine
 62
7
  6
CONTINUOUS
 10
-26.2777452532
 20
-1.0851535705
 11
-26.2777452532
 21
2.7148464295
  0
LINE
  5
376
100
AcDbEntity
  8
0
100
AcDbLine
 62
253
  6
CONTINUOUS
 10
-30.3884342452
 20
-53.0907169461
 11
-30.3864714565
 21
-52.9611464455
  0
LINE
  5
377
100
AcDbEntity
  8
DRAFT
100
AcDbLine
 62
7
  6
CONTINUOUS
 10
-27.6135859786
 20
21.3905288109
 11
-27.6375986039
 21
20.0148464295
  0
LINE
  5
378
100
AcDbEntity
  8
ASSI
100
AcDbLine
 62
7
  6
CONTINUOUS
 10
-23.2777452532
 20
-28.2851535705
 11
-27.7562491876
 21
-28.5198620162
  0
LINE
  5
379
100
AcDbEntity
  8
0
100
AcDbLine
 62
7
  6
CONTINUOUS
 10
-23.2777452532
 20
-28.2851535705
 11
-27.7562491876
 21
-28.5198620162
  0
LINE
  5
37A
100
AcDbEntity
  8
0
100
AcDbLine
 62
7
  6
CONTINUOUS
 10
-23.2777452532
 20
-27.9851535705
 11
-29.3300812095
 21
-28.3023430575
  0
LINE
  5
37B
100
AcDbEntity
  8
0
100
AcDbLine
 62
7
  6
CONTINUOUS
 10
-25.2777452532
 20
-35.050232801
 11
-25.2777452532
 21
-31.32007434
  0
LINE
  5
37C
100
AcDbEntity
  8
0
100
AcDbLine
 62
7
  6
CONTINUOUS
 10
-25.2777452532
 20
-1.050232801
 11
-25.2777452532
 21
2.67992566
  0
LINE
  5
37D
100
AcDbEntity
  8
0
100
AcDbLine
 62
7
  6
CONTINUOUS
 10
-23.3777452532
 20
-35.3375187653
 11
-23.3777452532
 21
-31.0327883757
  0
LINE
  5
37E
100
AcDbEntity
  8
0
100
AcDbLine
 62
7
  6
CONTINUOUS
 10
-23.3777452532
 20
-1.3375187653
 11
-23.3777452532
 21
2.9672116243
  0
LINE
  5
37F
100
AcDbEntity
  8
0
100
AcDbLine
 62
7
  6
CONTINUOUS
 10
-23.2777452532
 20
56.5148464295
 11
-23.2777452532
 21
21.3148464295
  0
LINE
  5
380
100
AcDbEntity
  8
ASSI
100
AcDbLine
 62
7
  6
CONTINUOUS
 10
-23.2777452532
 20
-54.8851535705
 11
-23.2777452532
 21
-53.5851535705
  0
LINE
  5
381
100
AcDbEntity
  8
0
100
AcDbLine
 62
7
  6
CONTINUOUS
 10
-23.2777452532
 20
-54.8851535705
 11
-23.2777452532
 21
-53.5851535705
  0
LINE
  5
382
100
AcDbEntity
  8
0
100
AcDbLine
 62
7
  6
CONTINUOUS
 10
-23.2777452532
 20
-53.583131197
 11
-23.2777452532
 21
-46.987175944
  0
LINE
  5
383
100
AcDbEntity
  8
0
100
AcDbLine
 62
7
  6
CONTINUOUS
 10
-23.2777452532
 20
-46.9851535705
 11
-23.2777452532
 21
20.0148464295
  0
LINE
  5
384
100
AcDbEntity
  8
ASSI
100
AcDbLine
 62
7
  6
CONTINUOUS
 10
-23.2777452532
 20
-46.987175944
 11
-23.2777452532
 21
-53.583131197
  0
LINE
  5
385
100
AcDbEntity
  8
ASSI
100
AcDbLine
 62
7
  6
CONTINUOUS
 10
-23.2777452532
 20
-46.9851535705
 11
-23.2777452532
 21
20.0148464295
  0
LINE
  5
386
100
AcDbEntity
  8
ASSI
100
AcDbLine
 62
7
  6
CONTINUOUS
 10
-23.2777452532
 20
21.3148464295
 11
-23.2777452532
 21
56.5148464295
  0
LINE
  5
387
100
AcDbEntity
  8
0
100
AcDbLine
 62
7
  6
CONTINUOUS
 10
13.7222547468
 20
-21.4851535705
 11
9.7222547468
 21
-21.4851535705
  0
LWPOLYLINE
  5
388
100
AcDbEntity
  8
0
100
AcDbPolyline
 62
253
  6
CONTINUOUS
 90
6
 70
0
 10
-31.8829809752
 20
21.4650513777
 10
-31.8833554764
 20
21.4664557108
 10
-31.8837009816
 20
21.4706473058
 10
-31.884014276
 20
21.4776026926
 10
-31.8842915804
 20
21.4872829381
 10
-31.8845311917
 20
21.4996339096
  0
LWPOLYLINE
  5
389
100
AcDbEntity
  8
RACCORDO
100
AcDbPolyline
 62
7
  6
CONTINUOUS
 90
6
 70
0
 10
-27.6620356948
 20
21.1148464295
 10
-27.6610849155
 20
21.1091821695
 10
-27.6602121115
 20
21.095783029
 10
-27.6594172826
 20
21.0746490082
 10
-27.6586814148
 20
21.0446899574
 10
-27.6580235221
 20
21.0069960262
  0
LINE
  5
38A
100
AcDbEntity
  8
DRAFT
100
AcDbLine
 62
7
  6
CONTINUOUS
 10
-18.9419045279
 20
21.3905288109
 11
-18.9178919026
 21
20.0148464295
  0
LWPOLYLINE
  5
38B
100
AcDbEntity
  8
ASSI
100
AcDbPolyline
 62
253
  6
CONTINUOUS
 90
3
 70
0
 10
-16.1665590626
 20
-53.1323661068
 10
-16.1670562611
 20
-53.0907169618
 10
-16.16901905
 20
-52.9611464455
  0
LWPOLYLINE
  5
38C
100
AcDbEntity
  8
0
100
AcDbPolyline
 62
253
  6
CONTINUOUS
 90
3
 70
0
 10
-16.1665590626
 20
-53.1323661068
 10
-16.1670562611
 20
-53.0907169618
 10
-16.16901905
 20
-52.9611464455
  0
LINE
  5
38D
100
AcDbEntity
  8
RACCORDO
100
AcDbLine
 62
7
  6
CONTINUOUS
 10
-18.8777452532
 20
21.3916487152
 11
-18.8777452532
 21
21.1148464295
  0
LINE
  5
38E
100
AcDbEntity
  8
ASSI
100
AcDbLine
 62
7
  6
CONTINUOUS
 10
-18.5777452532
 20
16.5395385129
 11
-18.5777452532
 21
21.3968852346
  0
LINE
  5
38F
100
AcDbEntity
  8
0
100
AcDbLine
 62
7
  6
CONTINUOUS
 10
-18.5777452532
 20
16.5395385129
 11
-18.5777452532
 21
21.3968852346
  0
LINE
  5
390
100
AcDbEntity
  8
RACCORDO
100
AcDbLine
 62
7
  6
CONTINUOUS
 10
-18.8986913312
 20
20.3148464295
 11
-18.8985925252
 21
20.8693079393
  0
LINE
  5
391
100
AcDbEntity
  8
DRAFT
100
AcDbLine
 62
7
  6
CONTINUOUS
 10
-18.9000944523
 20
20.0148464295
 11
-18.8986913312
 21
20.3148464295
  0
LWPOLYLINE
  5
392
100
AcDbEntity
  8
RACCORDO
100
AcDbPolyline
 62
7
  6
CONTINUOUS
 90
8
 70
0
 10
-18.8985925252
 20
20.8693079393
 10
-18.8979898589
 20
20.9648376629
 10
-18.8974669844
 20
21.0069960262
 10
-18.8968090917
 20
21.0446899574
 10
-18.8960732239
 20
21.0746490082
 10
-18.895278395
 20
21.095783029
 10
-18.894405591
 20
21.1091821695
 10
-18.8934548117
 20
21.1148464295
  0
LINE
  5
393
100
AcDbEntity
  8
0
100
AcDbLine
 62
253
  6
CONTINUOUS
 10
-23.2777452532
 20
-17.4350774181
 11
-31.8829809752
 21
-17.5852823663
  0
LINE
  5
394
100
AcDbEntity
  8
0
100
AcDbLine
 62
253
  6
CONTINUOUS
 10
-32.1777452532
 20
-17.5852823663
 11
-31.8829809752
 21
-17.5852823654
  0
LINE
  5
395
100
AcDbEntity
  8
ASSI
100
AcDbLine
 62
253
  6
CONTINUOUS
 10
-14.3777452532
 20
-17.5852823663
 11
-14.6725095313
 21
-17.5852823663
  0
LINE
  5
396
100
AcDbEntity
  8
0
100
AcDbLine
 62
253
  6
CONTINUOUS
 10
-14.3777452532
 20
-17.5852823663
 11
-14.6725095313
 21
-17.5852823663
  0
LINE
  5
397
100
AcDbEntity
  8
ASSI
100
AcDbLine
 62
253
  6
CONTINUOUS
 10
-23.2777452532
 20
-17.4350774181
 11
-14.6725095313
 21
-17.5852297907
  0
LINE
  5
398
100
AcDbEntity
  8
0
100
AcDbLine
 62
253
  6
CONTINUOUS
 10
-23.2777452532
 20
-17.4350774181
 11
-14.6725095313
 21
-17.5852297907
  0
LINE
  5
399
100
AcDbEntity
  8
ASSI
100
AcDbLine
 62
7
  6
CONTINUOUS
 10
-23.2777452532
 20
-16.9351535705
 11
-14.6725095313
 21
-17.0853585188
  0
LINE
  5
39A
100
AcDbEntity
  8
0
100
AcDbLine
 62
7
  6
CONTINUOUS
 10
-23.2777452532
 20
-16.9351535705
 11
-14.6725095313
 21
-17.0853585188
  0
LWPOLYLINE
  5
39B
100
AcDbEntity
  8
ASSI
100
AcDbPolyline
 62
253
  6
CONTINUOUS
 90
6
 70
0
 10
-14.6725095313
 20
-17.0853585188
 10
-14.6721350301
 20
-17.0867628519
 10
-14.6717895249
 20
-17.0909544468
 10
-14.6714762305
 20
-17.0979098337
 10
-14.6711989261
 20
-17.1075900791
 10
-14.6709593148
 20
-17.1199410507
  0
LWPOLYLINE
  5
39C
100
AcDbEntity
  8
0
100
AcDbPolyline
 62
253
  6
CONTINUOUS
 90
6
 70
0
 10
-14.6725095313
 20
-17.0853585188
 10
-14.6721350301
 20
-17.0867628519
 10
-14.6717895249
 20
-17.0909544468
 10
-14.6714762305
 20
-17.0979098337
 10
-14.6711989261
 20
-17.1075900791
 10
-14.6709593148
 20
-17.1199410507
  0
LINE
  5
39D
100
AcDbEntity
  8
ASSI
100
AcDbLine
 62
253
  6
CONTINUOUS
 10
-14.6709593148
 20
-17.1199410507
 11
-14.6705934791
 21
-17.1523644812
  0
LINE
  5
39E
100
AcDbEntity
  8
0
100
AcDbLine
 62
253
  6
CONTINUOUS
 10
-14.6709593148
 20
-17.1199410507
 11
-14.6705934791
 21
-17.1523644812
  0
LINE
  5
39F
100
AcDbEntity
  8
ASSI
100
AcDbLine
 62
253
  6
CONTINUOUS
 10
-14.6709593148
 20
56.3300589493
 11
-14.6705934791
 21
56.2976355188
  0
LINE
  5
3A0
100
AcDbEntity
  8
0
100
AcDbLine
 62
253
  6
CONTINUOUS
 10
-14.6709593148
 20
56.3300589493
 11
-14.6705934791
 21
56.2976355188
  0
LINE
  5
3A1
100
AcDbEntity
  8
ASSI
100
AcDbLine
 62
253
  6
CONTINUOUS
 10
-16.1655916393
 20
-53.2482565027
 11
-16.1665590626
 21
-53.1323661068
  0
LINE
  5
3A2
100
AcDbEntity
  8
0
100
AcDbLine
 62
253
  6
CONTINUOUS
 10
-16.1655916393
 20
-53.2482565027
 11
-16.1665590626
 21
-53.1323661068
  0
LINE
  5
3A3
100
AcDbEntity
  8
ASSI
100
AcDbLine
 62
253
  6
CONTINUOUS
 10
-14.6725095313
 20
-54.2350247747
 11
-14.6707570085
 21
-54.4519155963
  0
LINE
  5
3A4
100
AcDbEntity
  8
0
100
AcDbLine
 62
253
  6
CONTINUOUS
 10
-14.6725095313
 20
-54.2350247747
 11
-14.6707570085
 21
-54.4519155963
  0
LINE
  5
3A5
100
AcDbEntity
  8
ASSI
100
AcDbLine
 62
253
  6
CONTINUOUS
 10
-14.6725095313
 20
21.9649752253
 11
-14.6707570085
 21
21.7480844037
  0
LINE
  5
3A6
100
AcDbEntity
  8
0
100
AcDbLine
 62
253
  6
CONTINUOUS
 10
-14.6725095313
 20
21.9649752253
 11
-14.6707570085
 21
21.7480844037
  0
LINE
  5
3A7
100
AcDbEntity
  8
ASSI
100
AcDbLine
 62
253
  6
CONTINUOUS
 10
-14.6705934791
 20
-17.1523644812
 11
-14.670388301
 21
-17.1944559858
  0
LINE
  5
3A8
100
AcDbEntity
  8
0
100
AcDbLine
 62
253
  6
CONTINUOUS
 10
-14.6705934791
 20
-17.1523644812
 11
-14.670388301
 21
-17.1944559858
  0
LINE
  5
3A9
100
AcDbEntity
  8
ASSI
100
AcDbLine
 62
253
  6
CONTINUOUS
 10
-14.6705934791
 20
56.2976355188
 11
-14.670388301
 21
56.2555440142
  0
LINE
  5
3AA
100
AcDbEntity
  8
0
100
AcDbLine
 62
253
  6
CONTINUOUS
 10
-14.6705934791
 20
56.2976355188
 11
-14.670388301
 21
56.2555440142
  0
LINE
  5
3AB
100
AcDbEntity
  8
ASSI
100
AcDbLine
 62
253
  6
CONTINUOUS
 10
-16.1655969709
 20
-47.1992779977
 11
-16.1654064276
 21
-47.2552577972
  0
LINE
  5
3AC
100
AcDbEntity
  8
0
100
AcDbLine
 62
253
  6
CONTINUOUS
 10
-16.1655969709
 20
-47.1992779977
 11
-16.1654064276
 21
-47.2552577972
  0
LINE
  5
3AD
100
AcDbEntity
  8
ASSI
100
AcDbLine
 62
253
  6
CONTINUOUS
 10
-16.1654064276
 20
-53.3150493764
 11
-16.1655916393
 21
-53.2482565027
  0
LINE
  5
3AE
100
AcDbEntity
  8
0
100
AcDbLine
 62
253
  6
CONTINUOUS
 10
-16.1654064276
 20
-53.3150493764
 11
-16.1655916393
 21
-53.2482565027
  0
LINE
  5
3AF
100
AcDbEntity
  8
ASSI
100
AcDbLine
 62
253
  6
CONTINUOUS
 10
-14.6707570085
 20
-54.4519155963
 11
-14.6703467125
 21
-54.5750314097
  0
LINE
  5
3B0
100
AcDbEntity
  8
0
100
AcDbLine
 62
253
  6
CONTINUOUS
 10
-14.6707570085
 20
-54.4519155963
 11
-14.6703467125
 21
-54.5750314097
  0
LINE
  5
3B1
100
AcDbEntity
  8
ASSI
100
AcDbLine
 62
253
  6
CONTINUOUS
 10
-14.6707570085
 20
21.7480844037
 11
-14.6703467125
 21
21.6249685903
  0
LINE
  5
3B2
100
AcDbEntity
  8
0
100
AcDbLine
 62
253
  6
CONTINUOUS
 10
-14.6707570085
 20
21.7480844037
 11
-14.6703467125
 21
21.6249685903
  0
LINE
  5
3B3
100
AcDbEntity
  8
ASSI
100
AcDbLine
 62
253
  6
CONTINUOUS
 10
-16.16901905
 20
-52.9611464455
 11
-16.16901905
 21
-47.6091606955
  0
LINE
  5
3B4
100
AcDbEntity
  8
0
100
AcDbLine
 62
253
  6
CONTINUOUS
 10
-16.16901905
 20
-52.9611464455
 11
-16.16901905
 21
-47.6091606955
  0
LINE
  5
3B5
100
AcDbEntity
  8
ASSI
100
AcDbLine
 62
7
  6
CONTINUOUS
 10
-15.6777452532
 20
-52.9611464455
 11
-15.6777452532
 21
-47.6091606955
  0
LINE
  5
3B6
100
AcDbEntity
  8
0
100
AcDbLine
 62
7
  6
CONTINUOUS
 10
-15.6777452532
 20
-52.9611464455
 11
-15.6777452532
 21
-47.6091606955
  0
LINE
  5
3B7
100
AcDbEntity
  8
ASSI
100
AcDbLine
 62
253
  6
CONTINUOUS
 10
-14.6725095313
 20
55.8647702093
 11
-14.6725095313
 21
21.9649752253
  0
LINE
  5
3B8
100
AcDbEntity
  8
0
100
AcDbLine
 62
253
  6
CONTINUOUS
 10
-14.6725095313
 20
55.8647702093
 11
-14.6725095313
 21
21.9649752253
  0
LINE
  5
3B9
100
AcDbEntity
  8
ASSI
100
AcDbLine
 62
253
  6
CONTINUOUS
 10
-14.6725095313
 20
21.4650513777
 11
-14.6725095313
 21
3.119162079
  0
LINE
  5
3BA
100
AcDbEntity
  8
0
100
AcDbLine
 62
253
  6
CONTINUOUS
 10
-14.6725095313
 20
21.4650513777
 11
-14.6725095313
 21
3.119162079
  0
LINE
  5
3BB
100
AcDbEntity
  8
ASSI
100
AcDbLine
 62
253
  6
CONTINUOUS
 10
-14.6725095313
 20
-1.48946922
 11
-14.6725095313
 21
-17.0853585188
  0
LINE
  5
3BC
100
AcDbEntity
  8
0
100
AcDbLine
 62
253
  6
CONTINUOUS
 10
-14.6725095313
 20
-1.48946922
 11
-14.6725095313
 21
-17.0853585188
  0
LINE
  5
3BD
100
AcDbEntity
  8
ASSI
100
AcDbLine
 62
253
  6
CONTINUOUS
 10
-14.6725095313
 20
-17.5852297907
 11
-14.6725095313
 21
-30.880837921
  0
LINE
  5
3BE
100
AcDbEntity
  8
0
100
AcDbLine
 62
253
  6
CONTINUOUS
 10
-14.6725095313
 20
-17.5852297907
 11
-14.6725095313
 21
-30.880837921
  0
LINE
  5
3BF
100
AcDbEntity
  8
ASSI
100
AcDbLine
 62
253
  6
CONTINUOUS
 10
-14.6725095313
 20
-35.48946922
 11
-14.6725095313
 21
-54.2350247747
  0
LINE
  5
3C0
100
AcDbEntity
  8
0
100
AcDbLine
 62
253
  6
CONTINUOUS
 10
-14.6725095313
 20
-35.48946922
 11
-14.6725095313
 21
-54.2350247747
  0
LINE
  5
3C1
100
AcDbEntity
  8
ASSI
100
AcDbLine
 62
7
  6
CONTINUOUS
 10
-14.3777452532
 20
56.0646871727
 11
-14.3777452532
 21
-54.4344089034
  0
LINE
  5
3C2
100
AcDbEntity
  8
0
100
AcDbLine
 62
7
  6
CONTINUOUS
 10
-14.3777452532
 20
56.0646871727
 11
-14.3777452532
 21
-54.4344089034
  0
LINE
  5
3C3
100
AcDbEntity
  8
ASSI
100
AcDbLine
 62
253
  6
CONTINUOUS
 10
-14.670388301
 20
56.2555440142
 11
-14.6703883916
 21
56.1763893129
  0
LINE
  5
3C4
100
AcDbEntity
  8
0
100
AcDbLine
 62
253
  6
CONTINUOUS
 10
-14.670388301
 20
56.2555440142
 11
-14.6703883916
 21
56.1763893129
  0
LINE
  5
3C5
100
AcDbEntity
  8
ASSI
100
AcDbLine
 62
253
  6
CONTINUOUS
 10
-14.670388301
 20
-17.1944559858
 11
-14.6703883916
 21
-17.2736106871
  0
LINE
  5
3C6
100
AcDbEntity
  8
0
100
AcDbLine
 62
253
  6
CONTINUOUS
 10
-14.670388301
 20
-17.1944559858
 11
-14.6703883916
 21
-17.2736106871
  0
LINE
  5
3C7
100
AcDbEntity
  8
ASSI
100
AcDbLine
 62
253
  6
CONTINUOUS
 10
-14.6703467125
 20
21.6249685903
 11
-14.6704708315
 21
21.5519487205
  0
LINE
  5
3C8
100
AcDbEntity
  8
0
100
AcDbLine
 62
253
  6
CONTINUOUS
 10
-14.6703467125
 20
21.6249685903
 11
-14.6704708315
 21
21.5519487205
  0
LINE
  5
3C9
100
AcDbEntity
  8
ASSI
100
AcDbLine
 62
253
  6
CONTINUOUS
 10
-14.6703467125
 20
-54.5750314097
 11
-14.6704708315
 21
-54.6480512795
  0
LINE
  5
3CA
100
AcDbEntity
  8
0
100
AcDbLine
 62
253
  6
CONTINUOUS
 10
-14.6703467125
 20
-54.5750314097
 11
-14.6704708315
 21
-54.6480512795
  0
LINE
  5
3CB
100
AcDbEntity
  8
ASSI
100
AcDbLine
 62
253
  6
CONTINUOUS
 10
-16.1654064276
 20
-47.2552577972
 11
-16.1655916395
 21
-47.3220506697
  0
LINE
  5
3CC
100
AcDbEntity
  8
0
100
AcDbLine
 62
253
  6
CONTINUOUS
 10
-16.1654064276
 20
-47.2552577972
 11
-16.1655916395
 21
-47.3220506697
  0
LINE
  5
3CD
100
AcDbEntity
  8
ASSI
100
AcDbLine
 62
253
  6
CONTINUOUS
 10
-14.6703883916
 20
56.1763893129
 11
-14.6711991468
 21
56.0120578895
  0
LINE
  5
3CE
100
AcDbEntity
  8
0
100
AcDbLine
 62
253
  6
CONTINUOUS
 10
-14.6703883916
 20
56.1763893129
 11
-14.6711991468
 21
56.0120578895
  0
LINE
  5
3CF
100
AcDbEntity
  8
ASSI
100
AcDbLine
 62
253
  6
CONTINUOUS
 10
-14.6703883916
 20
-17.2736106871
 11
-14.6711991468
 21
-17.4379421105
  0
LINE
  5
3D0
100
AcDbEntity
  8
0
100
AcDbLine
 62
253
  6
CONTINUOUS
 10
-14.6703883916
 20
-17.2736106871
 11
-14.6711991468
 21
-17.4379421105
  0
LWPOLYLINE
  5
3D1
100
AcDbEntity
  8
ASSI
100
AcDbPolyline
 62
253
  6
CONTINUOUS
 90
8
 70
0
 10
-14.6704708315
 20
21.5519487205
 10
-14.670757312
 20
21.5145868188
 10
-14.670959595
 20
21.4996333971
 10
-14.6711991468
 20
21.4872819364
 10
-14.6714763614
 20
21.4776027854
 10
-14.671789508
 20
21.4706490944
 10
-14.6721347783
 20
21.4664579115
 10
-14.6725089371
 20
21.4650513909
  0
LWPOLYLINE
  5
3D2
100
AcDbEntity
  8
0
100
AcDbPolyline
 62
253
  6
CONTINUOUS
 90
8
 70
0
 10
-14.6704708315
 20
21.5519487205
 10
-14.670757312
 20
21.5145868188
 10
-14.670959595
 20
21.4996333971
 10
-14.6711991468
 20
21.4872819364
 10
-14.6714763614
 20
21.4776027854
 10
-14.671789508
 20
21.4706490944
 10
-14.6721347783
 20
21.4664579115
 10
-14.6725089371
 20
21.4650513909
  0
LWPOLYLINE
  5
3D3
100
AcDbEntity
  8
ASSI
100
AcDbPolyline
 62
253
  6
CONTINUOUS
 90
8
 70
0
 10
-14.6704708315
 20
-54.6480512795
 10
-14.670757312
 20
-54.6854131812
 10
-14.670959595
 20
-54.7003666029
 10
-14.6711991468
 20
-54.7127180636
 10
-14.6714763614
 20
-54.7223972146
 10
-14.671789508
 20
-54.7293509056
 10
-14.6721347783
 20
-54.7335420885
 10
-14.6725089371
 20
-54.7349486091
  0
LWPOLYLINE
  5
3D4
100
AcDbEntity
  8
0
100
AcDbPolyline
 62
253
  6
CONTINUOUS
 90
8
 70
0
 10
-14.6704708315
 20
-54.6480512795
 10
-14.670757312
 20
-54.6854131812
 10
-14.670959595
 20
-54.7003666029
 10
-14.6711991468
 20
-54.7127180636
 10
-14.6714763614
 20
-54.7223972146
 10
-14.671789508
 20
-54.7293509056
 10
-14.6721347783
 20
-54.7335420885
 10
-14.6725089371
 20
-54.7349486091
  0
LINE
  5
3D5
100
AcDbEntity
  8
ASSI
100
AcDbLine
 62
253
  6
CONTINUOUS
 10
-14.6711991468
 20
56.0120578895
 11
-14.6725089371
 21
55.864770199
  0
LINE
  5
3D6
100
AcDbEntity
  8
0
100
AcDbLine
 62
253
  6
CONTINUOUS
 10
-14.6711991468
 20
56.0120578895
 11
-14.6725089371
 21
55.864770199
  0
LINE
  5
3D7
100
AcDbEntity
  8
ASSI
100
AcDbLine
 62
253
  6
CONTINUOUS
 10
-14.6711991468
 20
-17.4379421105
 11
-14.6725089371
 21
-17.585229801
  0
LINE
  5
3D8
100
AcDbEntity
  8
0
100
AcDbLine
 62
253
  6
CONTINUOUS
 10
-14.6711991468
 20
-17.4379421105
 11
-14.6725089371
 21
-17.585229801
  0
LINE
  5
3D9
100
AcDbEntity
  8
ASSI
100
AcDbLine
 62
253
  6
CONTINUOUS
 10
-16.1655916395
 20
-47.3220506697
 11
-16.1665590628
 21
-47.4379410552
  0
LINE
  5
3DA
100
AcDbEntity
  8
0
100
AcDbLine
 62
253
  6
CONTINUOUS
 10
-16.1655916395
 20
-47.3220506697
 11
-16.1665590628
 21
-47.4379410552
  0
LWPOLYLINE
  5
3DB
100
AcDbEntity
  8
ASSI
100
AcDbPolyline
 62
253
  6
CONTINUOUS
 90
3
 70
0
 10
-16.1665590628
 20
-47.4379410552
 10
-16.1682909687
 20
-47.5655279009
 10
-16.16901905
 20
-47.6091606955
  0
LWPOLYLINE
  5
3DC
100
AcDbEntity
  8
0
100
AcDbPolyline
 62
253
  6
CONTINUOUS
 90
3
 70
0
 10
-16.1665590628
 20
-47.4379410552
 10
-16.1682909687
 20
-47.5655279009
 10
-16.16901905
 20
-47.6091606955
  0
LWPOLYLINE
  5
3DD
100
AcDbEntity
  8
RACCORDO
100
AcDbPolyline
 62
253
  6
CONTINUOUS
 90
16
 70
0
 10
6.9713980041
 20
18.2233193187
 10
6.9413211431
 20
18.2074861842
 10
6.9121641078
 20
18.1899075091
 10
6.884302806
 20
18.1708099208
 10
6.8580964405
 20
18.1504396285
 10
6.8338828781
 20
18.1290592492
 10
6.811974294
 20
18.1069444219
 10
6.7926531469
 20
18.0843802539
 10
6.7761685373
 20
18.061657645
 10
6.7627329963
 20
18.0390695373
 10
6.7525197453
 20
18.0169071383
 10
6.7456604627
 20
17.9954561668
 10
6.7422435865
 20
17.974993169
 10
6.7423131739
 20
17.9557819536
 10
6.7458683331
 20
17.9380701901
 10
6.7528632352
 20
17.9220862166
  0
LINE
  5
3DE
100
AcDbEntity
  8
0
100
AcDbLine
 62
7
  6
CONTINUOUS
 10
-23.2777452532
 20
-16.9351535705
 11
-31.8829809752
 21
-17.0853585188
  0
LINE
  5
3DF
100
AcDbEntity
  8
0
100
AcDbLine
 62
7
  6
CONTINUOUS
 10
-31.8829809752
 20
-15.2853585188
 11
-23.2777452532
 21
-15.1351535705
  0
LINE
  5
3E0
100
AcDbEntity
  8
ASSI
100
AcDbLine
 62
7
  6
CONTINUOUS
 10
-14.6725095313
 20
-15.2853585188
 11
-23.2777452532
 21
-15.1351535705
  0
LINE
  5
3E1
100
AcDbEntity
  8
0
100
AcDbLine
 62
7
  6
CONTINUOUS
 10
-14.6725095313
 20
-15.2853585188
 11
-23.2777452532
 21
-15.1351535705
  0
LWPOLYLINE
  5
3E2
100
AcDbEntity
  8
0
100
AcDbPolyline
 62
253
  6
CONTINUOUS
 90
10
 70
0
 10
-30.3864714565
 20
-47.109236848
 10
-30.387191851
 20
-47.1111156978
 10
-30.3878433519
 20
-47.1167315694
 10
-30.388420493
 20
-47.1260715937
 10
-30.388918701
 20
-47.1391070734
 10
-30.3893330064
 20
-47.1557608238
 10
-30.3896588405
 20
-47.1758767159
 10
-30.3898935353
 20
-47.199277964
 10
-30.3900356437
 20
-47.2258035297
 10
-30.3900383958
 20
-47.2874227076
  0
LWPOLYLINE
  5
3E3
100
AcDbEntity
  8
RACCORDO
100
AcDbPolyline
 62
253
  6
CONTINUOUS
 90
16
 70
0
 10
-0.978494043
 20
13.6334428765
 10
-0.9497444897
 20
13.6515742259
 10
-0.9199431157
 20
13.6680361376
 10
-0.8894741264
 20
13.6826163816
 10
-0.8587303343
 20
13.6951269867
 10
-0.8281080945
 20
13.7054066638
 10
-0.7980021947
 20
13.7133228847
 10
-0.7688007664
 20
13.7187735923
 10
-0.7408802802
 20
13.721688515
 10
-0.7146006928
 20
13.7220300732
 10
-0.6903008058
 20
13.7197938637
 10
-0.6682938983
 20
13.7150087163
 10
-0.6488636881
 20
13.7077363224
 10
-0.6322606732
 20
13.6980704393
 10
-0.6186989033
 20
13.6861356816
 10
-0.6083532194
 20
13.6720859149
  0
LINE
  5
3E4
100
AcDbEntity
  8
RACCORDO
100
AcDbLine
 62
253
  6
CONTINUOUS
 10
6.784905162
 20
17.2796486105
 11
6.3474420965
 21
17.0052582066
  0
LINE
  5
3E5
100
AcDbEntity
  8
RACCORDO
100
AcDbLine
 62
253
  6
CONTINUOUS
 10
6.3474420965
 20
17.0052582066
 11
6.1258887094
 21
16.8672819822
  0
LINE
  5
3E6
100
AcDbEntity
  8
RACCORDO
100
AcDbLine
 62
7
  6
CONTINUOUS
 10
6.6430550917
 20
17.5122782938
 11
-0.1985455982
 21
13.5622782938
  0
LINE
  5
3E7
100
AcDbEntity
  8
RACCORDO
100
AcDbLine
 62
253
  6
CONTINUOUS
 10
6.1258886985
 20
16.867281976
 11
0.618620798
 21
13.6876593711
  0
LINE
  5
3E8
100
AcDbEntity
  8
RACCORDO
100
AcDbLine
 62
253
  6
CONTINUOUS
 10
0.6186207841
 20
13.6876593631
 11
0.1594518588
 21
13.4432382687
  0
LINE
  5
3E9
100
AcDbEntity
  8
RACCORDO
100
AcDbLine
 62
253
  6
CONTINUOUS
 10
0.1594518588
 20
13.4432382687
 11
-0.068007418
 21
13.3231176878
  0
LWPOLYLINE
  5
3EA
100
AcDbEntity
  8
RACCORDO
100
AcDbPolyline
 62
253
  6
CONTINUOUS
 90
19
 70
0
 10
-0.068007418
 20
13.3231176878
 10
-0.1116410542
 20
13.3023961525
 10
-0.1573197473
 20
13.2857781328
 10
-0.2050612906
 20
13.2732391149
 10
-0.2551066662
 20
13.2645248417
 10
-0.3072289121
 20
13.2598266378
 10
-0.3607324201
 20
13.2597895089
 10
-0.4157462019
 20
13.2644334709
 10
-0.472089253
 20
13.2736508863
 10
-0.5285799115
 20
13.2879070248
 10
-0.5852008597
 20
13.3072990559
 10
-0.6418085227
 20
13.3316061042
 10
-0.6970098639
 20
13.3608399699
 10
-0.7506060371
 20
13.3950360198
 10
-0.8025212478
 20
13.4339992551
 10
-0.851544541
 20
13.4774318741
 10
-0.8971653759
 20
13.5251868268
 10
-0.939549827
 20
13.5772306498
 10
-0.9784972571
 20
13.6334461207
  0
LWPOLYLINE
  5
3EB
100
AcDbEntity
  8
RACCORDO
100
AcDbPolyline
 62
253
  6
CONTINUOUS
 90
16
 70
0
 10
6.9713989777
 20
-16.5936228931
 10
6.9413219918
 20
-16.5777907242
 10
6.9121648711
 20
-16.5602129332
 10
6.8843035147
 20
-16.5411161364
 10
6.8580971168
 20
-16.520746534
 10
6.8338835355
 20
-16.4993667349
 10
6.8119749371
 20
-16.4772523714
 10
6.7926537718
 20
-16.4546885463
 10
6.7761691316
 20
-16.4319661574
 10
6.7627335397
 20
-16.4093781462
 10
6.7525202105
 20
-16.387215722
 10
6.7456608159
 20
-16.3657646074
 10
6.7422437887
 20
-16.3453013547
 10
6.7423131816
 20
-16.3260897805
 10
6.7458681
 20
-16.3083775644
 10
6.7528627129
 20
-16.292393056
  0
LINE
  5
3EC
100
AcDbEntity
  8
RACCORDO
100
AcDbLine
 62
253
  6
CONTINUOUS
 10
-0.068007418
 20
-11.6934248288
 11
0.3883531752
 21
-11.9350837547
  0
LINE
  5
3ED
100
AcDbEntity
  8
RACCORDO
100
AcDbLine
 62
253
  6
CONTINUOUS
 10
0.3883531752
 20
-11.9350837547
 11
0.6186207841
 21
-12.0579665042
  0
LINE
  5
3EE
100
AcDbEntity
  8
RACCORDO
100
AcDbLine
 62
7
  6
CONTINUOUS
 10
-0.1985455982
 20
-11.9325854349
 11
6.6430550917
 21
-15.8825854349
  0
LINE
  5
3EF
100
AcDbEntity
  8
RACCORDO
100
AcDbLine
 62
253
  6
CONTINUOUS
 10
0.618620795
 20
-12.0579665104
 11
6.1258886955
 21
-15.2375891153
  0
LINE
  5
3F0
100
AcDbEntity
  8
RACCORDO
100
AcDbLine
 62
253
  6
CONTINUOUS
 10
6.1258887094
 20
-15.2375891233
 11
6.567148049
 21
-15.51303053
  0
LINE
  5
3F1
100
AcDbEntity
  8
RACCORDO
100
AcDbLine
 62
253
  6
CONTINUOUS
 10
6.567148049
 20
-15.51303053
 11
6.784905162
 21
-15.6499557516
  0
LWPOLYLINE
  5
3F2
100
AcDbEntity
  8
RACCORDO
100
AcDbPolyline
 62
253
  6
CONTINUOUS
 90
16
 70
0
 10
-0.9784966451
 20
-12.003752644
 10
-0.9497463178
 20
-12.0218834025
 10
-0.919944221
 20
-12.0383447982
 10
-0.8894745735
 20
-12.0529245991
 10
-0.8587302001
 20
-12.0654348313
 10
-0.8281074673
 20
-12.0757142018
 10
-0.7980011731
 20
-12.0836301785
 10
-0.7687994568
 20
-12.0890806988
 10
-0.7408787954
 20
-12.091995485
 10
-0.7145991498
 20
-12.0923369509
 10
-0.6902993238
 20
-12.0901006863
 10
-0.6682925962
 20
-12.0853155135
 10
-0.6488626823
 20
-12.0780431162
 10
-0.6322600753
 20
-12.068377244
 10
-0.6186988178
 20
-12.0564425041
 10
-0.6083537418
 20
-12.0423927544
  0
LWPOLYLINE
  5
3F3
100
AcDbEntity
  8
RACCORDO
100
AcDbPolyline
 62
253
  6
CONTINUOUS
 90
19
 70
0
 10
6.784905162
 20
-15.6499557516
 10
6.8246673561
 20
-15.6773828214
 10
6.8618983299
 20
-15.7086327202
 10
6.8966282095
 20
-15.7437086006
 10
6.9291976793
 20
-15.7826920306
 10
6.9593275662
 20
-15.8254821177
 10
6.9861114747
 20
-15.8717989503
 10
7.0095965766
 20
-15.921764264
 10
7.0297855863
 20
-15.9751674852
 10
7.0456847374
 20
-16.0312178997
 10
7.0572012199
 20
-16.0899490949
 10
7.0644545301
 20
-16.1511262932
 10
7.0667379304
 20
-16.2135489899
 10
7.0639213691
 20
-16.2770626623
 10
7.0561358228
 20
-16.3415041713
 10
7.043033718
 20
-16.4056758981
 10
7.0244871332
 20
-16.4690621764
 10
7.000608086
 20
-16.5317900993
 10
6.9713977751
 20
-16.5936272986
  0
LINE
  5
3F4
100
AcDbEntity
  8
RACCORDO
100
AcDbLine
 62
7
  6
CONTINUOUS
 10
0.5494561195
 20
-17.769844869
 11
-0.3086514985
 21
-16.2835588763
  0
LWPOLYLINE
  5
3F5
100
AcDbEntity
  8
RACCORDO
100
AcDbPolyline
 62
253
  6
CONTINUOUS
 90
16
 70
0
 10
-5.7293498121
 20
-3.775026446
 10
-5.7306772446
 20
-3.7410629278
 10
-5.7300329914
 20
-3.707023225
 10
-5.7274253585
 20
-3.6733461843
 10
-5.7228879642
 20
-3.6404659767
 10
-5.7164793058
 20
-3.6088065006
 10
-5.7082820044
 20
-3.5787759161
 10
-5.6984017413
 20
-3.5507613836
 10
-5.6869658954
 20
-3.5251240719
 10
-5.6741218998
 20
-3.5021945025
 10
-5.6600353421
 20
-3.4822682878
 10
-5.6448878291
 20
-3.4656023206
 10
-5.6288746461
 20
-3.4524114618
 10
-5.6122022383
 20
-3.4428657708
 10
-5.59508555
 20
-3.4370883123
 10
-5.5777452532
 20
-3.4351535706
  0
LINE
  5
3F6
100
AcDbEntity
  8
RACCORDO
100
AcDbLine
 62
253
  6
CONTINUOUS
 10
-5.0053570027
 20
4.7713773523
 11
-4.986459475
 21
4.2553280224
  0
LINE
  5
3F7
100
AcDbEntity
  8
RACCORDO
100
AcDbLine
 62
253
  6
CONTINUOUS
 10
-4.986459475
 20
4.2553280224
 11
-4.9777452532
 21
3.9944690486
  0
LINE
  5
3F8
100
AcDbEntity
  8
RACCORDO
100
AcDbLine
 62
7
  6
CONTINUOUS
 10
-5.2777452532
 20
4.7648464295
 11
-5.2777452532
 21
-3.1351535705
  0
LINE
  5
3F9
100
AcDbEntity
  8
RACCORDO
100
AcDbLine
 62
253
  6
CONTINUOUS
 10
-4.9777452532
 20
3.9944690361
 11
-4.9777452532
 21
-2.3647761737
  0
LINE
  5
3FA
100
AcDbEntity
  8
RACCORDO
100
AcDbLine
 62
253
  6
CONTINUOUS
 10
-4.9777452532
 20
-2.3647761896
 11
-4.9956548389
 21
-2.8846386908
  0
LINE
  5
3FB
100
AcDbEntity
  8
RACCORDO
100
AcDbLine
 62
253
  6
CONTINUOUS
 10
-4.9956548389
 20
-2.8846386908
 11
-5.0053570027
 21
-3.1416844933
  0
LWPOLYLINE
  5
3FC
100
AcDbEntity
  8
RACCORDO
100
AcDbPolyline
 62
253
  6
CONTINUOUS
 90
16
 70
0
 10
-5.7293533871
 20
5.4047202451
 10
-5.730679921
 20
5.370756352
 10
-5.7300348595
 20
5.3367162812
 10
-5.7274265139
 20
5.3030388919
 10
-5.7228885061
 20
5.2701583674
 10
-5.7164793357
 20
5.2384986176
 10
-5.7082816256
 20
5.2084678136
 10
-5.6984010565
 20
5.1804531252
 10
-5.6869650047
 20
5.1548157301
 10
-5.6741209001
 20
5.1318861564
 10
-5.6600343251
 20
5.1119600221
 10
-5.6448868802
 20
5.0952942234
 10
-5.6288738424
 20
5.0821036229
 10
-5.6122016481
 20
5.0725582796
 10
-5.5950852314
 20
5.0667812562
 10
-5.5777452533
 20
5.0648470324
  0
LWPOLYLINE
  5
3FD
100
AcDbEntity
  8
RACCORDO
100
AcDbPolyline
 62
253
  6
CONTINUOUS
 90
19
 70
0
 10
-5.0053570027
 20
-3.1416844933
 10
-5.0092284462
 20
-3.1898330998
 10
-5.0176761655
 20
-3.2377010178
 10
-5.0306878276
 20
-3.2853159136
 10
-5.0481637301
 20
-3.3330136111
 10
-5.0701560845
 20
-3.3805018944
 10
-5.0968756793
 20
-3.42685585
 10
-5.1284043567
 20
-3.4721771997
 10
-5.1645583956
 20
-3.5163630054
 10
-5.205149896
 20
-3.5581572798
 10
-5.2502543438
 20
-3.5974964373
 10
-5.2996086744
 20
-3.6343665793
 10
-5.3525266046
 20
-3.6675554078
 10
-5.4089393479
 20
-3.6968730384
 10
-5.4686401241
 20
-3.7223513255
 10
-5.5307655393
 20
-3.7430904443
 10
-5.5949329707
 20
-3.7587217756
 10
-5.6611964792
 20
-3.7694058785
 10
-5.7293542287
 20
-3.7750276074
  0
LWPOLYLINE
  5
3FE
100
AcDbEntity
  8
RACCORDO
100
AcDbPolyline
 62
253
  6
CONTINUOUS
 90
8
 70
0
 10
28.6174097078
 20
-3.1401348981
 10
28.6439342239
 20
-3.1395727359
 10
28.6670972577
 20
-3.1389435631
 10
28.6865475716
 20
-3.1382569201
 10
28.7019902269
 20
-3.137523219
 10
28.7131910557
 20
-3.1367535854
 10
28.7199802119
 20
-3.1359596898
 10
28.7222547468
 20
-3.1351535705
  0
LINE
  5
3FF
100
AcDbEntity
  8
0
100
AcDbLine
 62
7
  6
CONTINUOUS
 10
-29.3300812095
 20
-4.0679640836
 11
-23.2777452532
 21
-4.3851535705
  0
LINE
  5
400
100
AcDbEntity
  8
ASSI
100
AcDbLine
 62
7
  6
CONTINUOUS
 10
-23.2777452532
 20
-4.0851535705
 11
-27.7562491876
 21
-3.8504451248
  0
LINE
  5
401
100
AcDbEntity
  8
0
100
AcDbLine
 62
7
  6
CONTINUOUS
 10
-23.2777452532
 20
-4.0851535705
 11
-27.7562491876
 21
-3.8504451248
  0
LINE
  5
402
100
AcDbEntity
  8
RACCORDO
100
AcDbLine
 62
253
  6
CONTINUOUS
 10
22.895053374
 20
-17.769844869
 11
22.0290279702
 21
-17.269844869
  0
LINE
  5
403
100
AcDbEntity
  8
RACCORDO
100
AcDbLine
 62
253
  6
CONTINUOUS
 10
1.4154815233
 20
-17.269844869
 11
0.5573739053
 21
-15.7835588763
  0
LINE
  5
404
100
AcDbEntity
  8
0
100
AcDbLine
 62
7
  6
CONTINUOUS
 10
-23.3777452532
 20
-0.983883339
 11
-26.3777452532
 21
-1.0886456475
  0
LINE
  5
405
100
AcDbEntity
  8
0
100
AcDbLine
 62
7
  6
CONTINUOUS
 10
-29.1777452532
 20
-1.186423802
 11
-32.1777452532
 21
-1.2911861105
  0
LINE
  5
406
100
AcDbEntity
  8
RACCORDO
100
AcDbLine
 62
253
  6
CONTINUOUS
 10
-5.7293542287
 20
-3.7750276074
 11
-6.6261101237
 21
-3.8055265988
  0
LINE
  5
407
100
AcDbEntity
  8
RACCORDO
100
AcDbLine
 62
253
  6
CONTINUOUS
 10
-6.6261101237
 20
-3.8055265988
 11
-6.7067419824
 21
-3.8081482229
  0
LINE
  5
408
100
AcDbEntity
  8
RACCORDO
100
AcDbLine
 62
253
  6
CONTINUOUS
 10
28.5559299418
 20
-3.1410252381
 11
28.6174097078
 21
-3.1401348981
  0
LWPOLYLINE
  5
409
100
AcDbEntity
  8
RACCORDO
100
AcDbPolyline
 62
253
  6
CONTINUOUS
 90
3
 70
0
 10
28.4498665137
 20
-3.1416844974
 10
28.4863728675
 20
-3.1415607847
 10
28.5559299418
 20
-3.1410252381
  0
LINE
  5
40A
100
AcDbEntity
  8
RACCORDO
100
AcDbLine
 62
7
  6
CONTINUOUS
 10
29.860267317
 20
-3.4351535705
 11
29.0222547468
 21
-3.4351535705
  0
LINE
  5
40B
100
AcDbEntity
  8
RACCORDO
100
AcDbLine
 62
7
  6
CONTINUOUS
 10
-5.5777452532
 20
-3.4351535705
 11
-6.4157578235
 21
-3.4351535705
  0
LINE
  5
40C
100
AcDbEntity
  8
RACCORDO
100
AcDbLine
 62
253
  6
CONTINUOUS
 10
-4.9777452532
 20
-2.3647761896
 11
-5.2777452532
 21
-2.3647761896
  0
LINE
  5
40D
100
AcDbEntity
  8
RACCORDO
100
AcDbLine
 62
253
  6
CONTINUOUS
 10
28.4222547468
 20
-2.3647761896
 11
28.7222547468
 21
-2.3647761896
  0
LINE
  5
40E
100
AcDbEntity
  8
RACCORDO
100
AcDbLine
 62
253
  6
CONTINUOUS
 10
-5.0053571636
 20
-3.1416845314
 11
-5.077398924
 21
-3.141341241
  0
LWPOLYLINE
  5
40F
100
AcDbEntity
  8
RACCORDO
100
AcDbPolyline
 62
253
  6
CONTINUOUS
 90
10
 70
0
 10
-5.077398924
 20
-3.141341241
 10
-5.1434191728
 20
-3.1406235221
 10
-5.1729035008
 20
-3.1401370089
 10
-5.1994284471
 20
-3.1395748251
 10
-5.2225917752
 20
-3.138945508
 10
-5.2420422259
 20
-3.1382586137
 10
-5.2574848436
 20
-3.1375245721
 10
-5.2686854495
 20
-3.1367545284
 10
-5.2754741924
 20
-3.1359601743
 10
-5.2777481248
 20
-3.1351535704
  0
LINE
  5
410
100
AcDbEntity
  8
ASSI
100
AcDbLine
 62
7
  6
CONTINUOUS
 10
-14.3777452532
 20
-1.4946143497
 11
-26.3777452532
 21
-1.2851535705
  0
LINE
  5
411
100
AcDbEntity
  8
0
100
AcDbLine
 62
7
  6
CONTINUOUS
 10
-14.3777452532
 20
-1.4946143497
 11
-26.3777452532
 21
-1.2851535705
  0
LINE
  5
412
100
AcDbEntity
  8
RACCORDO
100
AcDbLine
 62
253
  6
CONTINUOUS
 10
30.1512514759
 20
-3.8081482229
 11
29.6988644167
 21
-3.7931771434
  0
LINE
  5
413
100
AcDbEntity
  8
RACCORDO
100
AcDbLine
 62
253
  6
CONTINUOUS
 10
29.6988644167
 20
-3.7931771434
 11
29.1738637222
 21
-3.7750276074
  0
LWPOLYLINE
  5
414
100
AcDbEntity
  8
RACCORDO
100
AcDbPolyline
 62
253
  6
CONTINUOUS
 90
19
 70
0
 10
29.1738637222
 20
-3.7750276074
 10
29.1054862256
 20
-3.7693362898
 10
29.0390726808
 20
-3.758603536
 10
28.9748305439
 20
-3.7429461727
 10
28.9127306379
 20
-3.7221997439
 10
28.8531396468
 20
-3.6967391459
 10
28.796861851
 20
-3.6674797559
 10
28.7441097262
 20
-3.6344164313
 10
28.6949476263
 20
-3.5977113426
 10
28.6499822892
 20
-3.5585099182
 10
28.6094363656
 20
-3.5168073441
 10
28.5732708298
 20
-3.4726858843
 10
28.5417075791
 20
-3.4273912383
 10
28.5149297112
 20
-3.3810194204
 10
28.4928550383
 20
-3.3334763543
 10
28.4753080463
 20
-3.2856983895
 10
28.4622483814
 20
-3.2379814823
 10
28.4537638012
 20
-3.1899860899
 10
28.4498664962
 20
-3.1416844933
  0
LINE
  5
415
100
AcDbEntity
  8
RACCORDO
100
AcDbLine
 62
253
  6
CONTINUOUS
 10
23.753160992
 20
-16.2835588763
 11
22.8871355882
 21
-15.7835588763
  0
LWPOLYLINE
  5
416
100
AcDbEntity
  8
ASSI
100
AcDbPolyline
 62
253
  6
CONTINUOUS
 90
6
 70
0
 10
-14.6725095313
 20
56.3646414812
 10
-14.6721350301
 20
56.3632371481
 10
-14.6717895249
 20
56.3590455532
 10
-14.6714762305
 20
56.3520901663
 10
-14.6711989261
 20
56.3424099209
 10
-14.6709593148
 20
56.3300589493
  0
LWPOLYLINE
  5
417
100
AcDbEntity
  8
0
100
AcDbPolyline
 62
253
  6
CONTINUOUS
 90
6
 70
0
 10
-14.6725095313
 20
56.3646414812
 10
-14.6721350301
 20
56.3632371481
 10
-14.6717895249
 20
56.3590455532
 10
-14.6714762305
 20
56.3520901663
 10
-14.6711989261
 20
56.3424099209
 10
-14.6709593148
 20
56.3300589493
  0
LWPOLYLINE
  5
418
100
AcDbEntity
  8
ASSI
100
AcDbPolyline
 62
253
  6
CONTINUOUS
 90
9
 70
0
 10
-16.16901905
 20
-53.4610702931
 10
-16.1682986555
 20
-53.4591914432
 10
-16.1676471546
 20
-53.4535755716
 10
-16.1670700135
 20
-53.4442355473
 10
-16.1665718055
 20
-53.4312000676
 10
-16.1661575001
 20
-53.4145463172
 10
-16.165831666
 20
-53.3944304251
 10
-16.1655969712
 20
-53.371029177
 10
-16.1654064276
 20
-53.3150493764
  0
LWPOLYLINE
  5
419
100
AcDbEntity
  8
0
100
AcDbPolyline
 62
253
  6
CONTINUOUS
 90
9
 70
0
 10
-16.16901905
 20
-53.4610702931
 10
-16.1682986555
 20
-53.4591914432
 10
-16.1676471546
 20
-53.4535755716
 10
-16.1670700135
 20
-53.4442355473
 10
-16.1665718055
 20
-53.4312000676
 10
-16.1661575001
 20
-53.4145463172
 10
-16.165831666
 20
-53.3944304251
 10
-16.1655969712
 20
-53.371029177
 10
-16.1654064276
 20
-53.3150493764
  0
LINE
  5
41A
100
AcDbEntity
  8
RACCORDO
100
AcDbLine
 62
253
  6
CONTINUOUS
 10
29.1738637222
 20
5.4047204664
 11
29.4567023428
 21
5.4146039144
  0
LINE
  5
41B
100
AcDbEntity
  8
RACCORDO
100
AcDbLine
 62
253
  6
CONTINUOUS
 10
29.4567023428
 20
5.4146039144
 11
30.1512514759
 21
5.4378410819
  0
LWPOLYLINE
  5
41C
100
AcDbEntity
  8
RACCORDO
100
AcDbPolyline
 62
253
  6
CONTINUOUS
 90
8
 70
0
 10
-5.1729002143
 20
4.7698277571
 10
-5.1994247304
 20
4.7692655949
 10
-5.2225877642
 20
4.768636422
 10
-5.2420380781
 20
4.767949779
 10
-5.2574807334
 20
4.767216078
 10
-5.2686815622
 20
4.7664464444
 10
-5.2754707184
 20
4.7656525488
 10
-5.2777452532
 20
4.7648464295
  0
LINE
  5
41D
100
AcDbEntity
  8
ASSI
100
AcDbLine
 62
7
  6
CONTINUOUS
 10
-14.3777452532
 20
3.1243072086
 11
-26.3777452532
 21
2.9148464295
  0
LINE
  5
41E
100
AcDbEntity
  8
0
100
AcDbLine
 62
7
  6
CONTINUOUS
 10
-14.3777452532
 20
3.1243072086
 11
-26.3777452532
 21
2.9148464295
  0
LINE
  5
41F
100
AcDbEntity
  8
RACCORDO
100
AcDbLine
 62
253
  6
CONTINUOUS
 10
-5.1114204483
 20
4.7707180971
 11
-5.1729002143
 21
4.7698277571
  0
LWPOLYLINE
  5
420
100
AcDbEntity
  8
RACCORDO
100
AcDbPolyline
 62
253
  6
CONTINUOUS
 90
3
 70
0
 10
-5.0053570202
 20
4.7713773564
 10
-5.041863374
 20
4.7712536436
 10
-5.1114204483
 20
4.7707180971
  0
LINE
  5
421
100
AcDbEntity
  8
RACCORDO
100
AcDbLine
 62
253
  6
CONTINUOUS
 10
-4.9777452532
 20
3.9944690486
 11
-5.2777452532
 21
3.9944690486
  0
LINE
  5
422
100
AcDbEntity
  8
RACCORDO
100
AcDbLine
 62
253
  6
CONTINUOUS
 10
28.4222547468
 20
3.9944690486
 11
28.7222547468
 21
3.9944690486
  0
LINE
  5
423
100
AcDbEntity
  8
RACCORDO
100
AcDbLine
 62
253
  6
CONTINUOUS
 10
28.4498666571
 20
4.7713773903
 11
28.5219084175
 21
4.7710341
  0
LINE
  5
424
100
AcDbEntity
  8
0
100
AcDbLine
 62
7
  6
CONTINUOUS
 10
-23.3777452532
 20
2.613576198
 11
-26.3777452532
 21
2.7183385064
  0
LINE
  5
425
100
AcDbEntity
  8
0
100
AcDbLine
 62
7
  6
CONTINUOUS
 10
-29.1777452532
 20
2.816116661
 11
-32.1777452532
 21
2.9208789695
  0
LWPOLYLINE
  5
426
100
AcDbEntity
  8
RACCORDO
100
AcDbPolyline
 62
253
  6
CONTINUOUS
 90
19
 70
0
 10
-5.7293542287
 20
5.4047204664
 10
-5.6609613553
 20
5.3990213878
 10
-5.5945444253
 20
5.3882876799
 10
-5.5303117339
 20
5.3726363687
 10
-5.4682472336
 20
5.3519102611
 10
-5.4087061178
 20
5.3264772603
 10
-5.3524545979
 20
5.2972311988
 10
-5.2996781413
 20
5.2641519552
 10
-5.2504655575
 20
5.2274164393
 10
-5.2054625355
 20
5.1881930136
 10
-5.1649104096
 20
5.1464873578
 10
-5.1287526441
 20
5.1023712276
 10
-5.0971965743
 20
5.0570817616
 10
-5.0704202156
 20
5.0107124818
 10
-5.048346372
 20
4.963171819
 10
-5.0307997828
 20
4.9153951281
 10
-5.0177401662
 20
4.8676780405
 10
-5.0092551797
 20
4.819681353
 10
-5.0053570027
 20
4.7713773523
  0
LINE
  5
427
100
AcDbEntity
  8
RACCORDO
100
AcDbLine
 62
253
  6
CONTINUOUS
 10
16.4731117184
 20
18.2233201576
 11
16.9331223008
 21
19.0863230894
  0
LWPOLYLINE
  5
428
100
AcDbEntity
  8
RACCORDO
100
AcDbPolyline
 62
253
  6
CONTINUOUS
 90
8
 70
0
 10
-0.150437035
 20
-11.8392963039
 10
-0.1632124463
 20
-11.8625482897
 10
-0.1742490835
 20
-11.8829226518
 10
-0.1833795902
 20
-11.9001104393
 10
-0.1904655141
 20
-11.9138510217
 10
-0.1953994062
 20
-11.9239360407
 10
-0.1981064506
 20
-11.9302125703
 10
-0.1985455982
 20
-11.9325854349
  0
LINE
  5
429
100
AcDbEntity
  8
RACCORDO
100
AcDbLine
 62
253
  6
CONTINUOUS
 10
-0.1204682091
 20
-11.7856080947
 11
-0.150437035
 21
-11.8392963039
  0
LWPOLYLINE
  5
42A
100
AcDbEntity
  8
RACCORDO
100
AcDbPolyline
 62
253
  6
CONTINUOUS
 90
3
 70
0
 10
-0.0680074303
 20
-11.6934248419
 10
-0.0861534688
 20
-11.7251021281
 10
-0.1204682091
 20
-11.7856080947
  0
LINE
  5
42B
100
AcDbEntity
  8
RACCORDO
100
AcDbLine
 62
7
  6
CONTINUOUS
 10
-1.0273595045
 20
-12.7681332305
 11
-0.6083532193
 21
-12.042393056
  0
LINE
  5
42C
100
AcDbEntity
  8
RACCORDO
100
AcDbLine
 62
7
  6
CONTINUOUS
 10
16.6916467807
 20
17.922085915
 11
17.1106530658
 21
18.6478260895
  0
LINE
  5
42D
100
AcDbEntity
  8
RACCORDO
100
AcDbLine
 62
253
  6
CONTINUOUS
 10
0.6186207841
 20
-12.0579665042
 11
0.4686207841
 21
-12.3177741253
  0
LINE
  5
42E
100
AcDbEntity
  8
RACCORDO
100
AcDbLine
 62
253
  6
CONTINUOUS
 10
17.3186207841
 20
16.8672819822
 11
17.4686207841
 21
17.1270896034
  0
LINE
  5
42F
100
AcDbEntity
  8
RACCORDO
100
AcDbLine
 62
253
  6
CONTINUOUS
 10
16.6596043994
 20
17.279648837
 11
16.6959222174
 21
17.3418675258
  0
LWPOLYLINE
  5
430
100
AcDbEntity
  8
RACCORDO
100
AcDbPolyline
 62
253
  6
CONTINUOUS
 90
10
 70
0
 10
16.6959222174
 20
17.3418675258
 10
16.7295537346
 20
17.3986840866
 10
16.744717211
 20
17.4239750576
 10
16.7584665668
 20
17.4466652576
 10
16.7705932854
 20
17.4664106091
 10
16.7809134555
 20
17.4829116921
 10
16.7892705609
 20
17.4959182851
 10
16.7955378535
 20
17.5052331588
 10
16.7996202756
 20
17.5107150676
 10
16.8014559018
 20
17.5122808912
  0
LINE
  5
431
100
AcDbEntity
  8
RACCORDO
100
AcDbLine
 62
253
  6
CONTINUOUS
 10
-1.4958744284
 20
-12.833635578
 11
-0.9784972571
 21
-12.0037532617
  0
LWPOLYLINE
  5
432
100
AcDbEntity
  8
RACCORDO
100
AcDbPolyline
 62
253
  6
CONTINUOUS
 90
19
 70
0
 10
-0.9784972571
 20
-12.0037532617
 10
-0.9393650931
 20
-11.9473726169
 10
-0.8968607809
 20
-11.8952205473
 10
-0.8511898188
 20
-11.847418931
 10
-0.8022080733
 20
-11.8040324819
 10
-0.7504117364
 20
-11.7651848441
 10
-0.6969579348
 20
-11.7310926216
 10
-0.6419219329
 20
-11.7019264648
 10
-0.5855013867
 20
-11.677674857
 10
-0.5290310406
 20
-11.6583128462
 10
-0.4726365
 20
-11.6440466135
 10
-0.4163516214
 20
-11.634791302
 10
-0.361351479
 20
-11.6301078928
 10
-0.3078059255
 20
-11.6301038729
 10
-0.2555972085
 20
-11.6347580905
 10
-0.2054481934
 20
-11.6434508394
 10
-0.1575949155
 20
-11.655999342
 10
-0.1117872936
 20
-11.6726492022
 10
-0.068007418
 20
-11.6934248288
  0
LINE
  5
433
100
AcDbEntity
  8
RACCORDO
100
AcDbLine
 62
253
  6
CONTINUOUS
 10
-1.4345025158
 20
-14.945249964
 11
-0.7936473155
 21
-14.1775881816
  0
LINE
  5
434
100
AcDbEntity
  8
ASSI
100
AcDbLine
 62
7
  6
CONTINUOUS
 10
-23.2777452532
 20
5.7148464295
 11
-27.7562491876
 21
5.4801379838
  0
LINE
  5
435
100
AcDbEntity
  8
0
100
AcDbLine
 62
7
  6
CONTINUOUS
 10
-23.2777452532
 20
5.7148464295
 11
-27.7562491876
 21
5.4801379838
  0
LINE
  5
436
100
AcDbEntity
  8
0
100
AcDbLine
 62
7
  6
CONTINUOUS
 10
-23.2777452532
 20
6.0148464295
 11
-29.3300812095
 21
5.6976569425
  0
LINE
  5
437
100
AcDbEntity
  8
RACCORDO
100
AcDbLine
 62
7
  6
CONTINUOUS
 10
-6.4157578235
 20
5.0648464295
 11
-5.5777452532
 21
5.0648464295
  0
LINE
  5
438
100
AcDbEntity
  8
RACCORDO
100
AcDbLine
 62
7
  6
CONTINUOUS
 10
29.0222547468
 20
5.0648464295
 11
29.860267317
 21
5.0648464295
  0
LWPOLYLINE
  5
439
100
AcDbEntity
  8
RACCORDO
100
AcDbPolyline
 62
253
  6
CONTINUOUS
 90
10
 70
0
 10
28.5219084175
 20
4.7710341
 10
28.5879286663
 20
4.7703163811
 10
28.6174129943
 20
4.7698298678
 10
28.6439379406
 20
4.769267684
 10
28.6671012687
 20
4.768638367
 10
28.6865517194
 20
4.7679514727
 10
28.7019943371
 20
4.7672174311
 10
28.713194943
 20
4.7664473874
 10
28.7199836859
 20
4.7656530332
 10
28.7222576183
 20
4.7648464294
  0
LINE
  5
43A
100
AcDbEntity
  8
RACCORDO
100
AcDbLine
 62
253
  6
CONTINUOUS
 10
-6.7067419824
 20
5.4378410819
 11
-5.7293542287
 21
5.4047204664
  0
LINE
  5
43B
100
AcDbEntity
  8
RACCORDO
100
AcDbLine
 62
253
  6
CONTINUOUS
 10
-0.9784972571
 20
13.6334461207
 11
-1.4532881059
 21
14.3948100111
  0
LINE
  5
43C
100
AcDbEntity
  8
RACCORDO
100
AcDbLine
 62
253
  6
CONTINUOUS
 10
-1.4532881059
 20
14.3948100111
 11
-1.4958744284
 21
14.463328437
  0
LWPOLYLINE
  5
43D
100
AcDbEntity
  8
RACCORDO
100
AcDbPolyline
 62
253
  6
CONTINUOUS
 90
8
 70
0
 10
16.7447179261
 20
-15.7942776315
 10
16.7584670309
 20
-15.8169674552
 10
16.7705934274
 20
-15.8367126444
 10
16.7809132347
 20
-15.8532137889
 10
16.7892699661
 20
-15.8662206701
 10
16.7955369027
 20
-15.8755360556
 10
16.7996190146
 20
-15.8810186895
 10
16.8014544018
 20
-15.8825854349
  0
LINE
  5
43E
100
AcDbEntity
  8
RACCORDO
100
AcDbLine
 62
253
  6
CONTINUOUS
 10
16.713206986
 20
-15.7414797623
 11
16.7447179261
 21
-15.7942776315
  0
LWPOLYLINE
  5
43F
100
AcDbEntity
  8
RACCORDO
100
AcDbPolyline
 62
253
  6
CONTINUOUS
 90
3
 70
0
 10
16.6596043367
 20
-15.6499557688
 10
16.677964652
 20
-15.6815093422
 10
16.713206986
 20
-15.7414797623
  0
LINE
  5
440
100
AcDbEntity
  8
RACCORDO
100
AcDbLine
 62
7
  6
CONTINUOUS
 10
17.1106530658
 20
-17.0181332305
 11
16.6916467807
 21
-16.292393056
  0
LINE
  5
441
100
AcDbEntity
  8
RACCORDO
100
AcDbLine
 62
7
  6
CONTINUOUS
 10
-0.6083532193
 20
13.672085915
 11
-1.0273595045
 21
14.3978260895
  0
LINE
  5
442
100
AcDbEntity
  8
RACCORDO
100
AcDbLine
 62
253
  6
CONTINUOUS
 10
17.3186207841
 20
-15.2375891233
 11
17.4686207841
 21
-15.4973967444
  0
LINE
  5
443
100
AcDbEntity
  8
RACCORDO
100
AcDbLine
 62
253
  6
CONTINUOUS
 10
0.6186207841
 20
13.6876593631
 11
0.4686207841
 21
13.9474669843
  0
LINE
  5
444
100
AcDbEntity
  8
RACCORDO
100
AcDbLine
 62
253
  6
CONTINUOUS
 10
-0.0680075314
 20
13.3231178081
 11
-0.1037311134
 21
13.3856794479
  0
LWPOLYLINE
  5
445
100
AcDbEntity
  8
RACCORDO
100
AcDbPolyline
 62
253
  6
CONTINUOUS
 90
10
 70
0
 10
-0.1037311134
 20
13.3856794479
 10
-0.136119675
 20
13.44321352
 10
-0.1504405061
 20
13.4689909536
 10
-0.1632161138
 20
13.4922433228
 10
-0.1742527733
 20
13.512618012
 10
-0.1833831308
 20
13.5298060435
 10
-0.190468741
 20
13.5435467636
 10
-0.1954021665
 20
13.5536317947
 10
-0.1981086071
 20
13.5599081956
 10
-0.1985470339
 20
13.5622807807
  0
LINE
  5
446
100
AcDbEntity
  8
RACCORDO
100
AcDbLine
 62
253
  6
CONTINUOUS
 10
16.9331223008
 20
-17.4566302304
 11
16.4731117184
 21
-16.5936272986
  0
LWPOLYLINE
  5
447
100
AcDbEntity
  8
RACCORDO
100
AcDbPolyline
 62
253
  6
CONTINUOUS
 90
19
 70
0
 10
16.4731117184
 20
-16.5936272986
 10
16.4438507297
 20
-16.5315475281
 10
16.4199378687
 20
-16.4686616791
 10
16.4013759356
 20
-16.4052086576
 10
16.3882930413
 20
-16.3410959971
 10
16.3805481685
 20
-16.2768152347
 10
16.3777503386
 20
-16.2134767732
 10
16.3800097068
 20
-16.1512311191
 10
16.3872174714
 20
-16.0902436889
 10
16.3986846513
 20
-16.0316579292
 10
16.4145270016
 20
-15.9756857081
 10
16.4346541061
 20
-15.9223139176
 10
16.458098226
 20
-15.8723406925
 10
16.4848675213
 20
-15.825966873
 10
16.5150025505
 20
-15.7830799065
 10
16.5476051994
 20
-15.7439959599
 10
16.5823991604
 20
-15.7088280569
 10
16.6197221732
 20
-15.6774824228
 10
16.6596043315
 20
-15.6499557516
  0
LINE
  5
448
100
AcDbEntity
  8
0
100
AcDbLine
 62
7
  6
CONTINUOUS
 10
9.7222547468
 20
-21.4851535705
 11
9.7222547468
 21
-56.3750961124
  0
LINE
  5
449
100
AcDbEntity
  8
ASSI
100
AcDbLine
 62
7
  6
CONTINUOUS
 10
11.2722547468
 20
-21.3494044474
 11
11.2722547468
 21
-21.4851535705
  0
LINE
  5
44A
100
AcDbEntity
  8
0
100
AcDbLine
 62
7
  6
CONTINUOUS
 10
11.2722547468
 20
-21.3494044474
 11
11.2722547468
 21
-21.4851535705
  0
LINE
  5
44B
100
AcDbEntity
  8
ASSI
100
AcDbLine
 62
7
  6
CONTINUOUS
 10
12.1722547468
 20
-21.3494044474
 11
12.1722547468
 21
-21.4851535705
  0
LINE
  5
44C
100
AcDbEntity
  8
0
100
AcDbLine
 62
7
  6
CONTINUOUS
 10
12.1722547468
 20
-21.3494044474
 11
12.1722547468
 21
-21.4851535705
  0
LINE
  5
44D
100
AcDbEntity
  8
RACCORDO
100
AcDbLine
 62
253
  6
CONTINUOUS
 10
6.1258887094
 20
-15.2375891233
 11
5.9758887094
 21
-15.4973967444
  0
LINE
  5
44E
100
AcDbEntity
  8
RACCORDO
100
AcDbLine
 62
253
  6
CONTINUOUS
 10
22.8258887094
 20
13.6876593631
 11
22.9758887094
 21
13.9474669843
  0
LINE
  5
44F
100
AcDbEntity
  8
RACCORDO
100
AcDbLine
 62
253
  6
CONTINUOUS
 10
1.2625379233
 20
-18.4908045343
 11
1.7720224252
 21
-17.6303247017
  0
LINE
  5
450
100
AcDbEntity
  8
RACCORDO
100
AcDbLine
 62
253
  6
CONTINUOUS
 10
24.9386758783
 20
14.4605703504
 11
24.4230067506
 21
13.6334461207
  0
LWPOLYLINE
  5
451
100
AcDbEntity
  8
RACCORDO
100
AcDbPolyline
 62
253
  6
CONTINUOUS
 90
19
 70
0
 10
24.4230067506
 20
13.6334461207
 10
24.3838745866
 20
13.5770654759
 10
24.3413702744
 20
13.5249134063
 10
24.2956993123
 20
13.47711179
 10
24.2467175668
 20
13.4337253409
 10
24.1949212299
 20
13.3948777031
 10
24.1414674283
 20
13.3607854806
 10
24.0864314264
 20
13.3316193237
 10
24.0300108802
 20
13.307367716
 10
23.9735405341
 20
13.2880057051
 10
23.9171459935
 20
13.2737394725
 10
23.8608611149
 20
13.264484161
 10
23.8058609725
 20
13.2598007518
 10
23.752315419
 20
13.2597967318
 10
23.700106702
 20
13.2644509495
 10
23.6499576869
 20
13.2731436983
 10
23.602104409
 20
13.285692201
 10
23.5562967871
 20
13.3023420612
 10
23.5125169115
 20
13.3231176878
  0
LINE
  5
452
100
AcDbEntity
  8
RACCORDO
100
AcDbLine
 62
253
  6
CONTINUOUS
 10
24.8790120093
 20
-14.945249964
 11
24.238156809
 21
-14.1775881816
  0
LINE
  5
453
100
AcDbEntity
  8
RACCORDO
100
AcDbLine
 62
253
  6
CONTINUOUS
 10
22.1819715702
 20
-18.4908045343
 11
21.6724870683
 21
-17.6303247017
  0
LINE
  5
454
100
AcDbEntity
  8
0
100
AcDbLine
 62
7
  6
CONTINUOUS
 10
13.7222547468
 20
-21.4851535705
 11
13.7222547468
 21
-56.3750961124
  0
LINE
  5
455
100
AcDbEntity
  8
RACCORDO
100
AcDbLine
 62
253
  6
CONTINUOUS
 10
6.9713977751
 20
-16.5936272986
 11
6.5129213972
 21
-17.453772464
  0
LINE
  5
456
100
AcDbEntity
  8
RACCORDO
100
AcDbLine
 62
253
  6
CONTINUOUS
 10
6.5129213972
 20
-17.453772464
 11
6.5113871927
 21
-17.4566302304
  0
LWPOLYLINE
  5
457
100
AcDbEntity
  8
RACCORDO
100
AcDbPolyline
 62
253
  6
CONTINUOUS
 90
8
 70
0
 10
23.594946533
 20
13.468989171
 10
23.6077219444
 20
13.4922411571
 10
23.6187585815
 20
13.512615519
 10
23.6278890878
 20
13.5298033058
 10
23.634975011
 20
13.543543887
 10
23.6399089023
 20
13.5536289044
 10
23.6426159455
 20
13.5599054318
 10
23.6430550917
 20
13.5622782938
  0
LINE
  5
458
100
AcDbEntity
  8
RACCORDO
100
AcDbLine
 62
253
  6
CONTINUOUS
 10
23.5649777064
 20
13.4153009602
 11
23.594946533
 21
13.468989171
  0
LWPOLYLINE
  5
459
100
AcDbEntity
  8
RACCORDO
100
AcDbPolyline
 62
253
  6
CONTINUOUS
 90
3
 70
0
 10
23.5125169256
 20
13.3231177028
 10
23.5306629649
 20
13.3547949907
 10
23.5649777064
 20
13.4153009602
  0
LINE
  5
45A
100
AcDbEntity
  8
RACCORDO
100
AcDbLine
 62
7
  6
CONTINUOUS
 10
24.471868998
 20
14.3978260895
 11
24.0528627128
 21
13.672085915
  0
LINE
  5
45B
100
AcDbEntity
  8
RACCORDO
100
AcDbLine
 62
7
  6
CONTINUOUS
 10
6.7528627128
 20
-16.292393056
 11
6.3338564277
 21
-17.0181332305
  0
LINE
  5
45C
100
AcDbEntity
  8
RACCORDO
100
AcDbLine
 62
253
  6
CONTINUOUS
 10
6.7849051145
 20
-15.6499559099
 11
6.7485869361
 21
-15.7121742594
  0
LWPOLYLINE
  5
45D
100
AcDbEntity
  8
RACCORDO
100
AcDbPolyline
 62
253
  6
CONTINUOUS
 90
10
 70
0
 10
6.7485869361
 20
-15.7121742594
 10
6.7149552489
 20
-15.7689906125
 10
6.6997917521
 20
-15.794281533
 10
6.6860424135
 20
-15.8169717184
 10
6.6739157449
 20
-15.8367170904
 10
6.6635956517
 20
-15.8532182277
 10
6.6552386441
 20
-15.8662249062
 10
6.6489714638
 20
-15.8755398936
 10
6.6448891615
 20
-15.8810219403
 10
6.6430536559
 20
-15.8825879216
  0
LINE
  5
45E
100
AcDbEntity
  8
RACCORDO
100
AcDbLine
 62
253
  6
CONTINUOUS
 10
24.9403839219
 20
14.463328437
 11
24.9386758783
 21
14.4605703504
  0
LINE
  5
45F
100
AcDbEntity
  8
RACCORDO
100
AcDbLine
 62
253
  6
CONTINUOUS
 10
-0.3086514985
 20
-16.2835588763
 11
0.5573739053
 21
-15.7835588763
  0
LINE
  5
460
100
AcDbEntity
  8
RACCORDO
100
AcDbLine
 62
253
  6
CONTINUOUS
 10
0.5494561195
 20
-17.769844869
 11
1.4154815233
 21
-17.269844869
  0
LINE
  5
461
100
AcDbEntity
  8
ASSI
100
AcDbLine
 62
7
  6
CONTINUOUS
 10
-23.2777452532
 20
16.4985222343
 11
-18.5777452532
 21
16.5395385129
  0
LINE
  5
462
100
AcDbEntity
  8
0
100
AcDbLine
 62
7
  6
CONTINUOUS
 10
-23.2777452532
 20
16.4985222343
 11
-18.5777452532
 21
16.5395385129
  0
LINE
  5
463
100
AcDbEntity
  8
0
100
AcDbLine
 62
7
  6
CONTINUOUS
 10
-27.9777452532
 20
16.5395385129
 11
-23.2777452532
 21
16.4985222343
  0
LINE
  5
464
100
AcDbEntity
  8
RACCORDO
100
AcDbLine
 62
253
  6
CONTINUOUS
 10
24.4230067506
 20
-12.0037532617
 11
24.572985378
 21
-12.2437569683
  0
LINE
  5
465
100
AcDbEntity
  8
RACCORDO
100
AcDbLine
 62
253
  6
CONTINUOUS
 10
24.572985378
 20
-12.2437569683
 11
24.9403839219
 21
-12.833635578
  0
LWPOLYLINE
  5
466
100
AcDbEntity
  8
RACCORDO
100
AcDbPolyline
 62
253
  6
CONTINUOUS
 90
8
 70
0
 10
6.6997915674
 20
17.4239704904
 10
6.6860424626
 20
17.4466603141
 10
6.6739160661
 20
17.4664055033
 10
6.6635962588
 20
17.4829066478
 10
6.6552395274
 20
17.4959135291
 10
6.6489725908
 20
17.5052289146
 10
6.6448904789
 20
17.5107115485
 10
6.6430550917
 20
17.5122782938
  0
LINE
  5
467
100
AcDbEntity
  8
RACCORDO
100
AcDbLine
 62
253
  6
CONTINUOUS
 10
6.7313025075
 20
17.3711726213
 11
6.6997915674
 21
17.4239704904
  0
LWPOLYLINE
  5
468
100
AcDbEntity
  8
RACCORDO
100
AcDbPolyline
 62
253
  6
CONTINUOUS
 90
3
 70
0
 10
6.7849051568
 20
17.2796486278
 10
6.7665448415
 20
17.3112022012
 10
6.7313025075
 20
17.3711726213
  0
LINE
  5
469
100
AcDbEntity
  8
RACCORDO
100
AcDbLine
 62
253
  6
CONTINUOUS
 10
22.8258887094
 20
-12.0579665042
 11
22.9758887094
 21
-12.3177741253
  0
LINE
  5
46A
100
AcDbEntity
  8
RACCORDO
100
AcDbLine
 62
253
  6
CONTINUOUS
 10
6.1258887094
 20
16.8672819822
 11
5.9758887094
 21
17.1270896034
  0
LINE
  5
46B
100
AcDbEntity
  8
RACCORDO
100
AcDbLine
 62
7
  6
CONTINUOUS
 10
6.3338564277
 20
18.6478260895
 11
6.7528627128
 21
17.922085915
  0
LINE
  5
46C
100
AcDbEntity
  8
RACCORDO
100
AcDbLine
 62
7
  6
CONTINUOUS
 10
24.0528627128
 20
-12.042393056
 11
24.471868998
 21
-12.7681332305
  0
LINE
  5
46D
100
AcDbEntity
  8
RACCORDO
100
AcDbLine
 62
253
  6
CONTINUOUS
 10
23.5125170249
 20
-11.6934249491
 11
23.5482406069
 21
-11.7559865889
  0
LWPOLYLINE
  5
46E
100
AcDbEntity
  8
RACCORDO
100
AcDbPolyline
 62
253
  6
CONTINUOUS
 90
10
 70
0
 10
23.5482406069
 20
-11.7559865889
 10
23.5806291685
 20
-11.813520661
 10
23.5949499996
 20
-11.8392980947
 10
23.6077256073
 20
-11.8625504639
 10
23.6187622668
 20
-11.882925153
 10
23.6278926243
 20
-11.9001131845
 10
23.6349782345
 20
-11.9138539046
 10
23.63991166
 20
-11.9239389357
 10
23.6426181006
 20
-11.9302153366
 10
23.6430565274
 20
-11.9325879217
  0
LINE
  5
46F
100
AcDbEntity
  8
RACCORDO
100
AcDbLine
 62
253
  6
CONTINUOUS
 10
6.5113871927
 20
19.0863230894
 11
6.9713977751
 21
18.2233201576
  0
LWPOLYLINE
  5
470
100
AcDbEntity
  8
RACCORDO
100
AcDbPolyline
 62
253
  6
CONTINUOUS
 90
19
 70
0
 10
6.9713977751
 20
18.2233201576
 10
7.0006587638
 20
18.1612403871
 10
7.0245716248
 20
18.0983545381
 10
7.0431335579
 20
18.0349015166
 10
7.0562164522
 20
17.9707888561
 10
7.063961325
 20
17.9065080936
 10
7.0667591549
 20
17.8431696322
 10
7.0644997867
 20
17.780923978
 10
7.0572920221
 20
17.7199365479
 10
7.0458248423
 20
17.6613507882
 10
7.0299824919
 20
17.605378567
 10
7.0098553874
 20
17.5520067766
 10
6.9864112675
 20
17.5020335514
 10
6.9596419722
 20
17.4556597319
 10
6.929506943
 20
17.4127727655
 10
6.8969042941
 20
17.3736888189
 10
6.8621103331
 20
17.3385209159
 10
6.8247873203
 20
17.3071752817
 10
6.784905162
 20
17.2796486105
  0
LINE
  5
471
100
AcDbEntity
  8
RACCORDO
100
AcDbLine
 62
253
  6
CONTINUOUS
 10
16.6596043315
 20
-15.6499557516
 11
17.097067397
 21
-15.3755653476
  0
LINE
  5
472
100
AcDbEntity
  8
RACCORDO
100
AcDbLine
 62
253
  6
CONTINUOUS
 10
17.097067397
 20
-15.3755653476
 11
17.3186207841
 21
-15.2375891233
  0
LINE
  5
473
100
AcDbEntity
  8
RACCORDO
100
AcDbLine
 62
253
  6
CONTINUOUS
 10
17.318620795
 20
-15.237589117
 11
22.8258886955
 21
-12.0579665121
  0
LINE
  5
474
100
AcDbEntity
  8
RACCORDO
100
AcDbLine
 62
7
  6
CONTINUOUS
 10
16.8014544018
 20
-15.8825854349
 11
23.6430550917
 21
-11.9325854349
  0
LINE
  5
475
100
AcDbEntity
  8
RACCORDO
100
AcDbLine
 62
253
  6
CONTINUOUS
 10
22.8258887094
 20
-12.0579665042
 11
23.2850576347
 21
-11.8135454097
  0
LINE
  5
476
100
AcDbEntity
  8
RACCORDO
100
AcDbLine
 62
253
  6
CONTINUOUS
 10
23.2850576347
 20
-11.8135454097
 11
23.5125169115
 21
-11.6934248288
  0
LWPOLYLINE
  5
477
100
AcDbEntity
  8
RACCORDO
100
AcDbPolyline
 62
253
  6
CONTINUOUS
 90
19
 70
0
 10
23.5125169115
 20
-11.6934248288
 10
23.5561505477
 20
-11.6727032935
 10
23.6018292408
 20
-11.6560852738
 10
23.6495707841
 20
-11.643546256
 10
23.6996161597
 20
-11.6348319828
 10
23.7517384056
 20
-11.6301337788
 10
23.8052419136
 20
-11.6300966499
 10
23.8602556954
 20
-11.6347406119
 10
23.9165987465
 20
-11.6439580273
 10
23.973089405
 20
-11.6582141658
 10
24.0297103533
 20
-11.677606197
 10
24.0863180162
 20
-11.7019132452
 10
24.1415193574
 20
-11.7311471109
 10
24.1951155306
 20
-11.7653431608
 10
24.2470307413
 20
-11.8043063962
 10
24.2960540345
 20
-11.8477390151
 10
24.3416748694
 20
-11.8954939678
 10
24.3840593205
 20
-11.9475377908
 10
24.4230067506
 20
-12.0037532617
  0
LWPOLYLINE
  5
478
100
AcDbEntity
  8
ASSI
100
AcDbPolyline
 62
7
  6
CONTINUOUS
 90
19
 70
0
 10
-14.6725095313
 20
19.6270633562
 10
-14.6452625549
 20
19.6278429121
 10
-14.6184596348
 20
19.6295516916
 10
-14.592312471
 20
19.6321896948
 10
-14.5670224461
 20
19.6358088911
 10
-14.5427731065
 20
19.6403573111
 10
-14.5197299035
 20
19.6456790463
 10
-14.4980502455
 20
19.6517861913
 10
-14.4778736196
 20
19.6586666516
 10
-14.4593172024
 20
19.6661282351
 10
-14.442491243
 20
19.6741766739
 10
-14.4274868721
 20
19.682806236
 10
-14.4143724364
 20
19.6918075326
 10
-14.4032111444
 20
19.7011809328
 10
-14.3940478969
 20
19.7109260676
 10
-14.3869074727
 20
19.7208324411
 10
-14.3818083784
 20
19.7308298883
 10
-14.3787576126
 20
19.7409885742
 10
-14.3777452532
 20
19.7513084989
  0
LWPOLYLINE
  5
479
100
AcDbEntity
  8
0
100
AcDbPolyline
 62
7
  6
CONTINUOUS
 90
19
 70
0
 10
-14.6725095313
 20
19.6270633562
 10
-14.6452625549
 20
19.6278429121
 10
-14.6184596348
 20
19.6295516916
 10
-14.592312471
 20
19.6321896948
 10
-14.5670224461
 20
19.6358088911
 10
-14.5427731065
 20
19.6403573111
 10
-14.5197299035
 20
19.6456790463
 10
-14.4980502455
 20
19.6517861913
 10
-14.4778736196
 20
19.6586666516
 10
-14.4593172024
 20
19.6661282351
 10
-14.442491243
 20
19.6741766739
 10
-14.4274868721
 20
19.682806236
 10
-14.4143724364
 20
19.6918075326
 10
-14.4032111444
 20
19.7011809328
 10
-14.3940478969
 20
19.7109260676
 10
-14.3869074727
 20
19.7208324411
 10
-14.3818083784
 20
19.7308298883
 10
-14.3787576126
 20
19.7409885742
 10
-14.3777452532
 20
19.7513084989
  0
LINE
  5
47A
100
AcDbEntity
  8
ASSI
100
AcDbLine
 62
7
  6
CONTINUOUS
 10
-14.6725095313
 20
18.7150513777
 11
-18.5777452532
 21
18.6468852346
  0
LINE
  5
47B
100
AcDbEntity
  8
0
100
AcDbLine
 62
7
  6
CONTINUOUS
 10
-14.6725095313
 20
18.7150513777
 11
-18.5777452532
 21
18.6468852346
  0
LINE
  5
47C
100
AcDbEntity
  8
ASSI
100
AcDbLine
 62
7
  6
CONTINUOUS
 10
-23.2777452532
 20
21.3148464295
 11
-14.6725095313
 21
21.4650513777
  0
LINE
  5
47D
100
AcDbEntity
  8
0
100
AcDbLine
 62
7
  6
CONTINUOUS
 10
-23.2777452532
 20
21.3148464295
 11
-14.6725095313
 21
21.4650513777
  0
LINE
  5
47E
100
AcDbEntity
  8
ASSI
100
AcDbLine
 62
253
  6
CONTINUOUS
 10
-23.2777452532
 20
21.8147702771
 11
-14.6725095313
 21
21.9649752253
  0
LINE
  5
47F
100
AcDbEntity
  8
0
100
AcDbLine
 62
253
  6
CONTINUOUS
 10
-23.2777452532
 20
21.8147702771
 11
-14.6725095313
 21
21.9649752253
  0
LINE
  5
480
100
AcDbEntity
  8
ASSI
100
AcDbLine
 62
7
  6
CONTINUOUS
 10
-14.6725095313
 20
19.6270633562
 11
-18.5777452532
 21
19.5988280152
  0
LINE
  5
481
100
AcDbEntity
  8
0
100
AcDbLine
 62
7
  6
CONTINUOUS
 10
-14.6725095313
 20
19.6270633562
 11
-18.5777452532
 21
19.5988280152
  0
LINE
  5
482
100
AcDbEntity
  8
DRAFT
100
AcDbLine
 62
7
  6
CONTINUOUS
 10
-18.9178919026
 20
20.0148464295
 11
-27.6375986039
 21
20.0148464295
  0
LINE
  5
483
100
AcDbEntity
  8
0
100
AcDbLine
 62
253
  6
CONTINUOUS
 10
-32.1777452532
 20
21.9649752253
 11
-31.8829809752
 21
21.9649752253
  0
LINE
  5
484
100
AcDbEntity
  8
ASSI
100
AcDbLine
 62
253
  6
CONTINUOUS
 10
-14.3777452532
 20
21.9649752253
 11
-14.6725095313
 21
21.9649752244
  0
LINE
  5
485
100
AcDbEntity
  8
0
100
AcDbLine
 62
253
  6
CONTINUOUS
 10
-14.3777452532
 20
21.9649752253
 11
-14.6725095313
 21
21.9649752244
  0
LINE
  5
486
100
AcDbEntity
  8
0
100
AcDbLine
 62
7
  6
CONTINUOUS
 10
-31.8829809752
 20
19.6270633562
 11
-27.9777452532
 21
19.5988280152
  0
LINE
  5
487
100
AcDbEntity
  8
0
100
AcDbLine
 62
7
  6
CONTINUOUS
 10
-31.8829809752
 20
18.7150513777
 11
-27.9777452532
 21
18.6468852346
  0
LINE
  5
488
100
AcDbEntity
  8
0
100
AcDbLine
 62
7
  6
CONTINUOUS
 10
-23.2777452532
 20
21.3148464295
 11
-31.8829809752
 21
21.4650513777
  0
LINE
  5
489
100
AcDbEntity
  8
0
100
AcDbLine
 62
253
  6
CONTINUOUS
 10
-23.2777452532
 20
21.8147702771
 11
-31.8829809752
 21
21.9649226496
  0
LWPOLYLINE
  5
48A
100
AcDbEntity
  8
0
100
AcDbPolyline
 62
7
  6
CONTINUOUS
 90
19
 70
0
 10
-31.8829809752
 20
19.6270633562
 10
-31.9102279516
 20
19.6277269618
 10
-31.9370308717
 20
19.6294549931
 10
-31.9631780355
 20
19.6321896948
 10
-31.9884680604
 20
19.63582371
 10
-32.0127174
 20
19.6403129489
 10
-32.035760603
 20
19.6456790463
 10
-32.057440261
 20
19.6518142373
 10
-32.0776168869
 20
19.6586211551
 10
-32.0961733041
 20
19.6661282351
 10
-32.1129992635
 20
19.6742139274
 10
-32.1280036344
 20
19.6827624216
 10
-32.1411180701
 20
19.6918075326
 10
-32.1522793621
 20
19.701223277
 10
-32.1614426096
 20
19.7108856212
 10
-32.1685830338
 20
19.7208324411
 10
-32.1736821281
 20
19.7309941924
 10
-32.1767328939
 20
19.7411932815
 10
-32.1777452532
 20
19.7513084989
  0
LWPOLYLINE
  5
48B
100
AcDbEntity
  8
RACCORDO
100
AcDbPolyline
 62
253
  6
CONTINUOUS
 90
16
 70
0
 10
24.4230035365
 20
-12.0037500175
 10
24.3942539832
 20
-12.0218813669
 10
24.3644526092
 20
-12.0383432787
 10
24.3339836199
 20
-12.0529235227
 10
24.3032398278
 20
-12.0654341278
 10
24.272617588
 20
-12.0757138048
 10
24.2425116882
 20
-12.0836300258
 10
24.2133102599
 20
-12.0890807333
 10
24.1853897737
 20
-12.091995656
 10
24.1591101863
 20
-12.0923372143
 10
24.1348102993
 20
-12.0901010048
 10
24.1128033918
 20
-12.0853158574
 10
24.0933731816
 20
-12.0780434634
 10
24.0767701667
 20
-12.0683775803
 10
24.0632083968
 20
-12.0564428226
 10
24.0528627129
 20
-12.0423930559
  0
LWPOLYLINE
  5
48C
100
AcDbEntity
  8
RACCORDO
100
AcDbPolyline
 62
253
  6
CONTINUOUS
 90
16
 70
0
 10
16.4731114894
 20
-16.5936264598
 10
16.5031883504
 20
-16.5777933252
 10
16.5323453857
 20
-16.5602146501
 10
16.5602066875
 20
-16.5411170618
 10
16.586413053
 20
-16.5207467695
 10
16.6106266154
 20
-16.4993663903
 10
16.6325351995
 20
-16.477251563
 10
16.6518563466
 20
-16.4546873949
 10
16.6683409562
 20
-16.431964786
 10
16.6817764972
 20
-16.4093766783
 10
16.6919897482
 20
-16.3872142793
 10
16.6988490308
 20
-16.3657633078
 10
16.702265907
 20
-16.3453003101
 10
16.7021963196
 20
-16.3260890946
 10
16.6986411604
 20
-16.3083773312
 10
16.6916462583
 20
-16.2923933576
  0
LWPOLYLINE
  5
48D
100
AcDbEntity
  8
RACCORDO
100
AcDbPolyline
 62
253
  6
CONTINUOUS
 90
16
 70
0
 10
16.4731097417
 20
18.2233129171
 10
16.5031863748
 20
18.2074809185
 10
16.53234316
 20
18.1899033403
 10
16.5602042113
 20
18.1708067911
 10
16.5864103469
 20
18.1504374621
 10
16.61062372
 20
18.1290579527
 10
16.6325321746
 20
18.1069438859
 10
16.6518532691
 20
18.084380354
 10
16.668337918
 20
18.0616582443
 10
16.6817736032
 20
18.0390704882
 10
16.6919871133
 20
18.016908285
 10
16.698846777
 20
17.995457348
 10
16.7022641603
 20
17.9749942208
 10
16.7021952069
 20
17.9557827122
 10
16.6986408058
 20
17.9380704955
 10
16.6916467804
 20
17.9220859151
  0
LWPOLYLINE
  5
48E
100
AcDbEntity
  8
RACCORDO
100
AcDbPolyline
 62
253
  6
CONTINUOUS
 90
3
 70
0
 10
23.5125169115
 20
13.3231176878
 10
22.9358400129
 20
13.6287877987
 10
22.8258887094
 20
13.6876593631
  0
LINE
  5
48F
100
AcDbEntity
  8
RACCORDO
100
AcDbLine
 62
253
  6
CONTINUOUS
 10
22.8258887074
 20
13.6876593643
 11
17.318620798
 21
16.8672819743
  0
LINE
  5
490
100
AcDbEntity
  8
RACCORDO
100
AcDbLine
 62
7
  6
CONTINUOUS
 10
23.6430550917
 20
13.5622782938
 11
16.8014544018
 21
17.5122782938
  0
LINE
  5
491
100
AcDbEntity
  8
RACCORDO
100
AcDbLine
 62
253
  6
CONTINUOUS
 10
17.3186207841
 20
16.8672819822
 11
16.8773614445
 21
17.142723389
  0
LINE
  5
492
100
AcDbEntity
  8
RACCORDO
100
AcDbLine
 62
253
  6
CONTINUOUS
 10
16.8773614445
 20
17.142723389
 11
16.6596043315
 21
17.2796486105
  0
LWPOLYLINE
  5
493
100
AcDbEntity
  8
RACCORDO
100
AcDbPolyline
 62
253
  6
CONTINUOUS
 90
16
 70
0
 10
24.4230061386
 20
13.633445503
 10
24.3942558113
 20
13.6515762614
 10
24.3644537145
 20
13.6680376571
 10
24.333984067
 20
13.6826174581
 10
24.3032396936
 20
13.6951276903
 10
24.2726169608
 20
13.7054070608
 10
24.2425106666
 20
13.7133230375
 10
24.2133089503
 20
13.7187735577
 10
24.1853882889
 20
13.7216883439
 10
24.1591086433
 20
13.7220298099
 10
24.1348088173
 20
13.7197935453
 10
24.1128020897
 20
13.7150083725
 10
24.0933721758
 20
13.7077359751
 10
24.0767695688
 20
13.698070103
 10
24.0632083113
 20
13.6861353631
 10
24.0528632353
 20
13.6720856134
  0
LWPOLYLINE
  5
494
100
AcDbEntity
  8
RACCORDO
100
AcDbPolyline
 62
253
  6
CONTINUOUS
 90
19
 70
0
 10
16.6596043315
 20
17.2796486105
 10
16.6190150099
 20
17.3076904423
 10
16.5810797425
 20
17.3397166011
 10
16.5457665313
 20
17.3757303107
 10
16.5127091111
 20
17.4158280544
 10
16.4822082772
 20
17.4598915447
 10
16.4552403654
 20
17.5075915973
 10
16.4317655645
 20
17.5590379862
 10
16.411771915
 20
17.6140226024
 10
16.3963001332
 20
17.6717254661
 10
16.3854546497
 20
17.73222891
 10
16.3791029132
 20
17.7952258346
 10
16.3779655227
 20
17.8593072864
 10
16.3826553423
 20
17.925128534
 10
16.3925564067
 20
17.99166631
 10
16.4066122545
 20
18.0551414667
 10
16.4245194994
 20
18.1143354189
 10
16.4466736123
 20
18.1704090323
 10
16.4731117184
 20
18.2233201576
  0
LWPOLYLINE
  5
495
100
AcDbEntity
  8
RACCORDO
100
AcDbPolyline
 62
253
  6
CONTINUOUS
 90
16
 70
0
 10
29.1738593056
 20
5.404719305
 10
29.1751867381
 20
5.3707557868
 10
29.1745424849
 20
5.336716084
 10
29.171934852
 20
5.3030390432
 10
29.1673974577
 20
5.2701588357
 10
29.1609887993
 20
5.2384993595
 10
29.1527914979
 20
5.2084687751
 10
29.1429112349
 20
5.1804542425
 10
29.1314753889
 20
5.1548169309
 10
29.1186313933
 20
5.1318873614
 10
29.1045448356
 20
5.1119611467
 10
29.0893973226
 20
5.0952951795
 10
29.0733841396
 20
5.0821043208
 10
29.0567117318
 20
5.0725586297
 10
29.0395950435
 20
5.0667811713
 10
29.0222547468
 20
5.0648464296
  0
LINE
  5
496
100
AcDbEntity
  8
RACCORDO
100
AcDbLine
 62
253
  6
CONTINUOUS
 10
28.4498664962
 20
-3.1416844933
 11
28.4309689685
 21
-2.6256351634
  0
LINE
  5
497
100
AcDbEntity
  8
RACCORDO
100
AcDbLine
 62
253
  6
CONTINUOUS
 10
28.4309689685
 20
-2.6256351634
 11
28.4222547468
 21
-2.3647761896
  0
LINE
  5
498
100
AcDbEntity
  8
RACCORDO
100
AcDbLine
 62
253
  6
CONTINUOUS
 10
28.4222547468
 20
-2.3647761771
 11
28.4222547468
 21
3.9944690426
  0
LINE
  5
499
100
AcDbEntity
  8
RACCORDO
100
AcDbLine
 62
7
  6
CONTINUOUS
 10
28.7222547468
 20
-3.1351535705
 11
28.7222547468
 21
4.7648464295
  0
LINE
  5
49A
100
AcDbEntity
  8
RACCORDO
100
AcDbLine
 62
253
  6
CONTINUOUS
 10
28.4222547468
 20
3.9944690486
 11
28.4351219643
 21
4.374303896
  0
LINE
  5
49B
100
AcDbEntity
  8
RACCORDO
100
AcDbLine
 62
253
  6
CONTINUOUS
 10
28.4351219643
 20
4.374303896
 11
28.4498664962
 21
4.7713773523
  0
LWPOLYLINE
  5
49C
100
AcDbEntity
  8
RACCORDO
100
AcDbPolyline
 62
253
  6
CONTINUOUS
 90
16
 70
0
 10
29.1738629066
 20
-3.775027393
 10
29.1751894417
 20
-3.7410634973
 10
29.1745443808
 20
-3.7070234242
 10
29.1719360351
 20
-3.6733460329
 10
29.1673980268
 20
-3.6404655068
 10
29.1609888554
 20
-3.6088057557
 10
29.1527911436
 20
-3.5787749508
 10
29.1429105725
 20
-3.5507602622
 10
29.1314745184
 20
-3.5251228672
 10
29.1186304112
 20
-3.5021932942
 10
29.1045438333
 20
-3.4822671611
 10
29.0893963854
 20
-3.4656013641
 10
29.0733833445
 20
-3.452410766
 10
29.0567111472
 20
-3.4428654255
 10
29.0395947276
 20
-3.4370884053
 10
29.0222547468
 20
-3.4351541852
  0
LWPOLYLINE
  5
49D
100
AcDbEntity
  8
RACCORDO
100
AcDbPolyline
 62
253
  6
CONTINUOUS
 90
19
 70
0
 10
28.4498664962
 20
4.7713773523
 10
28.4537379397
 20
4.8195259588
 10
28.462185659
 20
4.8673938768
 10
28.4751973211
 20
4.9150087725
 10
28.4926732236
 20
4.96270647
 10
28.514665578
 20
5.0101947534
 10
28.5413851728
 20
5.056548709
 10
28.5729138502
 20
5.1018700587
 10
28.6090678891
 20
5.1460558644
 10
28.6496593895
 20
5.1878501388
 10
28.6947638373
 20
5.2271892962
 10
28.7441181679
 20
5.2640594382
 10
28.7970360981
 20
5.2972482667
 10
28.8534488414
 20
5.3265658974
 10
28.9131496176
 20
5.3520441845
 10
28.9752750328
 20
5.3727833032
 10
29.0394424642
 20
5.3884146345
 10
29.1057059727
 20
5.3990987375
 10
29.1738637222
 20
5.4047204664
  0
LINE
  5
49E
100
AcDbEntity
  8
RACCORDO
100
AcDbLine
 62
253
  6
CONTINUOUS
 10
22.8871355882
 20
-15.7835588763
 11
22.0290279702
 21
-17.269844869
  0
LINE
  5
49F
100
AcDbEntity
  8
RACCORDO
100
AcDbLine
 62
7
  6
CONTINUOUS
 10
23.753160992
 20
-16.2835588763
 11
22.895053374
 21
-17.769844869
  0
LINE
  5
4A0
100
AcDbEntity
  8
0
100
AcDbLine
 62
253
  6
CONTINUOUS
 10
-23.2777452532
 20
56.0149225819
 11
-31.8829809752
 21
55.8647176337
  0
LINE
  5
4A1
100
AcDbEntity
  8
0
100
AcDbLine
 62
7
  6
CONTINUOUS
 10
-23.2777452532
 20
56.5148464295
 11
-31.8829809752
 21
56.3646414812
  0
LINE
  5
4A2
100
AcDbEntity
  8
0
100
AcDbLine
 62
253
  6
CONTINUOUS
 10
-32.1777452532
 20
55.8647176337
 11
-31.8829809752
 21
55.8647176346
  0
LINE
  5
4A3
100
AcDbEntity
  8
ASSI
100
AcDbLine
 62
253
  6
CONTINUOUS
 10
-14.3777452532
 20
55.8647176337
 11
-14.6725095313
 21
55.8647176337
  0
LINE
  5
4A4
100
AcDbEntity
  8
0
100
AcDbLine
 62
253
  6
CONTINUOUS
 10
-14.3777452532
 20
55.8647176337
 11
-14.6725095313
 21
55.8647176337
  0
LINE
  5
4A5
100
AcDbEntity
  8
ASSI
100
AcDbLine
 62
253
  6
CONTINUOUS
 10
-23.2777452532
 20
56.0149225819
 11
-14.6725095313
 21
55.8647702093
  0
LINE
  5
4A6
100
AcDbEntity
  8
0
100
AcDbLine
 62
253
  6
CONTINUOUS
 10
-23.2777452532
 20
56.0149225819
 11
-14.6725095313
 21
55.8647702093
  0
LINE
  5
4A7
100
AcDbEntity
  8
ASSI
100
AcDbLine
 62
7
  6
CONTINUOUS
 10
-23.2777452532
 20
56.5148464295
 11
-14.6725095313
 21
56.3646414812
  0
LINE
  5
4A8
100
AcDbEntity
  8
0
100
AcDbLine
 62
7
  6
CONTINUOUS
 10
-23.2777452532
 20
56.5148464295
 11
-14.6725095313
 21
56.3646414812
  0
LINE
  5
4A9
100
AcDbEntity
  8
0
100
AcDbLine
 62
7
  6
CONTINUOUS
 10
14.2222547468
 20
-67.715017333
 11
9.2222547468
 21
-67.715017333
  0
LINE
  5
4AA
100
AcDbEntity
  8
0
100
AcDbLine
 62
7
  6
CONTINUOUS
 10
14.2222547468
 20
-65.015017333
 11
13.7222547468
 21
-65.015017333
  0
LINE
  5
4AB
100
AcDbEntity
  8
0
100
AcDbLine
 62
7
  6
CONTINUOUS
 10
9.7222547468
 20
-65.015017333
 11
9.2222547468
 21
-65.015017333
  0
LINE
  5
4AC
100
AcDbEntity
  8
0
100
AcDbLine
 62
7
  6
CONTINUOUS
 10
14.2222547468
 20
-64.015017333
 11
13.7222547468
 21
-64.015017333
  0
LINE
  5
4AD
100
AcDbEntity
  8
0
100
AcDbLine
 62
7
  6
CONTINUOUS
 10
9.7222547468
 20
-64.015017333
 11
9.2222547468
 21
-64.015017333
  0
LWPOLYLINE
  5
4AE
100
AcDbEntity
  8
0
100
AcDbPolyline
 62
7
  6
CONTINUOUS
 90
7
 70
0
 10
10.2722547468
 20
-61.9293136034
 10
10.2582727906
 20
-61.9301814057
 10
10.2456951255
 20
-61.9312794093
 10
10.235694497
 20
-61.9325086635
 10
10.2286375437
 20
-61.9338376914
 10
10.2241576269
 20
-61.9352979698
 10
10.2222547468
 20
-61.9368894989
  0
LWPOLYLINE
  5
4AF
100
AcDbEntity
  8
0
100
AcDbPolyline
 62
7
  6
CONTINUOUS
 90
7
 70
0
 10
10.1974368219
 20
-61.9179384596
 10
10.1622998563
 20
-61.9201192659
 10
10.1308556936
 20
-61.9228642749
 10
10.1058541224
 20
-61.9259374103
 10
10.088211739
 20
-61.9292599801
 10
10.0770119471
 20
-61.9329106763
 10
10.0722547468
 20
-61.9368894989
  0
LWPOLYLINE
  5
4B0
100
AcDbEntity
  8
0
100
AcDbPolyline
 62
7
  6
CONTINUOUS
 90
3
 70
0
 10
10.2722547468
 20
-61.9155368624
 10
10.235349994
 20
-61.9164005481
 10
10.1974368219
 20
-61.9179384596
  0
LINE
  5
4B1
100
AcDbEntity
  8
0
100
AcDbLine
 62
7
  6
CONTINUOUS
 10
13.3222547468
 20
-62.815017333
 11
10.1222547468
 21
-62.815017333
  0
LINE
  5
4B2
100
AcDbEntity
  8
0
100
AcDbLine
 62
7
  6
CONTINUOUS
 10
9.2222547468
 20
-62.015017333
 11
14.2222547468
 21
-62.015017333
  0
LINE
  5
4B3
100
AcDbEntity
  8
RACCORDO
100
AcDbLine
 62
253
  6
CONTINUOUS
 10
13.3722547468
 20
-61.9945196441
 11
13.2222547468
 21
-61.9945196441
  0
LINE
  5
4B4
100
AcDbEntity
  8
RACCORDO
100
AcDbLine
 62
253
  6
CONTINUOUS
 10
12.1222547468
 20
-61.9945196441
 11
11.9722547468
 21
-61.9945196441
  0
LINE
  5
4B5
100
AcDbEntity
  8
RACCORDO
100
AcDbLine
 62
253
  6
CONTINUOUS
 10
11.4722547468
 20
-61.9945196441
 11
11.3222547468
 21
-61.9945196441
  0
LINE
  5
4B6
100
AcDbEntity
  8
RACCORDO
100
AcDbLine
 62
253
  6
CONTINUOUS
 10
10.2222547468
 20
-61.9945196441
 11
10.0722547468
 21
-61.9945196441
  0
LINE
  5
4B7
100
AcDbEntity
  8
0
100
AcDbLine
 62
7
  6
CONTINUOUS
 10
13.7222547468
 20
-61.815017333
 11
9.7222547468
 21
-61.815017333
  0
LINE
  5
4B8
100
AcDbEntity
  8
0
100
AcDbLine
 62
7
  6
CONTINUOUS
 10
13.2091588297
 20
-61.9164005098
 11
13.1722547468
 21
-61.9155368455
  0
LINE
  5
4B9
100
AcDbEntity
  8
0
100
AcDbLine
 62
7
  6
CONTINUOUS
 10
13.7222547468
 20
-59.3752981124
 11
9.7222547468
 21
-59.3752981124
  0
LINE
  5
4BA
100
AcDbEntity
  8
0
100
AcDbLine
 62
7
  6
CONTINUOUS
 10
9.2222547468
 20
-67.715017333
 11
9.2222547468
 21
-62.015017333
  0
LINE
  5
4BB
100
AcDbEntity
  8
0
100
AcDbLine
 62
7
  6
CONTINUOUS
 10
9.7222547468
 20
-59.3752981124
 11
9.7222547468
 21
-61.815017333
  0
LINE
  5
4BC
100
AcDbEntity
  8
0
100
AcDbLine
 62
7
  6
CONTINUOUS
 10
9.7222547468
 20
-62.015017333
 11
9.7222547468
 21
-67.715017333
  0
LINE
  5
4BD
100
AcDbEntity
  8
RACCORDO
100
AcDbLine
 62
7
  6
CONTINUOUS
 10
10.0722547468
 20
-61.9368894989
 11
10.0722547468
 21
-62.015017333
  0
LINE
  5
4BE
100
AcDbEntity
  8
0
100
AcDbLine
 62
7
  6
CONTINUOUS
 10
10.1222547468
 20
-67.715017333
 11
10.1222547468
 21
-62.015017333
  0
LINE
  5
4BF
100
AcDbEntity
  8
RACCORDO
100
AcDbLine
 62
7
  6
CONTINUOUS
 10
10.2222547468
 20
-61.9368894989
 11
10.2222547468
 21
-62.015017333
  0
LINE
  5
4C0
100
AcDbEntity
  8
0
100
AcDbLine
 62
7
  6
CONTINUOUS
 10
10.2722547468
 20
-62.015017333
 11
10.2722547468
 21
-61.815017333
  0
LINE
  5
4C1
100
AcDbEntity
  8
ASSI
100
AcDbLine
 62
7
  6
CONTINUOUS
 10
10.2722547468
 20
-61.815017333
 11
10.2722547468
 21
-62.015017333
  0
LINE
  5
4C2
100
AcDbEntity
  8
RACCORDO
100
AcDbLine
 62
7
  6
CONTINUOUS
 10
10.7222547468
 20
-62.015017333
 11
10.7222547468
 21
-61.9945196441
  0
LINE
  5
4C3
100
AcDbEntity
  8
RACCORDO
100
AcDbLine
 62
7
  6
CONTINUOUS
 10
10.8722547468
 20
-61.9945196441
 11
10.8722547468
 21
-62.015017333
  0
LWPOLYLINE
  5
4C4
100
AcDbEntity
  8
0
100
AcDbPolyline
 62
7
  6
CONTINUOUS
 90
7
 70
0
 10
13.2222547468
 20
-61.9368894989
 10
13.2203519865
 20
-61.9352979848
 10
13.2158721229
 20
-61.9338377144
 10
13.208815156
 20
-61.9325086876
 10
13.1988143982
 20
-61.9312794233
 10
13.1862365372
 20
-61.9301814027
 10
13.1722547468
 20
-61.9293136067
  0
LWPOLYLINE
  5
4C5
100
AcDbEntity
  8
0
100
AcDbPolyline
 62
7
  6
CONTINUOUS
 90
8
 70
0
 10
13.3722547468
 20
-61.9368894989
 10
13.3674978461
 20
-61.9329107137
 10
13.3562981871
 20
-61.9292600376
 10
13.3386557697
 20
-61.9259374706
 10
13.3136538754
 20
-61.92286431
 10
13.2822092228
 20
-61.9201192584
 10
13.247071968
 20
-61.9179384242
 10
13.2091588297
 20
-61.9164005098
  0
LINE
  5
4C6
100
AcDbEntity
  8
0
100
AcDbLine
 62
7
  6
CONTINUOUS
 10
11.1722547468
 20
-62.015017333
 11
11.1722547468
 21
-61.815017333
  0
LINE
  5
4C7
100
AcDbEntity
  8
ASSI
100
AcDbLine
 62
7
  6
CONTINUOUS
 10
11.1722547468
 20
-61.815017333
 11
11.1722547468
 21
-62.015017333
  0
LINE
  5
4C8
100
AcDbEntity
  8
0
100
AcDbLine
 62
7
  6
CONTINUOUS
 10
11.2722547468
 20
-62.015017333
 11
11.2722547468
 21
-61.815017333
  0
LINE
  5
4C9
100
AcDbEntity
  8
ASSI
100
AcDbLine
 62
7
  6
CONTINUOUS
 10
11.2722547468
 20
-61.815017333
 11
11.2722547468
 21
-62.015017333
  0
LINE
  5
4CA
100
AcDbEntity
  8
RACCORDO
100
AcDbLine
 62
7
  6
CONTINUOUS
 10
11.3222547468
 20
-62.015017333
 11
11.3222547468
 21
-61.9945196441
  0
LINE
  5
4CB
100
AcDbEntity
  8
RACCORDO
100
AcDbLine
 62
7
  6
CONTINUOUS
 10
11.4722547468
 20
-61.9945196441
 11
11.4722547468
 21
-62.015017333
  0
LINE
  5
4CC
100
AcDbEntity
  8
RACCORDO
100
AcDbLine
 62
7
  6
CONTINUOUS
 10
11.9722547468
 20
-62.015017333
 11
11.9722547468
 21
-61.9945196441
  0
LINE
  5
4CD
100
AcDbEntity
  8
RACCORDO
100
AcDbLine
 62
7
  6
CONTINUOUS
 10
12.1222547468
 20
-61.9945196441
 11
12.1222547468
 21
-62.015017333
  0
LINE
  5
4CE
100
AcDbEntity
  8
0
100
AcDbLine
 62
7
  6
CONTINUOUS
 10
12.1722547468
 20
-62.015017333
 11
12.1722547468
 21
-61.815017333
  0
LINE
  5
4CF
100
AcDbEntity
  8
ASSI
100
AcDbLine
 62
7
  6
CONTINUOUS
 10
12.1722547468
 20
-61.815017333
 11
12.1722547468
 21
-62.015017333
  0
LINE
  5
4D0
100
AcDbEntity
  8
0
100
AcDbLine
 62
7
  6
CONTINUOUS
 10
12.2722547468
 20
-62.015017333
 11
12.2722547468
 21
-61.815017333
  0
LINE
  5
4D1
100
AcDbEntity
  8
ASSI
100
AcDbLine
 62
7
  6
CONTINUOUS
 10
12.2722547468
 20
-61.815017333
 11
12.2722547468
 21
-62.015017333
  0
LINE
  5
4D2
100
AcDbEntity
  8
RACCORDO
100
AcDbLine
 62
7
  6
CONTINUOUS
 10
12.5722547468
 20
-62.015017333
 11
12.5722547468
 21
-61.9945196441
  0
LINE
  5
4D3
100
AcDbEntity
  8
RACCORDO
100
AcDbLine
 62
7
  6
CONTINUOUS
 10
12.7222547468
 20
-61.9945196441
 11
12.7222547468
 21
-62.015017333
  0
LINE
  5
4D4
100
AcDbEntity
  8
0
100
AcDbLine
 62
7
  6
CONTINUOUS
 10
13.1722547468
 20
-62.015017333
 11
13.1722547468
 21
-61.815017333
  0
LINE
  5
4D5
100
AcDbEntity
  8
ASSI
100
AcDbLine
 62
7
  6
CONTINUOUS
 10
13.1722547468
 20
-61.815017333
 11
13.1722547468
 21
-62.015017333
  0
LINE
  5
4D6
100
AcDbEntity
  8
RACCORDO
100
AcDbLine
 62
7
  6
CONTINUOUS
 10
13.2222547468
 20
-61.9368894989
 11
13.2222547468
 21
-62.015017333
  0
LINE
  5
4D7
100
AcDbEntity
  8
0
100
AcDbLine
 62
7
  6
CONTINUOUS
 10
13.3222547468
 20
-67.715017333
 11
13.3222547468
 21
-62.015017333
  0
LINE
  5
4D8
100
AcDbEntity
  8
RACCORDO
100
AcDbLine
 62
7
  6
CONTINUOUS
 10
13.3722547468
 20
-61.9368894989
 11
13.3722547468
 21
-62.015017333
  0
LINE
  5
4D9
100
AcDbEntity
  8
0
100
AcDbLine
 62
7
  6
CONTINUOUS
 10
13.7222547468
 20
-59.3752981124
 11
13.7222547468
 21
-61.815017333
  0
LINE
  5
4DA
100
AcDbEntity
  8
0
100
AcDbLine
 62
7
  6
CONTINUOUS
 10
13.7222547468
 20
-62.015017333
 11
13.7222547468
 21
-67.715017333
  0
LINE
  5
4DB
100
AcDbEntity
  8
0
100
AcDbLine
 62
7
  6
CONTINUOUS
 10
14.2222547468
 20
-67.715017333
 11
14.2222547468
 21
-62.015017333
  0
ARC
  5
4DC
100
AcDbEntity
  8
ASSI
100
AcDbCircle
 62
7
  6
CONTINUOUS
 10
-27.6777452532
 20
-36.3525008227
 40
1.5
100
AcDbArc
 50
180.0
 51
267.0
  0
ARC
  5
4DD
100
AcDbEntity
  8
ASSI
100
AcDbCircle
 62
7
  6
CONTINUOUS
 10
-27.6777452532
 20
-30.0178063184
 40
1.5
100
AcDbArc
 50
93.0
 51
180.0
  0
ARC
  5
4DE
100
AcDbEntity
  8
0
100
AcDbCircle
 62
7
  6
CONTINUOUS
 10
-27.6777452532
 20
-30.0178063184
 40
1.5
100
AcDbArc
 50
93.0
 51
180.0
  0
ARC
  5
4DF
100
AcDbEntity
  8
0
100
AcDbCircle
 62
7
  6
CONTINUOUS
 10
-27.6777452532
 20
-36.3525008227
 40
1.5
100
AcDbArc
 50
180.0
 51
267.0
  0
ARC
  5
4E0
100
AcDbEntity
  8
0
100
AcDbCircle
 62
7
  6
CONTINUOUS
 10
-29.2777452532
 20
-37.0693345488
 40
1.0
100
AcDbArc
 50
180.0
 51
267.0
  0
ARC
  5
4E1
100
AcDbEntity
  8
0
100
AcDbCircle
 62
7
  6
CONTINUOUS
 10
-29.2777452532
 20
-29.3009725922
 40
1.0
100
AcDbArc
 50
93.0
 51
180.0
  0
ARC
  5
4E2
100
AcDbEntity
  8
0
100
AcDbCircle
 62
7
  6
CONTINUOUS
 10
-30.3777452532
 20
-52.9611464455
 40
0.5
100
AcDbArc
 50
180.0
 51
269.0
  0
ARC
  5
4E3
100
AcDbEntity
  8
0
100
AcDbCircle
 62
7
  6
CONTINUOUS
 10
-30.3777452532
 20
-47.6091606955
 40
0.5
100
AcDbArc
 50
91.0
 51
180.0
  0
ARC
  5
4E4
100
AcDbEntity
  8
0
100
AcDbCircle
 62
7
  6
CONTINUOUS
 10
-31.8777452532
 20
-54.4349943137
 40
0.3
100
AcDbArc
 50
180.0
 51
269.0
  0
ARC
  5
4E5
100
AcDbEntity
  8
ASSI
100
AcDbCircle
 62
7
  6
CONTINUOUS
 10
-27.6777452532
 20
-2.3525008227
 40
1.5
100
AcDbArc
 50
180.0
 51
267.0
  0
ARC
  5
4E6
100
AcDbEntity
  8
0
100
AcDbCircle
 62
7
  6
CONTINUOUS
 10
-27.6777452532
 20
-2.3525008227
 40
1.5
100
AcDbArc
 50
180.0
 51
267.0
  0
ARC
  5
4E7
100
AcDbEntity
  8
0
100
AcDbCircle
 62
7
  6
CONTINUOUS
 10
-29.2777452532
 20
-3.0693345488
 40
1.0
100
AcDbArc
 50
180.0
 51
267.0
  0
ARC
  5
4E8
100
AcDbEntity
  8
0
100
AcDbCircle
 62
7
  6
CONTINUOUS
 10
-31.8777452532
 20
-17.3853128273
 40
0.3
100
AcDbArc
 50
91.0
 51
180.0
  0
ARC
  5
4E9
100
AcDbEntity
  8
0
100
AcDbCircle
 62
7
  6
CONTINUOUS
 10
-31.8777452532
 20
-15.5853128273
 40
0.3
100
AcDbArc
 50
91.0
 51
180.0
  0
ARC
  5
4EA
100
AcDbEntity
  8
ASSI
100
AcDbCircle
 62
7
  6
CONTINUOUS
 10
-16.1777452532
 20
-52.9611464455
 40
0.5
100
AcDbArc
 50
271.0
 51
360.0
  0
ARC
  5
4EB
100
AcDbEntity
  8
ASSI
100
AcDbCircle
 62
7
  6
CONTINUOUS
 10
-16.1777452532
 20
-47.6091606955
 40
0.5
100
AcDbArc
 50
0.0
 51
89.0
  0
ARC
  5
4EC
100
AcDbEntity
  8
0
100
AcDbCircle
 62
7
  6
CONTINUOUS
 10
-16.1777452532
 20
-52.9611464455
 40
0.5
100
AcDbArc
 50
271.0
 51
360.0
  0
ARC
  5
4ED
100
AcDbEntity
  8
0
100
AcDbCircle
 62
7
  6
CONTINUOUS
 10
-16.1777452532
 20
-47.6091606955
 40
0.5
100
AcDbArc
 50
0.0
 51
89.0
  0
ARC
  5
4EE
100
AcDbEntity
  8
ASSI
100
AcDbCircle
 62
7
  6
CONTINUOUS
 10
-14.6777452532
 20
-54.4349943137
 40
0.3
100
AcDbArc
 50
271.0
 51
360.0
  0
ARC
  5
4EF
100
AcDbEntity
  8
0
100
AcDbCircle
 62
7
  6
CONTINUOUS
 10
-14.6777452532
 20
-54.4349943137
 40
0.3
100
AcDbArc
 50
271.0
 51
360.0
  0
ARC
  5
4F0
100
AcDbEntity
  8
RACCORDO
100
AcDbCircle
 62
253
  6
CONTINUOUS
 10
-4.6387785174
 20
-18.7835588763
 40
6.0
100
AcDbArc
 50
30.0
 51
50.1443807693
  0
ARC
  5
4F1
100
AcDbEntity
  8
RACCORDO
100
AcDbCircle
 62
7
  6
CONTINUOUS
 10
-4.6387785174
 20
-18.7835588763
 40
5.0
100
AcDbArc
 50
30.0
 51
50.1443807693
  0
ARC
  5
4F2
100
AcDbEntity
  8
ASSI
100
AcDbCircle
 62
7
  6
CONTINUOUS
 10
-14.6777452532
 20
-17.3853166181
 40
0.3
100
AcDbArc
 50
0.0007239881
 51
89.000012634
  0
ARC
  5
4F3
100
AcDbEntity
  8
ASSI
100
AcDbCircle
 62
7
  6
CONTINUOUS
 10
-14.6777452532
 20
-15.5853128273
 40
0.3
100
AcDbArc
 50
0.0
 51
89.0
  0
ARC
  5
4F4
100
AcDbEntity
  8
0
100
AcDbCircle
 62
7
  6
CONTINUOUS
 10
-14.6777452532
 20
-17.3853166181
 40
0.3
100
AcDbArc
 50
0.0007239881
 51
89.000012634
  0
ARC
  5
4F5
100
AcDbEntity
  8
0
100
AcDbCircle
 62
7
  6
CONTINUOUS
 10
-14.6777452532
 20
-15.5853128273
 40
0.3
100
AcDbArc
 50
0.0
 51
89.0
  0
ARC
  5
4F6
100
AcDbEntity
  8
RACCORDO
100
AcDbCircle
 62
7
  6
CONTINUOUS
 10
-6.4157578235
 20
-3.7351535705
 40
0.3
100
AcDbArc
 50
90.0
 51
194.0823073187
  0
ARC
  5
4F7
100
AcDbEntity
  8
RACCORDO
100
AcDbCircle
 62
7
  6
CONTINUOUS
 10
-1.2871637371
 20
-12.6181273615
 40
0.3
100
AcDbArc
 50
225.9180075982
 51
329.9987056977
  0
ARC
  5
4F8
100
AcDbEntity
  8
RACCORDO
100
AcDbCircle
 62
7
  6
CONTINUOUS
 10
-5.5777452532
 20
-3.1351535705
 40
0.3
100
AcDbArc
 50
270.0
 51
360.0
  0
ARC
  5
4F9
100
AcDbEntity
  8
ASSI
100
AcDbCircle
 62
7
  6
CONTINUOUS
 10
-27.6777452532
 20
3.9821936816
 40
1.5
100
AcDbArc
 50
93.0
 51
180.0
  0
ARC
  5
4FA
100
AcDbEntity
  8
0
100
AcDbCircle
 62
7
  6
CONTINUOUS
 10
-27.6777452532
 20
3.9821936816
 40
1.5
100
AcDbArc
 50
93.0
 51
180.0
  0
ARC
  5
4FB
100
AcDbEntity
  8
0
100
AcDbCircle
 62
7
  6
CONTINUOUS
 10
-29.2777452532
 20
4.6990274078
 40
1.0
100
AcDbArc
 50
93.0
 51
180.0
  0
ARC
  5
4FC
100
AcDbEntity
  8
0
100
AcDbCircle
 62
7
  6
CONTINUOUS
 10
-31.8777452532
 20
19.0150056863
 40
0.3
100
AcDbArc
 50
180.0
 51
269.0
  0
ARC
  5
4FD
100
AcDbEntity
  8
0
100
AcDbCircle
 62
7
  6
CONTINUOUS
 10
-31.8777452532
 20
56.0646871727
 40
0.3
100
AcDbArc
 50
91.0
 51
180.0
  0
ARC
  5
4FE
100
AcDbEntity
  8
0
100
AcDbCircle
 62
7
  6
CONTINUOUS
 10
-31.8777452532
 20
21.7650094771
 40
0.3
100
AcDbArc
 50
180.0007239881
 51
269.000012634
  0
ARC
  5
4FF
100
AcDbEntity
  8
ASSI
100
AcDbCircle
 62
7
  6
CONTINUOUS
 10
-14.6777452532
 20
19.0150056863
 40
0.3
100
AcDbArc
 50
271.0
 51
360.0
  0
ARC
  5
500
100
AcDbEntity
  8
ASSI
100
AcDbCircle
 62
7
  6
CONTINUOUS
 10
-14.6777452532
 20
21.7650056863
 40
0.3
100
AcDbArc
 50
271.0
 51
360.0
  0
ARC
  5
501
100
AcDbEntity
  8
ASSI
100
AcDbCircle
 62
7
  6
CONTINUOUS
 10
-14.6777452532
 20
56.0646871727
 40
0.3
100
AcDbArc
 50
0.0
 51
89.0
  0
ARC
  5
502
100
AcDbEntity
  8
0
100
AcDbCircle
 62
7
  6
CONTINUOUS
 10
-14.6777452532
 20
19.0150056863
 40
0.3
100
AcDbArc
 50
271.0
 51
360.0
  0
ARC
  5
503
100
AcDbEntity
  8
0
100
AcDbCircle
 62
7
  6
CONTINUOUS
 10
-14.6777452532
 20
21.7650056863
 40
0.3
100
AcDbArc
 50
271.0
 51
360.0
  0
ARC
  5
504
100
AcDbEntity
  8
0
100
AcDbCircle
 62
7
  6
CONTINUOUS
 10
-14.6777452532
 20
56.0646871727
 40
0.3
100
AcDbArc
 50
0.0
 51
89.0
  0
ARC
  5
505
100
AcDbEntity
  8
RACCORDO
100
AcDbCircle
 62
7
  6
CONTINUOUS
 10
-1.2871671256
 20
14.2478260895
 40
0.3
100
AcDbArc
 50
30.0
 51
134.0823073187
  0
ARC
  5
506
100
AcDbEntity
  8
RACCORDO
100
AcDbCircle
 62
7
  6
CONTINUOUS
 10
-6.4157510466
 20
5.3648464295
 40
0.3
100
AcDbArc
 50
165.9180075982
 51
269.9987056977
  0
ARC
  5
507
100
AcDbEntity
  8
RACCORDO
100
AcDbCircle
 62
7
  6
CONTINUOUS
 10
-5.5777452532
 20
4.7648464295
 40
0.3
100
AcDbArc
 50
0.0
 51
90.0
  0
ARC
  5
508
100
AcDbEntity
  8
RACCORDO
100
AcDbCircle
 62
7
  6
CONTINUOUS
 10
2.2815069271
 20
-16.769844869
 40
2.0
100
AcDbArc
 50
210.0
 51
239.3705012297
  0
ARC
  5
509
100
AcDbEntity
  8
RACCORDO
100
AcDbCircle
 62
253
  6
CONTINUOUS
 10
2.2815069271
 20
-16.769844869
 40
1.0
100
AcDbArc
 50
210.0
 51
239.3705012297
  0
ARC
  5
50A
100
AcDbEntity
  8
RACCORDO
100
AcDbCircle
 62
7
  6
CONTINUOUS
 10
6.5936640488
 20
-17.1681332305
 40
0.3
100
AcDbArc
 50
150.0
 51
254.0823073187
  0
ARC
  5
50B
100
AcDbEntity
  8
RACCORDO
100
AcDbCircle
 62
7
  6
CONTINUOUS
 10
-0.3485455982
 20
-12.192393056
 40
0.3
100
AcDbArc
 50
60.0
 51
150.0
  0
ARC
  5
50C
100
AcDbEntity
  8
RACCORDO
100
AcDbCircle
 62
7
  6
CONTINUOUS
 10
6.4930550917
 20
-16.142393056
 40
0.3
100
AcDbArc
 50
330.0
 51
60.0
  0
ARC
  5
50D
100
AcDbEntity
  8
RACCORDO
100
AcDbCircle
 62
7
  6
CONTINUOUS
 10
11.7222547468
 20
-0.8251535705
 40
20.53
100
AcDbArc
 50
239.3705012297
 51
300.6294987703
  0
ARC
  5
50E
100
AcDbEntity
  8
RACCORDO
100
AcDbCircle
 62
253
  6
CONTINUOUS
 10
11.7222547468
 20
-0.8251535705
 40
19.53
100
AcDbArc
 50
239.3705012297
 51
300.6294987703
  0
ARC
  5
50F
100
AcDbEntity
  8
RACCORDO
100
AcDbCircle
 62
253
  6
CONTINUOUS
 10
28.0832880109
 20
-18.7835588763
 40
6.0
100
AcDbArc
 50
129.8556192307
 51
150.0
  0
ARC
  5
510
100
AcDbEntity
  8
RACCORDO
100
AcDbCircle
 62
7
  6
CONTINUOUS
 10
28.0832880109
 20
-18.7835588763
 40
5.0
100
AcDbArc
 50
129.8556192307
 51
150.0
  0
ARC
  5
511
100
AcDbEntity
  8
RACCORDO
100
AcDbCircle
 62
7
  6
CONTINUOUS
 10
21.1630025664
 20
-16.769844869
 40
2.0
100
AcDbArc
 50
300.6294987703
 51
330.0
  0
ARC
  5
512
100
AcDbEntity
  8
RACCORDO
100
AcDbCircle
 62
253
  6
CONTINUOUS
 10
21.1630025664
 20
-16.769844869
 40
1.0
100
AcDbArc
 50
300.6294987703
 51
330.0
  0
ARC
  5
513
100
AcDbEntity
  8
RACCORDO
100
AcDbCircle
 62
7
  6
CONTINUOUS
 10
16.8508420562
 20
-17.1681273615
 40
0.3
100
AcDbArc
 50
285.9180075982
 51
29.9987056977
  0
ARC
  5
514
100
AcDbEntity
  8
RACCORDO
100
AcDbCircle
 62
7
  6
CONTINUOUS
 10
24.7316766191
 20
-12.6181332305
 40
0.3
100
AcDbArc
 50
210.0
 51
314.0823073187
  0
ARC
  5
515
100
AcDbEntity
  8
RACCORDO
100
AcDbCircle
 62
7
  6
CONTINUOUS
 10
16.9514544018
 20
-16.142393056
 40
0.3
100
AcDbArc
 50
120.0
 51
210.0
  0
ARC
  5
516
100
AcDbEntity
  8
RACCORDO
100
AcDbCircle
 62
7
  6
CONTINUOUS
 10
23.7930550917
 20
-12.192393056
 40
0.3
100
AcDbArc
 50
30.0
 51
120.0
  0
ARC
  5
517
100
AcDbEntity
  8
RACCORDO
100
AcDbCircle
 62
7
  6
CONTINUOUS
 10
29.8602605509
 20
-3.7351535705
 40
0.3
100
AcDbArc
 50
345.9180070964
 51
89.9987077601
  0
ARC
  5
518
100
AcDbEntity
  8
RACCORDO
100
AcDbCircle
 62
7
  6
CONTINUOUS
 10
29.0222547468
 20
-3.1351535705
 40
0.3
100
AcDbArc
 50
180.0
 51
270.0
  0
ARC
  5
519
100
AcDbEntity
  8
RACCORDO
100
AcDbCircle
 62
7
  6
CONTINUOUS
 10
11.7222547468
 20
0.8148464295
 40
20.53
100
AcDbArc
 50
309.8556192307
 51
230.1443807693
  0
ARC
  5
51A
100
AcDbEntity
  8
RACCORDO
100
AcDbCircle
 62
253
  6
CONTINUOUS
 10
11.7222547468
 20
0.8148464295
 40
19.53
100
AcDbArc
 50
309.8556192307
 51
230.1443807693
  0
ARC
  5
51B
100
AcDbEntity
  8
RACCORDO
100
AcDbCircle
 62
7
  6
CONTINUOUS
 10
11.7222547468
 20
0.8148464295
 40
19.0
100
AcDbArc
 50
314.0823073187
 51
345.9176926813
  0
ARC
  5
51C
100
AcDbEntity
  8
RACCORDO
100
AcDbCircle
 62
7
  6
CONTINUOUS
 10
11.7222547468
 20
0.8148464295
 40
19.0
100
AcDbArc
 50
254.0823073187
 51
285.9176926813
  0
ARC
  5
51D
100
AcDbEntity
  8
RACCORDO
100
AcDbCircle
 62
7
  6
CONTINUOUS
 10
11.7222547468
 20
0.8148464295
 40
19.0
100
AcDbArc
 50
194.0823073187
 51
225.9176926813
  0
ARC
  5
51E
100
AcDbEntity
  8
RACCORDO
100
AcDbCircle
 62
7
  6
CONTINUOUS
 10
11.7222547468
 20
0.8148464295
 40
19.0
100
AcDbArc
 50
74.0823073187
 51
105.9176926813
  0
ARC
  5
51F
100
AcDbEntity
  8
RACCORDO
100
AcDbCircle
 62
7
  6
CONTINUOUS
 10
11.7222547468
 20
0.8148464295
 40
19.0
100
AcDbArc
 50
134.0823073187
 51
165.9176926813
  0
ARC
  5
520
100
AcDbEntity
  8
RACCORDO
100
AcDbCircle
 62
7
  6
CONTINUOUS
 10
11.7222547468
 20
0.8148464295
 40
19.0
100
AcDbArc
 50
14.0823073187
 51
45.9176926813
  0
ARC
  5
521
100
AcDbEntity
  8
RACCORDO
100
AcDbCircle
 62
253
  6
CONTINUOUS
 10
11.7222547468
 20
0.8148464295
 40
17.0
100
AcDbArc
 50
310.7798952194
 51
349.2201047692
  0
ARC
  5
522
100
AcDbEntity
  8
RACCORDO
100
AcDbCircle
 62
253
  6
CONTINUOUS
 10
11.7222547468
 20
0.8148464295
 40
17.0
100
AcDbArc
 50
250.7798952194
 51
289.2201047691
  0
ARC
  5
523
100
AcDbEntity
  8
RACCORDO
100
AcDbCircle
 62
253
  6
CONTINUOUS
 10
11.7222547468
 20
0.8148464295
 40
17.0
100
AcDbArc
 50
190.7798952194
 51
229.2201047692
  0
ARC
  5
524
100
AcDbEntity
  8
RACCORDO
100
AcDbCircle
 62
253
  6
CONTINUOUS
 10
11.7222547468
 20
0.8148464295
 40
17.0
100
AcDbArc
 50
70.7798952194
 51
109.2201047691
  0
ARC
  5
525
100
AcDbEntity
  8
RACCORDO
100
AcDbCircle
 62
253
  6
CONTINUOUS
 10
11.7222547468
 20
0.8148464295
 40
17.0
100
AcDbArc
 50
130.7798952194
 51
169.2201047692
  0
ARC
  5
526
100
AcDbEntity
  8
RACCORDO
100
AcDbCircle
 62
253
  6
CONTINUOUS
 10
11.7222547468
 20
0.8148464295
 40
17.0
100
AcDbArc
 50
10.7798952525
 51
49.2201047353
  0
CIRCLE
  5
527
100
AcDbEntity
  8
RACCORDO
100
AcDbCircle
 62
253
  6
CONTINUOUS
 10
11.7222547468
 20
0.8148464295
 40
5.75
  0
CIRCLE
  5
528
100
AcDbEntity
  8
RACCORDO
100
AcDbCircle
 62
7
  6
CONTINUOUS
 10
11.7222547468
 20
0.8148464295
 40
3.75
  0
ARC
  5
529
100
AcDbEntity
  8
RACCORDO
100
AcDbCircle
 62
7
  6
CONTINUOUS
 10
6.5936674373
 20
18.7978202205
 40
0.3
100
AcDbArc
 50
105.9180075982
 51
209.9987056977
  0
ARC
  5
52A
100
AcDbEntity
  8
RACCORDO
100
AcDbCircle
 62
7
  6
CONTINUOUS
 10
6.4930550917
 20
17.772085915
 40
0.3
100
AcDbArc
 50
300.0
 51
30.0
  0
ARC
  5
52B
100
AcDbEntity
  8
RACCORDO
100
AcDbCircle
 62
7
  6
CONTINUOUS
 10
-0.3485455982
 20
13.822085915
 40
0.3
100
AcDbArc
 50
210.0
 51
300.0
  0
ARC
  5
52C
100
AcDbEntity
  8
RACCORDO
100
AcDbCircle
 62
7
  6
CONTINUOUS
 10
29.860267317
 20
5.3648464295
 40
0.3
100
AcDbArc
 50
270.0
 51
14.0823073187
  0
ARC
  5
52D
100
AcDbEntity
  8
RACCORDO
100
AcDbCircle
 62
7
  6
CONTINUOUS
 10
29.0222547468
 20
4.7648464295
 40
0.3
100
AcDbArc
 50
90.0
 51
180.0
  0
ARC
  5
52E
100
AcDbEntity
  8
RACCORDO
100
AcDbCircle
 62
7
  6
CONTINUOUS
 10
24.7316732306
 20
14.2478202205
 40
0.3
100
AcDbArc
 50
45.9180075982
 51
149.9987056977
  0
ARC
  5
52F
100
AcDbEntity
  8
RACCORDO
100
AcDbCircle
 62
7
  6
CONTINUOUS
 10
16.8508454447
 20
18.7978260895
 40
0.3
100
AcDbArc
 50
330.0
 51
74.0823073187
  0
ARC
  5
530
100
AcDbEntity
  8
RACCORDO
100
AcDbCircle
 62
7
  6
CONTINUOUS
 10
23.7930550917
 20
13.822085915
 40
0.3
100
AcDbArc
 50
240.0
 51
330.0
  0
ARC
  5
531
100
AcDbEntity
  8
RACCORDO
100
AcDbCircle
 62
7
  6
CONTINUOUS
 10
16.9514544018
 20
17.772085915
 40
0.3
100
AcDbArc
 50
150.0
 51
240.0
  0
ENDSEC
  0
SECTION
  2
OBJECTS
  0
DICTIONARY
  5
C
100
AcDbDictionary
280
0
281
1
  3
ACAD_GROUP
350
D
  3
ACAD_MLINESTYLE
350
17
  3
ACAD_LAYOUT
350
1A
  3
ACAD_PLOTSETTINGS
350
19
  3
ACAD_PLOTSTYLENAME
350
E
  0
DICTIONARY
  5
D
102
{ACAD_REACTORS
330
C
102
}
100
AcDbDictionary
280
0
281
1
  0
ACDBDICTIONARYWDFLT
  5
E
102
{ACAD_REACTORS
330
C
102
}
100
AcDbDictionary
281
1
  3
Normal
350
F
100
AcDbDictionaryWithDefault
340
F
  0
DICTIONARY
  5
17
102
{ACAD_REACTORS
330
C
102
}
100
AcDbDictionary
280
0
281
1
  3
Standard
350
18
  0
DICTIONARY
  5
19
102
{ACAD_REACTORS
330
C
102
}
100
AcDbDictionary
281
1
  0
DICTIONARY
  5
1A
102
{ACAD_REACTORS
330
C
102
}
100
AcDbDictionary
281
1
  3
Model
350
532
  3
Layout1
350
533
  0
ACDBPLACEHOLDER
  5
F
102
{ACAD_REACTORS
330
E
102
}
  0
MLINESTYLE
  5
18
102
{ACAD_REACTORS
330
17
102
}
100
AcDbMlineStyle
  2
STANDARD
 70
0
  3

 62
256
 51
90.0
 52
90.0
 71
2
 49
0.5
 62
256
  6
BYLAYER
 49
-0.5
 62
256
  6
BYLAYER
  0
LAYOUT
  5
532
102
{ACAD_REACTORS
330
1A
102
}
100
AcDbPlotSettings
  1

  2
none_device
  4
ISO_A4_(297.00_x_210.00_MM)
  6

 40
0.0
 41
0.0
 42
0.0
 43
0.0
 44
297.0
 45
210.0
 46
0.0
 47
0.0
 48
0.0
 49
0.0
140
0.0
141
0.0
142
1.0
143
1.0
 70
1024
 72
1
 73
0
 74
0
  7

 75
0
147
1.0
148
0.0
149
0.0
100
AcDbLayout
  1
Model
 70
0
 71
0
 10
0.0
 20
0.0
 11
297.0
 21
210.0
 12
0.0
 22
0.0
 32
0.0
 14
0.0
 24
0.0
 34
0.0
 15
0.0
 25
0.0
 35
0.0
146
0.0
 13
0.0
 23
0.0
 33
0.0
 16
1.0
 26
0.0
 36
0.0
 17
0.0
 27
1.0
 37
0.0
 76
0
330
314
345
0
346
0
  0
LAYOUT
  5
533
102
{ACAD_REACTORS
330
1A
102
}
100
AcDbPlotSettings
  1

  2
none_device
  4
ISO_A4_(297.00_x_210.00_MM)
  6

 40
0.0
 41
0.0
 42
0.0
 43
0.0
 44
297.0
 45
210.0
 46
0.0
 47
0.0
 48
0.0
 49
0.0
140
0.0
141
0.0
142
1.0
143
1.0
 70
0
 72
1
 73
0
 74
0
  7

 75
0
147
1.0
148
0.0
149
0.0
100
AcDbLayout
  1
Layout1
 70
0
 71
1
 10
0.0
 20
0.0
 11
297.0
 21
210.0
 12
0.0
 22
0.0
 32
0.0
 14
0.0
 24
0.0
 34
0.0
 15
0.0
 25
0.0
 35
0.0
146
0.0
 13
0.0
 23
0.0
 33
0.0
 16
1.0
 26
0.0
 36
0.0
 17
0.0
 27
1.0
 37
0.0
 76
0
330
315
345
0
346
0
  0
ENDSEC
  0
EOF
