  0
SECTION
  2
HEADER
  9
$ACADVER
  1
AC1015
  9
$DWGCODEPAGE
  3
ANSI_1252
  9
$EXTMAX
 10
297.0
 20
210.0
 30
0.0
  9
$EXTMIN
 10
0.0
 20
0.0
 30
0.0
  9
$LIMMIN
 10
0.0
 20
0.0
  9
$LIMMAX
 10
297.0
 20
210.0
  9
$VIEWCTR
 10
148.5
 20
105.0
  9
$VIEWSIZE
 40
210.0
  9
$CLAYER
  8
0
  9
$LTSCALE
 40
16.335
  9
$CELTYPE
  6
BYLAYER
  9
$DIMSCALE
 40
1.0
  9
$DIMASZ
 40
3.0
  9
$DIMEXO
 40
1.85625
  9
$DIMDLI
 40
11.286
  9
$DIMEXE
 40
5.346
  9
$DIMCEN
 40
2.673
  9
$DIMLFAC
 40
1.0
  9
$DIMBLK
  1
_FILLED
  9
$DIMTXT
 40
3.0
  9
$DIMTOL
 70
1
  9
$DIMLIM
 70
0
  9
$DIMTFAC
 40
1.0
  9
$DIMTP
 40
0.01
  9
$DIMTM
 40
0.01
  9
$PDMODE
 70
3
  9
$PDSIZE
 40
3.0
  9
$HANDSEED
  5
4BC
  9
$TILEMODE
 70
1
  9
$MEASUREMENT
 70
1
  9
$INSUNITS
 70
4
  0
ENDSEC
  0
SECTION
  2
CLASSES
  0
CLASS
  1
ACDBDICTIONARYWDFLT
  2
AcDbDictionaryWithDefault
  3
AutoCAD 2000
 90
0
280
0
281
0
  0
CLASS
  1
ACDBPLACEHOLDER
  2
AcDbPlaceHolder
  3
AutoCAD 2000
 90
0
280
0
281
0
  0
CLASS
  1
LAYOUT
  2
AcDbLayout
  3
AutoCAD 2000
 90
0
280
0
281
0
  0
ENDSEC
  0
SECTION
  2
TABLES
  0
TABLE
  2
VPORT
  5
8
100
AcDbSymbolTable
 70
2
  0
VPORT
  5
1F4
100
AcDbSymbolTableRecord
100
AcDbViewportTableRecord
  2
*ACTIVE
 70
0
 10
0.0
 20
0.0
 11
1.0
 21
1.0
 12
148.5
 22
105.0
 13
0.0
 23
0.0
 14
1.0
 24
1.0
 15
0.0
 25
0.0
 16
0.0
 26
0.0
 36
1.0
 17
0.0
 27
0.0
 37
0.0
 40
210.0
 41
1.4142857143
 42
50.0
 43
0.0
 44
0.0
 50
0.0
 51
0.0
 71
0
 72
100
 73
1
 74
1
 75
0
 76
0
 77
0
 78
0
  0
ENDTAB
  0
TABLE
  2
LTYPE
  5
5
100
AcDbSymbolTable
 70
6
  0
LTYPE
  5
14
100
AcDbSymbolTableRecord
100
AcDbLinetypeTableRecord
  2
BYBLOCK
 70
0
  3

 72
65
 73
0
 40
0.0
  0
LTYPE
  5
15
100
AcDbSymbolTableRecord
100
AcDbLinetypeTableRecord
  2
BYLAYER
 70
0
  3

 72
65
 73
0
 40
0.0
  0
LTYPE
  5
16
100
AcDbSymbolTableRecord
100
AcDbLinetypeTableRecord
  2
CONTINUOUS
 70
64
  3
Solid line
 72
65
 73
0
 40
0.0
  0
LTYPE
  5
1F5
100
AcDbSymbolTableRecord
100
AcDbLinetypeTableRecord
  2
CENTER
 70
64
  3
____ _ ____ _ ____ _ ____ _ ____ _ ____ _ ____
 72
65
 73
4
 40
0.6
 49
0.375
 74
0
 49
-0.075
 74
0
 49
0.075
 74
0
 49
-0.075
 74
0
  0
LTYPE
  5
1F6
100
AcDbSymbolTableRecord
100
AcDbLinetypeTableRecord
  2
HIDDEN
 70
64
  3
- - - - - - - - - - - - - - - - - - - -
 72
65
 73
2
 40
0.2
 49
0.1
 74
0
 49
-0.1
 74
0
  0
LTYPE
  5
1F7
100
AcDbSymbolTableRecord
100
AcDbLinetypeTableRecord
  2
PHANTOM
 70
64
  3
_____ _ _ _____ _ _ _____ _ _ _____
 72
65
 73
6
 40
0.8
 49
0.45
 74
0
 49
-0.05
 74
0
 49
0.1
 74
0
 49
-0.05
 74
0
 49
0.1
 74
0
 49
-0.05
 74
0
  0
LTYPE
  5
1F8
100
AcDbSymbolTableRecord
100
AcDbLinetypeTableRecord
  2
DOT
 70
64
  3
. . . . . . . . . . . . . . . . . . . .
 72
65
 73
2
 40
0.2
 49
0.1
 74
0
 49
-0.1
 74
0
  0
LTYPE
  5
1F9
100
AcDbSymbolTableRecord
100
AcDbLinetypeTableRecord
  2
DASHED
 70
64
  3
- - - - - - - - - - - - - - - - - - - -
 72
65
 73
2
 40
0.2
 49
0.1
 74
0
 49
-0.1
 74
0
  0
ENDTAB
  0
TABLE
  2
LAYER
  5
2
100
AcDbSymbolTable
 70
36
  0
LAYER
  5
10
100
AcDbSymbolTableRecord
100
AcDbLayerTableRecord
  2
0
 70
0
 62
7
  6
CONTINUOUS
370
-3
390
F
  0
LAYER
  5
1FA
100
AcDbSymbolTableRecord
100
AcDbLayerTableRecord
  2
DEFAULT_1
 70
0
 62
7
  6
CENTER
370
-3
390
F
  0
LAYER
  5
1FB
100
AcDbSymbolTableRecord
100
AcDbLayerTableRecord
  2
DEFAULT_2
 70
0
 62
7
  6
HIDDEN
370
-3
390
F
  0
LAYER
  5
1FC
100
AcDbSymbolTableRecord
100
AcDbLayerTableRecord
  2
DEFAULT_3
 70
0
 62
7
  6
PHANTOM
370
-3
390
F
  0
LAYER
  5
1FD
100
AcDbSymbolTableRecord
100
AcDbLayerTableRecord
  2
ASSI
 70
0
 62
7
  6
CONTINUOUS
370
-3
390
F
  0
LAYER
  5
1FE
100
AcDbSymbolTableRecord
100
AcDbLayerTableRecord
  2
COLOR17
 70
0
 62
7
  6
CONTINUOUS
370
-3
390
F
  0
LAYER
  5
1FF
100
AcDbSymbolTableRecord
100
AcDbLayerTableRecord
  2
COLOR3
 70
0
 62
7
  6
CONTINUOUS
370
-3
390
F
  0
LAYER
  5
200
100
AcDbSymbolTableRecord
100
AcDbLayerTableRecord
  2
COLOR5
 70
0
 62
7
  6
CONTINUOUS
370
-3
390
F
  0
LAYER
  5
201
100
AcDbSymbolTableRecord
100
AcDbLayerTableRecord
  2
COORDINATE
 70
0
 62
7
  6
CONTINUOUS
370
-3
390
F
  0
LAYER
  5
202
100
AcDbSymbolTableRecord
100
AcDbLayerTableRecord
  2
COPY_PUBLISH
 70
0
 62
7
  6
CONTINUOUS
370
-3
390
F
  0
LAYER
  5
203
100
AcDbSymbolTableRecord
100
AcDbLayerTableRecord
  2
COSMETICI
 70
0
 62
7
  6
CONTINUOUS
370
-3
390
F
  0
LAYER
  5
204
100
AcDbSymbolTableRecord
100
AcDbLayerTableRecord
  2
CURVE
 70
0
 62
7
  6
CONTINUOUS
370
-3
390
F
  0
LAYER
  5
205
100
AcDbSymbolTableRecord
100
AcDbLayerTableRecord
  2
DRAFT
 70
0
 62
7
  6
CONTINUOUS
370
-3
390
F
  0
LAYER
  5
206
100
AcDbSymbolTableRecord
100
AcDbLayerTableRecord
  2
IMPORT_IGES
 70
0
 62
7
  6
CONTINUOUS
370
-3
390
F
  0
LAYER
  5
207
100
AcDbSymbolTableRecord
100
AcDbLayerTableRecord
  2
NOTE
 70
0
 62
7
  6
CONTINUOUS
370
-3
390
F
  0
LAYER
  5
208
100
AcDbSymbolTableRecord
100
AcDbLayerTableRecord
  2
PIANI
 70
0
 62
7
  6
CONTINUOUS
370
-3
390
F
  0
LAYER
  5
209
100
AcDbSymbolTableRecord
100
AcDbLayerTableRecord
  2
PUNTI
 70
0
 62
7
  6
CONTINUOUS
370
-3
390
F
  0
LAYER
  5
20A
100
AcDbSymbolTableRecord
100
AcDbLayerTableRecord
  2
RACCORDO
 70
0
 62
7
  6
CONTINUOUS
370
-3
390
F
  0
LAYER
  5
20B
100
AcDbSymbolTableRecord
100
AcDbLayerTableRecord
  2
SIMBOLI
 70
0
 62
7
  6
CONTINUOUS
370
-3
390
F
  0
LAYER
  5
20C
100
AcDbSymbolTableRecord
100
AcDbLayerTableRecord
  2
SMUSSO
 70
0
 62
7
  6
CONTINUOUS
370
-3
390
F
  0
LAYER
  5
20D
100
AcDbSymbolTableRecord
100
AcDbLayerTableRecord
  2
SNAPLINE
 70
0
 62
7
  6
CONTINUOUS
370
-3
390
F
  0
LAYER
  5
20E
100
AcDbSymbolTableRecord
100
AcDbLayerTableRecord
  2
SUPERFICI
 70
0
 62
7
  6
CONTINUOUS
370
-3
390
F
  0
LAYER
  5
20F
100
AcDbSymbolTableRecord
100
AcDbLayerTableRecord
  2
TRASH
 70
0
 62
7
  6
CONTINUOUS
370
-3
390
F
  0
LAYER
  5
210
100
AcDbSymbolTableRecord
100
AcDbLayerTableRecord
  2
___SHELL
 70
0
 62
7
  6
CONTINUOUS
370
-3
390
F
  0
ENDTAB
  0
TABLE
  2
STYLE
  5
3
100
AcDbSymbolTable
 70
1
  0
STYLE
  5
11
100
AcDbSymbolTableRecord
100
AcDbTextStyleTableRecord
  2
STANDARD
 70
0
 40
0.0
 41
0.8
 50
0.0
 71
0
 42
0.2
  3
txt
  4

  0
STYLE
  5
211
100
AcDbSymbolTableRecord
100
AcDbTextStyleTableRecord
  2
TEXTSTYLE_1
 70
0
 40
0.0
 41
0.8
 50
0.0
 71
0
 42
0.2
  3
gdt
  4

  0
ENDTAB
  0
TABLE
  2
VIEW
  5
6
100
AcDbSymbolTable
 70
0
  0
ENDTAB
  0
TABLE
  2
UCS
  5
7
100
AcDbSymbolTable
 70
0
  0
ENDTAB
  0
TABLE
  2
APPID
  5
9
100
AcDbSymbolTable
 70
1
  0
APPID
  5
212
100
AcDbSymbolTableRecord
100
AcDbRegAppTableRecord
  2
ACAD
 70
0
  0
ENDTAB
  0
TABLE
  2
BLOCK_RECORD
  5
1
100
AcDbSymbolTable
 70
0
  0
BLOCK_RECORD
  5
213
100
AcDbSymbolTableRecord
100
AcDbBlockTableRecord
  2
*Model_Space
  0
BLOCK_RECORD
  5
214
100
AcDbSymbolTableRecord
100
AcDbBlockTableRecord
  2
*Paper_Space
  0
ENDTAB
  0
TABLE
  2
DIMSTYLE
  5
A
100
AcDbSymbolTable
 70
1
100
AcDbDimStyleTable
 71
0
  0
DIMSTYLE
105
215
100
AcDbSymbolTableRecord
100
AcDbDimStyleTableRecord
  2
STANDARD
 70
0
  3

  4

 40
1.0
 41
3.0
 42
0.0625
 43
0.38
 44
0.18
 45
0.0
 46
0.0
 47
0.01
 48
0.01
140
3.0
141
0.09
142
0.0
143
25.4
144
1.0
145
0.0
146
1.0
147
0.09
 71
1.0
 72
0.0
 73
0
 74
0
 75
0
 76
0
 77
1
 78
8
170
0
171
2
172
0
173
0
174
0
175
0
176
0
177
0
178
0
270
2
271
2
272
2
273
2
274
2
275
0
280
0
281
0
282
0
283
1
284
8
285
0
286
0
287
3
288
0
340
11
  0
ENDTAB
  0
ENDSEC
  0
SECTION
  2
BLOCKS
  0
BLOCK
  5
20
100
AcDbEntity
  8
0
100
AcDbBlockBegin
  2
*Model_Space
 70
0
 10
0.0
 20
0.0
 30
0.0
  3
*Model_Space
  1

  0
ENDBLK
  5
21
100
AcDbEntity
  8
0
100
AcDbBlockEnd
  0
BLOCK
  5
1C
100
AcDbEntity
  8
0
100
AcDbBlockBegin
  2
*Paper_Space
 70
0
 10
0.0
 20
0.0
 30
0.0
  3
*Paper_Space
  1

  0
ENDBLK
  5
1D
100
AcDbEntity
  8
0
100
AcDbBlockEnd
  0
ENDSEC
  0
SECTION
  2
ENTITIES
  0
LINE
  5
216
100
AcDbEntity
  8
IMPORT_IGES
100
AcDbLine
 62
7
  6
CONTINUOUS
 10
-8.1686835105
 20
10.409391066
 11
-7.0909283053
 21
11.4871462712
  0
LINE
  5
217
100
AcDbEntity
  8
IMPORT_IGES
100
AcDbLine
 62
253
  6
CONTINUOUS
 10
-7.9590625132
 20
10.2654516127
 11
-7.2030016412
 21
11.0215422094
  0
LWPOLYLINE
  5
218
100
AcDbEntity
  8
IMPORT_IGES
100
AcDbPolyline
 62
253
  6
CONTINUOUS
 90
10
 70
0
 10
-7.3444213567
 20
11.2336532198
 10
-7.3347286622
 20
11.2388414989
 10
-7.3228603244
 20
11.2372211089
 10
-7.3091715077
 20
11.2285605236
 10
-7.294446819
 20
11.2125809771
 10
-7.2788084777
 20
11.1893672644
 10
-7.261506597
 20
11.1589711268
 10
-7.2425289036
 20
11.1210514262
 10
-7.2228099736
 20
11.0752905228
 10
-7.2030032824
 20
11.0215422091
  0
LWPOLYLINE
  5
219
100
AcDbEntity
  8
IMPORT_IGES
100
AcDbPolyline
 62
253
  6
CONTINUOUS
 90
10
 70
0
 10
-6.8767659922
 20
11.3477032174
 10
-6.8734996927
 20
11.3529631636
 10
-6.8701257238
 20
11.3577289884
 10
-6.8666434815
 20
11.3620006699
 10
-6.8631440907
 20
11.3658158614
 10
-6.8595367086
 20
11.3691368449
 10
-6.8555431947
 20
11.3718506566
 10
-6.8510656379
 20
11.3739197626
 10
-6.8461919432
 20
11.3753819365
 10
-6.8409186905
 20
11.3762373025
  0
LINE
  5
21A
100
AcDbEntity
  8
IMPORT_IGES
100
AcDbLine
 62
7
  6
CONTINUOUS
 10
4.9273029486
 20
-11.7750144998
 11
-4.9273029486
 21
-11.7750144998
  0
LINE
  5
21B
100
AcDbEntity
  8
IMPORT_IGES
100
AcDbLine
 62
253
  6
CONTINUOUS
 10
-6.2731433759
 20
-10.1125347883
 11
-7.050005001
 21
-9.6661766822
  0
LINE
  5
21C
100
AcDbEntity
  8
IMPORT_IGES
100
AcDbLine
 62
7
  6
CONTINUOUS
 10
-6.3731434264
 20
-10.2847931294
 11
-8.1051681369
 21
-9.2848081966
  0
LINE
  5
21D
100
AcDbEntity
  8
IMPORT_IGES
100
AcDbLine
 62
253
  6
CONTINUOUS
 10
-7.4499999671
 20
-9.5562500709
 11
-7.9552052355
 21
-9.2645759449
  0
LWPOLYLINE
  5
21E
100
AcDbEntity
  8
IMPORT_IGES
100
AcDbPolyline
 62
253
  6
CONTINUOUS
 90
4
 70
0
 10
-8.1644187057
 20
-9.1980060933
 10
-8.1347873591
 20
-9.2180307748
 10
-8.1022202749
 20
-9.2347562233
 10
-8.0673446812
 20
-9.2479117201
  0
LWPOLYLINE
  5
21F
100
AcDbEntity
  8
IMPORT_IGES
100
AcDbPolyline
 62
253
  6
CONTINUOUS
 90
3
 70
0
 10
-7.0931125571
 20
-9.616398158
 10
-7.1335359344
 20
-9.5706510888
 10
-7.1695264272
 20
-9.5294349948
  0
LWPOLYLINE
  5
220
100
AcDbEntity
  8
IMPORT_IGES
100
AcDbPolyline
 62
253
  6
CONTINUOUS
 90
3
 70
0
 10
-7.1695264272
 20
-9.5294349948
 10
-7.1852273397
 20
-9.5112595558
 10
-7.2121084085
 20
-9.4796529798
  0
LWPOLYLINE
  5
221
100
AcDbEntity
  8
IMPORT_IGES
100
AcDbPolyline
 62
253
  6
CONTINUOUS
 90
3
 70
0
 10
-7.050005001
 20
-9.6661766822
 10
-7.0717794515
 20
-9.6407638285
 10
-7.0931125571
 20
-9.616398158
  0
LWPOLYLINE
  5
222
100
AcDbEntity
  8
IMPORT_IGES
100
AcDbPolyline
 62
253
  6
CONTINUOUS
 90
4
 70
0
 10
-7.2121084085
 20
-9.4796529798
 10
-7.2234443137
 20
-9.4661311205
 10
-7.2329848651
 20
-9.4542736849
 10
-7.245758356
 20
-9.4381876026
  0
LWPOLYLINE
  5
223
100
AcDbEntity
  8
IMPORT_IGES
100
AcDbPolyline
 62
253
  6
CONTINUOUS
 90
3
 70
0
 10
-7.245758356
 20
-9.4381876026
 10
-7.2489423782
 20
-9.4339425611
 10
-7.25
 20
-9.4321298344
  0
LWPOLYLINE
  5
224
100
AcDbEntity
  8
IMPORT_IGES
100
AcDbPolyline
 62
253
  6
CONTINUOUS
 90
5
 70
0
 10
-6.9892942213
 20
11.1208175963
 10
-6.9978579063
 20
11.1030843166
 10
-7.0006559813
 20
11.0975558772
 10
-7.0023996503
 20
11.0939393828
 10
-7.003
 20
11.0922318635
  0
LWPOLYLINE
  5
225
100
AcDbEntity
  8
IMPORT_IGES
100
AcDbPolyline
 62
253
  6
CONTINUOUS
 90
3
 70
0
 10
-6.8767659922
 20
11.3477032174
 10
-6.902677254
 20
11.2945009986
 10
-6.9144581933
 20
11.2706275757
  0
LWPOLYLINE
  5
226
100
AcDbEntity
  8
IMPORT_IGES
100
AcDbPolyline
 62
253
  6
CONTINUOUS
 90
4
 70
0
 10
-6.9677834705
 20
11.1639398481
 10
-6.9788718736
 20
11.1412561454
 10
-6.9840577006
 20
11.1311659332
 10
-6.9892942213
 20
11.1208175963
  0
LINE
  5
227
100
AcDbEntity
  8
IMPORT_IGES
100
AcDbLine
 62
253
  6
CONTINUOUS
 10
-6.944905682
 20
11.2099088825
 11
-6.9677834705
 21
11.1639398481
  0
LINE
  5
228
100
AcDbEntity
  8
IMPORT_IGES
100
AcDbLine
 62
253
  6
CONTINUOUS
 10
-6.9144581933
 20
11.2706275757
 11
-6.944905682
 21
11.2099088825
  0
LWPOLYLINE
  5
229
100
AcDbEntity
  8
IMPORT_IGES
100
AcDbPolyline
 62
253
  6
CONTINUOUS
 90
8
 70
0
 10
-3.9586706681
 20
11.3732384011
 10
-3.9414213562
 20
11.3871465342
 10
-3.9217522858
 20
11.3993436396
 10
-3.9
 20
11.4096210213
 10
-3.8765366865
 20
11.4178028307
 10
-3.851763809
 20
11.4237490746
 10
-3.8261052384
 20
11.4273580111
 10
-3.8
 20
11.4285678904
  0
LINE
  5
22A
100
AcDbEntity
  8
IMPORT_IGES
100
AcDbLine
 62
253
  6
CONTINUOUS
 10
8.030949602
 20
-9.2572896026
 11
8.0675461267
 21
-9.2478480735
  0
LINE
  5
22B
100
AcDbEntity
  8
0
100
AcDbLine
 62
7
  6
CONTINUOUS
 10
3.7340925511
 20
-10.7250145005
 11
2.9637011241
 21
-10.7250145005
  0
LINE
  5
22C
100
AcDbEntity
  8
0
100
AcDbLine
 62
7
  6
CONTINUOUS
 10
2.8680427503
 20
-10.7250145005
 11
0.8259075832
 21
-10.7250145005
  0
LINE
  5
22D
100
AcDbEntity
  8
0
100
AcDbLine
 62
7
  6
CONTINUOUS
 10
0.8206800276
 20
-10.7250145005
 11
-3.7340923596
 21
-10.7250145005
  0
LINE
  5
22E
100
AcDbEntity
  8
IMPORT_IGES
100
AcDbLine
 62
7
  6
CONTINUOUS
 10
5.4226866561
 20
-10.6250145005
 11
3.7230847372
 21
-10.6250145005
  0
LINE
  5
22F
100
AcDbEntity
  8
IMPORT_IGES
100
AcDbLine
 62
7
  6
CONTINUOUS
 10
2.9642506611
 20
-10.6250145005
 11
2.8680427503
 21
-10.6250145005
  0
LINE
  5
230
100
AcDbEntity
  8
IMPORT_IGES
100
AcDbLine
 62
7
  6
CONTINUOUS
 10
2.1574376773
 20
-10.6250145005
 11
1.6586476516
 21
-10.6250145005
  0
LINE
  5
231
100
AcDbEntity
  8
IMPORT_IGES
100
AcDbLine
 62
7
  6
CONTINUOUS
 10
1.1683986377
 20
-10.6250145005
 11
0.4005693149
 21
-10.6250145005
  0
LINE
  5
232
100
AcDbEntity
  8
IMPORT_IGES
100
AcDbLine
 62
7
  6
CONTINUOUS
 10
-0.089679556
 20
-10.6250145005
 11
-0.7473988905
 21
-10.6250145005
  0
LINE
  5
233
100
AcDbEntity
  8
IMPORT_IGES
100
AcDbLine
 62
7
  6
CONTINUOUS
 10
-1.2842872884
 20
-10.6250145005
 11
-1.3003524638
 21
-10.6250145005
  0
LINE
  5
234
100
AcDbEntity
  8
IMPORT_IGES
100
AcDbLine
 62
7
  6
CONTINUOUS
 10
-1.833110862
 20
-10.6250145005
 11
-2.3923810224
 21
-10.6250145005
  0
LINE
  5
235
100
AcDbEntity
  8
IMPORT_IGES
100
AcDbLine
 62
7
  6
CONTINUOUS
 10
-2.9292696263
 20
-10.6250145005
 11
-2.9453348018
 21
-10.6250145005
  0
LINE
  5
236
100
AcDbEntity
  8
IMPORT_IGES
100
AcDbLine
 62
7
  6
CONTINUOUS
 10
-3.4780931999
 20
-10.6250145005
 11
-5.4226866561
 21
-10.6250145005
  0
LINE
  5
237
100
AcDbEntity
  8
0
100
AcDbLine
 62
7
  6
CONTINUOUS
 10
5.4226866561
 20
-10.6250145005
 11
-5.4226866561
 21
-10.6250145005
  0
LINE
  5
238
100
AcDbEntity
  8
IMPORT_IGES
100
AcDbLine
 62
7
  6
CONTINUOUS
 10
5.8999973684
 20
-10.5249855001
 11
-5.9467065296
 21
-10.5249855001
  0
LINE
  5
239
100
AcDbEntity
  8
IMPORT_IGES
100
AcDbLine
 62
253
  6
CONTINUOUS
 10
-8.0673446812
 20
-9.2479117201
 11
-8.0307892718
 21
-9.2573219102
  0
LWPOLYLINE
  5
23A
100
AcDbEntity
  8
IMPORT_IGES
100
AcDbPolyline
 62
253
  6
CONTINUOUS
 90
3
 70
0
 10
-3.9734360049
 20
-10.1273874582
 10
-3.9751619832
 20
-10.1274784591
 10
-3.980297493
 20
-10.1275273204
  0
LWPOLYLINE
  5
23B
100
AcDbEntity
  8
IMPORT_IGES
100
AcDbPolyline
 62
253
  6
CONTINUOUS
 90
3
 70
0
 10
7.9551942481
 20
-9.2645761532
 10
7.9932891353
 20
-9.2628772597
 10
8.030949602
 20
-9.2572896026
  0
LWPOLYLINE
  5
23C
100
AcDbEntity
  8
IMPORT_IGES
100
AcDbPolyline
 62
253
  6
CONTINUOUS
 90
3
 70
0
 10
4.1734473905
 20
-10.1258677322
 10
4.0515891359
 20
-10.127138995
 10
4.0001965846
 20
-10.127564553
  0
LINE
  5
23D
100
AcDbEntity
  8
IMPORT_IGES
100
AcDbLine
 62
253
  6
CONTINUOUS
 10
5.9999999179
 20
-10.4249855001
 11
-5.999999714
 21
-10.4249855001
  0
LINE
  5
23E
100
AcDbEntity
  8
IMPORT_IGES
100
AcDbLine
 62
7
  6
CONTINUOUS
 10
6.2231434338
 20
-10.3249855001
 11
-6.2231472947
 21
-10.3249855001
  0
LINE
  5
23F
100
AcDbEntity
  8
IMPORT_IGES
100
AcDbLine
 62
253
  6
CONTINUOUS
 10
-6.2231434278
 20
-10.1258678026
 11
-4.1734520392
 21
-10.1258678026
  0
LINE
  5
240
100
AcDbEntity
  8
IMPORT_IGES
100
AcDbLine
 62
253
  6
CONTINUOUS
 10
4.1734421839
 20
-10.1258676736
 11
6.2231434353
 21
-10.1258676736
  0
LINE
  5
241
100
AcDbEntity
  8
IMPORT_IGES
100
AcDbLine
 62
253
  6
CONTINUOUS
 10
3.7778043935
 20
-9.9222565109
 11
-3.7778043933
 21
-9.9222565153
  0
LWPOLYLINE
  5
242
100
AcDbEntity
  8
IMPORT_IGES
100
AcDbPolyline
 62
253
  6
CONTINUOUS
 90
5
 70
0
 10
4.0001965846
 20
-10.127564553
 10
3.9886424345
 20
-10.127533964
 10
3.9802449342
 20
-10.1273177919
 10
3.9751503538
 20
-10.1269546894
 10
3.97344733
 20
-10.1264450598
  0
LINE
  5
243
100
AcDbEntity
  8
IMPORT_IGES
100
AcDbLine
 62
253
  6
CONTINUOUS
 10
-3.980297493
 20
-10.1275273204
 11
-4.0003126872
 21
-10.1274966473
  0
LINE
  5
244
100
AcDbEntity
  8
IMPORT_IGES
100
AcDbLine
 62
253
  6
CONTINUOUS
 10
-4.0003126872
 20
-10.1274966473
 11
-4.1215170525
 21
-10.1264717946
  0
LINE
  5
245
100
AcDbEntity
  8
IMPORT_IGES
100
AcDbLine
 62
253
  6
CONTINUOUS
 10
-4.1215170525
 20
-10.1264717946
 11
-4.1735008954
 21
-10.1258761716
  0
LWPOLYLINE
  5
246
100
AcDbEntity
  8
IMPORT_IGES
100
AcDbPolyline
 62
253
  6
CONTINUOUS
 90
10
 70
0
 10
-6.2231434278
 20
-10.1258678026
 10
-6.2290011224
 20
-10.1256938203
 10
-6.2347972175
 20
-10.1251888908
 10
-6.2405317131
 20
-10.1243530141
 10
-6.2462231913
 20
-10.123180749
 10
-6.25185307
 20
-10.1216775369
 10
-6.2573656025
 20
-10.1198597022
 10
-6.2627422066
 20
-10.1177326863
 10
-6.2680014644
 20
-10.1152910483
 10
-6.2731433759
 20
-10.1125347883
  0
LWPOLYLINE
  5
247
100
AcDbEntity
  8
IMPORT_IGES
100
AcDbPolyline
 62
253
  6
CONTINUOUS
 90
13
 70
0
 10
-3.7777713647
 20
-9.922256374
 10
-3.8041281066
 20
-9.920981385
 10
-3.8300871126
 20
-9.9169294173
 10
-3.8551884314
 20
-9.9101517907
 10
-3.8791222075
 20
-9.9006835872
 10
-3.9012911662
 20
-9.888709478
 10
-3.9209412538
 20
-9.8747061578
 10
-3.9376529168
 20
-9.8592175894
 10
-3.9515211721
 20
-9.8424301538
 10
-3.9626325529
 20
-9.8243480671
 10
-3.9708393405
 20
-9.805139738
 10
-3.9759230585
 20
-9.7852180629
 10
-3.9777899725
 20
-9.7649311088
  0
LWPOLYLINE
  5
248
100
AcDbEntity
  8
IMPORT_IGES
100
AcDbPolyline
 62
253
  6
CONTINUOUS
 90
3
 70
0
 10
-8.0307892718
 20
-9.2573219102
 10
-7.9931584808
 20
-9.2628896161
 10
-7.9550789366
 20
-9.2645751287
  0
LINE
  5
249
100
AcDbEntity
  8
IMPORT_IGES
100
AcDbLine
 62
7
  6
CONTINUOUS
 10
-7.3800828182
 20
-7.3292854892
 11
-7.45
 21
-7.2201394778
  0
LWPOLYLINE
  5
24A
100
AcDbEntity
  8
IMPORT_IGES
100
AcDbPolyline
 62
253
  6
CONTINUOUS
 90
7
 70
0
 10
-8.2551485566
 20
-9.0302212221
 10
-8.2520254636
 20
-9.061503921
 10
-8.2438139931
 20
-9.0921297734
 10
-8.230669641
 20
-9.1215763304
 10
-8.2128195255
 20
-9.1493597888
 10
-8.1905885822
 20
-9.174992776
 10
-8.1644187057
 20
-9.1980060933
  0
LWPOLYLINE
  5
24B
100
AcDbEntity
  8
IMPORT_IGES
100
AcDbPolyline
 62
253
  6
CONTINUOUS
 90
13
 70
0
 10
6.8787955869
 20
11.575011909
 10
6.8740033893
 20
11.5734068245
 10
6.8692142099
 20
11.5685153112
 10
6.8645547975
 20
11.5603560951
 10
6.8602061351
 20
11.5493006767
 10
6.8562106168
 20
11.535620345
 10
6.852501904
 20
11.5190490249
 10
6.8491721745
 20
11.4997576384
 10
6.8463386012
 20
11.4782715469
 10
6.8440253908
 20
11.4545836955
 10
6.8423090661
 20
11.4291012241
 10
6.8412625597
 20
11.4027302084
 10
6.8408975954
 20
11.3762373486
  0
LWPOLYLINE
  5
24C
100
AcDbEntity
  8
IMPORT_IGES
100
AcDbPolyline
 62
253
  6
CONTINUOUS
 90
6
 70
0
 10
7.4499999846
 20
-9.5562501505
 10
7.4241893122
 20
-9.5549144719
 10
7.3988971975
 20
-9.5509480951
 10
7.374537065
 20
-9.5444439776
 10
7.3516132228
 20
-9.5355867047
 10
7.3303564851
 20
-9.5245178009
  0
LINE
  5
24D
100
AcDbEntity
  8
IMPORT_IGES
100
AcDbLine
 62
7
  6
CONTINUOUS
 10
-4.0954676437
 20
-7.7763620367
 11
-4.0882289359
 21
-7.7793249371
  0
LWPOLYLINE
  5
24E
100
AcDbEntity
  8
IMPORT_IGES
100
AcDbPolyline
 62
7
  6
CONTINUOUS
 90
6
 70
0
 10
-4.0882697864
 20
-7.7794247396
 10
-4.0836943795
 20
-7.7815851321
 10
-4.070835408
 20
-7.7887288197
 10
-4.0589401885
 20
-7.7969436311
 10
-4.048186807
 20
-7.8059919058
 10
-4.038637621
 20
-7.8156628205
  0
LWPOLYLINE
  5
24F
100
AcDbEntity
  8
IMPORT_IGES
100
AcDbPolyline
 62
253
  6
CONTINUOUS
 90
6
 70
0
 10
-4.0601743447
 20
-7.581708603
 10
-4.0764482094
 20
-7.5728780828
 10
-4.0941449657
 20
-7.5658015641
 10
-4.1129391743
 20
-7.5606413944
 10
-4.132545878
 20
-7.5575065181
 10
-4.1526247031
 20
-7.5564870196
  0
LWPOLYLINE
  5
250
100
AcDbEntity
  8
IMPORT_IGES
100
AcDbPolyline
 62
253
  6
CONTINUOUS
 90
13
 70
0
 10
-8.35297906
 20
-3.4255154366
 10
-8.3502030866
 20
-3.4413843955
 10
-8.3425196972
 20
-3.4568377871
 10
-8.3301168962
 20
-3.4716263585
 10
-8.313357631
 20
-3.4854457875
 10
-8.2925131088
 20
-3.4981660315
 10
-8.2675407076
 20
-3.5097727631
 10
-8.2385123402
 20
-3.5200930313
 10
-8.2059612155
 20
-3.5288131227
 10
-8.1705150269
 20
-3.535694384
 10
-8.1328046399
 20
-3.5405704431
 10
-8.0934124988
 20
-3.5433244652
 10
-8.0530248924
 20
-3.5438631095
  0
LINE
  5
251
100
AcDbEntity
  8
IMPORT_IGES
100
AcDbLine
 62
253
  6
CONTINUOUS
 10
-7.9554304026
 20
-9.2243035329
 11
-7.9849870784
 21
-7.5564894997
  0
LINE
  5
252
100
AcDbEntity
  8
IMPORT_IGES
100
AcDbLine
 62
7
  6
CONTINUOUS
 10
-8.2551485566
 20
-9.0302212235
 11
-8.4227212945
 21
0.5700144999
  0
LINE
  5
253
100
AcDbEntity
  8
IMPORT_IGES
100
AcDbLine
 62
253
  6
CONTINUOUS
 10
-7.9873574003
 20
-7.2201394727
 11
-8.1067323708
 21
-0.4669731445
  0
LINE
  5
254
100
AcDbEntity
  8
IMPORT_IGES
100
AcDbLine
 62
7
  6
CONTINUOUS
 10
-8.1189111452
 20
0.3539303961
 11
-8.1067323708
 21
-0.4669731445
  0
LINE
  5
255
100
AcDbEntity
  8
IMPORT_IGES
100
AcDbLine
 62
253
  6
CONTINUOUS
 10
-8.1220539415
 20
0.5700145923
 11
-8.1189112984
 21
0.3539290893
  0
LINE
  5
256
100
AcDbEntity
  8
IMPORT_IGES
100
AcDbLine
 62
7
  6
CONTINUOUS
 10
-7.9873574003
 20
-7.2201394727
 11
-7.9849870784
 21
-7.5564891065
  0
LINE
  5
257
100
AcDbEntity
  8
IMPORT_IGES
100
AcDbLine
 62
253
  6
CONTINUOUS
 10
-7.9552052355
 20
-9.2645759449
 11
-7.9554304026
 21
-9.2243035329
  0
LINE
  5
258
100
AcDbEntity
  8
IMPORT_IGES
100
AcDbLine
 62
7
  6
CONTINUOUS
 10
-7.9884829208
 20
8.3679077187
 11
-7.9860142604
 21
8.7214611087
  0
LINE
  5
259
100
AcDbEntity
  8
IMPORT_IGES
100
AcDbLine
 62
7
  6
CONTINUOUS
 10
-8.3119349463
 20
7.0269601369
 11
-8.2565057833
 21
10.202494755
  0
LINE
  5
25A
100
AcDbEntity
  8
IMPORT_IGES
100
AcDbLine
 62
7
  6
CONTINUOUS
 10
-8.4227212944
 20
0.5700144999
 11
-8.3100157199
 21
7.0269125423
  0
LINE
  5
25B
100
AcDbEntity
  8
IMPORT_IGES
100
AcDbLine
 62
253
  6
CONTINUOUS
 10
-7.9860144018
 20
8.7214611091
 11
-7.9590625132
 21
10.2654516127
  0
LINE
  5
25C
100
AcDbEntity
  8
IMPORT_IGES
100
AcDbLine
 62
253
  6
CONTINUOUS
 10
-7.9946706022
 20
8.0134156849
 11
-7.9884829208
 21
8.3679077179
  0
LINE
  5
25D
100
AcDbEntity
  8
IMPORT_IGES
100
AcDbLine
 62
253
  6
CONTINUOUS
 10
-8.1220539415
 20
0.5700145923
 11
-8.0100943144
 21
7.0202855699
  0
LWPOLYLINE
  5
25E
100
AcDbEntity
  8
IMPORT_IGES
100
AcDbPolyline
 62
7
  6
CONTINUOUS
 90
3
 70
0
 10
4.1194300774
 20
-7.7683461308
 10
4.1424140095
 20
-7.762677964
 10
4.1668419728
 20
-7.7585751713
  0
LINE
  5
25F
100
AcDbEntity
  8
IMPORT_IGES
100
AcDbLine
 62
7
  6
CONTINUOUS
 10
4.1668419728
 20
-7.7585751713
 11
4.1917652349
 21
-7.7563071187
  0
LWPOLYLINE
  5
260
100
AcDbEntity
  8
IMPORT_IGES
100
AcDbPolyline
 62
253
  6
CONTINUOUS
 90
13
 70
0
 10
-7.4499999671
 20
-8.0169875068
 10
-7.4241893026
 20
-8.0156518086
 10
-7.3988971938
 20
-8.0116854181
 10
-7.374537065
 20
-8.0051812922
 10
-7.3516132241
 20
-7.9963240166
 10
-7.3303564857
 20
-7.9852551142
 10
-7.3108094817
 20
-7.9719584733
 10
-7.2932638616
 20
-7.9564771086
 10
-7.2782424901
 20
-7.9390936863
 10
-7.2661520943
 20
-7.920144758
 10
-7.2572824015
 20
-7.8999700583
 10
-7.2518413568
 20
-7.8788848756
 10
-7.25
 20
-7.8572603924
  0
LWPOLYLINE
  5
261
100
AcDbEntity
  8
IMPORT_IGES
100
AcDbPolyline
 62
253
  6
CONTINUOUS
 90
8
 70
0
 10
4.1526328103
 20
-7.5564872642
 10
4.1335472466
 20
-7.5574042906
 10
4.1147996988
 20
-7.5602492604
 10
4.0966924419
 20
-7.5649687619
 10
4.0795867786
 20
-7.5714477614
 10
4.0636733295
 20
-7.5795922584
 10
4.0490239786
 20
-7.5894009653
 10
4.0358633713
 20
-7.6008336308
  0
LWPOLYLINE
  5
262
100
AcDbEntity
  8
IMPORT_IGES
100
AcDbPolyline
 62
253
  6
CONTINUOUS
 90
13
 70
0
 10
4.1511435655
 20
-7.7187985511
 10
4.1318509117
 20
-7.7196822784
 10
4.1129485116
 20
-7.72252737
 10
4.0947423488
 20
-7.7272640885
 10
4.0776072123
 20
-7.733755224
 10
4.0617102222
 20
-7.7418949801
 10
4.0470749834
 20
-7.7516959334
 10
4.0339146967
 20
-7.7631282764
 10
4.0226172147
 20
-7.7759857302
 10
4.0134828106
 20
-7.7900237699
 10
4.0067268235
 20
-7.8049945489
 10
4.0025047968
 20
-7.8206670521
 10
4.0009454464
 20
-7.8367692822
  0
LWPOLYLINE
  5
263
100
AcDbEntity
  8
IMPORT_IGES
100
AcDbPolyline
 62
7
  6
CONTINUOUS
 90
13
 70
0
 10
4.1542761933
 20
-7.458079771
 10
4.1347030825
 20
-7.4587820115
 10
4.1155015359
 20
-7.4611675366
 10
4.0969958896
 20
-7.4651822521
 10
4.0795055182
 20
-7.4707264288
 10
4.0633084407
 20
-7.4777046583
 10
4.0486447762
 20
-7.4860367252
 10
4.0357624321
 20
-7.495569749
 10
4.0248741262
 20
-7.5061326278
 10
4.016143968
 20
-7.5176008727
 10
4.0097293205
 20
-7.5297953129
 10
4.0057616603
 20
-7.5424776088
 10
4.0043242501
 20
-7.5554154497
  0
LINE
  5
264
100
AcDbEntity
  8
IMPORT_IGES
100
AcDbLine
 62
7
  6
CONTINUOUS
 10
4.1917652349
 20
-7.7563071187
 11
4.2094838091
 21
-7.7558385223
  0
LWPOLYLINE
  5
265
100
AcDbEntity
  8
IMPORT_IGES
100
AcDbPolyline
 62
253
  6
CONTINUOUS
 90
10
 70
0
 10
4.2094903074
 20
-7.7155658559
 10
4.2029156326
 20
-7.7156036797
 10
4.1963564566
 20
-7.7157223837
 10
4.1898127793
 20
-7.7159219677
 10
4.1832746979
 20
-7.7162031548
 10
4.1767521152
 20
-7.716565222
 10
4.1702747403
 20
-7.7170060005
 10
4.1638524764
 20
-7.7175247673
 10
4.1574754203
 20
-7.7181222453
 10
4.1511435721
 20
-7.7187984346
  0
LINE
  5
266
100
AcDbEntity
  8
IMPORT_IGES
100
AcDbLine
 62
7
  6
CONTINUOUS
 10
7.0499999999
 20
-7.7558387808
 11
4.2094854821
 21
-7.7558387808
  0
LINE
  5
267
100
AcDbEntity
  8
IMPORT_IGES
100
AcDbLine
 62
7
  6
CONTINUOUS
 10
-4.2094905982
 20
-7.7558387808
 11
-7.0500035661
 21
-7.7558387808
  0
LINE
  5
268
100
AcDbEntity
  8
IMPORT_IGES
100
AcDbLine
 62
253
  6
CONTINUOUS
 10
-7.0500029293
 20
-7.7155659278
 11
-4.2094905995
 21
-7.7155658828
  0
LINE
  5
269
100
AcDbEntity
  8
IMPORT_IGES
100
AcDbLine
 62
253
  6
CONTINUOUS
 10
4.2094903074
 20
-7.7155658559
 11
7.0499991095
 21
-7.715565836
  0
LWPOLYLINE
  5
26A
100
AcDbEntity
  8
IMPORT_IGES
100
AcDbPolyline
 62
253
  6
CONTINUOUS
 90
10
 70
0
 10
-4.2094905995
 20
-7.7155658828
 10
-4.2029474105
 20
-7.7156025633
 10
-4.1964116726
 20
-7.7157203914
 10
-4.189883386
 20
-7.7159193672
 10
-4.1833528618
 20
-7.7162002045
 10
-4.1768297889
 20
-7.7165621894
 10
-4.1703432334
 20
-7.71700318
 10
-4.1639028843
 20
-7.7175224623
 10
-4.1574990526
 20
-7.7181207503
 10
-4.1511317385
 20
-7.7187980439
  0
LWPOLYLINE
  5
26B
100
AcDbEntity
  8
IMPORT_IGES
100
AcDbPolyline
 62
253
  6
CONTINUOUS
 90
11
 70
0
 10
4.2008301237
 20
-7.8501495382
 10
4.1749990626
 20
-7.8499388789
 10
4.1496951288
 20
-7.8499309416
 10
4.1253314999
 20
-7.8501235042
 10
4.1024185234
 20
-7.8505084496
 10
4.0811764568
 20
-7.8510778008
 10
4.0616264516
 20
-7.8518338894
 10
4.0440538891
 20
-7.852777152
 10
4.0289983059
 20
-7.8538934101
 10
4.0168797777
 20
-7.8551639193
 10
4.0126980967
 20
-7.8558238742
  0
LWPOLYLINE
  5
26C
100
AcDbEntity
  8
IMPORT_IGES
100
AcDbPolyline
 62
7
  6
CONTINUOUS
 90
5
 70
0
 10
7.0499999482
 20
-7.7558368551
 10
7.05779188
 20
-7.7559276834
 10
7.0827268652
 20
-7.7574646555
 10
7.1070041902
 20
-7.7608348843
 10
7.1300620629
 20
-7.7658653702
  0
LWPOLYLINE
  5
26D
100
AcDbEntity
  8
IMPORT_IGES
100
AcDbPolyline
 62
7
  6
CONTINUOUS
 90
3
 70
0
 10
-4.2094906466
 20
-7.7558375754
 10
-4.1978987556
 20
-7.7560370741
 10
-4.1759847362
 20
-7.7575235694
  0
LWPOLYLINE
  5
26E
100
AcDbEntity
  8
IMPORT_IGES
100
AcDbPolyline
 62
7
  6
CONTINUOUS
 90
13
 70
0
 10
-4.1542796108
 20
-7.4580799318
 10
-4.1347007713
 20
-7.4587832385
 10
-4.1154947956
 20
-7.4611703411
 10
-4.0969861659
 20
-7.4651868075
 10
-4.0794944935
 20
-7.4707322319
 10
-4.0632974612
 20
-7.4777111771
 10
-4.0486344614
 20
-7.4860442488
 10
-4.0357527747
 20
-7.4955795063
 10
-4.0248657216
 20
-7.506144793
 10
-4.0161380327
 20
-7.5176133462
 10
-4.0097263989
 20
-7.5298050008
 10
-4.005761046
 20
-7.5424820446
 10
-4.0043242378
 20
-7.5554164725
  0
LWPOLYLINE
  5
26F
100
AcDbEntity
  8
IMPORT_IGES
100
AcDbPolyline
 62
253
  6
CONTINUOUS
 90
13
 70
0
 10
-7.9848772364
 20
-7.5564887822
 10
-8.0231841385
 20
-7.5547830082
 10
-8.060775797
 20
-7.5492007235
 10
-8.0970464738
 20
-7.5398607705
 10
-8.1312650177
 20
-7.5270093568
 10
-8.163070427
 20
-7.5108427912
 10
-8.1923589235
 20
-7.4913521526
 10
-8.2187019942
 20
-7.4685995377
 10
-8.2413315395
 20
-7.4429925657
 10
-8.2596318561
 20
-7.4150484898
 10
-8.2731859397
 20
-7.3852758637
 10
-8.2817092336
 20
-7.3541251086
 10
-8.2849633178
 20
-7.3221346976
  0
LWPOLYLINE
  5
270
100
AcDbEntity
  8
IMPORT_IGES
100
AcDbPolyline
 62
253
  6
CONTINUOUS
 90
13
 70
0
 10
-4.1508963433
 20
-7.718787161
 10
-4.1318458656
 20
-7.7196783185
 10
-4.1130988908
 20
-7.7224964967
 10
-4.0949596684
 20
-7.7271977695
 10
-4.0777558275
 20
-7.733693099
 10
-4.0617300591
 20
-7.7418865172
 10
-4.0470614584
 20
-7.751708934
 10
-4.0340301535
 20
-7.7630166692
 10
-4.0228715313
 20
-7.775655318
 10
-4.0137435209
 20
-7.7895537432
 10
-4.0068863687
 20
-7.8045554881
 10
-4.0025566634
 20
-7.8203870214
 10
-4.0009453436
 20
-7.8367778002
  0
LWPOLYLINE
  5
271
100
AcDbEntity
  8
IMPORT_IGES
100
AcDbPolyline
 62
253
  6
CONTINUOUS
 90
13
 70
0
 10
7.4499999999
 20
-8.0169873258
 10
7.4244560413
 20
-8.0156792074
 10
7.3993209066
 20
-8.0117742764
 10
7.3750073342
 20
-8.0053335796
 10
7.351999164
 20
-7.9964975465
 10
7.3305799464
 20
-7.9853879718
 10
7.310893658
 20
-7.972023412
 10
7.2932457251
 20
-7.9564586415
 10
7.2781540116
 20
-7.9389749203
 10
7.2660544978
 20
-7.9199622786
 10
7.2572200456
 20
-7.8997900925
 10
7.2518209783
 20
-7.8787654558
 10
7.2499999999
 20
-7.8572605743
  0
LWPOLYLINE
  5
272
100
AcDbEntity
  8
IMPORT_IGES
100
AcDbPolyline
 62
253
  6
CONTINUOUS
 90
8
 70
0
 10
-4.0404556842
 20
-7.8530130709
 10
-4.0571021262
 20
-7.852048909
 10
-4.0765044583
 20
-7.8512357146
 10
-4.0983016993
 20
-7.8506013799
 10
-4.1220485856
 20
-7.8501657782
 10
-4.147307419
 20
-7.8499407982
 10
-4.1736898295
 20
-7.8499335634
 10
-4.200730978
 20
-7.8501483455
  0
LWPOLYLINE
  5
273
100
AcDbEntity
  8
IMPORT_IGES
100
AcDbPolyline
 62
7
  6
CONTINUOUS
 90
5
 70
0
 10
-4.1759847362
 20
-7.7575235694
 10
-4.1542740464
 20
-7.760449028
 10
-4.1334760453
 20
-7.7646628758
 10
-4.113775667
 20
-7.77003042
 10
-4.0954676437
 20
-7.7763620367
  0
LWPOLYLINE
  5
274
100
AcDbEntity
  8
IMPORT_IGES
100
AcDbPolyline
 62
253
  6
CONTINUOUS
 90
4
 70
0
 10
-4.0127656373
 20
-7.8557973159
 10
-4.0155057043
 20
-7.8553430027
 10
-4.0266014777
 20
-7.8541117098
 10
-4.0404556842
 20
-7.8530130709
  0
LWPOLYLINE
  5
275
100
AcDbEntity
  8
IMPORT_IGES
100
AcDbPolyline
 62
7
  6
CONTINUOUS
 90
8
 70
0
 10
-4.038637621
 20
-7.8156628205
 10
-4.030261442
 20
-7.8258157545
 10
-4.0230292869
 20
-7.8363115554
 10
-4.0169708112
 20
-7.8468905203
 10
-4.0120783745
 20
-7.8572529772
 10
-4.0082073985
 20
-7.8673319706
 10
-4.0052774699
 20
-7.8769062002
 10
-4.0032425541
 20
-7.885453414
  0
LWPOLYLINE
  5
276
100
AcDbEntity
  8
IMPORT_IGES
100
AcDbPolyline
 62
253
  6
CONTINUOUS
 90
13
 70
0
 10
-8.4066864272
 20
-0.3486224294
 10
-8.4039101247
 20
-0.3644923084
 10
-8.3962260483
 20
-0.3799461941
 10
-8.3838225907
 20
-0.3947348414
 10
-8.3670632528
 20
-0.4085538517
 10
-8.3462194599
 20
-0.4212734101
 10
-8.3212480741
 20
-0.4328796067
 10
-8.2922207808
 20
-0.4431994275
 10
-8.2596708129
 20
-0.4519192241
 10
-8.2242252575
 20
-0.458800766
 10
-8.1865146447
 20
-0.4636777132
 10
-8.1471215055
 20
-0.4664329642
 10
-8.1067321259
 20
-0.4669730573
  0
LINE
  5
277
100
AcDbEntity
  8
IMPORT_IGES
100
AcDbLine
 62
253
  6
CONTINUOUS
 10
-7.0501577587
 20
0.5539313101
 11
-7.050024177
 21
0.3539326355
  0
LINE
  5
278
100
AcDbEntity
  8
IMPORT_IGES
100
AcDbLine
 62
253
  6
CONTINUOUS
 10
-7.4499999671
 20
-9.5562500709
 11
-7.45
 21
-8.0169875068
  0
LINE
  5
279
100
AcDbEntity
  8
IMPORT_IGES
100
AcDbLine
 62
253
  6
CONTINUOUS
 10
-7.45
 20
-7.2201394778
 11
-7.44998952
 21
0.1721810673
  0
LINE
  5
27A
100
AcDbEntity
  8
IMPORT_IGES
100
AcDbLine
 62
7
  6
CONTINUOUS
 10
-7.25
 20
-9.4321297484
 11
-7.25
 21
-7.8572603924
  0
LINE
  5
27B
100
AcDbEntity
  8
IMPORT_IGES
100
AcDbLine
 62
253
  6
CONTINUOUS
 10
-7.2030016412
 20
11.0215422094
 11
-7.203
 21
8.6944477492
  0
LINE
  5
27C
100
AcDbEntity
  8
IMPORT_IGES
100
AcDbLine
 62
253
  6
CONTINUOUS
 10
-7.0500035661
 20
-7.7155658828
 11
-7.050005001
 21
-9.6661766822
  0
LINE
  5
27D
100
AcDbEntity
  8
IMPORT_IGES
100
AcDbLine
 62
7
  6
CONTINUOUS
 10
-7.003
 20
8.7735832874
 11
-7.003
 21
11.092231864
  0
LINE
  5
27E
100
AcDbEntity
  8
IMPORT_IGES
100
AcDbLine
 62
253
  6
CONTINUOUS
 10
-6.803
 20
8.8268738489
 11
-6.8030000072
 21
11.5750144999
  0
LWPOLYLINE
  5
27F
100
AcDbEntity
  8
IMPORT_IGES
100
AcDbPolyline
 62
253
  6
CONTINUOUS
 90
13
 70
0
 10
-7.2500000485
 20
-0.3846394322
 10
-7.2516739682
 20
-0.3952196319
 10
-7.25664023
 20
-0.4056361587
 10
-7.2647832581
 20
-0.4156697153
 10
-7.2758731302
 20
-0.4251127819
 10
-7.2897332302
 20
-0.433869867
 10
-7.3063829055
 20
-0.4419225761
 10
-7.325767735
 20
-0.4491505727
 10
-7.3475341964
 20
-0.4553386881
 10
-7.3712608157
 20
-0.4603193563
 10
-7.3965221658
 20
-0.4639732301
 10
-7.4229234815
 20
-0.466214662
 10
-7.4499999999
 20
-0.4669732029
  0
LWPOLYLINE
  5
280
100
AcDbEntity
  8
IMPORT_IGES
100
AcDbPolyline
 62
253
  6
CONTINUOUS
 90
19
 70
0
 10
-7.3974980996
 20
0.3539290893
 10
-7.40412836
 20
0.3406424894
 10
-7.4101157182
 20
0.3280126378
 10
-7.4154601745
 20
0.3160399213
 10
-7.4200554793
 20
0.3048950189
 10
-7.424007882
 20
0.2944075695
 10
-7.4276361307
 20
0.2840664371
 10
-7.4310236578
 20
0.2737525192
 10
-7.4340870308
 20
0.2635853594
 10
-7.4368946999
 20
0.2534120792
 10
-7.4394819328
 20
0.2430930113
 10
-7.4418134617
 20
0.2327684522
 10
-7.4438519331
 20
0.2227053305
 10
-7.445579871
 20
0.2128502663
 10
-7.4470147514
 20
0.2032566634
 10
-7.448171649
 20
0.194350888
 10
-7.4490555888
 20
0.1862744938
 10
-7.4496615458
 20
0.1788847388
 10
-7.44998952
 20
0.1721810673
  0
LWPOLYLINE
  5
281
100
AcDbEntity
  8
IMPORT_IGES
100
AcDbPolyline
 62
253
  6
CONTINUOUS
 90
3
 70
0
 10
-7.1309040964
 20
-7.7223023657
 10
-7.0910997355
 20
-7.7175553853
 10
-7.0500029293
 20
-7.7155659278
  0
LWPOLYLINE
  5
282
100
AcDbEntity
  8
IMPORT_IGES
100
AcDbPolyline
 62
253
  6
CONTINUOUS
 90
13
 70
0
 10
3.8128962508
 20
-6.9973985842
 10
3.8392529971
 20
-6.9961232721
 10
3.8652120064
 20
-6.992071062
 10
3.8903133274
 20
-6.9852932737
 10
3.9142471042
 20
-6.9758250163
 10
3.9364160625
 20
-6.9638509341
 10
3.9560661498
 20
-6.9498476408
 10
3.9727778127
 20
-6.9343590725
 10
3.9866460681
 20
-6.9175716368
 10
3.9977574489
 20
-6.8994895501
 10
4.0059642365
 20
-6.880281221
 10
4.0110479544
 20
-6.860359546
 10
4.0129148685
 20
-6.8400725918
  0
LWPOLYLINE
  5
283
100
AcDbEntity
  8
IMPORT_IGES
100
AcDbPolyline
 62
253
  6
CONTINUOUS
 90
13
 70
0
 10
-7.9873573621
 20
-7.2201394721
 10
-8.0261114514
 20
-7.2204885497
 10
-8.0640565075
 20
-7.2202010448
 10
-8.1005740584
 20
-7.2192897851
 10
-8.1349033956
 20
-7.2177873452
 10
-8.1667155098
 20
-7.2157223586
 10
-8.1959780859
 20
-7.2130887356
 10
-8.2222639525
 20
-7.2098879064
 10
-8.2447826436
 20
-7.2061735703
 10
-8.262924996
 20
-7.2020146685
 10
-8.2762582463
 20
-7.1974837517
 10
-8.284472425
 20
-7.1926494633
 10
-8.2873117233
 20
-7.1875946374
  0
LINE
  5
284
100
AcDbEntity
  8
IMPORT_IGES
100
AcDbLine
 62
253
  6
CONTINUOUS
 10
4.1526328089
 20
-7.5564870968
 11
7.9850090078
 21
-7.5564889431
  0
LINE
  5
285
100
AcDbEntity
  8
IMPORT_IGES
100
AcDbLine
 62
253
  6
CONTINUOUS
 10
-4.1526247022
 20
-7.5564868412
 11
-7.9849870784
 21
-7.5564894997
  0
LINE
  5
286
100
AcDbEntity
  8
IMPORT_IGES
100
AcDbLine
 62
7
  6
CONTINUOUS
 10
-4.55
 20
-7.4580793818
 11
-4.1543131955
 21
-7.4580801275
  0
LINE
  5
287
100
AcDbEntity
  8
IMPORT_IGES
100
AcDbLine
 62
7
  6
CONTINUOUS
 10
4.55
 20
-7.4580795217
 11
4.154313196
 21
-7.4580797549
  0
LINE
  5
288
100
AcDbEntity
  8
IMPORT_IGES
100
AcDbLine
 62
7
  6
CONTINUOUS
 10
7.3800828182
 20
-7.3292854892
 11
5.6199171818
 21
-7.3292854892
  0
LINE
  5
289
100
AcDbEntity
  8
IMPORT_IGES
100
AcDbLine
 62
7
  6
CONTINUOUS
 10
-5.6199171818
 20
-7.3292854892
 11
-7.3800828182
 21
-7.3292854892
  0
LINE
  5
28A
100
AcDbEntity
  8
IMPORT_IGES
100
AcDbLine
 62
253
  6
CONTINUOUS
 10
7.9873573988
 20
-7.2201394654
 11
7.45
 21
-7.2201394699
  0
LINE
  5
28B
100
AcDbEntity
  8
IMPORT_IGES
100
AcDbLine
 62
253
  6
CONTINUOUS
 10
-7.45
 20
-7.2201394778
 11
-7.9873574003
 21
-7.2201394727
  0
LINE
  5
28C
100
AcDbEntity
  8
IMPORT_IGES
100
AcDbLine
 62
253
  6
CONTINUOUS
 10
5.55
 20
-7.2201174632
 11
4.7231303335
 21
-7.2201312133
  0
LINE
  5
28D
100
AcDbEntity
  8
IMPORT_IGES
100
AcDbLine
 62
253
  6
CONTINUOUS
 10
-5.55
 20
-7.2201344627
 11
-4.7231303336
 21
-7.220140778
  0
LINE
  5
28E
100
AcDbEntity
  8
IMPORT_IGES
100
AcDbLine
 62
253
  6
CONTINUOUS
 10
-3.8129292279
 20
-6.9974033636
 11
3.8129292811
 21
-6.99739873
  0
LWPOLYLINE
  5
28F
100
AcDbEntity
  8
IMPORT_IGES
100
AcDbPolyline
 62
253
  6
CONTINUOUS
 90
13
 70
0
 10
7.987357413
 20
-7.2201395965
 10
8.025923033
 20
-7.220488517
 10
8.0637573473
 20
-7.2202059678
 10
8.100242314
 20
-7.2193012029
 10
8.134632537
 20
-7.2178020571
 10
8.1665606122
 20
-7.2157343566
 10
8.1959202394
 20
-7.213094907
 10
8.2222728598
 20
-7.2098867649
 10
8.2448360377
 20
-7.2061633614
 10
8.2629847266
 20
-7.201998297
 10
8.2762968562
 20
-7.1974670735
 10
8.284485254
 20
-7.1926380614
 10
8.2873117233
 20
-7.1875946382
  0
LINE
  5
290
100
AcDbEntity
  8
IMPORT_IGES
100
AcDbLine
 62
253
  6
CONTINUOUS
 10
7.0499991095
 20
-7.715565836
 11
7.0942545051
 21
-7.7183762125
  0
LINE
  5
291
100
AcDbEntity
  8
IMPORT_IGES
100
AcDbLine
 62
253
  6
CONTINUOUS
 10
7.0942545051
 20
-7.7183762125
 11
7.1363196299
 21
-7.7237950359
  0
LWPOLYLINE
  5
292
100
AcDbEntity
  8
IMPORT_IGES
100
AcDbPolyline
 62
253
  6
CONTINUOUS
 90
13
 70
0
 10
-5.749999996
 20
-4.0886384365
 10
-5.7483246567
 20
-4.0918866453
 10
-5.7433587973
 20
-4.0950701192
 10
-5.7352170226
 20
-4.0981368348
 10
-5.7241279705
 20
-4.1010234288
 10
-5.7102676313
 20
-4.1037005764
 10
-5.6936175463
 20
-4.1061623822
 10
-5.6742327771
 20
-4.1083719938
 10
-5.6524663738
 20
-4.1102637136
 10
-5.6287397459
 20
-4.1117863203
 10
-5.6034782879
 20
-4.112903327
 10
-5.5770767832
 20
-4.1135885462
 10
-5.55
 20
-4.1138204379
  0
LWPOLYLINE
  5
293
100
AcDbEntity
  8
IMPORT_IGES
100
AcDbPolyline
 62
7
  6
CONTINUOUS
 90
46
 70
0
 10
-4.7231303336
 20
-7.2201420741
 10
-4.7186423261
 20
-7.2321296226
 10
-4.7141228123
 20
-7.2436362346
 10
-4.7095717921
 20
-7.2546606499
 10
-4.7049720938
 20
-7.2651811807
 10
-4.700340889
 20
-7.2752206415
 10
-4.6957296931
 20
-7.2848451845
 10
-4.6911471138
 20
-7.2940594551
 10
-4.6865845434
 20
-7.3028628463
 10
-4.6820676731
 20
-7.3113127666
 10
-4.6776009917
 20
-7.3194156336
 10
-4.6731800106
 20
-7.3271702452
 10
-4.6688169549
 20
-7.3346215282
 10
-4.6645141715
 20
-7.3417756964
 10
-4.6602693136
 20
-7.3486320697
 10
-4.6560875666
 20
-7.3552242883
 10
-4.651970696
 20
-7.3615572299
 10
-4.6479169363
 20
-7.3676315138
 10
-4.6439261765
 20
-7.3734736048
 10
-4.6399997701
 20
-7.3790877678
 10
-4.6361363635
 20
-7.3844749811
 10
-4.6323317849
 20
-7.3896561227
 10
-4.6285868401
 20
-7.3946355622
 10
-4.6249007233
 20
-7.3994138194
 10
-4.6212668445
 20
-7.4040054987
 10
-4.6176860046
 20
-7.4084148217
 10
-4.6141574027
 20
-7.4126421395
 10
-4.6106720464
 20
-7.4166959352
 10
-4.6072314302
 20
-7.4205801935
 10
-4.6038340597
 20
-7.4242952611
 10
-4.6004664595
 20
-7.4278440209
 10
-4.5971313044
 20
-7.4312310559
 10
-4.5938259195
 20
-7.434455927
 10
-4.5905288048
 20
-7.43751402
 10
-4.587239174
 20
-7.440415481
 10
-4.5839578133
 20
-7.4431541653
 10
-4.5806655812
 20
-7.4457014542
 10
-4.5773715809
 20
-7.4480655334
 10
-4.5740667092
 20
-7.4502425415
 10
-4.5707045145
 20
-7.4521865792
 10
-4.5672411672
 20
-7.453917531
 10
-4.563720497
 20
-7.4554197966
 10
-4.5602275415
 20
-7.4565952603
 10
-4.5567906464
 20
-7.4574127618
 10
-4.5533814659
 20
-7.4579071698
 10
-4.55
 20
-7.4580793818
  0
LINE
  5
294
100
AcDbEntity
  8
IMPORT_IGES
100
AcDbLine
 62
253
  6
CONTINUOUS
 10
-6.35
 20
1.1700144998
 11
-6.35
 21
2.5700144999
  0
LINE
  5
295
100
AcDbEntity
  8
IMPORT_IGES
100
AcDbLine
 62
253
  6
CONTINUOUS
 10
-6.2231434278
 20
-10.1258678026
 11
-6.2231434153
 21
-10.3249855001
  0
LINE
  5
296
100
AcDbEntity
  8
IMPORT_IGES
100
AcDbLine
 62
253
  6
CONTINUOUS
 10
-6.1500004231
 20
11.7750144998
 11
-6.1500005306
 21
11.5750144999
  0
LINE
  5
297
100
AcDbEntity
  8
IMPORT_IGES
100
AcDbLine
 62
7
  6
CONTINUOUS
 10
-6.05
 20
2.5700144998
 11
-6.05
 21
0.1700144999
  0
LINE
  5
298
100
AcDbEntity
  8
IMPORT_IGES
100
AcDbLine
 62
7
  6
CONTINUOUS
 10
-5.9467065296
 20
-10.5249855001
 11
-5.9467065296
 21
-10.5131242633
  0
LINE
  5
299
100
AcDbEntity
  8
IMPORT_IGES
100
AcDbLine
 62
7
  6
CONTINUOUS
 10
-5.75
 20
-0.3493197049
 11
-5.75
 21
-5.84137085
  0
LINE
  5
29A
100
AcDbEntity
  8
IMPORT_IGES
100
AcDbLine
 62
253
  6
CONTINUOUS
 10
-5.75
 20
0.1700144999
 11
-5.75
 21
2.5700144999
  0
LWPOLYLINE
  5
29B
100
AcDbEntity
  8
IMPORT_IGES
100
AcDbPolyline
 62
253
  6
CONTINUOUS
 90
5
 70
0
 10
-7.25
 20
-9.3965231378
 10
-7.2516724706
 20
-9.4171363703
 10
-7.2566389285
 20
-9.4373354875
 10
-7.2647829774
 20
-9.4567903118
 10
-7.2758734889
 20
-9.4750980918
  0
LWPOLYLINE
  5
29C
100
AcDbEntity
  8
IMPORT_IGES
100
AcDbPolyline
 62
7
  6
CONTINUOUS
 90
14
 70
0
 10
-7.2499968274
 20
-7.8557952032
 10
-7.2498372845
 20
-7.8540618908
 10
-7.2492995524
 20
-7.850975334
 10
-7.2481038592
 20
-7.8467303072
 10
-7.2456167452
 20
-7.840811538
 10
-7.2417892754
 20
-7.8340700117
 10
-7.2364326504
 20
-7.8266311082
 10
-7.2289806967
 20
-7.818240213
 10
-7.2193763674
 20
-7.8093508856
 10
-7.2076720395
 20
-7.8003576703
 10
-7.1936806674
 20
-7.7914345868
 10
-7.1771764992
 20
-7.7827831476
 10
-7.1583026485
 20
-7.7747937439
 10
-7.1374136803
 20
-7.7678771728
  0
LWPOLYLINE
  5
29D
100
AcDbEntity
  8
IMPORT_IGES
100
AcDbPolyline
 62
253
  6
CONTINUOUS
 90
10
 70
0
 10
-7.45
 20
-8.0169875068
 10
-7.4456277255
 20
-7.9797889419
 10
-7.4373596655
 20
-7.9451144097
 10
-7.4251958199
 20
-7.9129639099
 10
-7.4088844911
 20
-7.8834930011
 10
-7.3886773766
 20
-7.8565461249
 10
-7.3653295696
 20
-7.831656606
 10
-7.3387735958
 20
-7.8084756923
 10
-7.3090769293
 20
-7.7873521358
 10
-7.2771970861
 20
-7.7688655172
  0
LWPOLYLINE
  5
29E
100
AcDbEntity
  8
IMPORT_IGES
100
AcDbPolyline
 62
253
  6
CONTINUOUS
 90
15
 70
0
 10
-4.3658805718
 20
5.5282629568
 10
-4.3146407254
 20
5.6702098735
 10
-4.2387940202
 20
5.8451678468
 10
-4.1491582866
 20
6.0243995447
 10
-4.0467045904
 20
6.203984171
 10
-3.9344920234
 20
6.3793467963
 10
-3.811909703
 20
6.5495695638
 10
-3.6795685118
 20
6.7155703302
 10
-3.5423601886
 20
6.8755277355
 10
-3.4066055591
 20
7.023589718
 10
-3.2659837976
 20
7.1656083393
 10
-3.1064241666
 20
7.3173184245
 10
-2.9232364202
 20
7.4839649151
 10
-2.7211108043
 20
7.6603028695
 10
-2.5000473188
 20
7.8463322877
  0
LINE
  5
29F
100
AcDbEntity
  8
IMPORT_IGES
100
AcDbLine
 62
253
  6
CONTINUOUS
 10
-2.5759347913
 20
7.730867634
 11
-2.5000316096
 21
7.8463613441
  0
LINE
  5
2A0
100
AcDbEntity
  8
IMPORT_IGES
100
AcDbLine
 62
253
  6
CONTINUOUS
 10
-2.9021484348
 20
7.2399726551
 11
-2.8051029622
 21
7.3868687324
  0
LINE
  5
2A1
100
AcDbEntity
  8
IMPORT_IGES
100
AcDbLine
 62
253
  6
CONTINUOUS
 10
-2.8051029622
 20
7.3868687324
 11
-2.5759347913
 21
7.730867634
  0
LWPOLYLINE
  5
2A2
100
AcDbEntity
  8
IMPORT_IGES
100
AcDbPolyline
 62
253
  6
CONTINUOUS
 90
10
 70
0
 10
-7.3974980996
 20
0.3539277848
 10
-7.3696300248
 20
0.3937857474
 10
-7.3385846811
 20
0.4294317508
 10
-7.3043620685
 20
0.460865795
 10
-7.2663009562
 20
0.488350348
 10
-7.225062575
 20
0.5116229419
 10
-7.182630617
 20
0.5298961725
 10
-7.139666313
 20
0.5429075717
 10
-7.0955084323
 20
0.5509196075
 10
-7.0501569748
 20
0.5539322801
  0
LWPOLYLINE
  5
2A3
100
AcDbEntity
  8
IMPORT_IGES
100
AcDbPolyline
 62
253
  6
CONTINUOUS
 90
6
 70
0
 10
-7.2275189665
 20
0.253933199
 10
-7.2395103758
 20
0.2385476297
 10
-7.2515534456
 20
0.2242448689
 10
-7.2644613129
 20
0.2114165828
 10
-7.2791899012
 20
0.200681507
 10
-7.2963732994
 20
0.1921983034
  0
LWPOLYLINE
  5
2A4
100
AcDbEntity
  8
IMPORT_IGES
100
AcDbPolyline
 62
7
  6
CONTINUOUS
 90
5
 70
0
 10
-7.1374136803
 20
-7.7678771728
 10
-7.1148036621
 20
-7.7623283701
 10
-7.0908738516
 20
-7.7583848115
 10
-7.0664495864
 20
-7.7562485303
 10
-7.0500035625
 20
-7.7558402178
  0
LWPOLYLINE
  5
2A5
100
AcDbEntity
  8
IMPORT_IGES
100
AcDbPolyline
 62
253
  6
CONTINUOUS
 90
13
 70
0
 10
4.1756020189
 20
-5.6788158401
 10
4.1563715238
 20
-5.6795752926
 10
4.1375207217
 20
-5.6820616536
 10
4.1193539669
 20
-5.6862170333
 10
4.1022467511
 20
-5.6919230974
 10
4.0863654942
 20
-5.6990903496
 10
4.0717324914
 20
-5.7077360534
 10
4.0585604212
 20
-5.7178412448
 10
4.0472477147
 20
-5.7292235935
 10
4.0381071328
 20
-5.7416592277
 10
4.0313559126
 20
-5.7549245374
 10
4.0271468014
 20
-5.7688170492
 10
4.0256082637
 20
-5.7830905236
  0
LINE
  5
2A6
100
AcDbEntity
  8
IMPORT_IGES
100
AcDbLine
 62
253
  6
CONTINUOUS
 10
4.0051398378
 20
-6.2204351888
 11
3.9618153315
 21
-6.2208882197
  0
LWPOLYLINE
  5
2A7
100
AcDbEntity
  8
IMPORT_IGES
100
AcDbPolyline
 62
253
  6
CONTINUOUS
 90
5
 70
0
 10
-3.8203866402
 20
-6.2204874431
 10
-3.8722469961
 20
-6.2209948475
 10
-3.8970405994
 20
-6.2210855505
 10
-3.920505035
 20
-6.2210175712
 10
-3.9936171357
 20
-6.2205100699
  0
LWPOLYLINE
  5
2A8
100
AcDbEntity
  8
IMPORT_IGES
100
AcDbPolyline
 62
253
  6
CONTINUOUS
 90
5
 70
0
 10
-3.9936171357
 20
-6.2205100699
 10
-4.005162705
 20
-6.2205959626
 10
-4.0135514929
 20
-6.2208830028
 10
-4.018638902
 20
-6.2213404222
 10
-4.0203376433
 20
-6.2219763554
  0
LWPOLYLINE
  5
2A9
100
AcDbEntity
  8
IMPORT_IGES
100
AcDbPolyline
 62
253
  6
CONTINUOUS
 90
3
 70
0
 10
3.9618153315
 20
-6.2208882197
 10
3.9204171662
 20
-6.221152169
 10
3.8969589939
 20
-6.2211652311
  0
LINE
  5
2AA
100
AcDbEntity
  8
IMPORT_IGES
100
AcDbLine
 62
253
  6
CONTINUOUS
 10
-3.8203932811
 20
-6.220487523
 11
3.8203932811
 21
-6.220487523
  0
LWPOLYLINE
  5
2AB
100
AcDbEntity
  8
IMPORT_IGES
100
AcDbPolyline
 62
253
  6
CONTINUOUS
 90
3
 70
0
 10
3.8969589939
 20
-6.2211652311
 10
3.8465119352
 20
-6.2208163307
 10
3.82038664
 20
-6.2204874434
  0
LWPOLYLINE
  5
2AC
100
AcDbEntity
  8
IMPORT_IGES
100
AcDbPolyline
 62
253
  6
CONTINUOUS
 90
13
 70
0
 10
-4.1756469517
 20
-5.6788163303
 10
-4.1564301139
 20
-5.6795706841
 10
-4.1375800999
 20
-5.6820515136
 10
-4.1194020489
 20
-5.6862041754
 10
-4.1022656407
 20
-5.6919163502
 10
-4.0863491085
 20
-5.6990994396
 10
-4.0716980789
 20
-5.7077598065
 10
-4.0585315851
 20
-5.717867479
 10
-4.0472322938
 20
-5.7292428578
 10
-4.0381012243
 20
-5.741669364
 10
-4.0313541726
 20
-5.7549272735
 10
-4.0271469499
 20
-5.7688116742
 10
-4.0256083757
 20
-5.7830811974
  0
LWPOLYLINE
  5
2AD
100
AcDbEntity
  8
IMPORT_IGES
100
AcDbPolyline
 62
253
  6
CONTINUOUS
 90
4
 70
0
 10
4.0203546974
 20
-6.220556249
 10
4.0186464619
 20
-6.2204398134
 10
4.0135452681
 20
-6.2204022582
 10
4.0051398378
 20
-6.2204351888
  0
LWPOLYLINE
  5
2AE
100
AcDbEntity
  8
IMPORT_IGES
100
AcDbPolyline
 62
253
  6
CONTINUOUS
 90
5
 70
0
 10
7.1363196299
 20
-7.7237950359
 10
7.1761944839
 20
-7.7318223064
 10
7.2139563799
 20
-7.7425083596
 10
7.2495280051
 20
-7.7558028599
 10
7.2826774215
 20
-7.7715547995
  0
LWPOLYLINE
  5
2AF
100
AcDbEntity
  8
IMPORT_IGES
100
AcDbPolyline
 62
253
  6
CONTINUOUS
 90
9
 70
0
 10
-4.75
 20
-5.2388608357
 10
-4.7483275292
 20
-5.2394215735
 10
-4.7433610714
 20
-5.2399710456
 10
-4.7352170226
 20
-5.2405002702
 10
-4.7241265112
 20
-5.2409982914
 10
-4.7102667441
 20
-5.2414600946
 10
-4.6936175463
 20
-5.2418847539
 10
-4.6742327771
 20
-5.242265933
 10
-4.6287397459
 20
-5.2428549369
  0
LWPOLYLINE
  5
2B0
100
AcDbEntity
  8
IMPORT_IGES
100
AcDbPolyline
 62
253
  6
CONTINUOUS
 90
10
 70
0
 10
-3.9816024459
 20
-5.5514132374
 10
-3.9897549398
 20
-5.5372832487
 10
-3.999523038
 20
-5.5232947846
 10
-4.0107086705
 20
-5.5097624068
 10
-4.0228752287
 20
-5.4971475777
 10
-4.0358645914
 20
-5.4855122688
 10
-4.0499488624
 20
-5.4746237364
 10
-4.0650609864
 20
-5.4646412382
 10
-4.0806837752
 20
-5.4559719483
 10
-4.0964593881
 20
-5.4488088985
  0
LWPOLYLINE
  5
2B1
100
AcDbEntity
  8
IMPORT_IGES
100
AcDbPolyline
 62
7
  6
CONTINUOUS
 90
14
 70
0
 10
-4.1511317379
 20
-7.7188005821
 10
-4.1491739437
 20
-7.7257945637
 10
-4.146425507
 20
-7.732494128
 10
-4.1430169855
 20
-7.7388450825
 10
-4.1392166028
 20
-7.7447826054
 10
-4.1349840443
 20
-7.7502730788
 10
-4.1300253293
 20
-7.755336605
 10
-4.1244013189
 20
-7.7599768069
 10
-4.1183018119
 20
-7.7642120321
 10
-4.1116736864
 20
-7.7681294576
 10
-4.1045299655
 20
-7.7718131815
 10
-4.0969945996
 20
-7.775344531
 10
-4.0891766046
 20
-7.7788147128
 10
-4.0882115755
 20
-7.7792362181
  0
LWPOLYLINE
  5
2B2
100
AcDbEntity
  8
IMPORT_IGES
100
AcDbPolyline
 62
253
  6
CONTINUOUS
 90
13
 70
0
 10
-5.75
 20
-3.4614751403
 10
-5.7483275524
 20
-3.472107827
 10
-5.7433611969
 20
-3.4825269424
 10
-5.7352172825
 20
-3.4925621763
 10
-5.724126872
 20
-3.502005788
 10
-5.7102671415
 20
-3.5107626695
 10
-5.6936179648
 20
-3.5188152138
 10
-5.6742332514
 20
-3.5260431905
 10
-5.6524669019
 20
-3.5322312902
 10
-5.6287402659
 20
-3.5372121731
 10
-5.6034787081
 20
-3.5408665449
 10
-5.5770770284
 20
-3.5431086585
 10
-5.55
 20
-3.5438680422
  0
LWPOLYLINE
  5
2B3
100
AcDbEntity
  8
IMPORT_IGES
100
AcDbPolyline
 62
253
  6
CONTINUOUS
 90
13
 70
0
 10
-5.75
 20
-0.3845821326
 10
-5.7483275117
 20
-0.3952149485
 10
-5.7433610575
 20
-0.405634152
 10
-5.7352170226
 20
-0.4156694315
 10
-5.7241265201
 20
-0.4251130369
 10
-5.7102667495
 20
-0.4338698783
 10
-5.6936175463
 20
-0.441922384
 10
-5.6742327771
 20
-0.4491504054
 10
-5.6524663738
 20
-0.4553385477
 10
-5.6287397459
 20
-0.4603192572
 10
-5.6034782879
 20
-0.4639731793
 10
-5.5770767832
 20
-0.4662146496
 10
-5.55
 20
-0.4669732074
  0
LWPOLYLINE
  5
2B4
100
AcDbEntity
  8
IMPORT_IGES
100
AcDbPolyline
 62
7
  6
CONTINUOUS
 90
10
 70
0
 10
-4.75
 20
-7.0579453043
 10
-4.7495709782
 20
-7.0774254888
 10
-4.7484788268
 20
-7.0966080367
 10
-4.746723546
 20
-7.1154929475
 10
-4.7442731286
 20
-7.1341695271
 10
-4.7411595818
 20
-7.1525484696
 10
-4.7374789267
 20
-7.1703618577
 10
-4.7332631706
 20
-7.1875203856
 10
-4.7284803062
 20
-7.204113359
 10
-4.7231303336
 20
-7.220140778
  0
LINE
  5
2B5
100
AcDbEntity
  8
IMPORT_IGES
100
AcDbLine
 62
253
  6
CONTINUOUS
 10
-5.6500001416
 20
-10.5249854996
 11
-5.6500013496
 21
-10.3249855001
  0
LINE
  5
2B6
100
AcDbEntity
  8
IMPORT_IGES
100
AcDbLine
 62
253
  6
CONTINUOUS
 10
-5.55
 20
-0.420795315
 11
-5.55
 21
-7.2201344627
  0
LINE
  5
2B7
100
AcDbEntity
  8
IMPORT_IGES
100
AcDbLine
 62
253
  6
CONTINUOUS
 10
-5.45
 20
-0.4299855001
 11
-5.45
 21
-0.1299855001
  0
LINE
  5
2B8
100
AcDbEntity
  8
IMPORT_IGES
100
AcDbLine
 62
253
  6
CONTINUOUS
 10
-5.1
 20
-0.1299855001
 11
-5.1
 21
-0.4299855001
  0
LINE
  5
2B9
100
AcDbEntity
  8
IMPORT_IGES
100
AcDbLine
 62
253
  6
CONTINUOUS
 10
-5.05
 20
3.2700144999
 11
-5.05
 21
3.8700144999
  0
LINE
  5
2BA
100
AcDbEntity
  8
IMPORT_IGES
100
AcDbLine
 62
7
  6
CONTINUOUS
 10
-4.9273029486
 20
-11.7750144998
 11
-4.9273029486
 21
-10.6250145005
  0
LINE
  5
2BB
100
AcDbEntity
  8
IMPORT_IGES
100
AcDbLine
 62
253
  6
CONTINUOUS
 10
-4.8
 20
0.1700144999
 11
-4.7999991816
 21
6.9690670645
  0
LINE
  5
2BC
100
AcDbEntity
  8
IMPORT_IGES
100
AcDbLine
 62
7
  6
CONTINUOUS
 10
-4.75
 20
-7.0579453039
 11
-4.75
 21
-0.5654551057
  0
LWPOLYLINE
  5
2BD
100
AcDbEntity
  8
IMPORT_IGES
100
AcDbPolyline
 62
253
  6
CONTINUOUS
 90
13
 70
0
 10
-4.0
 20
9.2116916727
 10
-3.9983309363
 20
9.2299241151
 10
-3.9933724381
 20
9.2477964841
 10
-3.9852374924
 20
9.2650166159
 10
-3.9741524536
 20
9.2812292947
 10
-3.9602924049
 20
9.2962682373
 10
-3.9436409406
 20
9.3100972909
 10
-3.9242548253
 20
9.32250863
 10
-3.9024863108
 20
9.3331342914
 10
-3.8787563157
 20
9.3416868848
 10
-3.8534901281
 20
9.3479613998
 10
-3.8270830045
 20
9.3518105218
 10
-3.8
 20
9.353113159
  0
LWPOLYLINE
  5
2BE
100
AcDbEntity
  8
IMPORT_IGES
100
AcDbPolyline
 62
253
  6
CONTINUOUS
 90
6
 70
0
 10
-4.0
 20
11.2871465342
 10
-3.9982889723
 20
11.3056057253
 10
-3.9931851653
 20
11.3237490746
 10
-3.9847759065
 20
11.3412661442
 10
-3.9732050808
 20
11.3578572123
 10
-3.9586706681
 20
11.3732384011
  0
LINE
  5
2BF
100
AcDbEntity
  8
IMPORT_IGES
100
AcDbLine
 62
7
  6
CONTINUOUS
 10
-4.0367559346
 20
8.3856715941
 11
-4.1416667458
 21
7.5946166639
  0
LWPOLYLINE
  5
2C0
100
AcDbEntity
  8
IMPORT_IGES
100
AcDbPolyline
 62
7
  6
CONTINUOUS
 90
31
 70
0
 10
-7.3800828182
 20
-7.3292854892
 10
-7.3705262163
 20
-7.2977415859
 10
-7.3615845778
 20
-7.2650918651
 10
-7.3532579028
 20
-7.2313363267
 10
-7.3456304309
 20
-7.1964839456
 10
-7.3386179225
 20
-7.1605257469
 10
-7.3319676586
 20
-7.1234348065
 10
-7.3256249465
 20
-7.085205725
 10
-7.3196444789
 20
-7.0458439018
 10
-7.3139376149
 20
-7.0053386099
 10
-7.308489045
 20
-6.9637156107
 10
-7.3033140787
 20
-6.9209491428
 10
-7.2983700032
 20
-6.876951195
 10
-7.2936473549
 20
-6.8317307192
 10
-7.2891555975
 20
-6.7852787635
 10
-7.284880409
 20
-6.7374804611
 10
-7.2808145687
 20
-6.6883281429
 10
-7.2769652973
 20
-6.637829478
 10
-7.2733399351
 20
-6.5858926064
 10
-7.269933612
 20
-6.5325188277
 10
-7.2667511981
 20
-6.4777068423
 10
-7.2638146443
 20
-6.4213608915
 10
-7.2611190239
 20
-6.3634826037
 10
-7.2586692636
 20
-6.3040703505
 10
-7.2565020942
 20
-6.2430234881
 10
-7.2546114983
 20
-6.1803397048
 10
-7.2530034935
 20
-6.1160213123
 10
-7.2517328628
 20
-6.0499746014
 10
-7.2508178676
 20
-5.9821683359
 10
-7.2502402467
 20
-5.9126337521
 10
-7.25
 20
0.1539405454
  0
LWPOLYLINE
  5
2C1
100
AcDbEntity
  8
IMPORT_IGES
100
AcDbPolyline
 62
253
  6
CONTINUOUS
 90
4
 70
0
 10
-2.6375594702
 20
7.4029564292
 10
-2.6032155077
 20
7.5105387808
 10
-2.5526763807
 20
7.6740795859
 10
-2.5000473188
 20
7.8463322877
  0
LINE
  5
2C2
100
AcDbEntity
  8
IMPORT_IGES
100
AcDbLine
 62
253
  6
CONTINUOUS
 10
4.6742327771
 20
-5.242265933
 11
4.6287397459
 21
-5.2428549369
  0
LINE
  5
2C3
100
AcDbEntity
  8
IMPORT_IGES
100
AcDbLine
 62
253
  6
CONTINUOUS
 10
4.6287397459
 20
-5.2428549369
 11
4.5770767832
 21
-5.2431658381
  0
LINE
  5
2C4
100
AcDbEntity
  8
IMPORT_IGES
100
AcDbLine
 62
253
  6
CONTINUOUS
 10
-4.0964593868
 20
-5.4488138966
 11
-4.55
 21
-5.4488203671
  0
LINE
  5
2C5
100
AcDbEntity
  8
IMPORT_IGES
100
AcDbLine
 62
253
  6
CONTINUOUS
 10
4.55
 20
-5.4488203671
 11
4.096458952
 21
-5.4488070286
  0
LINE
  5
2C6
100
AcDbEntity
  8
IMPORT_IGES
100
AcDbLine
 62
253
  6
CONTINUOUS
 10
3.832129547
 20
-5.2432058417
 11
4.5770767832
 21
-5.2431658381
  0
LINE
  5
2C7
100
AcDbEntity
  8
IMPORT_IGES
100
AcDbLine
 62
253
  6
CONTINUOUS
 10
-4.5770767832
 20
-5.2431658381
 11
-3.832129547
 21
-5.2432058417
  0
LINE
  5
2C8
100
AcDbEntity
  8
IMPORT_IGES
100
AcDbLine
 62
253
  6
CONTINUOUS
 10
-4.6287397459
 20
-5.2428549369
 11
-4.5770767832
 21
-5.2431658381
  0
LWPOLYLINE
  5
2C9
100
AcDbEntity
  8
IMPORT_IGES
100
AcDbPolyline
 62
253
  6
CONTINUOUS
 90
13
 70
0
 10
-4.55
 20
-5.4488203673
 10
-4.5758106793
 20
-5.4476377519
 10
-4.6011027992
 20
-5.4441259359
 10
-4.6254629351
 20
-5.4383672237
 10
-4.6483867782
 20
-5.4305250479
 10
-4.6696435154
 20
-5.4207247126
 10
-4.6891905184
 20
-5.4089519519
 10
-4.7067361386
 20
-5.3952448501
 10
-4.7217575101
 20
-5.3798536787
 10
-4.7338479058
 20
-5.3630764192
 10
-4.7427175985
 20
-5.3452138709
 10
-4.7481586431
 20
-5.3265451879
 10
-4.75
 20
-5.3073990111
  0
LWPOLYLINE
  5
2CA
100
AcDbEntity
  8
IMPORT_IGES
100
AcDbPolyline
 62
7
  6
CONTINUOUS
 90
15
 70
0
 10
7.1300620629
 20
-7.7658653702
 10
7.151351842
 20
-7.7722857014
 10
7.1704772716
 20
-7.7797375921
 10
7.1873569976
 20
-7.787908164
 10
7.2018286368
 20
-7.7964241011
 10
7.213888316
 20
-7.8049279826
 10
7.2239014711
 20
-7.8133286027
 10
7.2320864728
 20
-7.8215342492
 10
7.2384241207
 20
-7.8292144255
 10
7.2429800455
 20
-7.8359873024
 10
7.2462490554
 20
-7.8421365008
 10
7.248384974
 20
-7.8475786269
 10
7.2494159034
 20
-7.8515365501
 10
7.2498786128
 20
-7.8544903272
 10
7.2499971737
 20
-7.8559461775
  0
LWPOLYLINE
  5
2CB
100
AcDbEntity
  8
IMPORT_IGES
100
AcDbPolyline
 62
253
  6
CONTINUOUS
 90
13
 70
0
 10
-4.0129148702
 20
-6.8400724515
 10
-4.0109225409
 20
-6.8610731846
 10
-4.0054589755
 20
-6.881740849
 10
-3.9965956576
 20
-6.9016826572
 10
-3.9843811705
 20
-6.9206517136
 10
-3.9690557116
 20
-6.9381738632
 10
-3.951227462
 20
-6.9536541517
 10
-3.9315837962
 20
-6.9667657389
 10
-3.9103566429
 20
-6.9775872999
 10
-3.8875499799
 20
-6.9861879957
 10
-3.8633768836
 20
-6.9924524034
 10
-3.838357604
 20
-6.996212275
 10
-3.8128962593
 20
-6.9973978499
  0
LWPOLYLINE
  5
2CC
100
AcDbEntity
  8
IMPORT_IGES
100
AcDbPolyline
 62
253
  6
CONTINUOUS
 90
8
 70
0
 10
-4.002894374
 20
-7.6744815774
 10
-4.0043123023
 20
-7.6591660009
 10
-4.0081600687
 20
-7.6441723728
 10
-4.0143551083
 20
-7.62974267
 10
-4.0227324542
 20
-7.6161692875
 10
-4.0331640075
 20
-7.6035926493
 10
-4.0456578189
 20
-7.5920491884
 10
-4.0601743447
 20
-7.581708603
  0
LINE
  5
2CD
100
AcDbEntity
  8
IMPORT_IGES
100
AcDbLine
 62
253
  6
CONTINUOUS
 10
-4.2039117447
 20
-7.7556481417
 11
-4.2007029653
 21
-7.8501480091
  0
LINE
  5
2CE
100
AcDbEntity
  8
IMPORT_IGES
100
AcDbLine
 62
253
  6
CONTINUOUS
 10
-4.1543131955
 20
-7.4580797835
 11
-4.1526247022
 21
-7.5564868412
  0
LINE
  5
2CF
100
AcDbEntity
  8
IMPORT_IGES
100
AcDbLine
 62
7
  6
CONTINUOUS
 10
-3.9734353236
 20
-10.1275437691
 11
-4.0256085126
 21
-5.7830698039
  0
LINE
  5
2D0
100
AcDbEntity
  8
IMPORT_IGES
100
AcDbLine
 62
253
  6
CONTINUOUS
 10
-3.7778043933
 20
-9.9222565153
 11
-3.8129292279
 21
-6.9974033636
  0
LINE
  5
2D1
100
AcDbEntity
  8
IMPORT_IGES
100
AcDbLine
 62
253
  6
CONTINUOUS
 10
-3.8203932811
 20
-6.220487523
 11
-3.832129547
 21
-5.2432058417
  0
LINE
  5
2D2
100
AcDbEntity
  8
IMPORT_IGES
100
AcDbLine
 62
7
  6
CONTINUOUS
 10
-4.2007029653
 20
-7.8501480091
 11
-4.1734520392
 21
-10.1258678026
  0
LINE
  5
2D3
100
AcDbEntity
  8
IMPORT_IGES
100
AcDbLine
 62
253
  6
CONTINUOUS
 10
-4.1756133673
 20
-5.6788161227
 11
-4.1543131955
 21
-7.4580801275
  0
LINE
  5
2D4
100
AcDbEntity
  8
IMPORT_IGES
100
AcDbLine
 62
7
  6
CONTINUOUS
 10
-3.7734511638
 20
-10.3249855001
 11
-3.7778050669
 21
-9.9222565224
  0
LINE
  5
2D5
100
AcDbEntity
  8
IMPORT_IGES
100
AcDbLine
 62
7
  6
CONTINUOUS
 10
-3.8203930427
 20
-6.2204875205
 11
-3.8129292279
 21
-6.9974010468
  0
LINE
  5
2D6
100
AcDbEntity
  8
IMPORT_IGES
100
AcDbLine
 62
253
  6
CONTINUOUS
 10
-4.1511317385
 20
-7.7187980439
 11
-4.1526247022
 21
-7.5564868412
  0
LINE
  5
2D7
100
AcDbEntity
  8
IMPORT_IGES
100
AcDbLine
 62
253
  6
CONTINUOUS
 10
-4.55
 20
-7.4580793818
 11
-4.55
 21
-0.3110754656
  0
LINE
  5
2D8
100
AcDbEntity
  8
IMPORT_IGES
100
AcDbLine
 62
7
  6
CONTINUOUS
 10
-4.55
 20
-0.3110754656
 11
-4.55
 21
-0.0691488695
  0
LINE
  5
2D9
100
AcDbEntity
  8
IMPORT_IGES
100
AcDbLine
 62
7
  6
CONTINUOUS
 10
-4.5
 20
0.1700144998
 11
-4.5
 21
3.9022812013
  0
LINE
  5
2DA
100
AcDbEntity
  8
IMPORT_IGES
100
AcDbLine
 62
7
  6
CONTINUOUS
 10
-4.5
 20
5.1855962049
 11
-4.5
 21
6.9696180568
  0
LINE
  5
2DB
100
AcDbEntity
  8
IMPORT_IGES
100
AcDbLine
 62
253
  6
CONTINUOUS
 10
-4.2094905981
 20
-7.755838776
 11
-4.2094905995
 21
-7.7155659278
  0
LINE
  5
2DC
100
AcDbEntity
  8
IMPORT_IGES
100
AcDbLine
 62
253
  6
CONTINUOUS
 10
-4.2
 20
9.1998957074
 11
-4.1999999992
 21
11.5750144999
  0
LINE
  5
2DD
100
AcDbEntity
  8
IMPORT_IGES
100
AcDbLine
 62
253
  6
CONTINUOUS
 10
-4.1734520392
 20
-10.1258678026
 11
-4.1734592499
 21
-10.3249855001
  0
LINE
  5
2DE
100
AcDbEntity
  8
IMPORT_IGES
100
AcDbLine
 62
7
  6
CONTINUOUS
 10
-4.1048535023
 20
8.2225669474
 11
-4.1048535023
 21
8.1543851292
  0
LINE
  5
2DF
100
AcDbEntity
  8
IMPORT_IGES
100
AcDbLine
 62
253
  6
CONTINUOUS
 10
-4.0877513367
 20
3.7382197803
 11
-4.087751337
 21
3.9382197803
  0
LINE
  5
2E0
100
AcDbEntity
  8
IMPORT_IGES
100
AcDbLine
 62
7
  6
CONTINUOUS
 10
-4.0
 20
11.3750144999
 11
-4.0
 21
9.2116916734
  0
LINE
  5
2E1
100
AcDbEntity
  8
0
100
AcDbLine
 62
7
  6
CONTINUOUS
 10
-3.7340923596
 20
-10.6250145005
 11
-3.7340923596
 21
-10.7250145005
  0
LWPOLYLINE
  5
2E2
100
AcDbEntity
  8
IMPORT_IGES
100
AcDbPolyline
 62
253
  6
CONTINUOUS
 90
5
 70
0
 10
-3.8
 20
3.7382197803
 10
-3.799917264
 20
3.3915988594
 10
-3.8003542982
 20
3.3412847038
 10
-3.8010297546
 20
3.2899722752
 10
-3.801943633
 20
3.2382210627
  0
LWPOLYLINE
  5
2E3
100
AcDbEntity
  8
IMPORT_IGES
100
AcDbPolyline
 62
253
  6
CONTINUOUS
 90
10
 70
0
 10
-4.0256085222
 20
-5.7830690057
 10
-4.0253274971
 20
-5.7542539517
 10
-4.0238075542
 20
-5.726167018
 10
-4.021092188
 20
-5.6988270367
 10
-4.0172538695
 20
-5.6721952394
 10
-4.0123360477
 20
-5.6463082587
 10
-4.006301257
 20
-5.621277104
 10
-3.9991334238
 20
-5.5971372713
 10
-3.990889146
 20
-5.5738497785
 10
-3.9816050143
 20
-5.5514131557
  0
LWPOLYLINE
  5
2E4
100
AcDbEntity
  8
IMPORT_IGES
100
AcDbPolyline
 62
253
  6
CONTINUOUS
 90
7
 70
0
 10
-4.2
 20
9.1998957074
 10
-4.2080748485
 20
8.8113490749
 10
-4.2326904938
 20
8.4238156894
 10
-4.2738469358
 20
8.0373283529
 10
-4.3316661424
 20
7.6509251828
 10
-4.4060261458
 20
7.2656342804
 10
-4.4137885998
 20
7.2329527962
  0
LINE
  5
2E5
100
AcDbEntity
  8
IMPORT_IGES
100
AcDbLine
 62
253
  6
CONTINUOUS
 10
-3.8210480159
 20
8.7214615979
 11
-3.8253537172
 21
8.6179544045
  0
LINE
  5
2E6
100
AcDbEntity
  8
IMPORT_IGES
100
AcDbLine
 62
253
  6
CONTINUOUS
 10
-3.8253537172
 20
8.6179544045
 11
-3.8330646792
 21
8.4547747696
  0
LINE
  5
2E7
100
AcDbEntity
  8
IMPORT_IGES
100
AcDbLine
 62
253
  6
CONTINUOUS
 10
-3.8330646792
 20
8.4547747696
 11
-3.8375463848
 21
8.3679077181
  0
LWPOLYLINE
  5
2E8
100
AcDbEntity
  8
IMPORT_IGES
100
AcDbPolyline
 62
253
  6
CONTINUOUS
 90
10
 70
0
 10
-3.8210224345
 20
8.7214611621
 10
-3.8166100489
 20
8.7916043449
 10
-3.8127167693
 20
8.8617590712
 10
-3.8093425956
 20
8.931925341
 10
-3.8064874891
 20
9.0021050882
 10
-3.8041514885
 20
9.0722963789
 10
-3.8023347102
 20
9.1424934115
 10
-3.8010371927
 20
9.2126942521
 10
-3.8002588975
 20
9.2829008346
 10
-3.8
 20
11.5750144999
  0
LWPOLYLINE
  5
2E9
100
AcDbEntity
  8
IMPORT_IGES
100
AcDbPolyline
 62
7
  6
CONTINUOUS
 90
10
 70
0
 10
-4.7454596355
 20
-0.4669731277
 10
-4.7464154558
 20
-0.4778953871
 10
-4.7472584759
 20
-0.4888234199
 10
-4.7479886957
 20
-0.4997572262
 10
-4.7486061602
 20
-0.5106977764
 10
-4.7491108244
 20
-0.5216441001
 10
-4.7495025539
 20
-0.532593286
 10
-4.749781304
 20
-0.5435443637
 10
-4.7499471193
 20
-0.5544983036
 10
-4.75
 20
-0.5654551057
  0
LWPOLYLINE
  5
2EA
100
AcDbEntity
  8
IMPORT_IGES
100
AcDbPolyline
 62
7
  6
CONTINUOUS
 90
4
 70
0
 10
-4.7167526098
 20
-0.2906355468
 10
-4.7189925263
 20
-0.3015830868
 10
-4.7333362446
 20
-0.3837923399
 10
-4.7454596355
 20
-0.4669731755
  0
LINE
  5
2EB
100
AcDbEntity
  8
IMPORT_IGES
100
AcDbLine
 62
253
  6
CONTINUOUS
 10
-5.0972590663
 20
-0.4309558218
 11
-5.1100095844
 21
-0.4669730798
  0
LINE
  5
2EC
100
AcDbEntity
  8
IMPORT_IGES
100
AcDbLine
 62
253
  6
CONTINUOUS
 10
-6.05
 20
0.606594916
 11
-6.1060815424
 21
0.5539325172
  0
LWPOLYLINE
  5
2ED
100
AcDbEntity
  8
IMPORT_IGES
100
AcDbPolyline
 62
253
  6
CONTINUOUS
 90
13
 70
0
 10
-8.0415784153
 20
-4.113820442
 10
-8.0803322919
 20
-4.1141695146
 10
-8.1182771703
 20
-4.1138820123
 10
-8.1547945857
 20
-4.1129707613
 10
-8.1891238257
 20
-4.1114683353
 10
-8.2209358907
 20
-4.1094033658
 10
-8.2501984834
 20
-4.1067697588
 10
-8.2764844252
 20
-4.1035689412
 10
-8.2990032302
 20
-4.0998546106
 10
-8.3171457195
 20
-4.095695705
 10
-8.3304791042
 20
-4.0911647732
 10
-8.3386933848
 20
-4.0863304584
 10
-8.3415327238
 20
-4.0812755953
  0
LWPOLYLINE
  5
2EE
100
AcDbEntity
  8
IMPORT_IGES
100
AcDbPolyline
 62
253
  6
CONTINUOUS
 90
13
 70
0
 10
-7.45
 20
-4.1138217273
 10
-7.4241893207
 20
-4.1136105313
 10
-7.3988972009
 20
-4.1129846495
 10
-7.3745370651
 20
-4.1119587403
 10
-7.3516132219
 20
-4.1105619588
 10
-7.3303564847
 20
-4.1088165737
 10
-7.3108094817
 20
-4.106719901
 10
-7.2932638616
 20
-4.1042786758
 10
-7.27824249
 20
-4.1015375189
 10
-7.2661520943
 20
-4.0985495007
 10
-7.2572824016
 20
-4.0953681933
 10
-7.251841357
 20
-4.092043314
 10
-7.25
 20
-4.0886333932
  0
LWPOLYLINE
  5
2EF
100
AcDbEntity
  8
IMPORT_IGES
100
AcDbPolyline
 62
253
  6
CONTINUOUS
 90
13
 70
0
 10
5.55
 20
-4.113819331
 10
5.5758106793
 20
-4.1136092
 10
5.6011027991
 20
-4.112984117
 10
5.6254629349
 20
-4.1119587403
 10
5.6483867781
 20
-4.1105621363
 10
5.6696435153
 20
-4.1088166624
 10
5.6891905183
 20
-4.106719901
 10
5.7067361384
 20
-4.1042786758
 10
5.72175751
 20
-4.1015375189
 10
5.7338479057
 20
-4.0985495007
 10
5.7427175984
 20
-4.0953681933
 10
5.748158643
 20
-4.092043314
 10
5.75
 20
-4.0886333932
  0
LINE
  5
2F0
100
AcDbEntity
  8
IMPORT_IGES
100
AcDbLine
 62
253
  6
CONTINUOUS
 10
5.55
 20
-4.1138195211
 11
4.75
 21
-4.1138256478
  0
LINE
  5
2F1
100
AcDbEntity
  8
IMPORT_IGES
100
AcDbLine
 62
253
  6
CONTINUOUS
 10
-7.45
 20
-4.1138221989
 11
-8.0415782852
 21
-4.1138226704
  0
LINE
  5
2F2
100
AcDbEntity
  8
IMPORT_IGES
100
AcDbLine
 62
253
  6
CONTINUOUS
 10
-5.55
 20
-4.1138195415
 11
-4.75
 21
-4.1138273772
  0
LINE
  5
2F3
100
AcDbEntity
  8
IMPORT_IGES
100
AcDbLine
 62
253
  6
CONTINUOUS
 10
7.45
 20
-4.1138254191
 11
8.041578185
 21
-4.1138279616
  0
LWPOLYLINE
  5
2F4
100
AcDbEntity
  8
IMPORT_IGES
100
AcDbPolyline
 62
253
  6
CONTINUOUS
 90
13
 70
0
 10
7.45
 20
-4.1138204379
 10
7.4241890074
 20
-4.1136098098
 10
7.3988966734
 20
-4.1129843454
 10
7.3745364269
 20
-4.1119587076
 10
7.3516125991
 20
-4.11056201
 10
7.3303559594
 20
-4.1088165721
 10
7.3108090498
 20
-4.1067198483
 10
7.2932625642
 20
-4.1042784696
 10
7.2782406551
 20
-4.1015371315
 10
7.2661518715
 20
-4.0985494352
 10
7.2572846648
 20
-4.0953692203
 10
7.2518443367
 20
-4.0920460591
 10
7.250000004
 20
-4.0886384365
  0
LWPOLYLINE
  5
2F5
100
AcDbEntity
  8
IMPORT_IGES
100
AcDbPolyline
 62
253
  6
CONTINUOUS
 90
13
 70
0
 10
8.0415782264
 20
-4.1138279624
 10
8.0803324584
 20
-4.1141736914
 10
8.1182776378
 20
-4.1138836725
 10
8.1547952885
 20
-4.1129707332
 10
8.1891246927
 20
-4.1114677275
 10
8.220936844
 20
-4.1094030102
 10
8.2501994415
 20
-4.1067696543
 10
8.276485317
 20
-4.1035688109
 10
8.299003993
 20
-4.0998544588
 10
8.3171462999
 20
-4.0956955408
 10
8.3304794747
 20
-4.0911646085
 10
8.3386935519
 20
-4.0863303059
 10
8.3415327239
 20
-4.0812755934
  0
LWPOLYLINE
  5
2F6
100
AcDbEntity
  8
IMPORT_IGES
100
AcDbPolyline
 62
253
  6
CONTINUOUS
 90
7
 70
0
 10
7.3303564851
 20
-9.5245178009
 10
7.3108094816
 20
-9.5112211587
 10
7.2932638615
 20
-9.4957397907
 10
7.2782424899
 20
-9.4783563652
 10
7.2661520942
 20
-9.4594074434
 10
7.2572824015
 20
-9.4392327635
 10
7.2518413568
 20
-9.4181476105
  0
LWPOLYLINE
  5
2F7
100
AcDbEntity
  8
IMPORT_IGES
100
AcDbPolyline
 62
7
  6
CONTINUOUS
 90
10
 70
0
 10
-6.1060818204
 20
0.5539328938
 10
-6.1550996671
 20
0.6121161623
 10
-6.1987747816
 20
0.6732107819
 10
-6.2371071638
 20
0.7372167526
 10
-6.2702784461
 20
0.8045924614
 10
-6.2981069962
 20
0.8748795214
 10
-6.3200479164
 20
0.9467027713
 10
-6.3359195741
 20
1.0196038242
 10
-6.345903602
 20
1.094041067
 10
-6.35
 20
1.1700144998
  0
LINE
  5
2F8
100
AcDbEntity
  8
0
100
AcDbLine
 62
253
  6
CONTINUOUS
 10
-3.644625439
 20
-10.6250145005
 11
-3.644625439
 21
-10.7250145005
  0
LINE
  5
2F9
100
AcDbEntity
  8
0
100
AcDbLine
 62
253
  6
CONTINUOUS
 10
-3.556441145
 20
-10.6250145005
 11
-3.556441145
 21
-10.7250145005
  0
LINE
  5
2FA
100
AcDbEntity
  8
0
100
AcDbLine
 62
7
  6
CONTINUOUS
 10
-3.2387188245
 20
-10.6250145005
 11
-3.2387188245
 21
-10.7250145005
  0
LINE
  5
2FB
100
AcDbEntity
  8
0
100
AcDbLine
 62
7
  6
CONTINUOUS
 10
-3.203701048
 20
-10.6250145005
 11
-3.203701048
 21
-10.7250145005
  0
LINE
  5
2FC
100
AcDbEntity
  8
0
100
AcDbLine
 62
7
  6
CONTINUOUS
 10
-2.9372242261
 20
-10.6250145005
 11
-2.9372242261
 21
-10.7250145005
  0
LINE
  5
2FD
100
AcDbEntity
  8
IMPORT_IGES
100
AcDbLine
 62
7
  6
CONTINUOUS
 10
-2.9048535023
 20
4.201204976
 11
-2.9048535023
 21
4.2478036217
  0
LWPOLYLINE
  5
2FE
100
AcDbEntity
  8
IMPORT_IGES
100
AcDbPolyline
 62
253
  6
CONTINUOUS
 90
13
 70
0
 10
5.55
 20
-3.543866215
 10
5.5758109926
 20
-3.5431772141
 10
5.6011033267
 20
-3.5411312119
 10
5.6254635731
 20
-3.5377761735
 10
5.648387401
 20
-3.5332073343
 10
5.6696440406
 20
-3.5274977052
 10
5.6891909502
 20
-3.5206389594
 10
5.7067369808
 20
-3.5126530245
 10
5.7217585943
 20
-3.5036859157
 10
5.7338481285
 20
-3.4939121263
 10
5.7427165107
 20
-3.4835073492
 10
5.7481571519
 20
-3.4726339742
 10
5.749999999
 20
-3.4614833887
  0
LWPOLYLINE
  5
2FF
100
AcDbEntity
  8
IMPORT_IGES
100
AcDbPolyline
 62
253
  6
CONTINUOUS
 90
13
 70
0
 10
-7.45
 20
-3.543866215
 10
-7.4241890074
 20
-3.5431772141
 10
-7.3988966733
 20
-3.5411312119
 10
-7.3745364269
 20
-3.5377761735
 10
-7.351612599
 20
-3.5332073343
 10
-7.3303559594
 20
-3.5274977052
 10
-7.3108090498
 20
-3.5206389594
 10
-7.2932630192
 20
-3.5126530245
 10
-7.2782414057
 20
-3.5036859157
 10
-7.2661518715
 20
-3.4939121263
 10
-7.2572834893
 20
-3.4835073492
 10
-7.2518428481
 20
-3.4726339742
 10
-7.250000001
 20
-3.4614833887
  0
LWPOLYLINE
  5
300
100
AcDbEntity
  8
IMPORT_IGES
100
AcDbPolyline
 62
253
  6
CONTINUOUS
 90
13
 70
0
 10
8.0530247561
 20
-3.5438662125
 10
8.0916624141
 20
-3.5433966396
 10
8.1294972132
 20
-3.540890806
 10
8.1659162394
 20
-3.5364157996
 10
8.2001650463
 20
-3.5301084574
 10
8.2319176595
 20
-3.5220750138
 10
8.2611433091
 20
-3.512296935
 10
8.2874192061
 20
-3.5007962771
 10
8.3099613534
 20
-3.487779067
 10
8.328165202
 20
-3.4734928629
 10
8.3416001186
 20
-3.4581897938
 10
8.3499568142
 20
-3.4421045115
 10
8.3529790623
 20
-3.4255153059
  0
LINE
  5
301
100
AcDbEntity
  8
IMPORT_IGES
100
AcDbLine
 62
7
  6
CONTINUOUS
 10
-1.1048535023
 20
-3.729809771
 11
1.1048535023
 21
-3.729809771
  0
LINE
  5
302
100
AcDbEntity
  8
IMPORT_IGES
100
AcDbLine
 62
253
  6
CONTINUOUS
 10
-8.0530247281
 20
-3.5438631071
 11
-7.4499999999
 21
-3.5438641579
  0
LINE
  5
303
100
AcDbEntity
  8
IMPORT_IGES
100
AcDbLine
 62
253
  6
CONTINUOUS
 10
7.45
 20
-3.5438654863
 11
8.0530246782
 21
-3.5438652905
  0
LINE
  5
304
100
AcDbEntity
  8
IMPORT_IGES
100
AcDbLine
 62
253
  6
CONTINUOUS
 10
-5.55
 20
-3.5438682652
 11
-4.75
 21
-3.5438628298
  0
LINE
  5
305
100
AcDbEntity
  8
IMPORT_IGES
100
AcDbLine
 62
253
  6
CONTINUOUS
 10
4.75
 20
-3.5438606911
 11
5.55
 21
-3.5438667562
  0
LINE
  5
306
100
AcDbEntity
  8
IMPORT_IGES
100
AcDbLine
 62
7
  6
CONTINUOUS
 10
-1.4048535023
 20
-3.1592878015
 11
1.4048535023
 21
-3.1592878015
  0
LINE
  5
307
100
AcDbEntity
  8
IMPORT_IGES
100
AcDbLine
 62
7
  6
CONTINUOUS
 10
2.6048535023
 20
-3.0571863573
 11
1.7048535023
 21
-3.0571863573
  0
LINE
  5
308
100
AcDbEntity
  8
IMPORT_IGES
100
AcDbLine
 62
7
  6
CONTINUOUS
 10
-1.7048535023
 20
-3.0571863573
 11
-2.6048535023
 21
-3.0571863573
  0
LINE
  5
309
100
AcDbEntity
  8
IMPORT_IGES
100
AcDbLine
 62
7
  6
CONTINUOUS
 10
2.8621606882
 20
-3.0250435001
 11
-2.8621605543
 21
-3.0250435001
  0
LWPOLYLINE
  5
30A
100
AcDbEntity
  8
IMPORT_IGES
100
AcDbPolyline
 62
253
  6
CONTINUOUS
 90
13
 70
0
 10
7.45
 20
-3.543865682
 10
7.4241893207
 20
-3.5431769348
 10
7.3988972009
 20
-3.5411311509
 10
7.374537065
 20
-3.5377762806
 10
7.3516132219
 20
-3.5332075187
 10
7.3303564847
 20
-3.5274978865
 10
7.3108094817
 20
-3.5206391319
 10
7.2932638559
 20
-3.5126534593
 10
7.2782424807
 20
-3.5036866581
 10
7.2661520943
 20
-3.4939123407
 10
7.2572824161
 20
-3.4835057561
 10
7.2518413753
 20
-3.472629535
 10
7.25
 20
-3.4614751403
  0
LINE
  5
30B
100
AcDbEntity
  8
IMPORT_IGES
100
AcDbLine
 62
253
  6
CONTINUOUS
 10
-7.2275187086
 20
0.2539330473
 11
-7.3974980996
 21
0.3539277848
  0
LWPOLYLINE
  5
30C
100
AcDbEntity
  8
IMPORT_IGES
100
AcDbPolyline
 62
253
  6
CONTINUOUS
 90
10
 70
0
 10
7.2826774215
 20
-7.7715547995
 10
7.3135187943
 20
-7.789875016
 10
7.3419379583
 20
-7.8106526718
 10
7.36736048
 20
-7.8334042461
 10
7.389810336
 20
-7.8577245493
 10
7.4092635497
 20
-7.8840187711
 10
7.4250737577
 20
-7.9130189594
 10
7.4370255057
 20
-7.9449691301
 10
7.445334248
 20
-7.9796252673
 10
7.4499999846
 20
-8.016987371
  0
LINE
  5
30D
100
AcDbEntity
  8
0
100
AcDbLine
 62
7
  6
CONTINUOUS
 10
-2.6758720685
 20
-10.6250145005
 11
-2.6758720685
 21
-10.7250145005
  0
LINE
  5
30E
100
AcDbEntity
  8
0
100
AcDbLine
 62
7
  6
CONTINUOUS
 10
-2.640854292
 20
-10.6250145005
 11
-2.640854292
 21
-10.7250145005
  0
LINE
  5
30F
100
AcDbEntity
  8
IMPORT_IGES
100
AcDbLine
 62
253
  6
CONTINUOUS
 10
-2.6048535023
 20
4.4807204199
 11
-2.6048535023
 21
4.1964430713
  0
LINE
  5
310
100
AcDbEntity
  8
IMPORT_IGES
100
AcDbLine
 62
253
  6
CONTINUOUS
 10
-2.6048535023
 20
-3.0571863573
 11
-2.6048535023
 21
-3.2216890704
  0
LINE
  5
311
100
AcDbEntity
  8
0
100
AcDbLine
 62
253
  6
CONTINUOUS
 10
-2.2958006192
 20
-10.6250145005
 11
-2.2958006192
 21
-10.7250145005
  0
LINE
  5
312
100
AcDbEntity
  8
0
100
AcDbLine
 62
253
  6
CONTINUOUS
 10
-2.2172242017
 20
-10.6250145005
 11
-2.2172242017
 21
-10.7250145005
  0
LINE
  5
313
100
AcDbEntity
  8
0
100
AcDbLine
 62
7
  6
CONTINUOUS
 10
-2.1326690961
 20
-10.6250145005
 11
-2.1326690961
 21
-10.7250145005
  0
LINE
  5
314
100
AcDbEntity
  8
0
100
AcDbLine
 62
7
  6
CONTINUOUS
 10
-2.0891100217
 20
-10.6250145005
 11
-2.0891100217
 21
-10.7250145005
  0
LINE
  5
315
100
AcDbEntity
  8
0
100
AcDbLine
 62
253
  6
CONTINUOUS
 10
-1.9996432454
 20
-10.6250145005
 11
-1.9996432454
 21
-10.7250145005
  0
LINE
  5
316
100
AcDbEntity
  8
0
100
AcDbLine
 62
253
  6
CONTINUOUS
 10
-1.9114588071
 20
-10.6250145005
 11
-1.9114588071
 21
-10.7250145005
  0
LINE
  5
317
100
AcDbEntity
  8
IMPORT_IGES
100
AcDbLine
 62
7
  6
CONTINUOUS
 10
4.4048535023
 20
7.5265635588
 11
4.2465295625
 21
7.3668371949
  0
LWPOLYLINE
  5
318
100
AcDbEntity
  8
IMPORT_IGES
100
AcDbPolyline
 62
253
  6
CONTINUOUS
 90
7
 70
0
 10
-7.2963732994
 20
0.1921983034
 10
-7.3156482986
 20
0.1854847785
 10
-7.336690874
 20
0.1803398539
 10
-7.3592657172
 20
0.1770369318
 10
-7.3824532046
 20
0.1748906792
 10
-7.405578662
 20
0.1731125751
 10
-7.4282474259
 20
0.1720410165
  0
LWPOLYLINE
  5
319
100
AcDbEntity
  8
IMPORT_IGES
100
AcDbPolyline
 62
253
  6
CONTINUOUS
 90
5
 70
0
 10
-6.1060818204
 20
0.5539328938
 10
-6.0898726437
 20
0.547222804
 10
-6.0733633753
 20
0.5407111504
 10
-6.0565540152
 20
0.5344039296
 10
-6.05
 20
0.5320712152
  0
LWPOLYLINE
  5
31A
100
AcDbEntity
  8
IMPORT_IGES
100
AcDbPolyline
 62
253
  6
CONTINUOUS
 90
5
 70
0
 10
3.9940451936
 20
-5.3674502944
 10
3.9333468959
 20
-5.3206940063
 10
3.9009924543
 20
-5.2956323141
 10
3.867253338
 20
-5.2697423547
 10
3.832129547
 20
-5.2432058417
  0
LINE
  5
31B
100
AcDbEntity
  8
IMPORT_IGES
100
AcDbLine
 62
253
  6
CONTINUOUS
 10
-1.7048533349
 20
-3.7191284524
 11
-1.7048535023
 21
-3.0571863573
  0
LINE
  5
31C
100
AcDbEntity
  8
IMPORT_IGES
100
AcDbLine
 62
253
  6
CONTINUOUS
 10
-1.704853018
 20
4.1964430713
 11
-1.7048528248
 21
4.9699622168
  0
LINE
  5
31D
100
AcDbEntity
  8
0
100
AcDbLine
 62
7
  6
CONTINUOUS
 10
-1.5937364865
 20
-10.6250145005
 11
-1.5937364865
 21
-10.7250145005
  0
LINE
  5
31E
100
AcDbEntity
  8
0
100
AcDbLine
 62
7
  6
CONTINUOUS
 10
-1.55871871
 20
-10.6250145005
 11
-1.55871871
 21
-10.7250145005
  0
LINE
  5
31F
100
AcDbEntity
  8
IMPORT_IGES
100
AcDbLine
 62
7
  6
CONTINUOUS
 10
-1.4048535023
 20
-3.8294992635
 11
-1.4048535023
 21
-3.0643292144
  0
LINE
  5
320
100
AcDbEntity
  8
IMPORT_IGES
100
AcDbLine
 62
7
  6
CONTINUOUS
 10
-1.4048535023
 20
4.201204976
 11
-1.4048535023
 21
5.0795491439
  0
LINE
  5
321
100
AcDbEntity
  8
0
100
AcDbLine
 62
7
  6
CONTINUOUS
 10
-1.2922418881
 20
-10.6250145005
 11
-1.2922418881
 21
-10.7250145005
  0
LINE
  5
322
100
AcDbEntity
  8
IMPORT_IGES
100
AcDbLine
 62
7
  6
CONTINUOUS
 10
-1.1048535023
 20
-3.9160744428
 11
-1.1048535023
 21
-3.729809771
  0
LINE
  5
323
100
AcDbEntity
  8
IMPORT_IGES
100
AcDbLine
 62
7
  6
CONTINUOUS
 10
-1.1048535023
 20
4.9622379625
 11
-1.1048535023
 21
5.1660721239
  0
LINE
  5
324
100
AcDbEntity
  8
0
100
AcDbLine
 62
7
  6
CONTINUOUS
 10
-1.0308897305
 20
-10.6250145005
 11
-1.0308897305
 21
-10.7250145005
  0
LINE
  5
325
100
AcDbEntity
  8
0
100
AcDbLine
 62
7
  6
CONTINUOUS
 10
-0.995871954
 20
-10.6250145005
 11
-0.995871954
 21
-10.7250145005
  0
LWPOLYLINE
  5
326
100
AcDbEntity
  8
IMPORT_IGES
100
AcDbPolyline
 62
253
  6
CONTINUOUS
 90
3
 70
0
 10
-3.9816050143
 20
-5.5514131557
 10
-3.9685482183
 20
-5.5227952711
 10
-3.9542745489
 20
-5.4926821326
  0
LINE
  5
327
100
AcDbEntity
  8
IMPORT_IGES
100
AcDbLine
 62
253
  6
CONTINUOUS
 10
-3.9542745489
 20
-5.4926821326
 11
-3.9060659871
 21
-5.3931417905
  0
LINE
  5
328
100
AcDbEntity
  8
IMPORT_IGES
100
AcDbLine
 62
253
  6
CONTINUOUS
 10
-3.851281826
 20
-5.2823758516
 11
-3.8321229061
 21
-5.2432057619
  0
LWPOLYLINE
  5
329
100
AcDbEntity
  8
IMPORT_IGES
100
AcDbPolyline
 62
253
  6
CONTINUOUS
 90
3
 70
0
 10
-3.9060659871
 20
-5.3931417905
 10
-3.8884724253
 20
-5.3572860677
 10
-3.851281826
 20
-5.2823758516
  0
LINE
  5
32A
100
AcDbEntity
  8
IMPORT_IGES
100
AcDbLine
 62
253
  6
CONTINUOUS
 10
-7.0500050012
 20
-9.6661767296
 11
-7.0984607427
 21
-9.7497003008
  0
LINE
  5
32B
100
AcDbEntity
  8
IMPORT_IGES
100
AcDbLine
 62
253
  6
CONTINUOUS
 10
-7.0984607427
 20
-9.7497003008
 11
-7.1278329477
 21
-9.7998032685
  0
LWPOLYLINE
  5
32C
100
AcDbEntity
  8
IMPORT_IGES
100
AcDbPolyline
 62
253
  6
CONTINUOUS
 90
5
 70
0
 10
-7.1278329477
 20
-9.7998032685
 10
-7.1414329069
 20
-9.8226667763
 10
-7.146077989
 20
-9.8303158033
 10
-7.1489597006
 20
-9.8348929686
 10
-7.1499995977
 20
-9.8362740541
  0
LINE
  5
32D
100
AcDbEntity
  8
IMPORT_IGES
100
AcDbLine
 62
253
  6
CONTINUOUS
 10
2.814383876
 20
7.0592591923
 11
2.9247518712
 21
7.2260491969
  0
LINE
  5
32E
100
AcDbEntity
  8
IMPORT_IGES
100
AcDbLine
 62
253
  6
CONTINUOUS
 10
4.0221021721
 20
-5.3893992005
 11
3.9940451936
 21
-5.3674502944
  0
LINE
  5
32F
100
AcDbEntity
  8
IMPORT_IGES
100
AcDbLine
 62
253
  6
CONTINUOUS
 10
4.096458952
 20
-5.4488136977
 11
4.0221021721
 21
-5.3893992005
  0
LWPOLYLINE
  5
330
100
AcDbEntity
  8
IMPORT_IGES
100
AcDbPolyline
 62
253
  6
CONTINUOUS
 90
10
 70
0
 10
-7.9590672199
 20
10.265453966
 10
-7.9864052188
 20
10.3064495504
 10
-8.0142355167
 20
10.3419179294
 10
-8.0418879157
 20
10.3714784039
 10
-8.0687697818
 20
10.3952359225
 10
-8.0940124994
 20
10.4123837745
 10
-8.1168222711
 20
10.4218828547
 10
-8.1369286744
 20
10.4240070143
 10
-8.1542349937
 20
10.419653545
 10
-8.1686835105
 20
10.409391066
  0
LINE
  5
331
100
AcDbEntity
  8
0
100
AcDbLine
 62
253
  6
CONTINUOUS
 10
-0.6508185674
 20
-10.6250145005
 11
-0.6508185674
 21
-10.7250145005
  0
LINE
  5
332
100
AcDbEntity
  8
IMPORT_IGES
100
AcDbLine
 62
7
  6
CONTINUOUS
 10
-0.6
 20
4.4750144999
 11
-0.6
 21
5.2650501934
  0
LINE
  5
333
100
AcDbEntity
  8
0
100
AcDbLine
 62
253
  6
CONTINUOUS
 10
-0.5722419243
 20
-10.6250145005
 11
-0.5722419243
 21
-10.7250145005
  0
LINE
  5
334
100
AcDbEntity
  8
0
100
AcDbLine
 62
7
  6
CONTINUOUS
 10
-0.4876867581
 20
-10.6250145005
 11
-0.4876867581
 21
-10.7250145005
  0
LINE
  5
335
100
AcDbEntity
  8
0
100
AcDbLine
 62
7
  6
CONTINUOUS
 10
-0.4321708966
 20
-10.6250145005
 11
-0.4321708966
 21
-10.7250145005
  0
LINE
  5
336
100
AcDbEntity
  8
0
100
AcDbLine
 62
253
  6
CONTINUOUS
 10
-0.308327469
 20
-10.6250145005
 11
-0.308327469
 21
-10.7250145005
  0
LINE
  5
337
100
AcDbEntity
  8
0
100
AcDbLine
 62
253
  6
CONTINUOUS
 10
-0.2152312566
 20
-10.6250145005
 11
-0.2152312566
 21
-10.7250145005
  0
LINE
  5
338
100
AcDbEntity
  8
0
100
AcDbLine
 62
7
  6
CONTINUOUS
 10
-0.089679556
 20
-10.6250145005
 11
-0.089679556
 21
-10.7250145005
  0
LINE
  5
339
100
AcDbEntity
  8
IMPORT_IGES
100
AcDbLine
 62
253
  6
CONTINUOUS
 10
-6.2731431955
 20
-10.1125345171
 11
-6.3587864358
 21
-10.2604116351
  0
LWPOLYLINE
  5
33A
100
AcDbEntity
  8
IMPORT_IGES
100
AcDbPolyline
 62
253
  6
CONTINUOUS
 90
4
 70
0
 10
-6.3587864358
 20
-10.2604116351
 10
-6.3694163513
 20
-10.2785900671
 10
-6.3721779702
 20
-10.2832484184
 10
-6.3731422926
 20
-10.2847932499
  0
LINE
  5
33B
100
AcDbEntity
  8
IMPORT_IGES
100
AcDbLine
 62
7
  6
CONTINUOUS
 10
-5.55
 20
-7.2201255553
 11
-5.6199171818
 21
-7.3292854892
  0
LWPOLYLINE
  5
33C
100
AcDbEntity
  8
IMPORT_IGES
100
AcDbPolyline
 62
253
  6
CONTINUOUS
 90
10
 70
0
 10
-4.0964593868
 20
-5.4488138966
 10
-4.1123536853
 20
-5.4699163188
 10
-4.1265499721
 20
-5.4921691887
 10
-4.1390482473
 20
-5.5155725063
 10
-4.1499509658
 20
-5.5401757415
 10
-4.1591556727
 20
-5.5659294243
 10
-4.1663550028
 20
-5.5926851449
 10
-4.1714465011
 20
-5.6203934331
 10
-4.1745326226
 20
-5.6491037591
 10
-4.1756133673
 20
-5.6788161227
  0
LWPOLYLINE
  5
33D
100
AcDbEntity
  8
IMPORT_IGES
100
AcDbPolyline
 62
253
  6
CONTINUOUS
 90
13
 70
0
 10
8.1067321136
 20
-0.466972787
 10
8.1453672975
 20
-0.4665034983
 10
8.1832007226
 20
-0.4639980709
 10
8.2196194701
 20
-0.4595234269
 10
8.2538693266
 20
-0.4532161545
 10
8.2856237345
 20
-0.4451824011
 10
8.3148507987
 20
-0.4354038832
 10
8.3411275758
 20
-0.4239027693
 10
8.3636702122
 20
-0.4108850635
 10
8.3818739357
 20
-0.3965985811
 10
8.3953083129
 20
-0.3812955994
 10
8.4036644489
 20
-0.3652107405
 10
8.4066864295
 20
-0.3486223006
  0
LWPOLYLINE
  5
33E
100
AcDbEntity
  8
IMPORT_IGES
100
AcDbPolyline
 62
253
  6
CONTINUOUS
 90
13
 70
0
 10
7.4499999999
 20
0.1721819497
 10
7.4238776111
 20
0.1719444842
 10
7.3982331391
 20
0.1714761143
 10
7.3735025031
 20
0.1707766837
 10
7.3501179524
 20
0.1698455389
 10
7.3284551742
 20
0.1686822968
 10
7.3088389349
 20
0.1672882455
 10
7.2916082972
 20
0.1656600806
 10
7.2770598126
 20
0.1637967327
 10
7.2654252551
 20
0.1617025314
 10
7.2569252475
 20
0.1593722301
 10
7.251743847
 20
0.1567886886
 10
7.25
 20
0.1539325142
  0
LINE
  5
33F
100
AcDbEntity
  8
IMPORT_IGES
100
AcDbLine
 62
253
  6
CONTINUOUS
 10
7.45
 20
-0.4669732071
 11
8.1067321905
 21
-0.4669727881
  0
LINE
  5
340
100
AcDbEntity
  8
IMPORT_IGES
100
AcDbLine
 62
253
  6
CONTINUOUS
 10
-8.1067323708
 20
-0.4669731445
 11
-7.4499999998
 21
-0.4669731737
  0
LINE
  5
341
100
AcDbEntity
  8
IMPORT_IGES
100
AcDbLine
 62
253
  6
CONTINUOUS
 10
-5.55
 20
-0.4669730576
 11
-4.7454596355
 21
-0.4669731277
  0
LINE
  5
342
100
AcDbEntity
  8
IMPORT_IGES
100
AcDbLine
 62
253
  6
CONTINUOUS
 10
4.7454596355
 20
-0.4669724262
 11
5.55
 21
-0.466971148
  0
LINE
  5
343
100
AcDbEntity
  8
IMPORT_IGES
100
AcDbLine
 62
7
  6
CONTINUOUS
 10
-5.45
 20
-0.4299855001
 11
-5.1
 21
-0.4299855001
  0
LINE
  5
344
100
AcDbEntity
  8
IMPORT_IGES
100
AcDbLine
 62
7
  6
CONTINUOUS
 10
5.1
 20
-0.4299855001
 11
5.45
 21
-0.4299855001
  0
LINE
  5
345
100
AcDbEntity
  8
IMPORT_IGES
100
AcDbLine
 62
7
  6
CONTINUOUS
 10
-4.4360261456
 20
-0.3110754656
 11
-4.55
 21
-0.3110754656
  0
LINE
  5
346
100
AcDbEntity
  8
IMPORT_IGES
100
AcDbLine
 62
253
  6
CONTINUOUS
 10
-5.45
 20
-0.1299855001
 11
-5.1
 21
-0.1299855001
  0
LINE
  5
347
100
AcDbEntity
  8
IMPORT_IGES
100
AcDbLine
 62
253
  6
CONTINUOUS
 10
5.1
 20
-0.1299855001
 11
5.45
 21
-0.1299855001
  0
LINE
  5
348
100
AcDbEntity
  8
IMPORT_IGES
100
AcDbLine
 62
7
  6
CONTINUOUS
 10
4.4353662579
 20
-0.3109632405
 11
4.55
 21
-0.3110754656
  0
LWPOLYLINE
  5
349
100
AcDbEntity
  8
IMPORT_IGES
100
AcDbPolyline
 62
253
  6
CONTINUOUS
 90
13
 70
0
 10
-7.4499895162
 20
0.1721804418
 10
-7.4238311189
 20
0.1719420036
 10
-7.3981572412
 20
0.1714732156
 10
-7.3734050035
 20
0.1707743642
 10
-7.3500060574
 20
0.1698452347
 10
-7.3283376003
 20
0.1686846324
 10
-7.3087270344
 20
0.1672916765
 10
-7.291512289
 20
0.1656603679
 10
-7.2769857024
 20
0.1637918352
 10
-7.2653753591
 20
0.1616953742
 10
-7.2568982382
 20
0.1593671193
 10
-7.2517347258
 20
0.1567879301
 10
-7.25
 20
0.153941265
  0
LWPOLYLINE
  5
34A
100
AcDbEntity
  8
IMPORT_IGES
100
AcDbPolyline
 62
253
  6
CONTINUOUS
 90
13
 70
0
 10
7.45
 20
-0.4669732074
 10
7.4241896804
 20
-0.4662842425
 10
7.3988978066
 20
-0.4642383277
 10
7.3745377977
 20
-0.4608833959
 10
7.351613937
 20
-0.4563146381
 10
7.3303570878
 20
-0.4506050446
 10
7.3108099775
 20
-0.4437463222
 10
7.2932642876
 20
-0.4357606761
 10
7.2782428425
 20
-0.4267939003
 10
7.2661523501
 20
-0.417019579
 10
7.25728255
 20
-0.4066129473
 10
7.2518414138
 20
-0.3957366434
 10
7.25
 20
-0.3845821326
  0
LWPOLYLINE
  5
34B
100
AcDbEntity
  8
IMPORT_IGES
100
AcDbPolyline
 62
253
  6
CONTINUOUS
 90
10
 70
0
 10
7.4499999683
 20
-9.5562501505
 10
7.4625092043
 20
-9.5707600147
 10
7.4749669553
 20
-9.5830824661
 10
7.487222205
 20
-9.5931651792
 10
7.4990889108
 20
-9.6010046058
 10
7.5104674896
 20
-9.6065527195
 10
7.5213492925
 20
-9.6097281752
 10
7.5316566121
 20
-9.6105347001
 10
7.5412399235
 20
-9.6090488501
 10
7.54999907
 20
-9.6053352068
  0
LWPOLYLINE
  5
34C
100
AcDbEntity
  8
IMPORT_IGES
100
AcDbPolyline
 62
253
  6
CONTINUOUS
 90
10
 70
0
 10
4.096458952
 20
-5.4488070286
 10
4.1122099268
 20
-5.4696569366
 10
4.1263105252
 20
-5.4917165995
 10
4.1387607472
 20
-5.5149860171
 10
4.1496793561
 20
-5.5395093223
 10
4.1589475887
 20
-5.5652423823
 10
4.1662091551
 20
-5.5920527989
 10
4.1713452922
 20
-5.6198964394
 10
4.1744747632
 20
-5.6488174365
 10
4.1755975682
 20
-5.6788157901
  0
LWPOLYLINE
  5
34D
100
AcDbEntity
  8
IMPORT_IGES
100
AcDbPolyline
 62
253
  6
CONTINUOUS
 90
3
 70
0
 10
6.3731434186
 20
-10.2847931324
 10
6.3722867496
 20
-10.2834293232
 10
6.3697804221
 20
-10.2792081167
  0
LINE
  5
34E
100
AcDbEntity
  8
0
100
AcDbLine
 62
7
  6
CONTINUOUS
 10
0.4005693149
 20
-10.6250145005
 11
0.4005693149
 21
-10.7250145005
  0
LINE
  5
34F
100
AcDbEntity
  8
0
100
AcDbLine
 62
253
  6
CONTINUOUS
 10
0.5517437648
 20
-10.6250145005
 11
0.5517437648
 21
-10.7250145005
  0
LINE
  5
350
100
AcDbEntity
  8
IMPORT_IGES
100
AcDbLine
 62
7
  6
CONTINUOUS
 10
0.6
 20
5.2650499509
 11
0.6
 21
4.4750144999
  0
LINE
  5
351
100
AcDbEntity
  8
0
100
AcDbLine
 62
253
  6
CONTINUOUS
 10
0.6405693542
 20
-10.6250145005
 11
0.6405693542
 21
-10.7250145005
  0
LINE
  5
352
100
AcDbEntity
  8
0
100
AcDbLine
 62
7
  6
CONTINUOUS
 10
0.7430606555
 20
-10.6250145005
 11
0.7430606555
 21
-10.7250145005
  0
LINE
  5
353
100
AcDbEntity
  8
0
100
AcDbLine
 62
7
  6
CONTINUOUS
 10
0.7868476528
 20
-10.7250145005
 11
0.7868476528
 21
-10.6250145005
  0
LINE
  5
354
100
AcDbEntity
  8
0
100
AcDbLine
 62
7
  6
CONTINUOUS
 10
0.8077819983
 20
-10.6250145005
 11
0.8077819983
 21
-10.7250145005
  0
LINE
  5
355
100
AcDbEntity
  8
0
100
AcDbLine
 62
7
  6
CONTINUOUS
 10
0.8206800276
 20
-10.6250145005
 11
0.8206800276
 21
-10.7250145005
  0
LINE
  5
356
100
AcDbEntity
  8
0
100
AcDbLine
 62
7
  6
CONTINUOUS
 10
0.8259075832
 20
-10.6250145005
 11
0.8259075832
 21
-10.7250145005
  0
LINE
  5
357
100
AcDbEntity
  8
0
100
AcDbLine
 62
253
  6
CONTINUOUS
 10
0.9497509492
 20
-10.6250145005
 11
0.9497509492
 21
-10.7250145005
  0
LINE
  5
358
100
AcDbEntity
  8
0
100
AcDbLine
 62
253
  6
CONTINUOUS
 10
1.0428469371
 20
-10.6250145005
 11
1.0428469371
 21
-10.7250145005
  0
LWPOLYLINE
  5
359
100
AcDbEntity
  8
IMPORT_IGES
100
AcDbPolyline
 62
253
  6
CONTINUOUS
 90
4
 70
0
 10
-7.2758734889
 20
-9.4750980918
 10
-7.289733256
 20
-9.4920744845
 10
-7.3063824537
 20
-9.5076854228
 10
-7.3257672229
 20
-9.5216979781
  0
LWPOLYLINE
  5
35A
100
AcDbEntity
  8
IMPORT_IGES
100
AcDbPolyline
 62
253
  6
CONTINUOUS
 90
6
 70
0
 10
-7.4499999342
 20
-9.5562500709
 10
-7.4624791043
 20
-9.5707279579
 10
-7.4749149
 20
-9.5830352923
 10
-7.4871567079
 20
-9.5931163403
 10
-7.4990179268
 20
-9.6009640809
 10
-7.5103986751
 20
-9.6065263156
  0
LWPOLYLINE
  5
35B
100
AcDbEntity
  8
IMPORT_IGES
100
AcDbPolyline
 62
7
  6
CONTINUOUS
 90
10
 70
0
 10
-7.0501577719
 20
0.3539582654
 10
-7.0718368765
 20
0.3527605952
 10
-7.0939110894
 20
0.3490956639
 10
-7.1160787858
 20
0.3427956419
 10
-7.1382769103
 20
0.3335767796
 10
-7.159806067
 20
0.3214198868
 10
-7.1795652202
 20
0.3069544736
 10
-7.1972573212
 20
0.2907683721
 10
-7.2131808947
 20
0.2729962054
 10
-7.2275187086
 20
0.2539330473
  0
LINE
  5
35C
100
AcDbEntity
  8
IMPORT_IGES
100
AcDbLine
 62
253
  6
CONTINUOUS
 10
-8.1189112984
 20
0.3539303939
 11
-8.4188581795
 21
0.348696795
  0
LINE
  5
35D
100
AcDbEntity
  8
IMPORT_IGES
100
AcDbLine
 62
253
  6
CONTINUOUS
 10
-6.05
 20
0.1700144999
 11
-5.75
 21
0.1700144999
  0
LINE
  5
35E
100
AcDbEntity
  8
IMPORT_IGES
100
AcDbLine
 62
253
  6
CONTINUOUS
 10
-4.8
 20
0.1700144999
 11
-4.5
 21
0.1700144998
  0
LINE
  5
35F
100
AcDbEntity
  8
IMPORT_IGES
100
AcDbLine
 62
253
  6
CONTINUOUS
 10
4.8
 20
0.1700144999
 11
4.5
 21
0.1700144999
  0
LINE
  5
360
100
AcDbEntity
  8
IMPORT_IGES
100
AcDbLine
 62
253
  6
CONTINUOUS
 10
5.75
 20
0.1700144999
 11
6.05
 21
0.1700144997
  0
LINE
  5
361
100
AcDbEntity
  8
IMPORT_IGES
100
AcDbLine
 62
253
  6
CONTINUOUS
 10
7.3974982454
 20
0.3539295459
 11
8.119384815
 21
0.3539323499
  0
LINE
  5
362
100
AcDbEntity
  8
IMPORT_IGES
100
AcDbLine
 62
253
  6
CONTINUOUS
 10
-8.1189112984
 20
0.3539290893
 11
-7.3974980996
 21
0.3539277848
  0
LINE
  5
363
100
AcDbEntity
  8
IMPORT_IGES
100
AcDbLine
 62
7
  6
CONTINUOUS
 10
6.05
 20
0.3539325168
 11
7.0501548037
 21
0.3539325167
  0
LINE
  5
364
100
AcDbEntity
  8
IMPORT_IGES
100
AcDbLine
 62
7
  6
CONTINUOUS
 10
-6.05
 20
0.3539325167
 11
-7.0500167009
 21
0.3539325168
  0
LINE
  5
365
100
AcDbEntity
  8
IMPORT_IGES
100
AcDbLine
 62
253
  6
CONTINUOUS
 10
6.1060730709
 20
0.553931706
 11
7.050154201
 21
0.5539322161
  0
LINE
  5
366
100
AcDbEntity
  8
IMPORT_IGES
100
AcDbLine
 62
253
  6
CONTINUOUS
 10
-7.0501569748
 20
0.5539322801
 11
-6.1060818204
 21
0.5539328938
  0
LINE
  5
367
100
AcDbEntity
  8
IMPORT_IGES
100
AcDbLine
 62
7
  6
CONTINUOUS
 10
-8.4227212945
 20
0.5700144999
 11
-8.1220539428
 21
0.5700145923
  0
LINE
  5
368
100
AcDbEntity
  8
IMPORT_IGES
100
AcDbLine
 62
7
  6
CONTINUOUS
 10
8.4227212945
 20
0.5700144999
 11
8.1223723772
 21
0.5700201094
  0
LWPOLYLINE
  5
369
100
AcDbEntity
  8
IMPORT_IGES
100
AcDbPolyline
 62
253
  6
CONTINUOUS
 90
9
 70
0
 10
7.4499993728
 20
0.1721815987
 10
7.4278590833
 20
0.1723561907
 10
7.405245357
 20
0.1736219018
 10
7.382657096
 20
0.1752706884
 10
7.360600801
 20
0.1771345412
 10
7.3394771423
 20
0.1798269898
 10
7.3196043439
 20
0.1840025339
 10
7.3013180762
 20
0.1896733751
 10
7.2847416503
 20
0.1971287185
  0
LINE
  5
36A
100
AcDbEntity
  8
IMPORT_IGES
100
AcDbLine
 62
253
  6
CONTINUOUS
 10
8.118903875
 20
0.3539327445
 11
8.4188581795
 21
0.3486967948
  0
LWPOLYLINE
  5
36B
100
AcDbEntity
  8
IMPORT_IGES
100
AcDbPolyline
 62
253
  6
CONTINUOUS
 90
10
 70
0
 10
7.050154201
 20
0.5539322161
 10
7.0955816184
 20
0.5509005559
 10
7.1397938333
 20
0.5428702814
 10
7.1827908457
 20
0.5298413928
 10
7.2252302636
 20
0.5115460241
 10
7.2664544789
 20
0.4882520413
 10
7.3044906672
 20
0.4607630422
 10
7.3386812203
 20
0.429346893
 10
7.3696837464
 20
0.3937357275
 10
7.3974982454
 20
0.3539295459
  0
LINE
  5
36C
100
AcDbEntity
  8
IMPORT_IGES
100
AcDbLine
 62
7
  6
CONTINUOUS
 10
5.6199171818
 20
-7.3292854892
 11
5.55
 21
-7.2201174632
  0
LWPOLYLINE
  5
36D
100
AcDbEntity
  8
IMPORT_IGES
100
AcDbPolyline
 62
253
  6
CONTINUOUS
 90
5
 70
0
 10
7.1353944754
 20
-9.8125664334
 10
7.1415022765
 20
-9.8227813598
 10
7.1461163334
 20
-9.8303767058
 10
7.1489722693
 20
-9.8349102337
 10
7.1499997817
 20
-9.8362725005
  0
LINE
  5
36E
100
AcDbEntity
  8
IMPORT_IGES
100
AcDbLine
 62
253
  6
CONTINUOUS
 10
6.3697804221
 20
-10.2792081167
 11
6.3448042906
 21
-10.2363660395
  0
LINE
  5
36F
100
AcDbEntity
  8
IMPORT_IGES
100
AcDbLine
 62
253
  6
CONTINUOUS
 10
6.3448042906
 20
-10.2363660395
 11
6.2731428441
 21
-10.1125339861
  0
LINE
  5
370
100
AcDbEntity
  8
IMPORT_IGES
100
AcDbLine
 62
7
  6
CONTINUOUS
 10
1.1048535023
 20
-3.9160745801
 11
1.1048535023
 21
-3.729809771
  0
LINE
  5
371
100
AcDbEntity
  8
IMPORT_IGES
100
AcDbLine
 62
7
  6
CONTINUOUS
 10
1.1048535023
 20
4.9622379625
 11
1.1048535023
 21
5.1660720457
  0
LINE
  5
372
100
AcDbEntity
  8
0
100
AcDbLine
 62
7
  6
CONTINUOUS
 10
1.1683986377
 20
-10.6250145005
 11
1.1683986377
 21
-10.7250145005
  0
LINE
  5
373
100
AcDbEntity
  8
IMPORT_IGES
100
AcDbLine
 62
7
  6
CONTINUOUS
 10
1.4048535023
 20
-3.829499434
 11
1.4048535023
 21
-3.0643292144
  0
LINE
  5
374
100
AcDbEntity
  8
IMPORT_IGES
100
AcDbLine
 62
7
  6
CONTINUOUS
 10
1.4048535023
 20
4.201204976
 11
1.4048535023
 21
5.0795490533
  0
LINE
  5
375
100
AcDbEntity
  8
0
100
AcDbLine
 62
7
  6
CONTINUOUS
 10
1.6586476516
 20
-10.6250145005
 11
1.6586476516
 21
-10.7250145005
  0
LINE
  5
376
100
AcDbEntity
  8
IMPORT_IGES
100
AcDbLine
 62
253
  6
CONTINUOUS
 10
1.7048530175
 20
-3.0571863573
 11
1.7048530175
 21
-3.7191284062
  0
LINE
  5
377
100
AcDbEntity
  8
IMPORT_IGES
100
AcDbLine
 62
253
  6
CONTINUOUS
 10
1.704853015
 20
4.1964430713
 11
1.704853015
 21
4.9699620255
  0
LINE
  5
378
100
AcDbEntity
  8
0
100
AcDbLine
 62
253
  6
CONTINUOUS
 10
1.8098221015
 20
-10.6250145005
 11
1.8098221015
 21
-10.7250145005
  0
LINE
  5
379
100
AcDbEntity
  8
0
100
AcDbLine
 62
253
  6
CONTINUOUS
 10
1.8986476909
 20
-10.6250145005
 11
1.8986476909
 21
-10.7250145005
  0
LINE
  5
37A
100
AcDbEntity
  8
0
100
AcDbLine
 62
7
  6
CONTINUOUS
 10
2.0011388492
 20
-10.6250145005
 11
2.0011388492
 21
-10.7250145005
  0
LWPOLYLINE
  5
37B
100
AcDbEntity
  8
IMPORT_IGES
100
AcDbPolyline
 62
253
  6
CONTINUOUS
 90
4
 70
0
 10
-4.0964593868
 20
-5.4488074255
 10
-4.0223076782
 20
-5.3895749083
 10
-3.9942763128
 20
-5.3676459626
 10
-3.9011597893
 20
-5.2957616775
  0
LWPOLYLINE
  5
37C
100
AcDbEntity
  8
IMPORT_IGES
100
AcDbPolyline
 62
253
  6
CONTINUOUS
 90
3
 70
0
 10
-3.9011597893
 20
-5.2957616775
 10
-3.8673493596
 20
-5.2698158591
 10
-3.832129547
 20
-5.2432058417
  0
LWPOLYLINE
  5
37D
100
AcDbEntity
  8
IMPORT_IGES
100
AcDbPolyline
 62
253
  6
CONTINUOUS
 90
5
 70
0
 10
6.05
 20
0.5320745858
 10
6.0565477205
 20
0.534405102
 10
6.0733564977
 20
0.5407117856
 10
6.0898649478
 20
0.5472224821
 10
6.1060730709
 20
0.5539311958
  0
LINE
  5
37E
100
AcDbEntity
  8
IMPORT_IGES
100
AcDbLine
 62
253
  6
CONTINUOUS
 10
6.3499999999
 20
1.1700144998
 11
6.05
 21
1.1700144998
  0
LINE
  5
37F
100
AcDbEntity
  8
IMPORT_IGES
100
AcDbLine
 62
253
  6
CONTINUOUS
 10
-6.05
 20
1.1700144998
 11
-6.35
 21
1.1700144999
  0
LINE
  5
380
100
AcDbEntity
  8
IMPORT_IGES
100
AcDbLine
 62
253
  6
CONTINUOUS
 10
-2.9247518712
 20
7.2260491969
 11
-2.814383876
 21
7.0592591923
  0
LINE
  5
381
100
AcDbEntity
  8
IMPORT_IGES
100
AcDbLine
 62
253
  6
CONTINUOUS
 10
7.1193266894
 20
-9.785360826
 11
7.1353944754
 21
-9.8125664334
  0
LINE
  5
382
100
AcDbEntity
  8
IMPORT_IGES
100
AcDbLine
 62
253
  6
CONTINUOUS
 10
7.0751453606
 20
-9.7096150215
 11
7.1193266894
 21
-9.785360826
  0
LINE
  5
383
100
AcDbEntity
  8
IMPORT_IGES
100
AcDbLine
 62
253
  6
CONTINUOUS
 10
7.0500038541
 20
-9.6661769862
 11
7.0751453606
 21
-9.7096150215
  0
LWPOLYLINE
  5
384
100
AcDbEntity
  8
IMPORT_IGES
100
AcDbPolyline
 62
253
  6
CONTINUOUS
 90
3
 70
0
 10
3.8884515608
 20
-5.3572435695
 10
3.9060430917
 20
-5.3930952248
 10
3.9542605079
 20
-5.4926512834
  0
LWPOLYLINE
  5
385
100
AcDbEntity
  8
IMPORT_IGES
100
AcDbPolyline
 62
253
  6
CONTINUOUS
 90
3
 70
0
 10
3.832122906
 20
-5.2432057619
 10
3.8512723474
 20
-5.2823567033
 10
3.8884515608
 20
-5.3572435695
  0
LWPOLYLINE
  5
386
100
AcDbEntity
  8
IMPORT_IGES
100
AcDbPolyline
 62
253
  6
CONTINUOUS
 90
3
 70
0
 10
3.9542605079
 20
-5.4926512834
 10
3.9685411253
 20
-5.5227783478
 10
3.9816056377
 20
-5.5514145223
  0
LWPOLYLINE
  5
387
100
AcDbEntity
  8
IMPORT_IGES
100
AcDbPolyline
 62
253
  6
CONTINUOUS
 90
10
 70
0
 10
3.9816056377
 20
-5.5514145223
 10
3.9908770727
 20
-5.5738161048
 10
3.9991136338
 20
-5.5970741317
 10
4.0062780788
 20
-5.621190047
 10
4.0123123197
 20
-5.6461983895
 10
4.0172326271
 20
-5.6720680658
 10
4.0210769399
 20
-5.6987012873
 10
4.0237997844
 20
-5.7260657909
 10
4.0253256359
 20
-5.7541958943
 10
4.0256085397
 20
-5.7830675472
  0
LINE
  5
388
100
AcDbEntity
  8
0
100
AcDbLine
 62
7
  6
CONTINUOUS
 10
2.1360854339
 20
-10.6250145005
 11
2.1360854339
 21
-10.7250145005
  0
LINE
  5
389
100
AcDbEntity
  8
0
100
AcDbLine
 62
7
  6
CONTINUOUS
 10
2.1574376773
 20
-10.6250145005
 11
2.1574376773
 21
-10.7250145005
  0
LINE
  5
38A
100
AcDbEntity
  8
0
100
AcDbLine
 62
253
  6
CONTINUOUS
 10
2.2966548022
 20
-10.6250145005
 11
2.2966548022
 21
-10.7250145005
  0
LINE
  5
38B
100
AcDbEntity
  8
IMPORT_IGES
100
AcDbLine
 62
253
  6
CONTINUOUS
 10
2.6048535023
 20
-3.2216891179
 11
2.6048535023
 21
-3.0571863573
  0
LINE
  5
38C
100
AcDbEntity
  8
IMPORT_IGES
100
AcDbLine
 62
253
  6
CONTINUOUS
 10
2.6048535023
 20
4.1964430713
 11
2.6048535023
 21
4.4807207025
  0
LINE
  5
38D
100
AcDbEntity
  8
0
100
AcDbLine
 62
253
  6
CONTINUOUS
 10
2.6408541393
 20
-10.6250145005
 11
2.6408541393
 21
-10.7250145005
  0
LINE
  5
38E
100
AcDbEntity
  8
0
100
AcDbLine
 62
253
  6
CONTINUOUS
 10
2.8065480662
 20
-10.6250145005
 11
2.8065480662
 21
-10.7250145005
  0
LINE
  5
38F
100
AcDbEntity
  8
0
100
AcDbLine
 62
7
  6
CONTINUOUS
 10
2.8680427503
 20
-10.6250145005
 11
2.8680427503
 21
-10.7250145005
  0
LINE
  5
390
100
AcDbEntity
  8
IMPORT_IGES
100
AcDbLine
 62
7
  6
CONTINUOUS
 10
2.9048535023
 20
4.2478029034
 11
2.9048535023
 21
4.201204976
  0
LINE
  5
391
100
AcDbEntity
  8
0
100
AcDbLine
 62
7
  6
CONTINUOUS
 10
2.9637011241
 20
-10.6250145005
 11
2.9637011241
 21
-10.7250145005
  0
LWPOLYLINE
  5
392
100
AcDbEntity
  8
IMPORT_IGES
100
AcDbPolyline
 62
253
  6
CONTINUOUS
 90
10
 70
0
 10
7.2030000003
 20
11.0215211856
 10
7.222862755
 20
11.075413574
 10
7.2426231746
 20
11.1212542085
 10
7.2616254139
 20
11.1591998626
 10
7.2789417858
 20
11.1895784724
 10
7.2945814329
 20
11.2127431799
 10
7.3092829812
 20
11.2286606234
 10
7.3229295592
 20
11.2372647145
 10
7.3347556827
 20
11.2388473358
 10
7.3444213565
 20
11.23365322
  0
LINE
  5
393
100
AcDbEntity
  8
IMPORT_IGES
100
AcDbLine
 62
253
  6
CONTINUOUS
 10
6.35
 20
2.5700144999
 11
5.75
 21
2.5700144999
  0
LINE
  5
394
100
AcDbEntity
  8
IMPORT_IGES
100
AcDbLine
 62
253
  6
CONTINUOUS
 10
-5.75
 20
2.5700144999
 11
-6.35
 21
2.5700144998
  0
LINE
  5
395
100
AcDbEntity
  8
IMPORT_IGES
100
AcDbLine
 62
7
  6
CONTINUOUS
 10
4.0960746081
 20
2.7100144999
 11
4.5
 21
2.7100144999
  0
LINE
  5
396
100
AcDbEntity
  8
IMPORT_IGES
100
AcDbLine
 62
7
  6
CONTINUOUS
 10
-4.0960746081
 20
2.7100144999
 11
-4.5
 21
2.7100144999
  0
LINE
  5
397
100
AcDbEntity
  8
IMPORT_IGES
100
AcDbLine
 62
7
  6
CONTINUOUS
 10
-4.2503656963
 20
7.370707309
 11
-4.4048535023
 21
7.5265635588
  0
LWPOLYLINE
  5
398
100
AcDbEntity
  8
IMPORT_IGES
100
AcDbPolyline
 62
253
  6
CONTINUOUS
 90
13
 70
0
 10
-6.8767996593
 20
11.3476444933
 10
-6.8967532269
 20
11.3696495938
 10
-6.9184023801
 20
11.3915951357
 10
-6.9409900147
 20
11.4126278841
 10
-6.9633302876
 20
11.4316735989
 10
-6.9848983821
 20
11.4483907791
 10
-7.0059090386
 20
11.4629707375
 10
-7.0256574836
 20
11.4748911758
 10
-7.0434735326
 20
11.4837760108
 10
-7.0594449165
 20
11.4896503313
 10
-7.0730658103
 20
11.49220954
 10
-7.0836334755
 20
11.4913028827
 10
-7.0909282315
 20
11.4871463773
  0
LWPOLYLINE
  5
399
100
AcDbEntity
  8
IMPORT_IGES
100
AcDbPolyline
 62
253
  6
CONTINUOUS
 90
9
 70
0
 10
3.8002589938
 20
9.2829008294
 10
3.8010367154
 20
9.2126942427
 10
3.8023338504
 20
9.1424933989
 10
3.8041504631
 20
9.0722963656
 10
3.8064864892
 20
9.0021050753
 10
3.8093417357
 20
8.9319253253
 10
3.8127161382
 20
8.8617590481
 10
3.8166097612
 20
8.7916043114
 10
3.8210226047
 20
8.721461115
  0
LINE
  5
39A
100
AcDbEntity
  8
0
100
AcDbLine
 62
253
  6
CONTINUOUS
 10
3.1832028715
 20
-10.6250145005
 11
3.1832028715
 21
-10.7250145005
  0
LINE
  5
39B
100
AcDbEntity
  8
0
100
AcDbLine
 62
253
  6
CONTINUOUS
 10
3.6734519761
 20
-10.6250145005
 11
3.6734519761
 21
-10.7250145005
  0
LINE
  5
39C
100
AcDbEntity
  8
0
100
AcDbLine
 62
7
  6
CONTINUOUS
 10
3.7016370308
 20
-10.6250145005
 11
3.7016370308
 21
-10.7250145005
  0
LINE
  5
39D
100
AcDbEntity
  8
0
100
AcDbLine
 62
7
  6
CONTINUOUS
 10
3.7340925511
 20
-10.6250145005
 11
3.7340925511
 21
-10.7250145005
  0
LINE
  5
39E
100
AcDbEntity
  8
IMPORT_IGES
100
AcDbLine
 62
253
  6
CONTINUOUS
 10
3.8
 20
11.5750144999
 11
3.8002589938
 21
9.2829008294
  0
LWPOLYLINE
  5
39F
100
AcDbEntity
  8
IMPORT_IGES
100
AcDbPolyline
 62
253
  6
CONTINUOUS
 90
6
 70
0
 10
3.8
 20
3.7382197803
 10
3.7998032311
 20
3.4403654186
 10
3.7999158822
 20
3.3916327958
 10
3.8003530373
 20
3.3413112328
 10
3.8010289542
 20
3.2899874195
 10
3.801943633
 20
3.2382210627
  0
LINE
  5
3A0
100
AcDbEntity
  8
IMPORT_IGES
100
AcDbLine
 62
7
  6
CONTINUOUS
 10
3.8129295204
 20
-6.9973987308
 11
3.8203932808
 21
-6.2204875231
  0
LINE
  5
3A1
100
AcDbEntity
  8
IMPORT_IGES
100
AcDbLine
 62
7
  6
CONTINUOUS
 10
3.7778043677
 20
-9.9222565108
 11
3.7734528596
 21
-10.3249854996
  0
LINE
  5
3A2
100
AcDbEntity
  8
IMPORT_IGES
100
AcDbLine
 62
253
  6
CONTINUOUS
 10
3.832129547
 20
-5.2432058417
 11
3.8203932811
 21
-6.220487523
  0
LINE
  5
3A3
100
AcDbEntity
  8
IMPORT_IGES
100
AcDbLine
 62
253
  6
CONTINUOUS
 10
3.8129292811
 20
-6.99739873
 11
3.7778043935
 21
-9.9222565109
  0
LINE
  5
3A4
100
AcDbEntity
  8
IMPORT_IGES
100
AcDbLine
 62
253
  6
CONTINUOUS
 10
7.2275165383
 20
0.25393264
 11
7.3974982454
 21
0.3539267418
  0
LINE
  5
3A5
100
AcDbEntity
  8
IMPORT_IGES
100
AcDbLine
 62
253
  6
CONTINUOUS
 10
4.6825206373
 20
4.4172734291
 11
4.4842642038
 21
4.3909222128
  0
LINE
  5
3A6
100
AcDbEntity
  8
IMPORT_IGES
100
AcDbLine
 62
253
  6
CONTINUOUS
 10
-4.5025898749
 20
3.8701190051
 11
-4.5
 21
3.8701768702
  0
LINE
  5
3A7
100
AcDbEntity
  8
IMPORT_IGES
100
AcDbLine
 62
253
  6
CONTINUOUS
 10
-4.5229591699
 20
3.8700272054
 11
-4.5025898749
 21
3.8701190051
  0
LINE
  5
3A8
100
AcDbEntity
  8
IMPORT_IGES
100
AcDbLine
 62
253
  6
CONTINUOUS
 10
5.05
 20
3.2700144999
 11
4.5
 21
3.2700144999
  0
LINE
  5
3A9
100
AcDbEntity
  8
IMPORT_IGES
100
AcDbLine
 62
253
  6
CONTINUOUS
 10
-4.5
 20
3.2700144999
 11
-5.05
 21
3.2700144999
  0
LINE
  5
3AA
100
AcDbEntity
  8
IMPORT_IGES
100
AcDbLine
 62
7
  6
CONTINUOUS
 10
5.0499999999
 20
3.5700144999
 11
4.8
 21
3.5700144999
  0
LINE
  5
3AB
100
AcDbEntity
  8
IMPORT_IGES
100
AcDbLine
 62
7
  6
CONTINUOUS
 10
-4.7999999999
 20
3.5700144999
 11
-5.05
 21
3.5700144999
  0
LINE
  5
3AC
100
AcDbEntity
  8
IMPORT_IGES
100
AcDbLine
 62
7
  6
CONTINUOUS
 10
4.087751337
 20
3.7382197803
 11
3.4266717018
 21
3.7382197803
  0
LINE
  5
3AD
100
AcDbEntity
  8
IMPORT_IGES
100
AcDbLine
 62
7
  6
CONTINUOUS
 10
-3.4266717018
 20
3.7382197803
 11
-4.0877513364
 21
3.7382197803
  0
LINE
  5
3AE
100
AcDbEntity
  8
IMPORT_IGES
100
AcDbLine
 62
253
  6
CONTINUOUS
 10
4.5
 20
3.8700144468
 11
5.05
 21
3.8700144999
  0
LINE
  5
3AF
100
AcDbEntity
  8
IMPORT_IGES
100
AcDbLine
 62
253
  6
CONTINUOUS
 10
-4.087751337
 20
3.9382197803
 11
-3.2429794848
 21
3.9382197803
  0
LINE
  5
3B0
100
AcDbEntity
  8
IMPORT_IGES
100
AcDbLine
 62
253
  6
CONTINUOUS
 10
3.2429794848
 20
3.9382197803
 11
4.087751337
 21
3.9382197803
  0
LINE
  5
3B1
100
AcDbEntity
  8
IMPORT_IGES
100
AcDbLine
 62
253
  6
CONTINUOUS
 10
-5.05
 20
3.8700144998
 11
-4.5229591699
 21
3.8700272054
  0
LINE
  5
3B2
100
AcDbEntity
  8
IMPORT_IGES
100
AcDbLine
 62
253
  6
CONTINUOUS
 10
-4.6825206373
 20
4.4172734292
 11
-4.4842642038
 21
4.3909222128
  0
LWPOLYLINE
  5
3B3
100
AcDbEntity
  8
IMPORT_IGES
100
AcDbPolyline
 62
7
  6
CONTINUOUS
 90
11
 70
0
 10
4.7454596355
 20
-0.4669712545
 10
4.743257353
 20
-0.4460945779
 10
4.7408743966
 20
-0.4257850413
 10
4.7383107665
 20
-0.4060547956
 10
4.7355363879
 20
-0.3869442305
 10
4.7325813356
 20
-0.3684351707
 10
4.7295358332
 20
-0.3504497637
 10
4.7264113484
 20
-0.332991451
 10
4.7231964135
 20
-0.3160728134
 10
4.7199468497
 20
-0.2996271499
 10
4.7184210188
 20
-0.2921915217
  0
LINE
  5
3B4
100
AcDbEntity
  8
IMPORT_IGES
100
AcDbLine
 62
253
  6
CONTINUOUS
 10
3.8309538368
 20
8.4973604286
 11
3.8375209569
 21
8.3679063815
  0
LINE
  5
3B5
100
AcDbEntity
  8
IMPORT_IGES
100
AcDbLine
 62
253
  6
CONTINUOUS
 10
3.8253265995
 20
8.6179447821
 11
3.8309538368
 21
8.4973604286
  0
LINE
  5
3B6
100
AcDbEntity
  8
IMPORT_IGES
100
AcDbLine
 62
253
  6
CONTINUOUS
 10
3.821022297
 20
8.7214611063
 11
3.8253265995
 21
8.6179447821
  0
LWPOLYLINE
  5
3B7
100
AcDbEntity
  8
IMPORT_IGES
100
AcDbPolyline
 62
7
  6
CONTINUOUS
 90
10
 70
0
 10
4.75
 20
-0.5654551056
 10
4.7499471052
 20
-0.5544982208
 10
4.7497812793
 20
-0.543544198
 10
4.7495025223
 20
-0.5325930374
 10
4.7491107892
 20
-0.5216437668
 10
4.748606125
 20
-0.5106973584
 10
4.7479886641
 20
-0.4997567285
 10
4.7472584513
 20
-0.4888228492
 10
4.7464154417
 20
-0.4778947485
 10
4.7454596355
 20
-0.4669724262
  0
LINE
  5
3B8
100
AcDbEntity
  8
IMPORT_IGES
100
AcDbLine
 62
7
  6
CONTINUOUS
 10
4.0
 20
9.2116916735
 11
4.0
 21
11.3750144999
  0
LINE
  5
3B9
100
AcDbEntity
  8
IMPORT_IGES
100
AcDbLine
 62
253
  6
CONTINUOUS
 10
4.087751337
 20
3.7382197803
 11
4.087751337
 21
3.9382197803
  0
LINE
  5
3BA
100
AcDbEntity
  8
IMPORT_IGES
100
AcDbLine
 62
7
  6
CONTINUOUS
 10
4.1048535023
 20
8.7750144999
 11
4.1048535023
 21
8.23515436
  0
LINE
  5
3BB
100
AcDbEntity
  8
IMPORT_IGES
100
AcDbLine
 62
7
  6
CONTINUOUS
 10
4.1048535023
 20
8.1543851292
 11
4.1048535023
 21
8.2225669474
  0
LINE
  5
3BC
100
AcDbEntity
  8
IMPORT_IGES
100
AcDbLine
 62
253
  6
CONTINUOUS
 10
4.1734592793
 20
-10.3249855001
 11
4.1734421839
 21
-10.1258676736
  0
LINE
  5
3BD
100
AcDbEntity
  8
IMPORT_IGES
100
AcDbLine
 62
253
  6
CONTINUOUS
 10
4.2
 20
9.1998957074
 11
4.1999999452
 21
11.5750144999
  0
LINE
  5
3BE
100
AcDbEntity
  8
IMPORT_IGES
100
AcDbLine
 62
253
  6
CONTINUOUS
 10
4.2094854821
 20
-7.7558387805
 11
4.2094854821
 21
-7.715565883
  0
LINE
  5
3BF
100
AcDbEntity
  8
IMPORT_IGES
100
AcDbLine
 62
7
  6
CONTINUOUS
 10
4.5
 20
6.9696139759
 11
4.5
 21
5.1855962049
  0
LINE
  5
3C0
100
AcDbEntity
  8
IMPORT_IGES
100
AcDbLine
 62
7
  6
CONTINUOUS
 10
4.5
 20
3.9022812051
 11
4.5
 21
0.1700144999
  0
LINE
  5
3C1
100
AcDbEntity
  8
IMPORT_IGES
100
AcDbLine
 62
7
  6
CONTINUOUS
 10
4.55
 20
-0.0682926268
 11
4.55
 21
-0.3110754656
  0
LINE
  5
3C2
100
AcDbEntity
  8
IMPORT_IGES
100
AcDbLine
 62
253
  6
CONTINUOUS
 10
4.55
 20
-7.4580795217
 11
4.55
 21
-0.3110754656
  0
LINE
  5
3C3
100
AcDbEntity
  8
IMPORT_IGES
100
AcDbLine
 62
7
  6
CONTINUOUS
 10
4.75
 20
-7.0579453039
 11
4.75
 21
-0.5654551056
  0
LINE
  5
3C4
100
AcDbEntity
  8
IMPORT_IGES
100
AcDbLine
 62
253
  6
CONTINUOUS
 10
4.8000027839
 20
6.9693765482
 11
4.8
 21
0.1700144999
  0
LINE
  5
3C5
100
AcDbEntity
  8
IMPORT_IGES
100
AcDbLine
 62
7
  6
CONTINUOUS
 10
4.9273029486
 20
-10.6250145005
 11
4.9273029486
 21
-11.7750144998
  0
LINE
  5
3C6
100
AcDbEntity
  8
IMPORT_IGES
100
AcDbLine
 62
253
  6
CONTINUOUS
 10
4.1511435721
 20
-7.7187984346
 11
4.1526328089
 21
-7.5564870968
  0
LINE
  5
3C7
100
AcDbEntity
  8
IMPORT_IGES
100
AcDbLine
 62
7
  6
CONTINUOUS
 10
3.973423846
 20
-10.1284995119
 11
4.0256085274
 21
-5.7830685713
  0
LINE
  5
3C8
100
AcDbEntity
  8
IMPORT_IGES
100
AcDbLine
 62
253
  6
CONTINUOUS
 10
4.154313196
 20
-7.4580797549
 11
4.1755975682
 21
-5.6788157901
  0
LINE
  5
3C9
100
AcDbEntity
  8
IMPORT_IGES
100
AcDbLine
 62
253
  6
CONTINUOUS
 10
4.1526328089
 20
-7.5564878569
 11
4.154313196
 21
-7.458079786
  0
LWPOLYLINE
  5
3CA
100
AcDbEntity
  8
IMPORT_IGES
100
AcDbPolyline
 62
7
  6
CONTINUOUS
 90
10
 70
0
 10
4.1734421839
 20
-10.1258676736
 10
4.1794419457
 20
-9.8730680264
 10
4.1839548752
 20
-9.6202319477
 10
4.1869809723
 20
-9.3673689493
 10
4.1875280555
 20
-9.1144889843
 10
4.1865883063
 20
-8.8616011551
 10
4.1871382693
 20
-8.608713713
 10
4.190170126
 20
-8.3558357816
 10
4.1946916949
 20
-8.1029773558
 10
4.200702976
 20
-7.8501480092
  0
LINE
  5
3CB
100
AcDbEntity
  8
IMPORT_IGES
100
AcDbLine
 62
253
  6
CONTINUOUS
 10
4.200702976
 20
-7.8501480092
 11
4.2039088854
 21
-7.7556495918
  0
LWPOLYLINE
  5
3CC
100
AcDbEntity
  8
IMPORT_IGES
100
AcDbPolyline
 62
253
  6
CONTINUOUS
 90
13
 70
0
 10
3.9777899742
 20
-9.7649309685
 10
3.9757976447
 20
-9.7859317127
 10
3.9703340793
 20
-9.8065993854
 10
3.9614707613
 20
-9.8265411992
 10
3.9492562742
 20
-9.8455102574
 10
3.9339308155
 20
-9.8630324061
 10
3.9161025659
 20
-9.8785126936
 10
3.8964589002
 20
-9.8916242809
 10
3.8752317469
 20
-9.9024458418
 10
3.852425084
 20
-9.9110465377
 10
3.8282519876
 20
-9.9173109454
 10
3.8032327082
 20
-9.921070817
 10
3.7777713635
 20
-9.922256392
  0
LWPOLYLINE
  5
3CD
100
AcDbEntity
  8
IMPORT_IGES
100
AcDbPolyline
 62
7
  6
CONTINUOUS
 90
10
 70
0
 10
6.1060730709
 20
0.553931706
 10
6.1549759495
 20
0.6119254533
 10
6.1985743046
 20
0.6728742757
 10
6.236868136
 20
0.736778173
 10
6.2700513744
 20
0.8040906132
 10
6.2979300893
 20
0.8743581283
 10
6.3199224885
 20
0.9462203149
 10
6.3358346413
 20
1.0192237051
 10
6.3458604784
 20
1.0938217668
 10
6.3499999999
 20
1.1700144998
  0
LWPOLYLINE
  5
3CE
100
AcDbEntity
  8
IMPORT_IGES
100
AcDbPolyline
 62
253
  6
CONTINUOUS
 90
10
 70
0
 10
-7.955194248
 20
-9.2645761532
 10
-7.97358297
 20
-9.2751707182
 10
-7.991941438
 20
-9.2838480868
 10
-8.0101195042
 20
-9.2905012567
 10
-8.0280429835
 20
-9.29505274
 10
-8.0454715556
 20
-9.2973895142
 10
-8.0620303499
 20
-9.2974649656
 10
-8.0775328604
 20
-9.2953419887
 10
-8.0919511889
 20
-9.2910911005
 10
-8.105194248
 20
-9.2847931213
  0
LWPOLYLINE
  5
3CF
100
AcDbEntity
  8
IMPORT_IGES
100
AcDbPolyline
 62
253
  6
CONTINUOUS
 90
6
 70
0
 10
-7.3257672229
 20
-9.5216979781
 10
-7.3475336262
 20
-9.5336945788
 10
-7.3712602541
 20
-9.5433503981
 10
-7.3965217121
 20
-9.5504340497
 10
-7.4229232168
 20
-9.5547794612
 10
-7.45
 20
-9.5562500342
  0
LWPOLYLINE
  5
3D0
100
AcDbEntity
  8
IMPORT_IGES
100
AcDbPolyline
 62
253
  6
CONTINUOUS
 90
5
 70
0
 10
-7.2771970861
 20
-7.7688655172
 10
-7.2431563277
 20
-7.753168835
 10
-7.2069323925
 20
-7.7401090906
 10
-7.1694160119
 20
-7.7298068691
 10
-7.1309040964
 20
-7.7223023657
  0
LINE
  5
3D1
100
AcDbEntity
  8
IMPORT_IGES
100
AcDbLine
 62
7
  6
CONTINUOUS
 10
-2.9903584295
 20
4.1750144999
 11
-0.9
 21
4.1750144999
  0
LINE
  5
3D2
100
AcDbEntity
  8
IMPORT_IGES
100
AcDbLine
 62
7
  6
CONTINUOUS
 10
0.9
 20
4.1750144999
 11
2.990358293
 21
4.1750144999
  0
LINE
  5
3D3
100
AcDbEntity
  8
IMPORT_IGES
100
AcDbLine
 62
7
  6
CONTINUOUS
 10
-2.6048535023
 20
4.1964430713
 11
-1.7048535023
 21
4.1964430713
  0
LINE
  5
3D4
100
AcDbEntity
  8
IMPORT_IGES
100
AcDbLine
 62
7
  6
CONTINUOUS
 10
1.7048535023
 20
4.1964430713
 11
2.6048535023
 21
4.1964430713
  0
LINE
  5
3D5
100
AcDbEntity
  8
IMPORT_IGES
100
AcDbLine
 62
7
  6
CONTINUOUS
 10
-1.4048535023
 20
4.2627345291
 11
-0.6880160053
 21
4.2627345291
  0
LINE
  5
3D6
100
AcDbEntity
  8
IMPORT_IGES
100
AcDbLine
 62
7
  6
CONTINUOUS
 10
0.6880160053
 20
4.2627345291
 11
1.4048535023
 21
4.2627345291
  0
LWPOLYLINE
  5
3D7
100
AcDbEntity
  8
IMPORT_IGES
100
AcDbPolyline
 62
253
  6
CONTINUOUS
 90
4
 70
0
 10
7.2847416503
 20
0.1971287185
 10
7.269562279
 20
0.2074881706
 10
7.2552917889
 20
0.2209374309
 10
7.2414975422
 20
0.2366091556
  0
LINE
  5
3D8
100
AcDbEntity
  8
IMPORT_IGES
100
AcDbLine
 62
253
  6
CONTINUOUS
 10
6.05
 20
0.6065776612
 11
6.1060730709
 21
0.5539311958
  0
LINE
  5
3D9
100
AcDbEntity
  8
IMPORT_IGES
100
AcDbLine
 62
253
  6
CONTINUOUS
 10
5.0973054311
 20
-0.4298432459
 11
5.1100082658
 21
-0.4669712545
  0
LINE
  5
3DA
100
AcDbEntity
  8
IMPORT_IGES
100
AcDbLine
 62
253
  6
CONTINUOUS
 10
2.6374021122
 20
7.4030533599
 11
2.6012829937
 21
7.5163945611
  0
LINE
  5
3DB
100
AcDbEntity
  8
IMPORT_IGES
100
AcDbLine
 62
253
  6
CONTINUOUS
 10
2.6012829937
 20
7.5163945611
 11
2.5000473188
 21
7.8463322877
  0
LWPOLYLINE
  5
3DC
100
AcDbEntity
  8
IMPORT_IGES
100
AcDbPolyline
 62
253
  6
CONTINUOUS
 90
6
 70
0
 10
4.0
 20
11.2871465342
 10
3.9982889723
 20
11.3056057253
 10
3.9931851653
 20
11.3237490746
 10
3.9847759065
 20
11.3412661442
 10
3.9732050808
 20
11.3578572123
 10
3.9586706681
 20
11.3732384011
  0
LINE
  5
3DD
100
AcDbEntity
  8
IMPORT_IGES
100
AcDbLine
 62
253
  6
CONTINUOUS
 10
5.05
 20
3.8700144998
 11
5.05
 21
3.2700144999
  0
LINE
  5
3DE
100
AcDbEntity
  8
IMPORT_IGES
100
AcDbLine
 62
253
  6
CONTINUOUS
 10
5.1
 20
-0.4299855001
 11
5.1
 21
-0.1299855001
  0
LINE
  5
3DF
100
AcDbEntity
  8
IMPORT_IGES
100
AcDbLine
 62
253
  6
CONTINUOUS
 10
5.45
 20
-0.4299855001
 11
5.45
 21
-0.1299855001
  0
LINE
  5
3E0
100
AcDbEntity
  8
IMPORT_IGES
100
AcDbLine
 62
253
  6
CONTINUOUS
 10
5.55
 20
-7.2201174632
 11
5.5500000001
 21
-0.4207936026
  0
LINE
  5
3E1
100
AcDbEntity
  8
IMPORT_IGES
100
AcDbLine
 62
253
  6
CONTINUOUS
 10
5.6500001766
 20
-10.3249855002
 11
5.6500001407
 21
-10.5249854995
  0
LINE
  5
3E2
100
AcDbEntity
  8
IMPORT_IGES
100
AcDbLine
 62
253
  6
CONTINUOUS
 10
5.75
 20
2.5700144999
 11
5.75
 21
0.1700144999
  0
LWPOLYLINE
  5
3E3
100
AcDbEntity
  8
IMPORT_IGES
100
AcDbPolyline
 62
253
  6
CONTINUOUS
 90
13
 70
0
 10
4.75
 20
-5.3073990109
 10
4.7483275292
 20
-5.3256499173
 10
4.7433610714
 20
-5.3435341467
 10
4.7352170226
 20
-5.3607593639
 10
4.7241265112
 20
-5.3769689688
 10
4.7102667441
 20
-5.3919997519
 10
4.6936175463
 20
-5.4058215703
 10
4.6742327771
 20
-5.4182281972
 10
4.6524663738
 20
-5.4288499109
 10
4.6287397459
 20
-5.4373991117
 10
4.6034782879
 20
-5.4436709316
 10
4.5770767832
 20
-5.4475183311
 10
4.55
 20
-5.4488203671
  0
LWPOLYLINE
  5
3E4
100
AcDbEntity
  8
IMPORT_IGES
100
AcDbPolyline
 62
253
  6
CONTINUOUS
 90
13
 70
0
 10
5.7499999515
 20
-0.3846394324
 10
5.7483260318
 20
-0.3952196319
 10
5.74335977
 20
-0.4056361587
 10
5.7352167419
 20
-0.4156697153
 10
5.7241268698
 20
-0.425112782
 10
5.7102667698
 20
-0.433869867
 10
5.6936170945
 20
-0.4419225761
 10
5.674232265
 20
-0.4491506094
 10
5.6524658036
 20
-0.4553387614
 10
5.6287391843
 20
-0.4603193563
 10
5.6034778342
 20
-0.4639730102
 10
5.5770765184
 20
-0.4662141122
 10
5.55
 20
-0.4669722133
  0
LINE
  5
3E5
100
AcDbEntity
  8
IMPORT_IGES
100
AcDbLine
 62
253
  6
CONTINUOUS
 10
-1.1048535023
 20
4.9622379625
 11
-0.6
 21
4.9622379625
  0
LINE
  5
3E6
100
AcDbEntity
  8
IMPORT_IGES
100
AcDbLine
 62
253
  6
CONTINUOUS
 10
0.6
 20
4.9622379625
 11
1.1048535023
 21
4.9622379625
  0
LINE
  5
3E7
100
AcDbEntity
  8
IMPORT_IGES
100
AcDbLine
 62
253
  6
CONTINUOUS
 10
7.2414975422
 20
0.2366091556
 11
7.2275165383
 21
0.25393264
  0
LINE
  5
3E8
100
AcDbEntity
  8
IMPORT_IGES
100
AcDbLine
 62
253
  6
CONTINUOUS
 10
7.2518413568
 20
-9.4181476105
 11
7.2499999999
 21
-9.3965231652
  0
LINE
  5
3E9
100
AcDbEntity
  8
IMPORT_IGES
100
AcDbLine
 62
7
  6
CONTINUOUS
 10
6.05
 20
2.5700144998
 11
6.05
 21
0.1700144997
  0
LINE
  5
3EA
100
AcDbEntity
  8
IMPORT_IGES
100
AcDbLine
 62
253
  6
CONTINUOUS
 10
6.15
 20
11.5750144999
 11
6.1500004231
 21
11.7750144998
  0
LINE
  5
3EB
100
AcDbEntity
  8
IMPORT_IGES
100
AcDbLine
 62
253
  6
CONTINUOUS
 10
6.2231434353
 20
-10.1258676736
 11
6.2231434947
 21
-10.3249855001
  0
LINE
  5
3EC
100
AcDbEntity
  8
IMPORT_IGES
100
AcDbLine
 62
253
  6
CONTINUOUS
 10
6.3499999999
 20
1.1700144998
 11
6.3499999999
 21
2.5700144998
  0
LINE
  5
3ED
100
AcDbEntity
  8
IMPORT_IGES
100
AcDbLine
 62
253
  6
CONTINUOUS
 10
6.8030000015
 20
11.5750144999
 11
6.8029981821
 21
8.8268730688
  0
LWPOLYLINE
  5
3EE
100
AcDbEntity
  8
IMPORT_IGES
100
AcDbPolyline
 62
7
  6
CONTINUOUS
 90
10
 70
0
 10
4.0045477886
 20
-7.8794964151
 10
4.0067954611
 20
-7.8714902462
 10
4.0097102767
 20
-7.8630214286
 10
4.0133911116
 20
-7.8541544255
 10
4.0177341362
 20
-7.8453504546
 10
4.0226589758
 20
-7.8368257334
 10
4.0282343922
 20
-7.8285009591
 10
4.0345074086
 20
-7.820380762
 10
4.0414641361
 20
-7.8125582523
 10
4.0490813743
 20
-7.805120073
  0
LINE
  5
3EF
100
AcDbEntity
  8
IMPORT_IGES
100
AcDbLine
 62
7
  6
CONTINUOUS
 10
4.1491793417
 20
-7.7257868437
 11
4.1511435712
 21
-7.71880217
  0
LWPOLYLINE
  5
3F0
100
AcDbEntity
  8
IMPORT_IGES
100
AcDbPolyline
 62
7
  6
CONTINUOUS
 90
10
 70
0
 10
4.7231303335
 20
-7.2201312133
 10
4.7284769271
 20
-7.2041211318
 10
4.7332575448
 20
-7.1875411477
 10
4.7374721866
 20
-7.170391261
 10
4.741153243
 20
-7.1525817932
 10
4.7442683234
 20
-7.1342024228
 10
4.7467202565
 20
-7.1155221851
 10
4.7484766517
 20
-7.0966307587
 10
4.7495698996
 20
-7.0774384649
 10
4.75
 20
-7.0579453039
  0
LWPOLYLINE
  5
3F1
100
AcDbEntity
  8
IMPORT_IGES
100
AcDbPolyline
 62
253
  6
CONTINUOUS
 90
10
 70
0
 10
4.0964589533
 20
-5.4488085026
 10
4.0812992697
 20
-5.455662372
 10
4.0661055904
 20
-5.4640104052
 10
4.0512065321
 20
-5.4737288065
 10
4.0370762299
 20
-5.4845096417
 10
4.023851969
 20
-5.496212995
 10
4.0114113949
 20
-5.5089814882
 10
3.9999706828
 20
-5.5227103568
 10
3.9899588874
 20
-5.5369656114
 10
3.9816030646
 20
-5.5514146036
  0
LWPOLYLINE
  5
3F2
100
AcDbEntity
  8
IMPORT_IGES
100
AcDbPolyline
 62
253
  6
CONTINUOUS
 90
8
 70
0
 10
4.75
 20
-5.2388608357
 10
4.7483275292
 20
-5.2394215735
 10
4.7433610714
 20
-5.2399710456
 10
4.7352170226
 20
-5.2405002702
 10
4.7241265112
 20
-5.2409982914
 10
4.7102667441
 20
-5.2414600946
 10
4.6936175463
 20
-5.2418847539
 10
4.6742327771
 20
-5.242265933
  0
LINE
  5
3F3
100
AcDbEntity
  8
IMPORT_IGES
100
AcDbLine
 62
253
  6
CONTINUOUS
 10
4.1416667458
 20
7.5946166639
 11
3.9447133433
 21
7.5598408546
  0
LINE
  5
3F4
100
AcDbEntity
  8
IMPORT_IGES
100
AcDbLine
 62
7
  6
CONTINUOUS
 10
8.3074277517
 20
7.0268089728
 11
8.310015322
 21
7.0269353395
  0
LWPOLYLINE
  5
3F5
100
AcDbEntity
  8
IMPORT_IGES
100
AcDbPolyline
 62
7
  6
CONTINUOUS
 90
3
 70
0
 10
4.5
 20
6.9696139759
 10
4.502589799
 20
6.9697122019
 10
4.5102959886
 20
6.9697721035
  0
LINE
  5
3F6
100
AcDbEntity
  8
IMPORT_IGES
100
AcDbLine
 62
7
  6
CONTINUOUS
 10
8.1603353552
 20
7.0220957157
 11
8.3074277517
 21
7.0268089728
  0
LINE
  5
3F7
100
AcDbEntity
  8
IMPORT_IGES
100
AcDbLine
 62
7
  6
CONTINUOUS
 10
8.0098316646
 20
7.0174732121
 11
8.1603353552
 21
7.0220957157
  0
LINE
  5
3F8
100
AcDbEntity
  8
IMPORT_IGES
100
AcDbLine
 62
7
  6
CONTINUOUS
 10
-8.0100852126
 20
7.0216689875
 11
-8.3100157199
 21
7.0269125423
  0
LINE
  5
3F9
100
AcDbEntity
  8
IMPORT_IGES
100
AcDbLine
 62
253
  6
CONTINUOUS
 10
-3.9447133425
 20
7.5598408545
 11
-4.1416667458
 21
7.5946166639
  0
LWPOLYLINE
  5
3FA
100
AcDbEntity
  8
IMPORT_IGES
100
AcDbPolyline
 62
7
  6
CONTINUOUS
 90
10
 70
0
 10
7.227516464
 20
0.2539325963
 10
7.2144158377
 20
0.2714042823
 10
7.1996181837
 20
0.2882970457
 10
7.1828084687
 20
0.3042261313
 10
7.1634669754
 20
0.3190059469
 10
7.1418267973
 20
0.3318115246
 10
7.1191745654
 20
0.3416951011
 10
7.0962991826
 20
0.3485476807
 10
7.073183609
 20
0.3526104252
 10
7.050155296
 20
0.3539604631
  0
LINE
  5
3FB
100
AcDbEntity
  8
IMPORT_IGES
100
AcDbLine
 62
253
  6
CONTINUOUS
 10
2.5764514029
 20
7.7300668932
 11
2.8839457694
 21
7.2677067965
  0
LINE
  5
3FC
100
AcDbEntity
  8
IMPORT_IGES
100
AcDbLine
 62
253
  6
CONTINUOUS
 10
2.5000316096
 20
7.8463613441
 11
2.5764514029
 21
7.7300668932
  0
LINE
  5
3FD
100
AcDbEntity
  8
IMPORT_IGES
100
AcDbLine
 62
253
  6
CONTINUOUS
 10
2.8839457694
 20
7.2677067965
 11
2.9021403837
 21
7.2399776144
  0
LWPOLYLINE
  5
3FE
100
AcDbEntity
  8
IMPORT_IGES
100
AcDbPolyline
 62
253
  6
CONTINUOUS
 90
7
 70
0
 10
4.4137891563
 20
7.2329525562
 10
4.4060208731
 20
7.2656589691
 10
4.3316621444
 20
7.6509493532
 10
4.2738442175
 20
8.0373495881
 10
4.2326886766
 20
8.423832273
 10
4.2080739375
 20
8.8113585812
 10
4.2
 20
9.1998957074
  0
LWPOLYLINE
  5
3FF
100
AcDbEntity
  8
IMPORT_IGES
100
AcDbPolyline
 62
253
  6
CONTINUOUS
 90
13
 70
0
 10
7.4499999999
 20
0.1721838479
 10
7.4494976219
 20
0.1805508319
 10
7.4481913327
 20
0.1911389635
 10
7.4460811323
 20
0.2039509251
 10
7.4430235597
 20
0.2199351623
 10
7.4391620758
 20
0.2381498404
 10
7.4349270634
 20
0.255757233
 10
7.4306484803
 20
0.2713983931
 10
7.4259963686
 20
0.286427257
 10
7.4204112383
 20
0.3020721576
 10
7.4137065926
 20
0.3187425429
 10
7.4060689283
 20
0.336027768
 10
7.3974982454
 20
0.3539267418
  0
LINE
  5
400
100
AcDbEntity
  8
IMPORT_IGES
100
AcDbLine
 62
7
  6
CONTINUOUS
 10
7.003
 20
11.0922307204
 11
7.003
 21
8.7735792601
  0
LINE
  5
401
100
AcDbEntity
  8
IMPORT_IGES
100
AcDbLine
 62
253
  6
CONTINUOUS
 10
7.0499991095
 20
-7.7155658559
 11
7.0500033344
 21
-9.6661760863
  0
LINE
  5
402
100
AcDbEntity
  8
IMPORT_IGES
100
AcDbLine
 62
253
  6
CONTINUOUS
 10
7.050154201
 20
0.5539317059
 11
7.0501548138
 21
0.3539325172
  0
LINE
  5
403
100
AcDbEntity
  8
IMPORT_IGES
100
AcDbLine
 62
253
  6
CONTINUOUS
 10
7.203
 20
11.0215211854
 11
7.203
 21
8.6944513635
  0
LINE
  5
404
100
AcDbEntity
  8
IMPORT_IGES
100
AcDbLine
 62
7
  6
CONTINUOUS
 10
7.25
 20
0.1539325152
 11
7.25
 21
-5.84137085
  0
LINE
  5
405
100
AcDbEntity
  8
IMPORT_IGES
100
AcDbLine
 62
7
  6
CONTINUOUS
 10
7.2499999999
 20
-7.8572605738
 11
7.2499999999
 21
-9.432129589
  0
LINE
  5
406
100
AcDbEntity
  8
IMPORT_IGES
100
AcDbLine
 62
253
  6
CONTINUOUS
 10
7.4499999846
 20
-8.016987371
 11
7.4499999683
 21
-9.5562501505
  0
LINE
  5
407
100
AcDbEntity
  8
IMPORT_IGES
100
AcDbLine
 62
253
  6
CONTINUOUS
 10
7.45
 20
-7.2201394699
 11
7.4499999999
 21
0.1721838479
  0
LWPOLYLINE
  5
408
100
AcDbEntity
  8
IMPORT_IGES
100
AcDbPolyline
 62
7
  6
CONTINUOUS
 90
31
 70
0
 10
5.6199171818
 20
-7.3292854892
 10
5.6294737764
 20
-7.2977416172
 10
5.6384154101
 20
-7.2650919175
 10
5.6467420828
 20
-7.23133639
 10
5.6543695557
 20
-7.1964840078
 10
5.6613820677
 20
-7.1605257979
 10
5.6680323354
 20
-7.1234348417
 10
5.674375051
 20
-7.0852057398
 10
5.6803555224
 20
-7.0458438918
 10
5.6860623896
 20
-7.0053385768
 10
5.6915109613
 20
-6.9637155615
 10
5.6966859289
 20
-6.9209490794
 10
5.701630006
 20
-6.8769511106
 10
5.7063526567
 20
-6.8317306015
 10
5.710844417
 20
-6.7852786057
 10
5.7151196078
 20
-6.7374802652
 10
5.7191854496
 20
-6.6883279126
 10
5.7230347218
 20
-6.6378292153
 10
5.7266600843
 20
-6.5858923167
 10
5.730066407
 20
-6.5325185172
 10
5.7332488198
 20
-6.4777065164
 10
5.7361853723
 20
-6.4213605567
 10
5.7388809909
 20
-6.3634822654
 10
5.7413307492
 20
-6.3040700153
 10
5.7434979164
 20
-6.2430231659
 10
5.7453885099
 20
-6.180339406
 10
5.7469965123
 20
-6.1160210469
 10
5.7482671408
 20
-6.0499743823
 10
5.7491821344
 20
-5.982168177
 10
5.7497597542
 20
-5.9126336662
 10
5.75
 20
-0.3496007424
  0
LWPOLYLINE
  5
409
100
AcDbEntity
  8
IMPORT_IGES
100
AcDbPolyline
 62
7
  6
CONTINUOUS
 90
46
 70
0
 10
4.7231314396
 20
-7.2201358
 10
4.7187133083
 20
-7.2321305122
 10
4.7141837171
 20
-7.2436258281
 10
4.709584909
 20
-7.2546300048
 10
4.7049703182
 20
-7.2651395535
 10
4.7003636517
 20
-7.2751791535
 10
4.6957528784
 20
-7.2847977759
 10
4.691160918
 20
-7.2940045753
 10
4.6866152163
 20
-7.3028090153
 10
4.6820987674
 20
-7.3112555545
 10
4.6776260826
 20
-7.3193537242
 10
4.6732167346
 20
-7.3271098321
 10
4.6688538076
 20
-7.334559477
 10
4.6645468881
 20
-7.3417111281
 10
4.6603099483
 20
-7.3485694964
 10
4.656127917
 20
-7.3551614845
 10
4.6520078948
 20
-7.3614934988
 10
4.6479594377
 20
-7.367570086
 10
4.6439680778
 20
-7.3734129984
 10
4.6400390472
 20
-7.3790274132
 10
4.6361790115
 20
-7.3844171418
 10
4.6323735308
 20
-7.3895999485
 10
4.6286262235
 20
-7.3945805547
 10
4.6249420107
 20
-7.3993614718
 10
4.6213069085
 20
-7.4039555113
 10
4.6177237577
 20
-7.4083667299
 10
4.614195901
 20
-7.4125968002
 10
4.6107090287
 20
-7.4166535317
 10
4.6072661421
 20
-7.4205400945
 10
4.6038687451
 20
-7.4242577085
 10
4.6004994434
 20
-7.4278098599
 10
4.5971619209
 20
-7.4311995129
 10
4.5938557467
 20
-7.4344266839
 10
4.5905566255
 20
-7.4374887961
 10
4.5872644633
 20
-7.4403932878
 10
4.5839816241
 20
-7.4431338234
 10
4.5806869449
 20
-7.4456854723
 10
4.5773901492
 20
-7.4480522099
 10
4.5740833552
 20
-7.4502298984
 10
4.5707184835
 20
-7.4521789377
 10
4.5672523604
 20
-7.4539152889
 10
4.5637294689
 20
-7.4554180375
 10
4.5602333672
 20
-7.4565935858
 10
4.5567928025
 20
-7.4574128392
 10
4.5533813354
 20
-7.4579077818
 10
4.55
 20
-7.4580795216
  0
LWPOLYLINE
  5
40A
100
AcDbEntity
  8
IMPORT_IGES
100
AcDbPolyline
 62
253
  6
CONTINUOUS
 90
5
 70
0
 10
-7.5103986751
 20
-9.6065263156
 10
-7.5212902942
 20
-9.6097169448
 10
-7.5316137986
 20
-9.6105354647
 10
-7.5412171686
 20
-9.6090548154
 10
-7.5500000001
 20
-9.6053346698
  0
LWPOLYLINE
  5
40B
100
AcDbEntity
  8
IMPORT_IGES
100
AcDbPolyline
 62
253
  6
CONTINUOUS
 90
3
 70
0
 10
7.1528006752
 20
8.7168623416
 10
7.1768947616
 20
8.7202512299
 10
7.203
 20
8.7214611091
  0
LINE
  5
40C
100
AcDbEntity
  8
IMPORT_IGES
100
AcDbLine
 62
7
  6
CONTINUOUS
 10
-4.5025898608
 20
6.9696077068
 11
-4.5
 21
6.9696383704
  0
LINE
  5
40D
100
AcDbEntity
  8
IMPORT_IGES
100
AcDbLine
 62
7
  6
CONTINUOUS
 10
-4.7999991816
 20
6.9690670645
 11
-4.5025898608
 21
6.9696077068
  0
LINE
  5
40E
100
AcDbEntity
  8
IMPORT_IGES
100
AcDbLine
 62
7
  6
CONTINUOUS
 10
4.1278659928
 20
7.6750144999
 11
4.2648630836
 21
7.6750144999
  0
LINE
  5
40F
100
AcDbEntity
  8
IMPORT_IGES
100
AcDbLine
 62
7
  6
CONTINUOUS
 10
-4.1310042723
 20
7.6750144999
 11
-4.2648630836
 21
7.6750144999
  0
LWPOLYLINE
  5
410
100
AcDbEntity
  8
IMPORT_IGES
100
AcDbPolyline
 62
7
  6
CONTINUOUS
 90
3
 70
0
 10
4.5102959886
 20
6.9697721035
 10
4.5403226642
 20
6.9697671877
 10
4.799998684
 20
6.9690886646
  0
LWPOLYLINE
  5
411
100
AcDbEntity
  8
IMPORT_IGES
100
AcDbPolyline
 62
253
  6
CONTINUOUS
 90
3
 70
0
 10
-7.1528075988
 20
8.7168633155
 10
-7.1768947616
 20
8.72025123
 10
-7.203
 20
8.7214611093
  0
LWPOLYLINE
  5
412
100
AcDbEntity
  8
IMPORT_IGES
100
AcDbPolyline
 62
253
  6
CONTINUOUS
 90
15
 70
0
 10
2.5000316096
 20
7.8463613441
 10
2.7211342096
 20
7.6602914418
 10
2.9232910377
 20
7.4839196877
 10
3.1065020938
 20
7.3172460816
 10
3.2660752293
 20
7.1655176183
 10
3.4067025928
 20
7.0234873031
 10
3.5424606306
 20
6.8754141518
 10
3.6796727183
 20
6.7154428038
 10
3.8120154802
 20
6.5494286197
 10
3.9345952358
 20
6.3791966975
 10
4.0467995038
 20
6.2038300461
 10
4.1492407654
 20
6.0242456565
 10
4.2388627843
 20
5.8450195998
 10
4.3146941613
 20
5.6700731033
 10
4.3658631859
 20
5.5282987268
  0
LINE
  5
413
100
AcDbEntity
  8
IMPORT_IGES
100
AcDbLine
 62
253
  6
CONTINUOUS
 10
7.9884829207
 20
8.3679077181
 11
7.994670625
 21
8.0134143777
  0
LINE
  5
414
100
AcDbEntity
  8
IMPORT_IGES
100
AcDbLine
 62
253
  6
CONTINUOUS
 10
7.9590625198
 20
10.2654516411
 11
7.9860144018
 21
8.721461109
  0
LINE
  5
415
100
AcDbEntity
  8
IMPORT_IGES
100
AcDbLine
 62
7
  6
CONTINUOUS
 10
8.4227212944
 20
0.5700144999
 11
8.3100156476
 21
7.0269166833
  0
LINE
  5
416
100
AcDbEntity
  8
IMPORT_IGES
100
AcDbLine
 62
7
  6
CONTINUOUS
 10
8.3119346561
 20
7.0269767603
 11
8.2565057833
 21
10.202494755
  0
LINE
  5
417
100
AcDbEntity
  8
IMPORT_IGES
100
AcDbLine
 62
253
  6
CONTINUOUS
 10
8.010149868
 20
7.0174281331
 11
8.1220555343
 21
0.5700145789
  0
LINE
  5
418
100
AcDbEntity
  8
IMPORT_IGES
100
AcDbLine
 62
7
  6
CONTINUOUS
 10
7.9860144018
 20
8.7214611091
 11
7.9884830685
 21
8.3679077187
  0
LINE
  5
419
100
AcDbEntity
  8
IMPORT_IGES
100
AcDbLine
 62
7
  6
CONTINUOUS
 10
7.9873573988
 20
-7.2201394699
 11
7.9850089773
 21
-7.5564892691
  0
LINE
  5
41A
100
AcDbEntity
  8
IMPORT_IGES
100
AcDbLine
 62
253
  6
CONTINUOUS
 10
7.9559191794
 20
-9.224303394
 11
7.9556144928
 21
-9.2645728509
  0
LINE
  5
41B
100
AcDbEntity
  8
IMPORT_IGES
100
AcDbLine
 62
253
  6
CONTINUOUS
 10
8.119384815
 20
0.3539323499
 11
8.1220555343
 21
0.5700145789
  0
LINE
  5
41C
100
AcDbEntity
  8
IMPORT_IGES
100
AcDbLine
 62
7
  6
CONTINUOUS
 10
8.119384815
 20
0.3539323499
 11
8.1067321905
 21
-0.4669727881
  0
LINE
  5
41D
100
AcDbEntity
  8
IMPORT_IGES
100
AcDbLine
 62
253
  6
CONTINUOUS
 10
7.9850090078
 20
-7.5564889431
 11
7.9559191794
 21
-9.224303394
  0
LINE
  5
41E
100
AcDbEntity
  8
IMPORT_IGES
100
AcDbLine
 62
7
  6
CONTINUOUS
 10
8.2551485566
 20
-9.0302212221
 11
8.4227212944
 21
0.5700144999
  0
LINE
  5
41F
100
AcDbEntity
  8
IMPORT_IGES
100
AcDbLine
 62
253
  6
CONTINUOUS
 10
8.1067321905
 20
-0.4669727881
 11
7.9873573988
 21
-7.2201394654
  0
LWPOLYLINE
  5
420
100
AcDbEntity
  8
IMPORT_IGES
100
AcDbPolyline
 62
253
  6
CONTINUOUS
 90
6
 70
0
 10
4.0358633713
 20
-7.6008336308
 10
4.0245656439
 20
-7.6136915174
 10
4.0154310845
 20
-7.6277301389
 10
4.0086750888
 20
-7.6427016562
 10
4.004453274
 20
-7.6583750185
 10
4.0028944147
 20
-7.6744781933
  0
LWPOLYLINE
  5
421
100
AcDbEntity
  8
IMPORT_IGES
100
AcDbPolyline
 62
7
  6
CONTINUOUS
 90
6
 70
0
 10
4.1301709357
 20
-7.7552323277
 10
4.1350865715
 20
-7.7501854239
 10
4.1392830966
 20
-7.7447185299
 10
4.1430533083
 20
-7.7388044633
 10
4.1464399968
 20
-7.7324719739
 10
4.1491793417
 20
-7.7257868437
  0
LWPOLYLINE
  5
422
100
AcDbEntity
  8
IMPORT_IGES
100
AcDbPolyline
 62
7
  6
CONTINUOUS
 90
6
 70
0
 10
4.0490813743
 20
-7.805120073
 10
4.0573990664
 20
-7.7980900649
 10
4.0663535977
 20
-7.791582111
 10
4.0758972401
 20
-7.7856763011
 10
4.0860907862
 20
-7.7803896482
 10
4.0890211489
 20
-7.7790478166
  0
LWPOLYLINE
  5
423
100
AcDbEntity
  8
IMPORT_IGES
100
AcDbPolyline
 62
7
  6
CONTINUOUS
 90
5
 70
0
 10
4.0483306391
 20
-7.7986133784
 10
4.056501434
 20
-7.7940088505
 10
4.0647748449
 20
-7.7898082856
 10
4.0730834379
 20
-7.7859119661
 10
4.0814238525
 20
-7.7821942985
  0
LWPOLYLINE
  5
424
100
AcDbEntity
  8
IMPORT_IGES
100
AcDbPolyline
 62
7
  6
CONTINUOUS
 90
7
 70
0
 10
4.0889741044
 20
-7.7789053071
 10
4.0973338614
 20
-7.7752004054
 10
4.1048588494
 20
-7.7716743267
 10
4.1119858765
 20
-7.7679948957
 10
4.1185710294
 20
-7.7640852328
 10
4.1246066094
 20
-7.7598607867
 10
4.1301709357
 20
-7.7552323277
  0
LINE
  5
425
100
AcDbEntity
  8
IMPORT_IGES
100
AcDbLine
 62
7
  6
CONTINUOUS
 10
4.0814238525
 20
-7.7821942985
 11
4.0889741044
 21
-7.7789053071
  0
LWPOLYLINE
  5
426
100
AcDbEntity
  8
IMPORT_IGES
100
AcDbPolyline
 62
7
  6
CONTINUOUS
 90
3
 70
0
 10
4.0845593115
 20
-7.7808263927
 10
4.0981739246
 20
-7.7753360413
 10
4.1194300774
 20
-7.7683461308
  0
LINE
  5
427
100
AcDbEntity
  8
IMPORT_IGES
100
AcDbLine
 62
253
  6
CONTINUOUS
 10
4.0367559346
 20
8.3856715941
 11
3.8375463848
 21
8.3679077187
  0
LINE
  5
428
100
AcDbEntity
  8
IMPORT_IGES
100
AcDbLine
 62
253
  6
CONTINUOUS
 10
8.2884372293
 20
8.3731434396
 11
7.9884829207
 21
8.3679077183
  0
LWPOLYLINE
  5
429
100
AcDbEntity
  8
IMPORT_IGES
100
AcDbPolyline
 62
253
  6
CONTINUOUS
 90
13
 70
0
 10
-3.8210217456
 20
8.7214610864
 10
-3.8457184103
 20
8.7211992449
 10
-3.8703774095
 20
8.7187219189
 10
-3.8943815398
 20
8.7140257793
 10
-3.9168450576
 20
8.7073244051
 10
-3.9375677844
 20
8.6987858918
 10
-3.9568889154
 20
8.688247183
 10
-3.9743600857
 20
8.6758001677
 10
-3.9893982608
 20
8.6617636434
 10
-4.0018868771
 20
8.6461301316
 10
-4.0114485644
 20
8.629147651
 10
-4.0177068759
 20
8.6113855384
 10
-4.0205798567
 20
8.5933376793
  0
LINE
  5
42A
100
AcDbEntity
  8
IMPORT_IGES
100
AcDbLine
 62
7
  6
CONTINUOUS
 10
4.1048535023
 20
8.2750144999
 11
4.0473707822
 21
8.2750144999
  0
LINE
  5
42B
100
AcDbEntity
  8
IMPORT_IGES
100
AcDbLine
 62
7
  6
CONTINUOUS
 10
-4.0514314332
 20
8.2750144999
 11
-4.1048535023
 21
8.2750144999
  0
LINE
  5
42C
100
AcDbEntity
  8
IMPORT_IGES
100
AcDbLine
 62
253
  6
CONTINUOUS
 10
7.9884829207
 20
8.3679077181
 11
7.693214385
 21
8.367907718
  0
LINE
  5
42D
100
AcDbEntity
  8
IMPORT_IGES
100
AcDbLine
 62
253
  6
CONTINUOUS
 10
3.8375463848
 20
8.367907718
 11
-3.8375463848
 21
8.3679077187
  0
LINE
  5
42E
100
AcDbEntity
  8
IMPORT_IGES
100
AcDbLine
 62
253
  6
CONTINUOUS
 10
-7.6932177674
 20
8.367907718
 11
-7.9884829208
 21
8.3679077179
  0
LINE
  5
42F
100
AcDbEntity
  8
IMPORT_IGES
100
AcDbLine
 62
253
  6
CONTINUOUS
 10
7.203
 20
8.7214611091
 11
7.9860144018
 21
8.721461109
  0
LINE
  5
430
100
AcDbEntity
  8
IMPORT_IGES
100
AcDbLine
 62
253
  6
CONTINUOUS
 10
-7.2030016412
 20
8.721461109
 11
-7.9860144018
 21
8.7214611091
  0
LINE
  5
431
100
AcDbEntity
  8
IMPORT_IGES
100
AcDbLine
 62
253
  6
CONTINUOUS
 10
3.8210226047
 20
8.721461115
 11
-3.8210224345
 21
8.7214611621
  0
LWPOLYLINE
  5
432
100
AcDbEntity
  8
IMPORT_IGES
100
AcDbPolyline
 62
253
  6
CONTINUOUS
 90
13
 70
0
 10
3.8210222866
 20
8.7214535046
 10
3.8457183831
 20
8.7211917402
 10
3.8703768541
 20
8.7187146274
 10
3.8943805374
 20
8.7140188248
 10
3.916843771
 20
8.7073178655
 10
3.9375663399
 20
8.6987798237
 10
3.9568873223
 20
8.6882417042
 10
3.9743583754
 20
8.675795418
 10
3.9893965424
 20
8.6617597299
 10
4.0018852893
 20
8.6461271759
 10
4.0114473002
 20
8.6291457475
 10
4.0177061664
 20
8.6113847096
 10
4.0205799357
 20
8.5933378833
  0
LINE
  5
433
100
AcDbEntity
  8
IMPORT_IGES
100
AcDbLine
 62
253
  6
CONTINUOUS
 10
-7.9884829213
 20
8.3679076882
 11
-8.2884372293
 21
8.3731434406
  0
LINE
  5
434
100
AcDbEntity
  8
IMPORT_IGES
100
AcDbLine
 62
253
  6
CONTINUOUS
 10
-4.0367559346
 20
8.3856715941
 11
-3.8375463895
 21
8.3679076667
  0
LWPOLYLINE
  5
435
100
AcDbEntity
  8
IMPORT_IGES
100
AcDbPolyline
 62
253
  6
CONTINUOUS
 90
13
 70
0
 10
-6.8787973437
 20
11.5750144604
 10
-6.8739364091
 20
11.5733627817
 10
-6.8690728908
 20
11.5683195756
 10
-6.8643364117
 20
11.5598853839
 10
-6.859892486
 20
11.5483619052
 10
-6.8558101063
 20
11.5340375943
 10
-6.85208265
 20
11.5168913851
 10
-6.8488118088
 20
11.4973456632
 10
-6.8460723086
 20
11.4759076722
 10
-6.8438615323
 20
11.4524964443
 10
-6.8422380208
 20
11.4274956355
 10
-6.8412584921
 20
11.4018357401
 10
-6.8409186903
 20
11.3762373025
  0
LWPOLYLINE
  5
436
100
AcDbEntity
  8
IMPORT_IGES
100
AcDbPolyline
 62
253
  6
CONTINUOUS
 90
13
 70
0
 10
8.2859687103
 20
8.5145647968
 10
8.2829632423
 20
8.5419869219
 10
8.2749563082
 20
8.5688589919
 10
8.2620827676
 20
8.5947284048
 10
8.2445594477
 20
8.6191594445
 10
8.2226814913
 20
8.641740624
 10
8.1968173854
 20
8.6620916156
 10
8.1674027555
 20
8.6798696519
 10
8.134933028
 20
8.6947752986
 10
8.0999550856
 20
8.7065575021
 10
8.0630580568
 20
8.7150178164
 10
8.024863393
 20
8.7200137458
 10
7.9860144012
 20
8.7214611445
  0
LWPOLYLINE
  5
437
100
AcDbEntity
  8
IMPORT_IGES
100
AcDbPolyline
 62
253
  6
CONTINUOUS
 90
3
 70
0
 10
8.2590181559
 20
10.0585610261
 10
8.2560603585
 20
10.0857471596
 10
8.248229725
 20
10.1122863946
  0
LWPOLYLINE
  5
438
100
AcDbEntity
  8
IMPORT_IGES
100
AcDbPolyline
 62
253
  6
CONTINUOUS
 90
13
 70
0
 10
8.2849633178
 20
-7.3221346961
 10
8.2819739583
 20
-7.3526791875
 10
8.2741533865
 20
-7.3825492698
 10
8.2616720688
 20
-7.4112658817
 10
8.2448655339
 20
-7.438249447
 10
8.2239913865
 20
-7.4632274743
 10
8.1990294433
 20
-7.4861367628
 10
8.170079385
 20
-7.5066300371
 10
8.137651717
 20
-7.5241185586
 10
8.1023264895
 20
-7.5381494068
 10
8.0647063846
 20
-7.5483832061
 10
8.0253775865
 20
-7.5545653107
 10
7.9850199943
 20
-7.5564893385
  0
LWPOLYLINE
  5
439
100
AcDbEntity
  8
IMPORT_IGES
100
AcDbPolyline
 62
253
  6
CONTINUOUS
 90
13
 70
0
 10
-7.9860136848
 20
8.7214611029
 10
-8.0248629986
 20
8.7200137436
 10
-8.0630579034
 20
8.7150178088
 10
-8.0999550862
 20
8.7065574669
 10
-8.1349330747
 20
8.6947752451
 10
-8.1674027773
 20
8.6798696055
 10
-8.196817386
 20
8.6620915804
 10
-8.2226814919
 20
8.6417405875
 10
-8.2445594484
 20
8.6191594067
 10
-8.2620827682
 20
8.5947283696
 10
-8.2749563087
 20
8.5688589645
 10
-8.2829632426
 20
8.5419869062
 10
-8.2859687103
 20
8.5145647968
  0
LWPOLYLINE
  5
43A
100
AcDbEntity
  8
IMPORT_IGES
100
AcDbPolyline
 62
253
  6
CONTINUOUS
 90
13
 70
0
 10
-4.2
 20
9.1998957074
 10
-4.1742155415
 20
9.1999941494
 10
-4.1489402748
 20
9.2002866035
 10
-4.1245873815
 20
9.2007664058
 10
-4.1016592051
 20
9.2014202062
 10
-4.0803909146
 20
9.2022376782
 10
-4.0608336631
 20
9.2032197894
 10
-4.0432813678
 20
9.2043598121
 10
-4.0282544019
 20
9.2056403537
 10
-4.0161592
 20
9.2070467166
 10
-4.0072856909
 20
9.2085571726
 10
-4.0018422079
 20
9.210145011
 10
-4.0
 20
9.2117827815
  0
LWPOLYLINE
  5
43B
100
AcDbEntity
  8
IMPORT_IGES
100
AcDbPolyline
 62
253
  6
CONTINUOUS
 90
13
 70
0
 10
4.2
 20
9.1998957074
 10
4.1738947616
 20
9.1999966254
 10
4.148236191
 20
9.200297651
 10
4.1234633135
 20
9.2007936335
 10
4.1
 20
9.2014760865
 10
4.0782477142
 20
9.202333333
 10
4.0585786438
 20
9.2033507055
 10
4.0413293319
 20
9.2045107967
 10
4.0267949192
 20
9.2057937569
 10
4.0152240935
 20
9.2071776343
 10
4.0068148347
 20
9.2086387504
 10
4.0017110277
 20
9.2101521051
 10
4.0
 20
9.2116918045
  0
LWPOLYLINE
  5
43C
100
AcDbEntity
  8
IMPORT_IGES
100
AcDbPolyline
 62
253
  6
CONTINUOUS
 90
13
 70
0
 10
3.8
 20
9.353113159
 10
3.8257844852
 20
9.3519329528
 10
3.8510597702
 20
9.3484267651
 10
3.8754126732
 20
9.34267449
 10
3.8983408497
 20
9.334836184
 10
3.9196091331
 20
9.3250356497
 10
3.9391663751
 20
9.3132612865
 10
3.9567186593
 20
9.2995532378
 10
3.9717456139
 20
9.2841605784
 10
3.9838408078
 20
9.2673809282
 10
3.9927143122
 20
9.2495150066
 10
3.9981577928
 20
9.2308423069
 10
4.0
 20
9.2116916728
  0
LINE
  5
43D
100
AcDbEntity
  8
IMPORT_IGES
100
AcDbLine
 62
7
  6
CONTINUOUS
 10
7.45
 20
-7.2201394745
 11
7.3800828182
 21
-7.3292854892
  0
LWPOLYLINE
  5
43E
100
AcDbEntity
  8
IMPORT_IGES
100
AcDbPolyline
 62
253
  6
CONTINUOUS
 90
13
 70
0
 10
7.203
 20
11.0215211608
 10
7.1775608255
 20
11.0203724826
 10
7.1524907659
 20
11.0169369656
 10
7.1282018426
 20
11.0112585551
 10
7.1051709402
 20
11.0034478387
 10
7.0836991056
 20
10.9936059643
 10
7.063964123
 20
10.9817586087
 10
7.0462769558
 20
10.967957323
 10
7.0311542911
 20
10.9524498281
 10
7.0190422015
 20
10.9355954276
 10
7.0102097334
 20
10.9177290082
 10
7.0048171702
 20
10.8991204123
 10
7.003
 20
10.8800998297
  0
LWPOLYLINE
  5
43F
100
AcDbEntity
  8
IMPORT_IGES
100
AcDbPolyline
 62
253
  6
CONTINUOUS
 90
13
 70
0
 10
-7.9590638468
 20
10.2654573719
 10
-7.9975767299
 20
10.2640379462
 10
-8.0352954098
 20
10.2591587084
 10
-8.0716126671
 20
10.2509428487
 10
-8.105780924
 20
10.2396339486
 10
-8.1374761594
 20
10.2254171805
 10
-8.1666669501
 20
10.2082619629
 10
-8.1929346562
 20
10.1882124402
 10
-8.2155021218
 20
10.1656301958
 10
-8.2337690156
 20
10.1409448232
 10
-8.2473072452
 20
10.114590819
 10
-8.2558089769
 20
10.0869708739
 10
-8.2590181559
 20
10.0585610261
  0
LWPOLYLINE
  5
440
100
AcDbEntity
  8
IMPORT_IGES
100
AcDbPolyline
 62
253
  6
CONTINUOUS
 90
13
 70
0
 10
-7.2030016412
 20
11.0215422094
 10
-7.1768956655
 20
11.0203230705
 10
-7.1512365433
 20
11.0167071087
 10
-7.1264633135
 20
11.0107561262
 10
-7.1029998947
 20
11.0025727165
 10
-7.081247666
 20
10.9922961302
 10
-7.0615786438
 20
10.9800998297
 10
-7.0443293319
 20
10.9661916966
 10
-7.0297949192
 20
10.9508105078
 10
-7.0182240935
 20
10.9342194397
 10
-7.0098148347
 20
10.9167023701
 10
-7.0047110277
 20
10.8985590208
 10
-7.003
 20
10.8800998297
  0
LWPOLYLINE
  5
441
100
AcDbEntity
  8
IMPORT_IGES
100
AcDbPolyline
 62
253
  6
CONTINUOUS
 90
3
 70
0
 10
7.2458235581
 20
-9.4380893352
 10
7.2489602943
 20
-9.4338988253
 10
7.2499999999
 20
-9.4321298411
  0
LWPOLYLINE
  5
442
100
AcDbEntity
  8
IMPORT_IGES
100
AcDbPolyline
 62
253
  6
CONTINUOUS
 90
5
 70
0
 10
7.1857015087
 20
-9.5106866748
 10
7.2124518621
 20
-9.47922775
 10
7.2237195434
 20
-9.4657907315
 10
7.2331896988
 20
-9.45402709
 10
7.2458235581
 20
-9.4380893352
  0
LWPOLYLINE
  5
443
100
AcDbEntity
  8
IMPORT_IGES
100
AcDbPolyline
 62
253
  6
CONTINUOUS
 90
4
 70
0
 10
7.05
 20
-9.6661760863
 10
7.0719398469
 20
-9.6405782771
 10
7.093409389
 20
-9.6160614596
 10
7.1340082922
 20
-9.5701118279
  0
LWPOLYLINE
  5
444
100
AcDbEntity
  8
IMPORT_IGES
100
AcDbPolyline
 62
253
  6
CONTINUOUS
 90
3
 70
0
 10
7.1340082922
 20
-9.5701118279
 10
7.1700371421
 20
-9.5288294368
 10
7.1857015087
 20
-9.5106866748
  0
LWPOLYLINE
  5
445
100
AcDbEntity
  8
IMPORT_IGES
100
AcDbPolyline
 62
253
  6
CONTINUOUS
 90
4
 70
0
 10
8.0675461267
 20
-9.2478480735
 10
8.1024822216
 20
-9.234640086
 10
8.1351088276
 20
-9.2178406286
 10
8.1647604422
 20
-9.1977421964
  0
LWPOLYLINE
  5
446
100
AcDbEntity
  8
IMPORT_IGES
100
AcDbPolyline
 62
253
  6
CONTINUOUS
 90
4
 70
0
 10
4.0000000012
 20
11.3750152648
 10
4.0017138088
 20
11.3751871074
 10
4.0068201191
 20
11.3753455732
 10
4.015231479
 20
11.3754933699
  0
LINE
  5
447
100
AcDbEntity
  8
IMPORT_IGES
100
AcDbLine
 62
253
  6
CONTINUOUS
 10
4.015231479
 20
11.3754933699
 11
4.0413392571
 21
11.3757762446
  0
LINE
  5
448
100
AcDbEntity
  8
IMPORT_IGES
100
AcDbLine
 62
253
  6
CONTINUOUS
 10
4.0413392571
 20
11.3757762446
 11
4.1234712879
 21
11.3761670826
  0
LINE
  5
449
100
AcDbEntity
  8
IMPORT_IGES
100
AcDbLine
 62
253
  6
CONTINUOUS
 10
3.8
 20
11.4285678905
 11
-3.8
 21
11.4285678907
  0
LINE
  5
44A
100
AcDbEntity
  8
IMPORT_IGES
100
AcDbLine
 62
7
  6
CONTINUOUS
 10
6.878796659
 20
11.5750144999
 11
-6.8787973436
 21
11.5750144999
  0
LINE
  5
44B
100
AcDbEntity
  8
IMPORT_IGES
100
AcDbLine
 62
253
  6
CONTINUOUS
 10
6.5
 20
11.6750144999
 11
-6.5
 21
11.6750144999
  0
LINE
  5
44C
100
AcDbEntity
  8
IMPORT_IGES
100
AcDbLine
 62
253
  6
CONTINUOUS
 10
6.8409281986
 20
11.3762370931
 11
4.1234712879
 21
11.3761670826
  0
LINE
  5
44D
100
AcDbEntity
  8
IMPORT_IGES
100
AcDbLine
 62
253
  6
CONTINUOUS
 10
-6.8409186905
 20
11.3762373025
 11
-4.1482381129
 21
11.3762155222
  0
LINE
  5
44E
100
AcDbEntity
  8
IMPORT_IGES
100
AcDbLine
 62
253
  6
CONTINUOUS
 10
-4.1482381129
 20
11.3762155222
 11
-4.0585810954
 21
11.3758969986
  0
LWPOLYLINE
  5
44F
100
AcDbEntity
  8
IMPORT_IGES
100
AcDbPolyline
 62
253
  6
CONTINUOUS
 90
6
 70
0
 10
-4.0585810954
 20
11.3758969986
 10
-4.0267966659
 20
11.3756366438
 10
-4.0152252923
 20
11.3754924295
 10
-4.0068154557
 20
11.3753446767
 10
-4.0017112046
 20
11.3751862696
 10
-4.0
 20
11.3750144998
  0
LWPOLYLINE
  5
450
100
AcDbEntity
  8
IMPORT_IGES
100
AcDbPolyline
 62
253
  6
CONTINUOUS
 90
8
 70
0
 10
3.9586706681
 20
11.3732384011
 10
3.9414213562
 20
11.3871465342
 10
3.9217522858
 20
11.3993436396
 10
3.9
 20
11.4096210213
 10
3.8765366865
 20
11.4178028307
 10
3.851763809
 20
11.4237490746
 10
3.8261052384
 20
11.4273580112
 10
3.8
 20
11.4285678906
  0
LWPOLYLINE
  5
451
100
AcDbEntity
  8
IMPORT_IGES
100
AcDbPolyline
 62
253
  6
CONTINUOUS
 90
8
 70
0
 10
6.9713906808
 20
11.1564417107
 10
6.9785254693
 20
11.1423407596
 10
6.9850740733
 20
11.1290738511
 10
6.9908092253
 20
11.1171951507
 10
6.9957184783
 20
11.1074946695
 10
6.9995863679
 20
11.100234179
 10
7.0021026565
 20
11.0951470893
 10
7.0029999987
 20
11.0922295768
  0
LWPOLYLINE
  5
452
100
AcDbEntity
  8
IMPORT_IGES
100
AcDbPolyline
 62
253
  6
CONTINUOUS
 90
3
 70
0
 10
6.8764383616
 20
11.3466763724
 10
6.9549667537
 20
11.1896854267
 10
6.9713906808
 20
11.1564417107
  0
LWPOLYLINE
  5
453
100
AcDbEntity
  8
IMPORT_IGES
100
AcDbPolyline
 62
253
  6
CONTINUOUS
 90
7
 70
0
 10
8.1647604422
 20
-9.1977421964
 10
8.1909137278
 20
-9.1746655113
 10
8.2130997073
 20
-9.1489856628
 10
8.2308711639
 20
-9.121203378
 10
8.2439228931
 20
-9.0918227378
 10
8.2520586906
 20
-9.0613220308
 10
8.2551485566
 20
-9.030221222
  0
LINE
  5
454
100
AcDbEntity
  8
IMPORT_IGES
100
AcDbLine
 62
7
  6
CONTINUOUS
 10
8.105194248
 20
-9.2847931213
 11
6.3731378189
 21
-10.2847963669
  0
LINE
  5
455
100
AcDbEntity
  8
IMPORT_IGES
100
AcDbLine
 62
253
  6
CONTINUOUS
 10
7.9556144928
 20
-9.2645728509
 11
7.4499999683
 21
-9.5562501505
  0
LINE
  5
456
100
AcDbEntity
  8
IMPORT_IGES
100
AcDbLine
 62
253
  6
CONTINUOUS
 10
7.0500033344
 20
-9.6661760863
 11
6.2731434312
 21
-10.1125348448
  0
LWPOLYLINE
  5
457
100
AcDbEntity
  8
IMPORT_IGES
100
AcDbPolyline
 62
253
  6
CONTINUOUS
 90
10
 70
0
 10
6.2731434312
 20
-10.1125348448
 10
6.2680009158
 20
-10.115291317
 10
6.2627411999
 20
-10.1177330947
 10
6.2573642838
 20
-10.1198601776
 10
6.2518515799
 20
-10.1216779874
 10
6.2462216757
 20
-10.1231811021
 10
6.2405303329
 20
-10.1243532558
 10
6.2347961389
 20
-10.1251890264
 10
6.2290005064
 20
-10.1256938358
 10
6.2231434353
 20
-10.1258676839
  0
LWPOLYLINE
  5
458
100
AcDbEntity
  8
IMPORT_IGES
100
AcDbPolyline
 62
253
  6
CONTINUOUS
 90
10
 70
0
 10
8.105194248
 20
-9.2847931213
 10
8.0919566719
 20
-9.2910890057
 10
8.077543651
 20
-9.2953396832
 10
8.0620459601
 20
-9.2974639546
 10
8.0454887381
 20
-9.2973922339
 10
8.0280607166
 20
-9.2950598006
 10
8.0101440484
 20
-9.2905088872
 10
7.9919814513
 20
-9.2838509441
 10
7.9736445579
 20
-9.2751645124
 10
7.9552834855
 20
-9.2645563376
  0
LINE
  5
459
100
AcDbEntity
  8
IMPORT_IGES
100
AcDbLine
 62
7
  6
CONTINUOUS
 10
6.3997278077
 20
11.7750144999
 11
-6.4
 21
11.7750144999
  0
LWPOLYLINE
  5
45A
100
AcDbEntity
  8
IMPORT_IGES
100
AcDbPolyline
 62
253
  6
CONTINUOUS
 90
10
 70
0
 10
6.8409281986
 20
11.3762370931
 10
6.8458939432
 20
11.3755209905
 10
6.8505406993
 20
11.3741928275
 10
6.8548706615
 20
11.3722525217
 10
6.8588081732
 20
11.3697398993
 10
6.8624359126
 20
11.3666149686
 10
6.8659902379
 20
11.3627580434
 10
6.8695479294
 20
11.3581293172
 10
6.8730306887
 20
11.3527687386
 10
6.8764383616
 20
11.3466763724
  0
LWPOLYLINE
  5
45B
100
AcDbEntity
  8
IMPORT_IGES
100
AcDbPolyline
 62
253
  6
CONTINUOUS
 90
11
 70
0
 10
8.248229725
 20
10.1122863946
 10
8.2357155188
 20
10.1377525738
 10
8.2188806837
 20
10.1616233501
 10
8.197995146
 20
10.1836742542
 10
8.1730166023
 20
10.2038822694
 10
8.1440179695
 20
10.2219528213
 10
8.11152975
 20
10.2373454635
 10
8.0761741684
 20
10.2496459846
 10
8.0385761441
 20
10.2585624014
 10
7.9993126979
 20
10.2638873425
 10
7.9590632332
 20
10.2654516473
  0
LWPOLYLINE
  5
45C
100
AcDbEntity
  8
IMPORT_IGES
100
AcDbPolyline
 62
253
  6
CONTINUOUS
 90
13
 70
0
 10
7.0909264735
 20
11.4871481305
 10
7.0835914189
 20
11.491315609
 10
7.0729527122
 20
11.492202338
 10
7.0592333366
 20
11.4895895656
 10
7.0431476297
 20
11.4836324838
 10
7.0252095224
 20
11.4746418746
 10
7.0053296989
 20
11.4625918489
 10
6.9841616439
 20
11.4478459656
 10
6.9624478066
 20
11.4309518547
 10
6.9400558765
 20
11.4117909811
 10
6.9175343178
 20
11.3907467327
 10
6.8960279652
 20
11.368877882
 10
6.8762646594
 20
11.3470239335
  0
LWPOLYLINE
  5
45D
100
AcDbEntity
  8
IMPORT_IGES
100
AcDbPolyline
 62
253
  6
CONTINUOUS
 90
10
 70
0
 10
8.1686821363
 20
10.4093924401
 10
8.1547035484
 20
10.4194734805
 10
8.1379600292
 20
10.4239938194
 10
8.1183889338
 20
10.4222891142
 10
8.0959472372
 20
10.4133807673
 10
8.0708306505
 20
10.396826322
 10
8.0438356336
 20
10.3734127235
 10
8.015815949
 20
10.3437688027
 10
7.9873283363
 20
10.3076936739
 10
7.9590672032
 20
10.2654539827
  0
LINE
  5
45E
100
AcDbEntity
  8
IMPORT_IGES
100
AcDbLine
 62
253
  6
CONTINUOUS
 10
7.203
 20
11.0215211854
 11
7.9590625198
 21
10.2654516411
  0
LINE
  5
45F
100
AcDbEntity
  8
IMPORT_IGES
100
AcDbLine
 62
7
  6
CONTINUOUS
 10
8.168684219
 20
10.4093903576
 11
7.0909282199
 21
11.4871463566
  0
ARC
  5
460
100
AcDbEntity
  8
IMPORT_IGES
100
AcDbCircle
 62
7
  6
CONTINUOUS
 10
-5.1
 20
0.1700144999
 40
0.6
100
AcDbArc
 50
269.9999999999
 51
360.0
  0
ARC
  5
461
100
AcDbEntity
  8
IMPORT_IGES
100
AcDbCircle
 62
7
  6
CONTINUOUS
 10
-5.45
 20
0.1700144999
 40
0.6
100
AcDbArc
 50
180.0
 51
270.0
  0
ARC
  5
462
100
AcDbEntity
  8
IMPORT_IGES
100
AcDbCircle
 62
7
  6
CONTINUOUS
 10
-6.2231434405
 20
-10.0249855001
 40
0.3
100
AcDbArc
 50
240.0000120939
 51
270.0000000642
  0
ARC
  5
463
100
AcDbEntity
  8
IMPORT_IGES
100
AcDbCircle
 62
253
  6
CONTINUOUS
 10
-5.1
 20
0.1700144999
 40
0.3
100
AcDbArc
 50
270.0000000001
 51
360.0
  0
ARC
  5
464
100
AcDbEntity
  8
IMPORT_IGES
100
AcDbCircle
 62
253
  6
CONTINUOUS
 10
-5.45
 20
0.1700144999
 40
0.3
100
AcDbArc
 50
180.0
 51
270.0
  0
ARC
  5
465
100
AcDbEntity
  8
IMPORT_IGES
100
AcDbCircle
 62
7
  6
CONTINUOUS
 10
-7.9551964078
 20
-9.0249858661
 40
0.2999990457
100
AcDbArc
 50
180.9998575135
 51
240.0057583378
  0
ARC
  5
466
100
AcDbEntity
  8
IMPORT_IGES
100
AcDbCircle
 62
7
  6
CONTINUOUS
 10
-7.45
 20
-9.4321295891
 40
0.2
100
AcDbArc
 50
240.0000032026
 51
359.9999543684
  0
ARC
  5
467
100
AcDbEntity
  8
IMPORT_IGES
100
AcDbCircle
 62
7
  6
CONTINUOUS
 10
-7.05
 20
0.1539325168
 40
0.2
100
AcDbArc
 50
90.0000000761
 51
179.9990411618
  0
ARC
  5
468
100
AcDbEntity
  8
IMPORT_IGES
100
AcDbCircle
 62
7
  6
CONTINUOUS
 10
-3.7734545901
 20
-10.1249836244
 40
0.1999996962
100
AcDbArc
 50
180.6869390008
 51
270.0029465965
  0
ARC
  5
469
100
AcDbEntity
  8
IMPORT_IGES
100
AcDbCircle
 62
7
  6
CONTINUOUS
 10
-5.9
 20
-10.4249855001
 40
0.1
100
AcDbArc
 50
179.9999999998
 51
270.0012693104
  0
ARC
  5
46A
100
AcDbEntity
  8
IMPORT_IGES
100
AcDbCircle
 62
7
  6
CONTINUOUS
 10
-6.1
 20
-10.4249855001
 40
0.1
100
AcDbArc
 50
0.0000000003
 51
89.9975836551
  0
ARC
  5
46B
100
AcDbEntity
  8
IMPORT_IGES
100
AcDbCircle
 62
253
  6
CONTINUOUS
 10
-13.3
 20
9.2116918027
 40
9.5
100
AcDbArc
 50
349.9865678122
 51
354.9043096237
  0
ARC
  5
46C
100
AcDbEntity
  8
IMPORT_IGES
100
AcDbCircle
 62
7
  6
CONTINUOUS
 10
-13.3
 20
9.2116918027
 40
9.3
100
AcDbArc
 50
349.9865678122
 51
0.0001398085
  0
ARC
  5
46D
100
AcDbEntity
  8
IMPORT_IGES
100
AcDbCircle
 62
7
  6
CONTINUOUS
 10
-7.9565514748
 20
10.197259033
 40
0.3
100
AcDbArc
 50
135.0000018621
 51
179.0
  0
ARC
  5
46E
100
AcDbEntity
  8
IMPORT_IGES
100
AcDbCircle
 62
7
  6
CONTINUOUS
 10
-7.203
 20
11.092231864
 40
0.2
100
AcDbArc
 50
0.0
 51
135.000001097
  0
ARC
  5
46F
100
AcDbEntity
  8
IMPORT_IGES
100
AcDbCircle
 62
253
  6
CONTINUOUS
 10
-5.05
 20
2.5700144999
 40
1.3
100
AcDbArc
 50
89.999999999
 51
180.0
  0
ARC
  5
470
100
AcDbEntity
  8
IMPORT_IGES
100
AcDbCircle
 62
7
  6
CONTINUOUS
 10
-5.05
 20
2.5700144999
 40
1.0
100
AcDbArc
 50
90.0
 51
180.0
  0
ARC
  5
471
100
AcDbEntity
  8
IMPORT_IGES
100
AcDbCircle
 62
253
  6
CONTINUOUS
 10
-3.8
 20
3.9382197803
 40
0.7
100
AcDbArc
 50
186.1256577714
 51
269.8387858744
  0
ARC
  5
472
100
AcDbEntity
  8
IMPORT_IGES
100
AcDbCircle
 62
253
  6
CONTINUOUS
 10
-5.05
 20
2.5700144999
 40
0.7
100
AcDbArc
 50
90.0
 51
180.0
  0
ARC
  5
473
100
AcDbEntity
  8
IMPORT_IGES
100
AcDbCircle
 62
7
  6
CONTINUOUS
 10
-4.6446828416
 20
2.9533437672
 40
0.6
100
AcDbArc
 50
283.9720463855
 51
334.8767063357
  0
ARC
  5
474
100
AcDbEntity
  8
IMPORT_IGES
100
AcDbCircle
 62
7
  6
CONTINUOUS
 10
-4.087751337
 20
4.3382197803
 40
0.6
100
AcDbArc
 50
172.4289186542
 51
269.9999999999
  0
ARC
  5
475
100
AcDbEntity
  8
IMPORT_IGES
100
AcDbCircle
 62
253
  6
CONTINUOUS
 10
-4.087751337
 20
4.3382197803
 40
0.4
100
AcDbArc
 50
172.4289186646
 51
269.9999999999
  0
ARC
  5
476
100
AcDbEntity
  8
IMPORT_IGES
100
AcDbCircle
 62
7
  6
CONTINUOUS
 10
-4.8
 20
3.2700144999
 40
0.3
100
AcDbArc
 50
0.0
 51
90.0000000002
  0
ARC
  5
477
100
AcDbEntity
  8
IMPORT_IGES
100
AcDbCircle
 62
7
  6
CONTINUOUS
 10
-6.4055080062
 20
6.9650031064
 40
1.905513565
100
AcDbArc
 50
0.1395587833
 51
178.1372298283
  0
ARC
  5
478
100
AcDbEntity
  8
IMPORT_IGES
100
AcDbCircle
 62
253
  6
CONTINUOUS
 10
-6.4055080062
 20
6.9650031064
 40
1.6054856081
100
AcDbArc
 50
0.1450301271
 51
178.0267814416
  0
ARC
  5
479
100
AcDbEntity
  8
IMPORT_IGES
100
AcDbCircle
 62
7
  6
CONTINUOUS
 10
-0.7173919684
 20
3.890249104
 40
4.0
100
AcDbArc
 50
123.4933347856
 51
172.4289186646
  0
ARC
  5
47A
100
AcDbEntity
  8
IMPORT_IGES
100
AcDbCircle
 62
253
  6
CONTINUOUS
 10
-0.7173919684
 20
3.890249104
 40
3.8
100
AcDbArc
 50
123.4933347857
 51
172.4289186646
  0
ARC
  5
47B
100
AcDbEntity
  8
IMPORT_IGES
100
AcDbCircle
 62
7
  6
CONTINUOUS
 10
-0.9
 20
4.4750144999
 40
0.3
100
AcDbArc
 50
270.0
 51
360.0
  0
ARC
  5
47C
100
AcDbEntity
  8
IMPORT_IGES
100
AcDbCircle
 62
253
  6
CONTINUOUS
 10
-4.6340502541
 20
7.6815561875
 40
0.7
100
AcDbArc
 50
280.7609054582
 51
349.9865678122
  0
ARC
  5
47D
100
AcDbEntity
  8
IMPORT_IGES
100
AcDbCircle
 62
7
  6
CONTINUOUS
 10
-4.6340502541
 20
7.6815561875
 40
0.5
100
AcDbArc
 50
283.6943991251
 51
349.9865678122
  0
ARC
  5
47E
100
AcDbEntity
  8
IMPORT_IGES
100
AcDbCircle
 62
7
  6
CONTINUOUS
 10
-6.8787960079
 20
11.2750144999
 40
0.3
100
AcDbArc
 50
90.0
 51
135.000071038
  0
ARC
  5
47F
100
AcDbEntity
  8
IMPORT_IGES
100
AcDbCircle
 62
7
  6
CONTINUOUS
 10
-3.8
 20
11.3750144999
 40
0.2
100
AcDbArc
 50
90.000000014
 51
179.9999999998
  0
ARC
  5
480
100
AcDbEntity
  8
IMPORT_IGES
100
AcDbCircle
 62
7
  6
CONTINUOUS
 10
-6.4
 20
11.6750144999
 40
0.1
100
AcDbArc
 50
89.9985366611
 51
179.9999999999
  0
ARC
  5
481
100
AcDbEntity
  8
IMPORT_IGES
100
AcDbCircle
 62
7
  6
CONTINUOUS
 10
-6.6
 20
11.6750144999
 40
0.1
100
AcDbArc
 50
270.0028894103
 51
360.0
  0
ARC
  5
482
100
AcDbEntity
  8
IMPORT_IGES
100
AcDbCircle
 62
7
  6
CONTINUOUS
 10
3.7734612692
 20
-10.1249773867
 40
0.1999984052
100
AcDbArc
 50
269.9972218018
 51
359.1932880889
  0
ARC
  5
483
100
AcDbEntity
  8
IMPORT_IGES
100
AcDbCircle
 62
7
  6
CONTINUOUS
 10
-0.0
 20
0.4450144999
 40
4.5
100
AcDbArc
 50
183.051925112
 51
356.9480150513
  0
ARC
  5
484
100
AcDbEntity
  8
IMPORT_IGES
100
AcDbCircle
 62
7
  6
CONTINUOUS
 10
6.2231434405
 20
-10.0249855001
 40
0.3
100
AcDbArc
 50
269.9999717711
 51
299.9999553967
  0
ARC
  5
485
100
AcDbEntity
  8
IMPORT_IGES
100
AcDbCircle
 62
7
  6
CONTINUOUS
 10
7.9551966713
 20
-9.0249860558
 40
0.2999989024
100
AcDbArc
 50
300.0000000008
 51
359.0003443683
  0
ARC
  5
486
100
AcDbEntity
  8
IMPORT_IGES
100
AcDbCircle
 62
7
  6
CONTINUOUS
 10
7.4499999999
 20
-9.4321295891
 40
0.2
100
AcDbArc
 50
180.0000360725
 51
300.0000003414
  0
ARC
  5
487
100
AcDbEntity
  8
IMPORT_IGES
100
AcDbCircle
 62
7
  6
CONTINUOUS
 10
6.1
 20
-10.4249855001
 40
0.1
100
AcDbArc
 50
90.0032404254
 51
179.9999999998
  0
ARC
  5
488
100
AcDbEntity
  8
IMPORT_IGES
100
AcDbCircle
 62
7
  6
CONTINUOUS
 10
5.9
 20
-10.4249855001
 40
0.1
100
AcDbArc
 50
269.998492417
 51
360.0
  0
ARC
  5
489
100
AcDbEntity
  8
IMPORT_IGES
100
AcDbCircle
 62
7
  6
CONTINUOUS
 10
5.1
 20
0.1700144999
 40
0.6
100
AcDbArc
 50
180.0
 51
270.0
  0
ARC
  5
48A
100
AcDbEntity
  8
IMPORT_IGES
100
AcDbCircle
 62
7
  6
CONTINUOUS
 10
5.45
 20
0.1700144999
 40
0.6
100
AcDbArc
 50
269.9999999999
 51
360.0
  0
ARC
  5
48B
100
AcDbEntity
  8
IMPORT_IGES
100
AcDbCircle
 62
253
  6
CONTINUOUS
 10
5.45
 20
0.1700144999
 40
0.3
100
AcDbArc
 50
270.0000000001
 51
359.9999999999
  0
ARC
  5
48C
100
AcDbEntity
  8
IMPORT_IGES
100
AcDbCircle
 62
253
  6
CONTINUOUS
 10
5.1
 20
0.1700144999
 40
0.3
100
AcDbArc
 50
180.0
 51
270.0
  0
ARC
  5
48D
100
AcDbEntity
  8
IMPORT_IGES
100
AcDbCircle
 62
7
  6
CONTINUOUS
 10
7.05
 20
0.1539325167
 40
0.2
100
AcDbArc
 50
0.0
 51
89.9855208623
  0
ARC
  5
48E
100
AcDbEntity
  8
IMPORT_IGES
100
AcDbCircle
 62
253
  6
CONTINUOUS
 10
-0.0
 20
0.7753122475
 40
7.4999707336
100
AcDbArc
 50
70.5285040378
 51
109.4716831012
  0
ARC
  5
48F
100
AcDbEntity
  8
IMPORT_IGES
100
AcDbCircle
 62
7
  6
CONTINUOUS
 10
0.0
 20
0.7753122475
 40
4.53
100
AcDbArc
 50
25.1232936643
 51
154.8767063357
  0
ARC
  5
490
100
AcDbEntity
  8
IMPORT_IGES
100
AcDbCircle
 62
7
  6
CONTINUOUS
 10
0.0
 20
2.8061140738
 40
5.3
100
AcDbArc
 50
56.5066652144
 51
123.4933347856
  0
ARC
  5
491
100
AcDbEntity
  8
IMPORT_IGES
100
AcDbCircle
 62
253
  6
CONTINUOUS
 10
0.0
 20
2.8061140738
 40
5.0999439942
100
AcDbArc
 50
56.5066652143
 51
123.4933347857
  0
ARC
  5
492
100
AcDbEntity
  8
IMPORT_IGES
100
AcDbCircle
 62
7
  6
CONTINUOUS
 10
0.7173919684
 20
3.890249104
 40
4.0
100
AcDbArc
 50
7.571081337
 51
56.5066652144
  0
ARC
  5
493
100
AcDbEntity
  8
IMPORT_IGES
100
AcDbCircle
 62
253
  6
CONTINUOUS
 10
0.7173919684
 20
3.890249104
 40
3.8
100
AcDbArc
 50
7.5710813354
 51
56.5066652143
  0
ARC
  5
494
100
AcDbEntity
  8
IMPORT_IGES
100
AcDbCircle
 62
7
  6
CONTINUOUS
 10
0.9
 20
4.4750144999
 40
0.3
100
AcDbArc
 50
180.0
 51
270.0
  0
ARC
  5
495
100
AcDbEntity
  8
IMPORT_IGES
100
AcDbCircle
 62
253
  6
CONTINUOUS
 10
5.05
 20
2.5700144999
 40
1.3
100
AcDbArc
 50
0.0
 51
90.0
  0
ARC
  5
496
100
AcDbEntity
  8
IMPORT_IGES
100
AcDbCircle
 62
7
  6
CONTINUOUS
 10
5.05
 20
2.5700144999
 40
1.0
100
AcDbArc
 50
0.0
 51
90.0
  0
ARC
  5
497
100
AcDbEntity
  8
IMPORT_IGES
100
AcDbCircle
 62
253
  6
CONTINUOUS
 10
5.05
 20
2.5700144999
 40
0.7
100
AcDbArc
 50
0.0
 51
90.0
  0
ARC
  5
498
100
AcDbEntity
  8
IMPORT_IGES
100
AcDbCircle
 62
253
  6
CONTINUOUS
 10
3.8
 20
3.9382197803
 40
0.7
100
AcDbArc
 50
270.1612141257
 51
354.4162937363
  0
ARC
  5
499
100
AcDbEntity
  8
IMPORT_IGES
100
AcDbCircle
 62
7
  6
CONTINUOUS
 10
4.087751337
 20
4.3382197803
 40
0.6
100
AcDbArc
 50
269.9999999428
 51
7.5710813447
  0
ARC
  5
49A
100
AcDbEntity
  8
IMPORT_IGES
100
AcDbCircle
 62
7
  6
CONTINUOUS
 10
4.6446828416
 20
2.9533437672
 40
0.6
100
AcDbArc
 50
205.1232936644
 51
256.0468877463
  0
ARC
  5
49B
100
AcDbEntity
  8
IMPORT_IGES
100
AcDbCircle
 62
253
  6
CONTINUOUS
 10
4.087751337
 20
4.3382197803
 40
0.4
100
AcDbArc
 50
270.0000000002
 51
7.5710813353
  0
ARC
  5
49C
100
AcDbEntity
  8
IMPORT_IGES
100
AcDbCircle
 62
7
  6
CONTINUOUS
 10
4.8
 20
3.2700144998
 40
0.3
100
AcDbArc
 50
90.0000000003
 51
179.9999999994
  0
ARC
  5
49D
100
AcDbEntity
  8
IMPORT_IGES
100
AcDbCircle
 62
7
  6
CONTINUOUS
 10
6.4055080062
 20
6.9650031064
 40
1.905513565
100
AcDbArc
 50
1.8627654693
 51
179.8604365352
  0
ARC
  5
49E
100
AcDbEntity
  8
IMPORT_IGES
100
AcDbCircle
 62
253
  6
CONTINUOUS
 10
6.4055080062
 20
6.9650031064
 40
1.605485616
100
AcDbArc
 50
1.8712366982
 51
179.8439250555
  0
ARC
  5
49F
100
AcDbEntity
  8
IMPORT_IGES
100
AcDbCircle
 62
253
  6
CONTINUOUS
 10
4.6340502541
 20
7.6815561875
 40
0.7
100
AcDbArc
 50
190.0134321878
 51
259.2439469407
  0
ARC
  5
4A0
100
AcDbEntity
  8
IMPORT_IGES
100
AcDbCircle
 62
7
  6
CONTINUOUS
 10
4.6340502541
 20
7.6815561875
 40
0.5
100
AcDbArc
 50
190.0134321878
 51
256.3053094334
  0
ARC
  5
4A1
100
AcDbEntity
  8
IMPORT_IGES
100
AcDbCircle
 62
7
  6
CONTINUOUS
 10
3.8
 20
11.3750144999
 40
0.2
100
AcDbArc
 50
0.0000000002
 51
90.0
  0
ARC
  5
4A2
100
AcDbEntity
  8
IMPORT_IGES
100
AcDbCircle
 62
7
  6
CONTINUOUS
 10
6.4
 20
11.6750144999
 40
0.1
100
AcDbArc
 50
0.0000000001
 51
90.0014633388
  0
ARC
  5
4A3
100
AcDbEntity
  8
IMPORT_IGES
100
AcDbCircle
 62
7
  6
CONTINUOUS
 10
6.6
 20
11.6750144999
 40
0.1
100
AcDbArc
 50
179.9999999999
 51
269.9971105898
  0
ARC
  5
4A4
100
AcDbEntity
  8
IMPORT_IGES
100
AcDbCircle
 62
253
  6
CONTINUOUS
 10
13.3
 20
9.2116918027
 40
9.5
100
AcDbArc
 50
185.0956903802
 51
190.0134321878
  0
ARC
  5
4A5
100
AcDbEntity
  8
IMPORT_IGES
100
AcDbCircle
 62
7
  6
CONTINUOUS
 10
13.3
 20
9.2116918027
 40
9.3
100
AcDbArc
 50
180.0000007965
 51
190.0134321859
  0
ARC
  5
4A6
100
AcDbEntity
  8
IMPORT_IGES
100
AcDbCircle
 62
7
  6
CONTINUOUS
 10
6.8787960079
 20
11.2750144999
 40
0.3
100
AcDbArc
 50
44.9999520207
 51
89.9997513231
  0
ARC
  5
4A7
100
AcDbEntity
  8
IMPORT_IGES
100
AcDbCircle
 62
7
  6
CONTINUOUS
 10
7.9565514748
 20
10.197259033
 40
0.3
100
AcDbArc
 50
1.0
 51
44.9999963826
  0
ARC
  5
4A8
100
AcDbEntity
  8
IMPORT_IGES
100
AcDbCircle
 62
7
  6
CONTINUOUS
 10
7.203
 20
11.092231864
 40
0.2
100
AcDbArc
 50
44.9999998017
 51
180.0
  0
ELLIPSE
  5
4A9
100
AcDbEntity
  8
IMPORT_IGES
100
AcDbEllipse
 62
7
  6
CONTINUOUS
 10
-5.4226866561
 20
-8.6250145005
 30
0.0
 11
-0.0
 21
2.0
 31
0.0
 40
0.0633224816
 41
-3.4571714601
 42
-3.1415926536
  0
ELLIPSE
  5
4AA
100
AcDbEntity
  8
IMPORT_IGES
100
AcDbEllipse
 62
7
  6
CONTINUOUS
 10
5.4226866561
 20
-8.6250145005
 30
0.0
 11
0.0
 21
2.0
 31
0.0
 40
0.0633224816
 41
-3.1415926536
 42
-2.8260139546
  0
ELLIPSE
  5
4AB
100
AcDbEntity
  8
IMPORT_IGES
100
AcDbEllipse
 62
7
  6
CONTINUOUS
 10
-1.7048535023
 20
-3.0643292144
 30
0.0
 11
0.3
 21
-0.0
 31
0.0
 40
0.0238095238
 41
-0.0
 42
1.5707963268
  0
ELLIPSE
  5
4AC
100
AcDbEntity
  8
IMPORT_IGES
100
AcDbEllipse
 62
7
  6
CONTINUOUS
 10
1.8048535023
 20
4.9622379625
 30
0.0
 11
-0.0151039206
 21
0.6998370322
 31
0.0
 40
1.0
 41
1.5492176227
 42
2.5117683706
  0
ELLIPSE
  5
4AD
100
AcDbEntity
  8
IMPORT_IGES
100
AcDbEllipse
 62
7
  6
CONTINUOUS
 10
-1.8048535023
 20
4.9622379625
 30
0.0
 11
0.2656593838
 21
0.6476303666
 31
0.0
 40
1.0
 41
-2.1440767772
 42
-1.1815260293
  0
ELLIPSE
  5
4AE
100
AcDbEntity
  8
IMPORT_IGES
100
AcDbEllipse
 62
7
  6
CONTINUOUS
 10
2.6048535023
 20
4.201204976
 30
0.0
 11
0.3
 21
-0.0
 31
0.0
 40
0.0158730159
 41
-1.5707963268
 42
0.0
  0
ELLIPSE
  5
4AF
100
AcDbEntity
  8
IMPORT_IGES
100
AcDbEllipse
 62
7
  6
CONTINUOUS
 10
2.6048535023
 20
-3.0643292144
 30
0.0
 11
0.3
 21
0.0
 31
0.0
 40
0.0238095238
 41
0.7734969708
 42
1.5707963268
  0
ELLIPSE
  5
4B0
100
AcDbEntity
  8
IMPORT_IGES
100
AcDbEllipse
 62
7
  6
CONTINUOUS
 10
-1.7048535023
 20
4.201204976
 30
0.0
 11
0.3
 21
-0.0
 31
0.0
 40
0.0158730159
 41
-1.5707963268
 42
0.0
  0
ELLIPSE
  5
4B1
100
AcDbEntity
  8
IMPORT_IGES
100
AcDbEllipse
 62
7
  6
CONTINUOUS
 10
1.7048535023
 20
4.201204976
 30
0.0
 11
0.3
 21
-0.0
 31
0.0
 40
0.0158730159
 41
-3.1415926536
 42
-1.5707963268
  0
ELLIPSE
  5
4B2
100
AcDbEntity
  8
IMPORT_IGES
100
AcDbEllipse
 62
7
  6
CONTINUOUS
 10
-4.4048535023
 20
8.23515436
 30
0.0
 11
0.3
 21
0.0
 31
0.0
 40
0.020979021
 41
-0.5228872352
 42
-0.0
  0
ELLIPSE
  5
4B3
100
AcDbEntity
  8
IMPORT_IGES
100
AcDbEllipse
 62
7
  6
CONTINUOUS
 10
-1.7949012909
 20
-3.847428007
 30
0.0
 11
-0.0034380325
 21
0.699991557
 31
0.0
 40
1.0
 41
-1.4068809134
 42
-0.5959349073
  0
ELLIPSE
  5
4B4
100
AcDbEntity
  8
IMPORT_IGES
100
AcDbEllipse
 62
7
  6
CONTINUOUS
 10
1.7048535023
 20
-3.0643292144
 30
0.0
 11
0.3
 21
-0.0
 31
0.0
 40
0.0238095238
 41
1.5707963268
 42
3.1415926536
  0
ELLIPSE
  5
4B5
100
AcDbEntity
  8
IMPORT_IGES
100
AcDbEllipse
 62
7
  6
CONTINUOUS
 10
1.7949012909
 20
-3.847428007
 30
0.0
 11
-0.3683156496
 21
0.595267656
 31
0.0
 40
1.0
 41
0.0369386561
 42
0.8478846621
  0
ELLIPSE
  5
4B6
100
AcDbEntity
  8
IMPORT_IGES
100
AcDbEllipse
 62
7
  6
CONTINUOUS
 10
-2.6048535023
 20
4.201204976
 30
0.0
 11
0.3
 21
0.0
 31
0.0
 40
0.0158730159
 41
3.1415926536
 42
4.7123889804
  0
ELLIPSE
  5
4B7
100
AcDbEntity
  8
IMPORT_IGES
100
AcDbEllipse
 62
7
  6
CONTINUOUS
 10
-2.6048535023
 20
-3.0643292144
 30
0.0
 11
0.3
 21
-0.0
 31
0.0
 40
0.0238095238
 41
1.5707963268
 42
2.3680956255
  0
ELLIPSE
  5
4B8
100
AcDbEntity
  8
IMPORT_IGES
100
AcDbEllipse
 62
7
  6
CONTINUOUS
 10
7.45
 20
-5.8413708498
 30
0.0
 11
0.0
 21
1.5881180375
 31
0.0
 40
0.1259352235
 41
-4.7123889803
 42
-3.4987217427
  0
ELLIPSE
  5
4B9
100
AcDbEntity
  8
IMPORT_IGES
100
AcDbEllipse
 62
7
  6
CONTINUOUS
 10
-5.55
 20
-5.8413708498
 30
0.0
 11
0.0
 21
1.5881180375
 31
0.0
 40
0.1259352235
 41
-4.7123889803
 42
-3.4987217427
  0
ENDSEC
  0
SECTION
  2
OBJECTS
  0
DICTIONARY
  5
C
100
AcDbDictionary
280
0
281
1
  3
ACAD_GROUP
350
D
  3
ACAD_MLINESTYLE
350
17
  3
ACAD_LAYOUT
350
1A
  3
ACAD_PLOTSETTINGS
350
19
  3
ACAD_PLOTSTYLENAME
350
E
  0
DICTIONARY
  5
D
102
{ACAD_REACTORS
330
C
102
}
100
AcDbDictionary
280
0
281
1
  0
ACDBDICTIONARYWDFLT
  5
E
102
{ACAD_REACTORS
330
C
102
}
100
AcDbDictionary
281
1
  3
Normal
350
F
100
AcDbDictionaryWithDefault
340
F
  0
DICTIONARY
  5
17
102
{ACAD_REACTORS
330
C
102
}
100
AcDbDictionary
280
0
281
1
  3
Standard
350
18
  0
DICTIONARY
  5
19
102
{ACAD_REACTORS
330
C
102
}
100
AcDbDictionary
281
1
  0
DICTIONARY
  5
1A
102
{ACAD_REACTORS
330
C
102
}
100
AcDbDictionary
281
1
  3
Model
350
4BA
  3
Layout1
350
4BB
  0
ACDBPLACEHOLDER
  5
F
102
{ACAD_REACTORS
330
E
102
}
  0
MLINESTYLE
  5
18
102
{ACAD_REACTORS
330
17
102
}
100
AcDbMlineStyle
  2
STANDARD
 70
0
  3

 62
256
 51
90.0
 52
90.0
 71
2
 49
0.5
 62
256
  6
BYLAYER
 49
-0.5
 62
256
  6
BYLAYER
  0
LAYOUT
  5
4BA
102
{ACAD_REACTORS
330
1A
102
}
100
AcDbPlotSettings
  1

  2
none_device
  4
ISO_A4_(297.00_x_210.00_MM)
  6

 40
0.0
 41
0.0
 42
0.0
 43
0.0
 44
297.0
 45
210.0
 46
0.0
 47
0.0
 48
0.0
 49
0.0
140
0.0
141
0.0
142
1.0
143
1.0
 70
1024
 72
1
 73
0
 74
0
  7

 75
0
147
1.0
148
0.0
149
0.0
100
AcDbLayout
  1
Model
 70
0
 71
0
 10
0.0
 20
0.0
 11
297.0
 21
210.0
 12
0.0
 22
0.0
 32
0.0
 14
0.0
 24
0.0
 34
0.0
 15
0.0
 25
0.0
 35
0.0
146
0.0
 13
0.0
 23
0.0
 33
0.0
 16
1.0
 26
0.0
 36
0.0
 17
0.0
 27
1.0
 37
0.0
 76
0
330
213
345
0
346
0
  0
LAYOUT
  5
4BB
102
{ACAD_REACTORS
330
1A
102
}
100
AcDbPlotSettings
  1

  2
none_device
  4
ISO_A4_(297.00_x_210.00_MM)
  6

 40
0.0
 41
0.0
 42
0.0
 43
0.0
 44
297.0
 45
210.0
 46
0.0
 47
0.0
 48
0.0
 49
0.0
140
0.0
141
0.0
142
1.0
143
1.0
 70
0
 72
1
 73
0
 74
0
  7

 75
0
147
1.0
148
0.0
149
0.0
100
AcDbLayout
  1
Layout1
 70
0
 71
1
 10
0.0
 20
0.0
 11
297.0
 21
210.0
 12
0.0
 22
0.0
 32
0.0
 14
0.0
 24
0.0
 34
0.0
 15
0.0
 25
0.0
 35
0.0
146
0.0
 13
0.0
 23
0.0
 33
0.0
 16
1.0
 26
0.0
 36
0.0
 17
0.0
 27
1.0
 37
0.0
 76
0
330
214
345
0
346
0
  0
ENDSEC
  0
EOF
