  0
SECTION
  2
HEADER
  9
$ACADVER
  1
AC1015
  9
$DWGCODEPAGE
  3
ANSI_1252
  9
$EXTMAX
 10
297.0
 20
210.0
 30
0.0
  9
$EXTMIN
 10
0.0
 20
0.0
 30
0.0
  9
$LIMMIN
 10
0.0
 20
0.0
  9
$LIMMAX
 10
297.0
 20
210.0
  9
$VIEWCTR
 10
148.5
 20
105.0
  9
$VIEWSIZE
 40
210.0
  9
$CLAYER
  8
0
  9
$LTSCALE
 40
16.335
  9
$CELTYPE
  6
BYLAYER
  9
$DIMSCALE
 40
1.0
  9
$DIMASZ
 40
3.0
  9
$DIMEXO
 40
1.85625
  9
$DIMDLI
 40
11.286
  9
$DIMEXE
 40
5.346
  9
$DIMCEN
 40
2.673
  9
$DIMLFAC
 40
1.0
  9
$DIMBLK
  1
_FILLED
  9
$DIMTXT
 40
3.0
  9
$DIMTOL
 70
1
  9
$DIMLIM
 70
0
  9
$DIMTFAC
 40
1.0
  9
$DIMTP
 40
0.01
  9
$DIMTM
 40
0.01
  9
$PDMODE
 70
3
  9
$PDSIZE
 40
3.0
  9
$HANDSEED
  5
4BB
  9
$TILEMODE
 70
1
  9
$MEASUREMENT
 70
1
  9
$INSUNITS
 70
4
  0
ENDSEC
  0
SECTION
  2
CLASSES
  0
CLASS
  1
ACDBDICTIONARYWDFLT
  2
AcDbDictionaryWithDefault
  3
AutoCAD 2000
 90
0
280
0
281
0
  0
CLASS
  1
ACDBPLACEHOLDER
  2
AcDbPlaceHolder
  3
AutoCAD 2000
 90
0
280
0
281
0
  0
CLASS
  1
LAYOUT
  2
AcDbLayout
  3
AutoCAD 2000
 90
0
280
0
281
0
  0
ENDSEC
  0
SECTION
  2
TABLES
  0
TABLE
  2
VPORT
  5
8
100
AcDbSymbolTable
 70
2
  0
VPORT
  5
1F4
100
AcDbSymbolTableRecord
100
AcDbViewportTableRecord
  2
*ACTIVE
 70
0
 10
0.0
 20
0.0
 11
1.0
 21
1.0
 12
148.5
 22
105.0
 13
0.0
 23
0.0
 14
1.0
 24
1.0
 15
0.0
 25
0.0
 16
0.0
 26
0.0
 36
1.0
 17
0.0
 27
0.0
 37
0.0
 40
210.0
 41
1.4142857143
 42
50.0
 43
0.0
 44
0.0
 50
0.0
 51
0.0
 71
0
 72
100
 73
1
 74
1
 75
0
 76
0
 77
0
 78
0
  0
ENDTAB
  0
TABLE
  2
LTYPE
  5
5
100
AcDbSymbolTable
 70
6
  0
LTYPE
  5
14
100
AcDbSymbolTableRecord
100
AcDbLinetypeTableRecord
  2
BYBLOCK
 70
0
  3

 72
65
 73
0
 40
0.0
  0
LTYPE
  5
15
100
AcDbSymbolTableRecord
100
AcDbLinetypeTableRecord
  2
BYLAYER
 70
0
  3

 72
65
 73
0
 40
0.0
  0
LTYPE
  5
16
100
AcDbSymbolTableRecord
100
AcDbLinetypeTableRecord
  2
CONTINUOUS
 70
64
  3
Solid line
 72
65
 73
0
 40
0.0
  0
LTYPE
  5
1F5
100
AcDbSymbolTableRecord
100
AcDbLinetypeTableRecord
  2
CENTER
 70
64
  3
____ _ ____ _ ____ _ ____ _ ____ _ ____ _ ____
 72
65
 73
4
 40
0.6
 49
0.375
 74
0
 49
-0.075
 74
0
 49
0.075
 74
0
 49
-0.075
 74
0
  0
LTYPE
  5
1F6
100
AcDbSymbolTableRecord
100
AcDbLinetypeTableRecord
  2
HIDDEN
 70
64
  3
- - - - - - - - - - - - - - - - - - - -
 72
65
 73
2
 40
0.2
 49
0.1
 74
0
 49
-0.1
 74
0
  0
LTYPE
  5
1F7
100
AcDbSymbolTableRecord
100
AcDbLinetypeTableRecord
  2
PHANTOM
 70
64
  3
_____ _ _ _____ _ _ _____ _ _ _____
 72
65
 73
6
 40
0.8
 49
0.45
 74
0
 49
-0.05
 74
0
 49
0.1
 74
0
 49
-0.05
 74
0
 49
0.1
 74
0
 49
-0.05
 74
0
  0
LTYPE
  5
1F8
100
AcDbSymbolTableRecord
100
AcDbLinetypeTableRecord
  2
DOT
 70
64
  3
. . . . . . . . . . . . . . . . . . . .
 72
65
 73
2
 40
0.2
 49
0.1
 74
0
 49
-0.1
 74
0
  0
LTYPE
  5
1F9
100
AcDbSymbolTableRecord
100
AcDbLinetypeTableRecord
  2
DASHED
 70
64
  3
- - - - - - - - - - - - - - - - - - - -
 72
65
 73
2
 40
0.2
 49
0.1
 74
0
 49
-0.1
 74
0
  0
ENDTAB
  0
TABLE
  2
LAYER
  5
2
100
AcDbSymbolTable
 70
36
  0
LAYER
  5
10
100
AcDbSymbolTableRecord
100
AcDbLayerTableRecord
  2
0
 70
0
 62
7
  6
CONTINUOUS
370
-3
390
F
  0
LAYER
  5
1FA
100
AcDbSymbolTableRecord
100
AcDbLayerTableRecord
  2
DEFAULT_1
 70
0
 62
7
  6
CENTER
370
-3
390
F
  0
LAYER
  5
1FB
100
AcDbSymbolTableRecord
100
AcDbLayerTableRecord
  2
DEFAULT_2
 70
0
 62
7
  6
HIDDEN
370
-3
390
F
  0
LAYER
  5
1FC
100
AcDbSymbolTableRecord
100
AcDbLayerTableRecord
  2
DEFAULT_3
 70
0
 62
7
  6
PHANTOM
370
-3
390
F
  0
LAYER
  5
1FD
100
AcDbSymbolTableRecord
100
AcDbLayerTableRecord
  2
ASSI
 70
0
 62
7
  6
CONTINUOUS
370
-3
390
F
  0
LAYER
  5
1FE
100
AcDbSymbolTableRecord
100
AcDbLayerTableRecord
  2
COLOR17
 70
0
 62
7
  6
CONTINUOUS
370
-3
390
F
  0
LAYER
  5
1FF
100
AcDbSymbolTableRecord
100
AcDbLayerTableRecord
  2
COLOR3
 70
0
 62
7
  6
CONTINUOUS
370
-3
390
F
  0
LAYER
  5
200
100
AcDbSymbolTableRecord
100
AcDbLayerTableRecord
  2
COLOR5
 70
0
 62
7
  6
CONTINUOUS
370
-3
390
F
  0
LAYER
  5
201
100
AcDbSymbolTableRecord
100
AcDbLayerTableRecord
  2
COORDINATE
 70
0
 62
7
  6
CONTINUOUS
370
-3
390
F
  0
LAYER
  5
202
100
AcDbSymbolTableRecord
100
AcDbLayerTableRecord
  2
COPY_PUBLISH
 70
0
 62
7
  6
CONTINUOUS
370
-3
390
F
  0
LAYER
  5
203
100
AcDbSymbolTableRecord
100
AcDbLayerTableRecord
  2
COSMETICI
 70
0
 62
7
  6
CONTINUOUS
370
-3
390
F
  0
LAYER
  5
204
100
AcDbSymbolTableRecord
100
AcDbLayerTableRecord
  2
CURVE
 70
0
 62
7
  6
CONTINUOUS
370
-3
390
F
  0
LAYER
  5
205
100
AcDbSymbolTableRecord
100
AcDbLayerTableRecord
  2
DRAFT
 70
0
 62
7
  6
CONTINUOUS
370
-3
390
F
  0
LAYER
  5
206
100
AcDbSymbolTableRecord
100
AcDbLayerTableRecord
  2
IMPORT_IGES
 70
0
 62
7
  6
CONTINUOUS
370
-3
390
F
  0
LAYER
  5
207
100
AcDbSymbolTableRecord
100
AcDbLayerTableRecord
  2
NOTE
 70
0
 62
7
  6
CONTINUOUS
370
-3
390
F
  0
LAYER
  5
208
100
AcDbSymbolTableRecord
100
AcDbLayerTableRecord
  2
PIANI
 70
0
 62
7
  6
CONTINUOUS
370
-3
390
F
  0
LAYER
  5
209
100
AcDbSymbolTableRecord
100
AcDbLayerTableRecord
  2
PUNTI
 70
0
 62
7
  6
CONTINUOUS
370
-3
390
F
  0
LAYER
  5
20A
100
AcDbSymbolTableRecord
100
AcDbLayerTableRecord
  2
RACCORDO
 70
0
 62
7
  6
CONTINUOUS
370
-3
390
F
  0
LAYER
  5
20B
100
AcDbSymbolTableRecord
100
AcDbLayerTableRecord
  2
SIMBOLI
 70
0
 62
7
  6
CONTINUOUS
370
-3
390
F
  0
LAYER
  5
20C
100
AcDbSymbolTableRecord
100
AcDbLayerTableRecord
  2
SMUSSO
 70
0
 62
7
  6
CONTINUOUS
370
-3
390
F
  0
LAYER
  5
20D
100
AcDbSymbolTableRecord
100
AcDbLayerTableRecord
  2
SNAPLINE
 70
0
 62
7
  6
CONTINUOUS
370
-3
390
F
  0
LAYER
  5
20E
100
AcDbSymbolTableRecord
100
AcDbLayerTableRecord
  2
SUPERFICI
 70
0
 62
7
  6
CONTINUOUS
370
-3
390
F
  0
LAYER
  5
20F
100
AcDbSymbolTableRecord
100
AcDbLayerTableRecord
  2
TRASH
 70
0
 62
7
  6
CONTINUOUS
370
-3
390
F
  0
LAYER
  5
210
100
AcDbSymbolTableRecord
100
AcDbLayerTableRecord
  2
___SHELL
 70
0
 62
7
  6
CONTINUOUS
370
-3
390
F
  0
ENDTAB
  0
TABLE
  2
STYLE
  5
3
100
AcDbSymbolTable
 70
1
  0
STYLE
  5
11
100
AcDbSymbolTableRecord
100
AcDbTextStyleTableRecord
  2
STANDARD
 70
0
 40
0.0
 41
0.8
 50
0.0
 71
0
 42
0.2
  3
txt
  4

  0
STYLE
  5
211
100
AcDbSymbolTableRecord
100
AcDbTextStyleTableRecord
  2
TEXTSTYLE_1
 70
0
 40
0.0
 41
0.8
 50
0.0
 71
0
 42
0.2
  3
gdt
  4

  0
ENDTAB
  0
TABLE
  2
VIEW
  5
6
100
AcDbSymbolTable
 70
0
  0
ENDTAB
  0
TABLE
  2
UCS
  5
7
100
AcDbSymbolTable
 70
0
  0
ENDTAB
  0
TABLE
  2
APPID
  5
9
100
AcDbSymbolTable
 70
1
  0
APPID
  5
212
100
AcDbSymbolTableRecord
100
AcDbRegAppTableRecord
  2
ACAD
 70
0
  0
ENDTAB
  0
TABLE
  2
BLOCK_RECORD
  5
1
100
AcDbSymbolTable
 70
0
  0
BLOCK_RECORD
  5
213
100
AcDbSymbolTableRecord
100
AcDbBlockTableRecord
  2
*Model_Space
  0
BLOCK_RECORD
  5
214
100
AcDbSymbolTableRecord
100
AcDbBlockTableRecord
  2
*Paper_Space
  0
ENDTAB
  0
TABLE
  2
DIMSTYLE
  5
A
100
AcDbSymbolTable
 70
1
100
AcDbDimStyleTable
 71
0
  0
DIMSTYLE
105
215
100
AcDbSymbolTableRecord
100
AcDbDimStyleTableRecord
  2
STANDARD
 70
0
  3

  4

 40
1.0
 41
3.0
 42
0.0625
 43
0.38
 44
0.18
 45
0.0
 46
0.0
 47
0.01
 48
0.01
140
3.0
141
0.09
142
0.0
143
25.4
144
1.0
145
0.0
146
1.0
147
0.09
 71
1.0
 72
0.0
 73
0
 74
0
 75
0
 76
0
 77
1
 78
8
170
0
171
2
172
0
173
0
174
0
175
0
176
0
177
0
178
0
270
2
271
2
272
2
273
2
274
2
275
0
280
0
281
0
282
0
283
1
284
8
285
0
286
0
287
3
288
0
340
11
  0
ENDTAB
  0
ENDSEC
  0
SECTION
  2
BLOCKS
  0
BLOCK
  5
20
100
AcDbEntity
  8
0
100
AcDbBlockBegin
  2
*Model_Space
 70
0
 10
0.0
 20
0.0
 30
0.0
  3
*Model_Space
  1

  0
ENDBLK
  5
21
100
AcDbEntity
  8
0
100
AcDbBlockEnd
  0
BLOCK
  5
1C
100
AcDbEntity
  8
0
100
AcDbBlockBegin
  2
*Paper_Space
 70
0
 10
0.0
 20
0.0
 30
0.0
  3
*Paper_Space
  1

  0
ENDBLK
  5
1D
100
AcDbEntity
  8
0
100
AcDbBlockEnd
  0
ENDSEC
  0
SECTION
  2
ENTITIES
  0
LINE
  5
216
100
AcDbEntity
  8
IMPORT_IGES
100
AcDbLine
 62
7
  6
CONTINUOUS
 10
-8.1686835105
 20
10.3902384245
 11
-7.0909283053
 21
11.4679936297
  0
LINE
  5
217
100
AcDbEntity
  8
IMPORT_IGES
100
AcDbLine
 62
253
  6
CONTINUOUS
 10
-7.9590625132
 20
10.2462989712
 11
-7.2030016412
 21
11.0023895679
  0
LWPOLYLINE
  5
218
100
AcDbEntity
  8
IMPORT_IGES
100
AcDbPolyline
 62
253
  6
CONTINUOUS
 90
10
 70
0
 10
-7.3444213567
 20
11.2145005783
 10
-7.3347286622
 20
11.2196888574
 10
-7.3228603244
 20
11.2180684674
 10
-7.3091715077
 20
11.2094078821
 10
-7.294446819
 20
11.1934283356
 10
-7.2788084777
 20
11.1702146229
 10
-7.261506597
 20
11.1398184853
 10
-7.2425289036
 20
11.1018987848
 10
-7.2228099736
 20
11.0561378813
 10
-7.2030032824
 20
11.0023895676
  0
LWPOLYLINE
  5
219
100
AcDbEntity
  8
IMPORT_IGES
100
AcDbPolyline
 62
253
  6
CONTINUOUS
 90
10
 70
0
 10
-6.8767659922
 20
11.3285505759
 10
-6.8734996927
 20
11.3338105221
 10
-6.8701257238
 20
11.3385763469
 10
-6.8666434815
 20
11.3428480284
 10
-6.8631440907
 20
11.3466632199
 10
-6.8595367086
 20
11.3499842035
 10
-6.8555431947
 20
11.3526980151
 10
-6.8510656379
 20
11.3547671211
 10
-6.8461919432
 20
11.356229295
 10
-6.8409186905
 20
11.357084661
  0
LINE
  5
21A
100
AcDbEntity
  8
IMPORT_IGES
100
AcDbLine
 62
7
  6
CONTINUOUS
 10
4.9273029486
 20
-11.7558618584
 11
-4.9273029486
 21
-11.7558618584
  0
LINE
  5
21B
100
AcDbEntity
  8
IMPORT_IGES
100
AcDbLine
 62
253
  6
CONTINUOUS
 10
-6.2731433759
 20
-10.1316874298
 11
-7.050005001
 21
-9.6853293237
  0
LINE
  5
21C
100
AcDbEntity
  8
IMPORT_IGES
100
AcDbLine
 62
7
  6
CONTINUOUS
 10
-6.3731434264
 20
-10.3039457709
 11
-8.1051681369
 21
-9.3039608381
  0
LINE
  5
21D
100
AcDbEntity
  8
IMPORT_IGES
100
AcDbLine
 62
253
  6
CONTINUOUS
 10
-7.4499999671
 20
-9.5754027124
 11
-7.9552052355
 21
-9.2837285864
  0
LWPOLYLINE
  5
21E
100
AcDbEntity
  8
IMPORT_IGES
100
AcDbPolyline
 62
253
  6
CONTINUOUS
 90
4
 70
0
 10
-8.1644187057
 20
-9.2171587348
 10
-8.1347873591
 20
-9.2371834163
 10
-8.1022202749
 20
-9.2539088648
 10
-8.0673446812
 20
-9.2670643616
  0
LWPOLYLINE
  5
21F
100
AcDbEntity
  8
IMPORT_IGES
100
AcDbPolyline
 62
253
  6
CONTINUOUS
 90
3
 70
0
 10
-7.0931125571
 20
-9.6355507995
 10
-7.1335359344
 20
-9.5898037303
 10
-7.1695264272
 20
-9.5485876363
  0
LWPOLYLINE
  5
220
100
AcDbEntity
  8
IMPORT_IGES
100
AcDbPolyline
 62
253
  6
CONTINUOUS
 90
3
 70
0
 10
-7.1695264272
 20
-9.5485876363
 10
-7.1852273397
 20
-9.5304121973
 10
-7.2121084085
 20
-9.4988056213
  0
LWPOLYLINE
  5
221
100
AcDbEntity
  8
IMPORT_IGES
100
AcDbPolyline
 62
253
  6
CONTINUOUS
 90
3
 70
0
 10
-7.050005001
 20
-9.6853293237
 10
-7.0717794515
 20
-9.65991647
 10
-7.0931125571
 20
-9.6355507995
  0
LWPOLYLINE
  5
222
100
AcDbEntity
  8
IMPORT_IGES
100
AcDbPolyline
 62
253
  6
CONTINUOUS
 90
4
 70
0
 10
-7.2121084085
 20
-9.4988056213
 10
-7.2234443137
 20
-9.485283762
 10
-7.2329848651
 20
-9.4734263264
 10
-7.245758356
 20
-9.457340244
  0
LWPOLYLINE
  5
223
100
AcDbEntity
  8
IMPORT_IGES
100
AcDbPolyline
 62
253
  6
CONTINUOUS
 90
3
 70
0
 10
-7.245758356
 20
-9.457340244
 10
-7.2489423782
 20
-9.4530952026
 10
-7.25
 20
-9.4512824759
  0
LWPOLYLINE
  5
224
100
AcDbEntity
  8
IMPORT_IGES
100
AcDbPolyline
 62
253
  6
CONTINUOUS
 90
5
 70
0
 10
-6.9892942213
 20
11.1016649548
 10
-6.9978579063
 20
11.0839316751
 10
-7.0006559813
 20
11.0784032357
 10
-7.0023996503
 20
11.0747867413
 10
-7.003
 20
11.073079222
  0
LWPOLYLINE
  5
225
100
AcDbEntity
  8
IMPORT_IGES
100
AcDbPolyline
 62
253
  6
CONTINUOUS
 90
3
 70
0
 10
-6.8767659922
 20
11.3285505759
 10
-6.902677254
 20
11.2753483571
 10
-6.9144581933
 20
11.2514749342
  0
LWPOLYLINE
  5
226
100
AcDbEntity
  8
IMPORT_IGES
100
AcDbPolyline
 62
253
  6
CONTINUOUS
 90
4
 70
0
 10
-6.9677834705
 20
11.1447872067
 10
-6.9788718736
 20
11.1221035039
 10
-6.9840577006
 20
11.1120132917
 10
-6.9892942213
 20
11.1016649548
  0
LINE
  5
227
100
AcDbEntity
  8
IMPORT_IGES
100
AcDbLine
 62
253
  6
CONTINUOUS
 10
-6.944905682
 20
11.190756241
 11
-6.9677834705
 21
11.1447872067
  0
LINE
  5
228
100
AcDbEntity
  8
IMPORT_IGES
100
AcDbLine
 62
253
  6
CONTINUOUS
 10
-6.9144581933
 20
11.2514749342
 11
-6.944905682
 21
11.190756241
  0
LWPOLYLINE
  5
229
100
AcDbEntity
  8
IMPORT_IGES
100
AcDbPolyline
 62
253
  6
CONTINUOUS
 90
8
 70
0
 10
-3.9586706681
 20
11.3540857596
 10
-3.9414213562
 20
11.3679938927
 10
-3.9217522858
 20
11.3801909981
 10
-3.9
 20
11.3904683799
 10
-3.8765366865
 20
11.3986501892
 10
-3.851763809
 20
11.4045964331
 10
-3.8261052384
 20
11.4082053696
 10
-3.8
 20
11.409415249
  0
LINE
  5
22A
100
AcDbEntity
  8
IMPORT_IGES
100
AcDbLine
 62
253
  6
CONTINUOUS
 10
8.030949602
 20
-9.2764422441
 11
8.0675461267
 21
-9.267000715
  0
LINE
  5
22B
100
AcDbEntity
  8
0
100
AcDbLine
 62
7
  6
CONTINUOUS
 10
3.7340925511
 20
-10.7058618591
 11
2.9637011241
 21
-10.7058618591
  0
LINE
  5
22C
100
AcDbEntity
  8
0
100
AcDbLine
 62
7
  6
CONTINUOUS
 10
2.8680427503
 20
-10.7058618591
 11
0.8259075832
 21
-10.7058618591
  0
LINE
  5
22D
100
AcDbEntity
  8
0
100
AcDbLine
 62
7
  6
CONTINUOUS
 10
0.8206800276
 20
-10.7058618591
 11
-3.7340923596
 21
-10.7058618591
  0
LINE
  5
22E
100
AcDbEntity
  8
IMPORT_IGES
100
AcDbLine
 62
7
  6
CONTINUOUS
 10
5.4226866561
 20
-10.6058618591
 11
3.7230847372
 21
-10.6058618591
  0
LINE
  5
22F
100
AcDbEntity
  8
IMPORT_IGES
100
AcDbLine
 62
7
  6
CONTINUOUS
 10
2.9642506611
 20
-10.6058618591
 11
2.8680427503
 21
-10.6058618591
  0
LINE
  5
230
100
AcDbEntity
  8
IMPORT_IGES
100
AcDbLine
 62
7
  6
CONTINUOUS
 10
2.1574376773
 20
-10.6058618591
 11
1.6586476516
 21
-10.6058618591
  0
LINE
  5
231
100
AcDbEntity
  8
IMPORT_IGES
100
AcDbLine
 62
7
  6
CONTINUOUS
 10
1.1683986377
 20
-10.6058618591
 11
0.4005693149
 21
-10.6058618591
  0
LINE
  5
232
100
AcDbEntity
  8
IMPORT_IGES
100
AcDbLine
 62
7
  6
CONTINUOUS
 10
-0.089679556
 20
-10.6058618591
 11
-0.7473988905
 21
-10.6058618591
  0
LINE
  5
233
100
AcDbEntity
  8
IMPORT_IGES
100
AcDbLine
 62
7
  6
CONTINUOUS
 10
-1.2842872884
 20
-10.6058618591
 11
-1.3003524638
 21
-10.6058618591
  0
LINE
  5
234
100
AcDbEntity
  8
IMPORT_IGES
100
AcDbLine
 62
7
  6
CONTINUOUS
 10
-1.833110862
 20
-10.6058618591
 11
-2.3923810224
 21
-10.6058618591
  0
LINE
  5
235
100
AcDbEntity
  8
IMPORT_IGES
100
AcDbLine
 62
7
  6
CONTINUOUS
 10
-2.9292696263
 20
-10.6058618591
 11
-2.9453348018
 21
-10.6058618591
  0
LINE
  5
236
100
AcDbEntity
  8
IMPORT_IGES
100
AcDbLine
 62
7
  6
CONTINUOUS
 10
-3.4780931999
 20
-10.6058618591
 11
-5.4226866561
 21
-10.6058618591
  0
LINE
  5
237
100
AcDbEntity
  8
0
100
AcDbLine
 62
7
  6
CONTINUOUS
 10
5.4226866561
 20
-10.6058618591
 11
-5.4226866561
 21
-10.6058618591
  0
LINE
  5
238
100
AcDbEntity
  8
IMPORT_IGES
100
AcDbLine
 62
7
  6
CONTINUOUS
 10
5.8999973684
 20
-10.5441381416
 11
-5.9467065296
 21
-10.5441381416
  0
LINE
  5
239
100
AcDbEntity
  8
IMPORT_IGES
100
AcDbLine
 62
253
  6
CONTINUOUS
 10
-8.0673446812
 20
-9.2670643616
 11
-8.0307892718
 21
-9.2764745517
  0
LWPOLYLINE
  5
23A
100
AcDbEntity
  8
IMPORT_IGES
100
AcDbPolyline
 62
253
  6
CONTINUOUS
 90
3
 70
0
 10
-3.9734360049
 20
-10.1465400997
 10
-3.9751619832
 20
-10.1466311006
 10
-3.980297493
 20
-10.1466799619
  0
LWPOLYLINE
  5
23B
100
AcDbEntity
  8
IMPORT_IGES
100
AcDbPolyline
 62
253
  6
CONTINUOUS
 90
3
 70
0
 10
7.9551942481
 20
-9.2837287946
 10
7.9932891353
 20
-9.2820299012
 10
8.030949602
 20
-9.2764422441
  0
LWPOLYLINE
  5
23C
100
AcDbEntity
  8
IMPORT_IGES
100
AcDbPolyline
 62
253
  6
CONTINUOUS
 90
3
 70
0
 10
4.1734473905
 20
-10.1450203737
 10
4.0515891359
 20
-10.1462916365
 10
4.0001965846
 20
-10.1467171945
  0
LINE
  5
23D
100
AcDbEntity
  8
IMPORT_IGES
100
AcDbLine
 62
253
  6
CONTINUOUS
 10
5.9999999179
 20
-10.4441381416
 11
-5.999999714
 21
-10.4441381416
  0
LINE
  5
23E
100
AcDbEntity
  8
IMPORT_IGES
100
AcDbLine
 62
7
  6
CONTINUOUS
 10
6.2231434338
 20
-10.3441381416
 11
-6.2231472947
 21
-10.3441381416
  0
LINE
  5
23F
100
AcDbEntity
  8
IMPORT_IGES
100
AcDbLine
 62
253
  6
CONTINUOUS
 10
-6.2231434278
 20
-10.1450204441
 11
-4.1734520392
 21
-10.1450204441
  0
LINE
  5
240
100
AcDbEntity
  8
IMPORT_IGES
100
AcDbLine
 62
253
  6
CONTINUOUS
 10
4.1734421839
 20
-10.1450203151
 11
6.2231434353
 21
-10.1450203151
  0
LINE
  5
241
100
AcDbEntity
  8
IMPORT_IGES
100
AcDbLine
 62
253
  6
CONTINUOUS
 10
3.7778043935
 20
-9.9414091524
 11
-3.7778043933
 21
-9.9414091568
  0
LWPOLYLINE
  5
242
100
AcDbEntity
  8
IMPORT_IGES
100
AcDbPolyline
 62
253
  6
CONTINUOUS
 90
5
 70
0
 10
4.0001965846
 20
-10.1467171945
 10
3.9886424345
 20
-10.1466866055
 10
3.9802449342
 20
-10.1464704334
 10
3.9751503538
 20
-10.1461073309
 10
3.97344733
 20
-10.1455977012
  0
LINE
  5
243
100
AcDbEntity
  8
IMPORT_IGES
100
AcDbLine
 62
253
  6
CONTINUOUS
 10
-3.980297493
 20
-10.1466799619
 11
-4.0003126872
 21
-10.1466492888
  0
LINE
  5
244
100
AcDbEntity
  8
IMPORT_IGES
100
AcDbLine
 62
253
  6
CONTINUOUS
 10
-4.0003126872
 20
-10.1466492888
 11
-4.1215170525
 21
-10.1456244361
  0
LINE
  5
245
100
AcDbEntity
  8
IMPORT_IGES
100
AcDbLine
 62
253
  6
CONTINUOUS
 10
-4.1215170525
 20
-10.1456244361
 11
-4.1735008954
 21
-10.1450288131
  0
LWPOLYLINE
  5
246
100
AcDbEntity
  8
IMPORT_IGES
100
AcDbPolyline
 62
253
  6
CONTINUOUS
 90
10
 70
0
 10
-6.2231434278
 20
-10.1450204441
 10
-6.2290011224
 20
-10.1448464618
 10
-6.2347972175
 20
-10.1443415323
 10
-6.2405317131
 20
-10.1435056556
 10
-6.2462231913
 20
-10.1423333905
 10
-6.25185307
 20
-10.1408301784
 10
-6.2573656025
 20
-10.1390123437
 10
-6.2627422066
 20
-10.1368853278
 10
-6.2680014644
 20
-10.1344436898
 10
-6.2731433759
 20
-10.1316874298
  0
LWPOLYLINE
  5
247
100
AcDbEntity
  8
IMPORT_IGES
100
AcDbPolyline
 62
253
  6
CONTINUOUS
 90
13
 70
0
 10
-3.7777713647
 20
-9.9414090155
 10
-3.8041281066
 20
-9.9401340265
 10
-3.8300871126
 20
-9.9360820588
 10
-3.8551884314
 20
-9.9293044322
 10
-3.8791222075
 20
-9.9198362286
 10
-3.9012911662
 20
-9.9078621195
 10
-3.9209412538
 20
-9.8938587993
 10
-3.9376529168
 20
-9.8783702309
 10
-3.9515211721
 20
-9.8615827953
 10
-3.9626325529
 20
-9.8435007086
 10
-3.9708393405
 20
-9.8242923794
 10
-3.9759230585
 20
-9.8043707044
 10
-3.9777899725
 20
-9.7840837503
  0
LWPOLYLINE
  5
248
100
AcDbEntity
  8
IMPORT_IGES
100
AcDbPolyline
 62
253
  6
CONTINUOUS
 90
3
 70
0
 10
-8.0307892718
 20
-9.2764745517
 10
-7.9931584808
 20
-9.2820422576
 10
-7.9550789366
 20
-9.2837277702
  0
LINE
  5
249
100
AcDbEntity
  8
IMPORT_IGES
100
AcDbLine
 62
7
  6
CONTINUOUS
 10
-7.3800828182
 20
-7.3484381307
 11
-7.45
 21
-7.2392921193
  0
LWPOLYLINE
  5
24A
100
AcDbEntity
  8
IMPORT_IGES
100
AcDbPolyline
 62
253
  6
CONTINUOUS
 90
7
 70
0
 10
-8.2551485566
 20
-9.0493738636
 10
-8.2520254636
 20
-9.0806565625
 10
-8.2438139931
 20
-9.1112824149
 10
-8.230669641
 20
-9.1407289719
 10
-8.2128195255
 20
-9.1685124303
 10
-8.1905885822
 20
-9.1941454175
 10
-8.1644187057
 20
-9.2171587348
  0
LWPOLYLINE
  5
24B
100
AcDbEntity
  8
IMPORT_IGES
100
AcDbPolyline
 62
253
  6
CONTINUOUS
 90
13
 70
0
 10
6.8787955869
 20
11.5558592675
 10
6.8740033893
 20
11.554254183
 10
6.8692142099
 20
11.5493626697
 10
6.8645547975
 20
11.5412034537
 10
6.8602061351
 20
11.5301480352
 10
6.8562106168
 20
11.5164677035
 10
6.852501904
 20
11.4998963834
 10
6.8491721745
 20
11.4806049969
 10
6.8463386012
 20
11.4591189054
 10
6.8440253908
 20
11.435431054
 10
6.8423090661
 20
11.4099485826
 10
6.8412625597
 20
11.3835775669
 10
6.8408975954
 20
11.3570847071
  0
LWPOLYLINE
  5
24C
100
AcDbEntity
  8
IMPORT_IGES
100
AcDbPolyline
 62
253
  6
CONTINUOUS
 90
6
 70
0
 10
7.4499999846
 20
-9.575402792
 10
7.4241893122
 20
-9.5740671133
 10
7.3988971975
 20
-9.5701007366
 10
7.374537065
 20
-9.5635966191
 10
7.3516132228
 20
-9.5547393461
 10
7.3303564851
 20
-9.5436704424
  0
LINE
  5
24D
100
AcDbEntity
  8
IMPORT_IGES
100
AcDbLine
 62
7
  6
CONTINUOUS
 10
-4.0954676437
 20
-7.7955146782
 11
-4.0882289359
 21
-7.7984775786
  0
LWPOLYLINE
  5
24E
100
AcDbEntity
  8
IMPORT_IGES
100
AcDbPolyline
 62
7
  6
CONTINUOUS
 90
6
 70
0
 10
-4.0882697864
 20
-7.7985773811
 10
-4.0836943795
 20
-7.8007377736
 10
-4.070835408
 20
-7.8078814612
 10
-4.0589401885
 20
-7.8160962726
 10
-4.048186807
 20
-7.8251445473
 10
-4.038637621
 20
-7.834815462
  0
LWPOLYLINE
  5
24F
100
AcDbEntity
  8
IMPORT_IGES
100
AcDbPolyline
 62
253
  6
CONTINUOUS
 90
6
 70
0
 10
-4.0601743447
 20
-7.6008612445
 10
-4.0764482094
 20
-7.5920307243
 10
-4.0941449657
 20
-7.5849542056
 10
-4.1129391743
 20
-7.5797940359
 10
-4.132545878
 20
-7.5766591596
 10
-4.1526247031
 20
-7.575639661
  0
LWPOLYLINE
  5
250
100
AcDbEntity
  8
IMPORT_IGES
100
AcDbPolyline
 62
253
  6
CONTINUOUS
 90
13
 70
0
 10
-8.35297906
 20
-3.4446680781
 10
-8.3502030866
 20
-3.460537037
 10
-8.3425196972
 20
-3.4759904286
 10
-8.3301168962
 20
-3.490779
 10
-8.313357631
 20
-3.504598429
 10
-8.2925131088
 20
-3.517318673
 10
-8.2675407076
 20
-3.5289254046
 10
-8.2385123402
 20
-3.5392456728
 10
-8.2059612155
 20
-3.5479657642
 10
-8.1705150269
 20
-3.5548470255
 10
-8.1328046399
 20
-3.5597230846
 10
-8.0934124988
 20
-3.5624771066
 10
-8.0530248924
 20
-3.563015751
  0
LINE
  5
251
100
AcDbEntity
  8
IMPORT_IGES
100
AcDbLine
 62
253
  6
CONTINUOUS
 10
-7.9554304026
 20
-9.2434561744
 11
-7.9849870784
 21
-7.5756421412
  0
LINE
  5
252
100
AcDbEntity
  8
IMPORT_IGES
100
AcDbLine
 62
7
  6
CONTINUOUS
 10
-8.2551485566
 20
-9.049373865
 11
-8.4227212945
 21
0.5508618584
  0
LINE
  5
253
100
AcDbEntity
  8
IMPORT_IGES
100
AcDbLine
 62
253
  6
CONTINUOUS
 10
-7.9873574003
 20
-7.2392921142
 11
-8.1067323708
 21
-0.486125786
  0
LINE
  5
254
100
AcDbEntity
  8
IMPORT_IGES
100
AcDbLine
 62
7
  6
CONTINUOUS
 10
-8.1189111452
 20
0.3347777546
 11
-8.1067323708
 21
-0.486125786
  0
LINE
  5
255
100
AcDbEntity
  8
IMPORT_IGES
100
AcDbLine
 62
253
  6
CONTINUOUS
 10
-8.1220539415
 20
0.5508619508
 11
-8.1189112984
 21
0.3347764479
  0
LINE
  5
256
100
AcDbEntity
  8
IMPORT_IGES
100
AcDbLine
 62
7
  6
CONTINUOUS
 10
-7.9873574003
 20
-7.2392921142
 11
-7.9849870784
 21
-7.5756417479
  0
LINE
  5
257
100
AcDbEntity
  8
IMPORT_IGES
100
AcDbLine
 62
253
  6
CONTINUOUS
 10
-7.9552052355
 20
-9.2837285864
 11
-7.9554304026
 21
-9.2434561744
  0
LINE
  5
258
100
AcDbEntity
  8
IMPORT_IGES
100
AcDbLine
 62
7
  6
CONTINUOUS
 10
-7.9884829208
 20
8.3487550772
 11
-7.9860142604
 21
8.7023084672
  0
LINE
  5
259
100
AcDbEntity
  8
IMPORT_IGES
100
AcDbLine
 62
7
  6
CONTINUOUS
 10
-8.3119349463
 20
7.0078074954
 11
-8.2565057833
 21
10.1833421135
  0
LINE
  5
25A
100
AcDbEntity
  8
IMPORT_IGES
100
AcDbLine
 62
7
  6
CONTINUOUS
 10
-8.4227212944
 20
0.5508618584
 11
-8.3100157199
 21
7.0077599008
  0
LINE
  5
25B
100
AcDbEntity
  8
IMPORT_IGES
100
AcDbLine
 62
253
  6
CONTINUOUS
 10
-7.9860144018
 20
8.7023084676
 11
-7.9590625132
 21
10.2462989712
  0
LINE
  5
25C
100
AcDbEntity
  8
IMPORT_IGES
100
AcDbLine
 62
253
  6
CONTINUOUS
 10
-7.9946706022
 20
7.9942630434
 11
-7.9884829208
 21
8.3487550764
  0
LINE
  5
25D
100
AcDbEntity
  8
IMPORT_IGES
100
AcDbLine
 62
253
  6
CONTINUOUS
 10
-8.1220539415
 20
0.5508619508
 11
-8.0100943144
 21
7.0011329284
  0
LWPOLYLINE
  5
25E
100
AcDbEntity
  8
IMPORT_IGES
100
AcDbPolyline
 62
7
  6
CONTINUOUS
 90
3
 70
0
 10
4.1194300774
 20
-7.7874987723
 10
4.1424140095
 20
-7.7818306055
 10
4.1668419728
 20
-7.7777278128
  0
LINE
  5
25F
100
AcDbEntity
  8
IMPORT_IGES
100
AcDbLine
 62
7
  6
CONTINUOUS
 10
4.1668419728
 20
-7.7777278128
 11
4.1917652349
 21
-7.7754597602
  0
LWPOLYLINE
  5
260
100
AcDbEntity
  8
IMPORT_IGES
100
AcDbPolyline
 62
253
  6
CONTINUOUS
 90
13
 70
0
 10
-7.4499999671
 20
-8.0361401483
 10
-7.4241893026
 20
-8.0348044501
 10
-7.3988971938
 20
-8.0308380596
 10
-7.374537065
 20
-8.0243339337
 10
-7.3516132241
 20
-8.0154766581
 10
-7.3303564857
 20
-8.0044077557
 10
-7.3108094817
 20
-7.9911111147
 10
-7.2932638616
 20
-7.97562975
 10
-7.2782424901
 20
-7.9582463278
 10
-7.2661520943
 20
-7.9392973995
 10
-7.2572824015
 20
-7.9191226998
 10
-7.2518413568
 20
-7.8980375171
 10
-7.25
 20
-7.8764130339
  0
LWPOLYLINE
  5
261
100
AcDbEntity
  8
IMPORT_IGES
100
AcDbPolyline
 62
253
  6
CONTINUOUS
 90
8
 70
0
 10
4.1526328103
 20
-7.5756399057
 10
4.1335472466
 20
-7.5765569321
 10
4.1147996988
 20
-7.5794019019
 10
4.0966924419
 20
-7.5841214034
 10
4.0795867786
 20
-7.5906004029
 10
4.0636733295
 20
-7.5987448998
 10
4.0490239786
 20
-7.6085536067
 10
4.0358633713
 20
-7.6199862723
  0
LWPOLYLINE
  5
262
100
AcDbEntity
  8
IMPORT_IGES
100
AcDbPolyline
 62
253
  6
CONTINUOUS
 90
13
 70
0
 10
4.1511435655
 20
-7.7379511926
 10
4.1318509117
 20
-7.7388349199
 10
4.1129485116
 20
-7.7416800115
 10
4.0947423488
 20
-7.74641673
 10
4.0776072123
 20
-7.7529078655
 10
4.0617102222
 20
-7.7610476216
 10
4.0470749834
 20
-7.7708485749
 10
4.0339146967
 20
-7.7822809179
 10
4.0226172147
 20
-7.7951383716
 10
4.0134828106
 20
-7.8091764114
 10
4.0067268235
 20
-7.8241471904
 10
4.0025047968
 20
-7.8398196936
 10
4.0009454464
 20
-7.8559219237
  0
LWPOLYLINE
  5
263
100
AcDbEntity
  8
IMPORT_IGES
100
AcDbPolyline
 62
7
  6
CONTINUOUS
 90
13
 70
0
 10
4.1542761933
 20
-7.4772324125
 10
4.1347030825
 20
-7.477934653
 10
4.1155015359
 20
-7.4803201781
 10
4.0969958896
 20
-7.4843348936
 10
4.0795055182
 20
-7.4898790703
 10
4.0633084407
 20
-7.4968572998
 10
4.0486447762
 20
-7.5051893667
 10
4.0357624321
 20
-7.5147223905
 10
4.0248741262
 20
-7.5252852693
 10
4.016143968
 20
-7.5367535142
 10
4.0097293205
 20
-7.5489479544
 10
4.0057616603
 20
-7.5616302503
 10
4.0043242501
 20
-7.5745680912
  0
LINE
  5
264
100
AcDbEntity
  8
IMPORT_IGES
100
AcDbLine
 62
7
  6
CONTINUOUS
 10
4.1917652349
 20
-7.7754597602
 11
4.2094838091
 21
-7.7749911637
  0
LWPOLYLINE
  5
265
100
AcDbEntity
  8
IMPORT_IGES
100
AcDbPolyline
 62
253
  6
CONTINUOUS
 90
10
 70
0
 10
4.2094903074
 20
-7.7347184974
 10
4.2029156326
 20
-7.7347563212
 10
4.1963564566
 20
-7.7348750251
 10
4.1898127793
 20
-7.7350746092
 10
4.1832746979
 20
-7.7353557963
 10
4.1767521152
 20
-7.7357178635
 10
4.1702747403
 20
-7.736158642
 10
4.1638524764
 20
-7.7366774088
 10
4.1574754203
 20
-7.7372748868
 10
4.1511435721
 20
-7.7379510761
  0
LINE
  5
266
100
AcDbEntity
  8
IMPORT_IGES
100
AcDbLine
 62
7
  6
CONTINUOUS
 10
7.0499999999
 20
-7.7749914223
 11
4.2094854821
 21
-7.7749914223
  0
LINE
  5
267
100
AcDbEntity
  8
IMPORT_IGES
100
AcDbLine
 62
7
  6
CONTINUOUS
 10
-4.2094905982
 20
-7.7749914223
 11
-7.0500035661
 21
-7.7749914223
  0
LINE
  5
268
100
AcDbEntity
  8
IMPORT_IGES
100
AcDbLine
 62
253
  6
CONTINUOUS
 10
-7.0500029293
 20
-7.7347185693
 11
-4.2094905995
 21
-7.7347185243
  0
LINE
  5
269
100
AcDbEntity
  8
IMPORT_IGES
100
AcDbLine
 62
253
  6
CONTINUOUS
 10
4.2094903074
 20
-7.7347184974
 11
7.0499991095
 21
-7.7347184775
  0
LWPOLYLINE
  5
26A
100
AcDbEntity
  8
IMPORT_IGES
100
AcDbPolyline
 62
253
  6
CONTINUOUS
 90
10
 70
0
 10
-4.2094905995
 20
-7.7347185243
 10
-4.2029474105
 20
-7.7347552048
 10
-4.1964116726
 20
-7.7348730329
 10
-4.189883386
 20
-7.7350720087
 10
-4.1833528618
 20
-7.735352846
 10
-4.1768297889
 20
-7.7357148309
 10
-4.1703432334
 20
-7.7361558215
 10
-4.1639028843
 20
-7.7366751038
 10
-4.1574990526
 20
-7.7372733918
 10
-4.1511317385
 20
-7.7379506854
  0
LWPOLYLINE
  5
26B
100
AcDbEntity
  8
IMPORT_IGES
100
AcDbPolyline
 62
253
  6
CONTINUOUS
 90
11
 70
0
 10
4.2008301237
 20
-7.8693021797
 10
4.1749990626
 20
-7.8690915204
 10
4.1496951288
 20
-7.8690835831
 10
4.1253314999
 20
-7.8692761457
 10
4.1024185234
 20
-7.8696610911
 10
4.0811764568
 20
-7.8702304423
 10
4.0616264516
 20
-7.8709865309
 10
4.0440538891
 20
-7.8719297935
 10
4.0289983059
 20
-7.8730460516
 10
4.0168797777
 20
-7.8743165607
 10
4.0126980967
 20
-7.8749765157
  0
LWPOLYLINE
  5
26C
100
AcDbEntity
  8
IMPORT_IGES
100
AcDbPolyline
 62
7
  6
CONTINUOUS
 90
5
 70
0
 10
7.0499999482
 20
-7.7749894966
 10
7.05779188
 20
-7.7750803249
 10
7.0827268652
 20
-7.776617297
 10
7.1070041902
 20
-7.7799875258
 10
7.1300620629
 20
-7.7850180117
  0
LWPOLYLINE
  5
26D
100
AcDbEntity
  8
IMPORT_IGES
100
AcDbPolyline
 62
7
  6
CONTINUOUS
 90
3
 70
0
 10
-4.2094906466
 20
-7.7749902169
 10
-4.1978987556
 20
-7.7751897156
 10
-4.1759847362
 20
-7.7766762109
  0
LWPOLYLINE
  5
26E
100
AcDbEntity
  8
IMPORT_IGES
100
AcDbPolyline
 62
7
  6
CONTINUOUS
 90
13
 70
0
 10
-4.1542796108
 20
-7.4772325733
 10
-4.1347007713
 20
-7.47793588
 10
-4.1154947956
 20
-7.4803229826
 10
-4.0969861659
 20
-7.484339449
 10
-4.0794944935
 20
-7.4898848734
 10
-4.0632974612
 20
-7.4968638186
 10
-4.0486344614
 20
-7.5051968903
 10
-4.0357527747
 20
-7.5147321478
 10
-4.0248657216
 20
-7.5252974345
 10
-4.0161380327
 20
-7.5367659877
 10
-4.0097263989
 20
-7.5489576423
 10
-4.005761046
 20
-7.5616346861
 10
-4.0043242378
 20
-7.574569114
  0
LWPOLYLINE
  5
26F
100
AcDbEntity
  8
IMPORT_IGES
100
AcDbPolyline
 62
253
  6
CONTINUOUS
 90
13
 70
0
 10
-7.9848772364
 20
-7.5756414236
 10
-8.0231841385
 20
-7.5739356497
 10
-8.060775797
 20
-7.568353365
 10
-8.0970464738
 20
-7.559013412
 10
-8.1312650177
 20
-7.5461619983
 10
-8.163070427
 20
-7.5299954327
 10
-8.1923589235
 20
-7.5105047941
 10
-8.2187019942
 20
-7.4877521792
 10
-8.2413315395
 20
-7.4621452072
 10
-8.2596318561
 20
-7.4342011313
 10
-8.2731859397
 20
-7.4044285052
 10
-8.2817092336
 20
-7.3732777501
 10
-8.2849633178
 20
-7.3412873391
  0
LWPOLYLINE
  5
270
100
AcDbEntity
  8
IMPORT_IGES
100
AcDbPolyline
 62
253
  6
CONTINUOUS
 90
13
 70
0
 10
-4.1508963433
 20
-7.7379398025
 10
-4.1318458656
 20
-7.73883096
 10
-4.1130988908
 20
-7.7416491382
 10
-4.0949596684
 20
-7.746350411
 10
-4.0777558275
 20
-7.7528457405
 10
-4.0617300591
 20
-7.7610391587
 10
-4.0470614584
 20
-7.7708615755
 10
-4.0340301535
 20
-7.7821693107
 10
-4.0228715313
 20
-7.7948079595
 10
-4.0137435209
 20
-7.8087063847
 10
-4.0068863687
 20
-7.8237081296
 10
-4.0025566634
 20
-7.8395396628
 10
-4.0009453436
 20
-7.8559304417
  0
LWPOLYLINE
  5
271
100
AcDbEntity
  8
IMPORT_IGES
100
AcDbPolyline
 62
253
  6
CONTINUOUS
 90
13
 70
0
 10
7.4499999999
 20
-8.0361399673
 10
7.4244560413
 20
-8.0348318489
 10
7.3993209066
 20
-8.0309269179
 10
7.3750073342
 20
-8.0244862211
 10
7.351999164
 20
-8.015650188
 10
7.3305799464
 20
-8.0045406133
 10
7.310893658
 20
-7.9911760535
 10
7.2932457251
 20
-7.975611283
 10
7.2781540116
 20
-7.9581275618
 10
7.2660544978
 20
-7.93911492
 10
7.2572200456
 20
-7.918942734
 10
7.2518209783
 20
-7.8979180973
 10
7.2499999999
 20
-7.8764132158
  0
LWPOLYLINE
  5
272
100
AcDbEntity
  8
IMPORT_IGES
100
AcDbPolyline
 62
253
  6
CONTINUOUS
 90
8
 70
0
 10
-4.0404556842
 20
-7.8721657124
 10
-4.0571021262
 20
-7.8712015505
 10
-4.0765044583
 20
-7.8703883561
 10
-4.0983016993
 20
-7.8697540214
 10
-4.1220485856
 20
-7.8693184196
 10
-4.147307419
 20
-7.8690934397
 10
-4.1736898295
 20
-7.8690862049
 10
-4.200730978
 20
-7.869300987
  0
LWPOLYLINE
  5
273
100
AcDbEntity
  8
IMPORT_IGES
100
AcDbPolyline
 62
7
  6
CONTINUOUS
 90
5
 70
0
 10
-4.1759847362
 20
-7.7766762109
 10
-4.1542740464
 20
-7.7796016695
 10
-4.1334760453
 20
-7.7838155172
 10
-4.113775667
 20
-7.7891830615
 10
-4.0954676437
 20
-7.7955146782
  0
LWPOLYLINE
  5
274
100
AcDbEntity
  8
IMPORT_IGES
100
AcDbPolyline
 62
253
  6
CONTINUOUS
 90
4
 70
0
 10
-4.0127656373
 20
-7.8749499574
 10
-4.0155057043
 20
-7.8744956441
 10
-4.0266014777
 20
-7.8732643513
 10
-4.0404556842
 20
-7.8721657124
  0
LWPOLYLINE
  5
275
100
AcDbEntity
  8
IMPORT_IGES
100
AcDbPolyline
 62
7
  6
CONTINUOUS
 90
8
 70
0
 10
-4.038637621
 20
-7.834815462
 10
-4.030261442
 20
-7.844968396
 10
-4.0230292869
 20
-7.8554641969
 10
-4.0169708112
 20
-7.8660431618
 10
-4.0120783745
 20
-7.8764056187
 10
-4.0082073985
 20
-7.8864846121
 10
-4.0052774699
 20
-7.8960588416
 10
-4.0032425541
 20
-7.9046060555
  0
LWPOLYLINE
  5
276
100
AcDbEntity
  8
IMPORT_IGES
100
AcDbPolyline
 62
253
  6
CONTINUOUS
 90
13
 70
0
 10
-8.4066864272
 20
-0.3677750708
 10
-8.4039101247
 20
-0.3836449499
 10
-8.3962260483
 20
-0.3990988356
 10
-8.3838225907
 20
-0.4138874829
 10
-8.3670632528
 20
-0.4277064931
 10
-8.3462194599
 20
-0.4404260516
 10
-8.3212480741
 20
-0.4520322482
 10
-8.2922207808
 20
-0.462352069
 10
-8.2596708129
 20
-0.4710718656
 10
-8.2242252575
 20
-0.4779534075
 10
-8.1865146447
 20
-0.4828303547
 10
-8.1471215055
 20
-0.4855856057
 10
-8.1067321259
 20
-0.4861256988
  0
LINE
  5
277
100
AcDbEntity
  8
IMPORT_IGES
100
AcDbLine
 62
253
  6
CONTINUOUS
 10
-7.0501577587
 20
0.5347786686
 11
-7.050024177
 21
0.334779994
  0
LINE
  5
278
100
AcDbEntity
  8
IMPORT_IGES
100
AcDbLine
 62
253
  6
CONTINUOUS
 10
-7.4499999671
 20
-9.5754027124
 11
-7.45
 21
-8.0361401483
  0
LINE
  5
279
100
AcDbEntity
  8
IMPORT_IGES
100
AcDbLine
 62
253
  6
CONTINUOUS
 10
-7.45
 20
-7.2392921193
 11
-7.44998952
 21
0.1530284258
  0
LINE
  5
27A
100
AcDbEntity
  8
IMPORT_IGES
100
AcDbLine
 62
7
  6
CONTINUOUS
 10
-7.25
 20
-9.4512823899
 11
-7.25
 21
-7.8764130339
  0
LINE
  5
27B
100
AcDbEntity
  8
IMPORT_IGES
100
AcDbLine
 62
253
  6
CONTINUOUS
 10
-7.2030016412
 20
11.0023895679
 11
-7.203
 21
8.6752951077
  0
LINE
  5
27C
100
AcDbEntity
  8
IMPORT_IGES
100
AcDbLine
 62
253
  6
CONTINUOUS
 10
-7.0500035661
 20
-7.7347185243
 11
-7.050005001
 21
-9.6853293237
  0
LINE
  5
27D
100
AcDbEntity
  8
IMPORT_IGES
100
AcDbLine
 62
7
  6
CONTINUOUS
 10
-7.003
 20
8.7544306459
 11
-7.003
 21
11.0730792225
  0
LINE
  5
27E
100
AcDbEntity
  8
IMPORT_IGES
100
AcDbLine
 62
253
  6
CONTINUOUS
 10
-6.803
 20
8.8077212074
 11
-6.8030000072
 21
11.5558618584
  0
LWPOLYLINE
  5
27F
100
AcDbEntity
  8
IMPORT_IGES
100
AcDbPolyline
 62
253
  6
CONTINUOUS
 90
13
 70
0
 10
-7.2500000485
 20
-0.4037920737
 10
-7.2516739682
 20
-0.4143722734
 10
-7.25664023
 20
-0.4247888002
 10
-7.2647832581
 20
-0.4348223568
 10
-7.2758731302
 20
-0.4442654234
 10
-7.2897332302
 20
-0.4530225085
 10
-7.3063829055
 20
-0.4610752176
 10
-7.325767735
 20
-0.4683032142
 10
-7.3475341964
 20
-0.4744913296
 10
-7.3712608157
 20
-0.4794719978
 10
-7.3965221658
 20
-0.4831258716
 10
-7.4229234815
 20
-0.4853673035
 10
-7.4499999999
 20
-0.4861258444
  0
LWPOLYLINE
  5
280
100
AcDbEntity
  8
IMPORT_IGES
100
AcDbPolyline
 62
253
  6
CONTINUOUS
 90
19
 70
0
 10
-7.3974980996
 20
0.3347764479
 10
-7.40412836
 20
0.3214898479
 10
-7.4101157182
 20
0.3088599964
 10
-7.4154601745
 20
0.2968872798
 10
-7.4200554793
 20
0.2857423774
 10
-7.424007882
 20
0.275254928
 10
-7.4276361307
 20
0.2649137957
 10
-7.4310236578
 20
0.2545998777
 10
-7.4340870308
 20
0.2444327179
 10
-7.4368946999
 20
0.2342594377
 10
-7.4394819328
 20
0.2239403698
 10
-7.4418134617
 20
0.2136158107
 10
-7.4438519331
 20
0.203552689
 10
-7.445579871
 20
0.1936976248
 10
-7.4470147514
 20
0.1841040219
 10
-7.448171649
 20
0.1751982465
 10
-7.4490555888
 20
0.1671218523
 10
-7.4496615458
 20
0.1597320973
 10
-7.44998952
 20
0.1530284258
  0
LWPOLYLINE
  5
281
100
AcDbEntity
  8
IMPORT_IGES
100
AcDbPolyline
 62
253
  6
CONTINUOUS
 90
3
 70
0
 10
-7.1309040964
 20
-7.7414550072
 10
-7.0910997355
 20
-7.7367080268
 10
-7.0500029293
 20
-7.7347185693
  0
LWPOLYLINE
  5
282
100
AcDbEntity
  8
IMPORT_IGES
100
AcDbPolyline
 62
253
  6
CONTINUOUS
 90
13
 70
0
 10
3.8128962508
 20
-7.0165512257
 10
3.8392529971
 20
-7.0152759136
 10
3.8652120064
 20
-7.0112237035
 10
3.8903133274
 20
-7.0044459152
 10
3.9142471042
 20
-6.9949776578
 10
3.9364160625
 20
-6.9830035756
 10
3.9560661498
 20
-6.9690002823
 10
3.9727778127
 20
-6.9535117139
 10
3.9866460681
 20
-6.9367242783
 10
3.9977574489
 20
-6.9186421916
 10
4.0059642365
 20
-6.8994338625
 10
4.0110479544
 20
-6.8795121874
 10
4.0129148685
 20
-6.8592252333
  0
LWPOLYLINE
  5
283
100
AcDbEntity
  8
IMPORT_IGES
100
AcDbPolyline
 62
253
  6
CONTINUOUS
 90
13
 70
0
 10
-7.9873573621
 20
-7.2392921136
 10
-8.0261114514
 20
-7.2396411912
 10
-8.0640565075
 20
-7.2393536863
 10
-8.1005740584
 20
-7.2384424266
 10
-8.1349033956
 20
-7.2369399867
 10
-8.1667155098
 20
-7.2348750001
 10
-8.1959780859
 20
-7.2322413771
 10
-8.2222639525
 20
-7.2290405479
 10
-8.2447826436
 20
-7.2253262118
 10
-8.262924996
 20
-7.22116731
 10
-8.2762582463
 20
-7.2166363932
 10
-8.284472425
 20
-7.2118021048
 10
-8.2873117233
 20
-7.2067472789
  0
LINE
  5
284
100
AcDbEntity
  8
IMPORT_IGES
100
AcDbLine
 62
253
  6
CONTINUOUS
 10
4.1526328089
 20
-7.5756397383
 11
7.9850090078
 21
-7.5756415846
  0
LINE
  5
285
100
AcDbEntity
  8
IMPORT_IGES
100
AcDbLine
 62
253
  6
CONTINUOUS
 10
-4.1526247022
 20
-7.5756394827
 11
-7.9849870784
 21
-7.5756421412
  0
LINE
  5
286
100
AcDbEntity
  8
IMPORT_IGES
100
AcDbLine
 62
7
  6
CONTINUOUS
 10
-4.55
 20
-7.4772320233
 11
-4.1543131955
 21
-7.477232769
  0
LINE
  5
287
100
AcDbEntity
  8
IMPORT_IGES
100
AcDbLine
 62
7
  6
CONTINUOUS
 10
4.55
 20
-7.4772321631
 11
4.154313196
 21
-7.4772323964
  0
LINE
  5
288
100
AcDbEntity
  8
IMPORT_IGES
100
AcDbLine
 62
7
  6
CONTINUOUS
 10
7.3800828182
 20
-7.3484381307
 11
5.6199171818
 21
-7.3484381307
  0
LINE
  5
289
100
AcDbEntity
  8
IMPORT_IGES
100
AcDbLine
 62
7
  6
CONTINUOUS
 10
-5.6199171818
 20
-7.3484381307
 11
-7.3800828182
 21
-7.3484381307
  0
LINE
  5
28A
100
AcDbEntity
  8
IMPORT_IGES
100
AcDbLine
 62
253
  6
CONTINUOUS
 10
7.9873573988
 20
-7.2392921069
 11
7.45
 21
-7.2392921114
  0
LINE
  5
28B
100
AcDbEntity
  8
IMPORT_IGES
100
AcDbLine
 62
253
  6
CONTINUOUS
 10
-7.45
 20
-7.2392921193
 11
-7.9873574003
 21
-7.2392921142
  0
LINE
  5
28C
100
AcDbEntity
  8
IMPORT_IGES
100
AcDbLine
 62
253
  6
CONTINUOUS
 10
5.55
 20
-7.2392701047
 11
4.7231303335
 21
-7.2392838548
  0
LINE
  5
28D
100
AcDbEntity
  8
IMPORT_IGES
100
AcDbLine
 62
253
  6
CONTINUOUS
 10
-5.55
 20
-7.2392871042
 11
-4.7231303336
 21
-7.2392934195
  0
LINE
  5
28E
100
AcDbEntity
  8
IMPORT_IGES
100
AcDbLine
 62
253
  6
CONTINUOUS
 10
-3.8129292279
 20
-7.0165560051
 11
3.8129292811
 21
-7.0165513715
  0
LWPOLYLINE
  5
28F
100
AcDbEntity
  8
IMPORT_IGES
100
AcDbPolyline
 62
253
  6
CONTINUOUS
 90
13
 70
0
 10
7.987357413
 20
-7.239292238
 10
8.025923033
 20
-7.2396411585
 10
8.0637573473
 20
-7.2393586093
 10
8.100242314
 20
-7.2384538443
 10
8.134632537
 20
-7.2369546986
 10
8.1665606122
 20
-7.2348869981
 10
8.1959202394
 20
-7.2322475485
 10
8.2222728598
 20
-7.2290394064
 10
8.2448360377
 20
-7.2253160028
 10
8.2629847266
 20
-7.2211509385
 10
8.2762968562
 20
-7.216619715
 10
8.284485254
 20
-7.2117907029
 10
8.2873117233
 20
-7.2067472797
  0
LINE
  5
290
100
AcDbEntity
  8
IMPORT_IGES
100
AcDbLine
 62
253
  6
CONTINUOUS
 10
7.0499991095
 20
-7.7347184775
 11
7.0942545051
 21
-7.737528854
  0
LINE
  5
291
100
AcDbEntity
  8
IMPORT_IGES
100
AcDbLine
 62
253
  6
CONTINUOUS
 10
7.0942545051
 20
-7.737528854
 11
7.1363196299
 21
-7.7429476774
  0
LWPOLYLINE
  5
292
100
AcDbEntity
  8
IMPORT_IGES
100
AcDbPolyline
 62
253
  6
CONTINUOUS
 90
13
 70
0
 10
-5.749999996
 20
-4.107791078
 10
-5.7483246567
 20
-4.1110392868
 10
-5.7433587973
 20
-4.1142227607
 10
-5.7352170226
 20
-4.1172894763
 10
-5.7241279705
 20
-4.1201760703
 10
-5.7102676313
 20
-4.1228532179
 10
-5.6936175463
 20
-4.1253150237
 10
-5.6742327771
 20
-4.1275246353
 10
-5.6524663738
 20
-4.1294163551
 10
-5.6287397459
 20
-4.1309389618
 10
-5.6034782879
 20
-4.1320559685
 10
-5.5770767832
 20
-4.1327411877
 10
-5.55
 20
-4.1329730794
  0
LWPOLYLINE
  5
293
100
AcDbEntity
  8
IMPORT_IGES
100
AcDbPolyline
 62
7
  6
CONTINUOUS
 90
46
 70
0
 10
-4.7231303336
 20
-7.2392947156
 10
-4.7186423261
 20
-7.2512822641
 10
-4.7141228123
 20
-7.2627888761
 10
-4.7095717921
 20
-7.2738132914
 10
-4.7049720938
 20
-7.2843338222
 10
-4.700340889
 20
-7.294373283
 10
-4.6957296931
 20
-7.303997826
 10
-4.6911471138
 20
-7.3132120965
 10
-4.6865845434
 20
-7.3220154878
 10
-4.6820676731
 20
-7.3304654081
 10
-4.6776009917
 20
-7.3385682751
 10
-4.6731800106
 20
-7.3463228867
 10
-4.6688169549
 20
-7.3537741697
 10
-4.6645141715
 20
-7.3609283378
 10
-4.6602693136
 20
-7.3677847112
 10
-4.6560875666
 20
-7.3743769298
 10
-4.651970696
 20
-7.3807098714
 10
-4.6479169363
 20
-7.3867841553
 10
-4.6439261765
 20
-7.3926262463
 10
-4.6399997701
 20
-7.3982404093
 10
-4.6361363635
 20
-7.4036276226
 10
-4.6323317849
 20
-7.4088087642
 10
-4.6285868401
 20
-7.4137882037
 10
-4.6249007233
 20
-7.4185664609
 10
-4.6212668445
 20
-7.4231581402
 10
-4.6176860046
 20
-7.4275674632
 10
-4.6141574027
 20
-7.431794781
 10
-4.6106720464
 20
-7.4358485766
 10
-4.6072314302
 20
-7.439732835
 10
-4.6038340597
 20
-7.4434479026
 10
-4.6004664595
 20
-7.4469966624
 10
-4.5971313044
 20
-7.4503836974
 10
-4.5938259195
 20
-7.4536085685
 10
-4.5905288048
 20
-7.4566666614
 10
-4.587239174
 20
-7.4595681225
 10
-4.5839578133
 20
-7.4623068068
 10
-4.5806655812
 20
-7.4648540957
 10
-4.5773715809
 20
-7.4672181749
 10
-4.5740667092
 20
-7.469395183
 10
-4.5707045145
 20
-7.4713392207
 10
-4.5672411672
 20
-7.4730701725
 10
-4.563720497
 20
-7.4745724381
 10
-4.5602275415
 20
-7.4757479018
 10
-4.5567906464
 20
-7.4765654033
 10
-4.5533814659
 20
-7.4770598113
 10
-4.55
 20
-7.4772320233
  0
LINE
  5
294
100
AcDbEntity
  8
IMPORT_IGES
100
AcDbLine
 62
253
  6
CONTINUOUS
 10
-6.35
 20
1.1508618583
 11
-6.35
 21
2.5508618584
  0
LINE
  5
295
100
AcDbEntity
  8
IMPORT_IGES
100
AcDbLine
 62
253
  6
CONTINUOUS
 10
-6.2231434278
 20
-10.1450204441
 11
-6.2231434153
 21
-10.3441381416
  0
LINE
  5
296
100
AcDbEntity
  8
IMPORT_IGES
100
AcDbLine
 62
253
  6
CONTINUOUS
 10
-6.1500004231
 20
11.7558618583
 11
-6.1500005306
 21
11.5558618584
  0
LINE
  5
297
100
AcDbEntity
  8
IMPORT_IGES
100
AcDbLine
 62
7
  6
CONTINUOUS
 10
-6.05
 20
2.5508618583
 11
-6.05
 21
0.1508618584
  0
LINE
  5
298
100
AcDbEntity
  8
IMPORT_IGES
100
AcDbLine
 62
7
  6
CONTINUOUS
 10
-5.9467065296
 20
-10.5441381416
 11
-5.9467065296
 21
-10.5322769048
  0
LINE
  5
299
100
AcDbEntity
  8
IMPORT_IGES
100
AcDbLine
 62
7
  6
CONTINUOUS
 10
-5.75
 20
-0.3684723464
 11
-5.75
 21
-5.8605234915
  0
LINE
  5
29A
100
AcDbEntity
  8
IMPORT_IGES
100
AcDbLine
 62
253
  6
CONTINUOUS
 10
-5.75
 20
0.1508618584
 11
-5.75
 21
2.5508618584
  0
LWPOLYLINE
  5
29B
100
AcDbEntity
  8
IMPORT_IGES
100
AcDbPolyline
 62
253
  6
CONTINUOUS
 90
5
 70
0
 10
-7.25
 20
-9.4156757793
 10
-7.2516724706
 20
-9.4362890118
 10
-7.2566389285
 20
-9.456488129
 10
-7.2647829774
 20
-9.4759429533
 10
-7.2758734889
 20
-9.4942507333
  0
LWPOLYLINE
  5
29C
100
AcDbEntity
  8
IMPORT_IGES
100
AcDbPolyline
 62
7
  6
CONTINUOUS
 90
14
 70
0
 10
-7.2499968274
 20
-7.8749478447
 10
-7.2498372845
 20
-7.8732145323
 10
-7.2492995524
 20
-7.8701279755
 10
-7.2481038592
 20
-7.8658829487
 10
-7.2456167452
 20
-7.8599641795
 10
-7.2417892754
 20
-7.8532226532
 10
-7.2364326504
 20
-7.8457837497
 10
-7.2289806967
 20
-7.8373928545
 10
-7.2193763674
 20
-7.8285035271
 10
-7.2076720395
 20
-7.8195103118
 10
-7.1936806674
 20
-7.8105872283
 10
-7.1771764992
 20
-7.8019357891
 10
-7.1583026485
 20
-7.7939463854
 10
-7.1374136803
 20
-7.7870298143
  0
LWPOLYLINE
  5
29D
100
AcDbEntity
  8
IMPORT_IGES
100
AcDbPolyline
 62
253
  6
CONTINUOUS
 90
10
 70
0
 10
-7.45
 20
-8.0361401483
 10
-7.4456277255
 20
-7.9989415834
 10
-7.4373596655
 20
-7.9642670511
 10
-7.4251958199
 20
-7.9321165514
 10
-7.4088844911
 20
-7.9026456426
 10
-7.3886773766
 20
-7.8756987664
 10
-7.3653295696
 20
-7.8508092474
 10
-7.3387735958
 20
-7.8276283338
 10
-7.3090769293
 20
-7.8065047773
 10
-7.2771970861
 20
-7.7880181587
  0
LWPOLYLINE
  5
29E
100
AcDbEntity
  8
IMPORT_IGES
100
AcDbPolyline
 62
253
  6
CONTINUOUS
 90
15
 70
0
 10
-4.3658805718
 20
5.5091103153
 10
-4.3146407254
 20
5.651057232
 10
-4.2387940202
 20
5.8260152053
 10
-4.1491582866
 20
6.0052469032
 10
-4.0467045904
 20
6.1848315295
 10
-3.9344920234
 20
6.3601941548
 10
-3.811909703
 20
6.5304169223
 10
-3.6795685118
 20
6.6964176887
 10
-3.5423601886
 20
6.856375094
 10
-3.4066055591
 20
7.0044370765
 10
-3.2659837976
 20
7.1464556979
 10
-3.1064241666
 20
7.298165783
 10
-2.9232364202
 20
7.4648122736
 10
-2.7211108043
 20
7.641150228
 10
-2.5000473188
 20
7.8271796462
  0
LINE
  5
29F
100
AcDbEntity
  8
IMPORT_IGES
100
AcDbLine
 62
253
  6
CONTINUOUS
 10
-2.5759347913
 20
7.7117149925
 11
-2.5000316096
 21
7.8272087026
  0
LINE
  5
2A0
100
AcDbEntity
  8
IMPORT_IGES
100
AcDbLine
 62
253
  6
CONTINUOUS
 10
-2.9021484348
 20
7.2208200136
 11
-2.8051029622
 21
7.3677160909
  0
LINE
  5
2A1
100
AcDbEntity
  8
IMPORT_IGES
100
AcDbLine
 62
253
  6
CONTINUOUS
 10
-2.8051029622
 20
7.3677160909
 11
-2.5759347913
 21
7.7117149925
  0
LWPOLYLINE
  5
2A2
100
AcDbEntity
  8
IMPORT_IGES
100
AcDbPolyline
 62
253
  6
CONTINUOUS
 90
10
 70
0
 10
-7.3974980996
 20
0.3347751433
 10
-7.3696300248
 20
0.3746331059
 10
-7.3385846811
 20
0.4102791093
 10
-7.3043620685
 20
0.4417131535
 10
-7.2663009562
 20
0.4691977065
 10
-7.225062575
 20
0.4924703004
 10
-7.182630617
 20
0.510743531
 10
-7.139666313
 20
0.5237549302
 10
-7.0955084323
 20
0.531766966
 10
-7.0501569748
 20
0.5347796386
  0
LWPOLYLINE
  5
2A3
100
AcDbEntity
  8
IMPORT_IGES
100
AcDbPolyline
 62
253
  6
CONTINUOUS
 90
6
 70
0
 10
-7.2275189665
 20
0.2347805575
 10
-7.2395103758
 20
0.2193949882
 10
-7.2515534456
 20
0.2050922274
 10
-7.2644613129
 20
0.1922639413
 10
-7.2791899012
 20
0.1815288655
 10
-7.2963732994
 20
0.1730456619
  0
LWPOLYLINE
  5
2A4
100
AcDbEntity
  8
IMPORT_IGES
100
AcDbPolyline
 62
7
  6
CONTINUOUS
 90
5
 70
0
 10
-7.1374136803
 20
-7.7870298143
 10
-7.1148036621
 20
-7.7814810116
 10
-7.0908738516
 20
-7.777537453
 10
-7.0664495864
 20
-7.7754011718
 10
-7.0500035625
 20
-7.7749928592
  0
LWPOLYLINE
  5
2A5
100
AcDbEntity
  8
IMPORT_IGES
100
AcDbPolyline
 62
253
  6
CONTINUOUS
 90
13
 70
0
 10
4.1756020189
 20
-5.6979684816
 10
4.1563715238
 20
-5.6987279341
 10
4.1375207217
 20
-5.7012142951
 10
4.1193539669
 20
-5.7053696748
 10
4.1022467511
 20
-5.7110757388
 10
4.0863654942
 20
-5.7182429911
 10
4.0717324914
 20
-5.7268886949
 10
4.0585604212
 20
-5.7369938862
 10
4.0472477147
 20
-5.748376235
 10
4.0381071328
 20
-5.7608118692
 10
4.0313559126
 20
-5.7740771788
 10
4.0271468014
 20
-5.7879696907
 10
4.0256082637
 20
-5.8022431651
  0
LINE
  5
2A6
100
AcDbEntity
  8
IMPORT_IGES
100
AcDbLine
 62
253
  6
CONTINUOUS
 10
4.0051398378
 20
-6.2395878303
 11
3.9618153315
 21
-6.2400408612
  0
LWPOLYLINE
  5
2A7
100
AcDbEntity
  8
IMPORT_IGES
100
AcDbPolyline
 62
253
  6
CONTINUOUS
 90
5
 70
0
 10
-3.8203866402
 20
-6.2396400846
 10
-3.8722469961
 20
-6.240147489
 10
-3.8970405994
 20
-6.240238192
 10
-3.920505035
 20
-6.2401702127
 10
-3.9936171357
 20
-6.2396627114
  0
LWPOLYLINE
  5
2A8
100
AcDbEntity
  8
IMPORT_IGES
100
AcDbPolyline
 62
253
  6
CONTINUOUS
 90
5
 70
0
 10
-3.9936171357
 20
-6.2396627114
 10
-4.005162705
 20
-6.2397486041
 10
-4.0135514929
 20
-6.2400356443
 10
-4.018638902
 20
-6.2404930637
 10
-4.0203376433
 20
-6.2411289969
  0
LWPOLYLINE
  5
2A9
100
AcDbEntity
  8
IMPORT_IGES
100
AcDbPolyline
 62
253
  6
CONTINUOUS
 90
3
 70
0
 10
3.9618153315
 20
-6.2400408612
 10
3.9204171662
 20
-6.2403048105
 10
3.8969589939
 20
-6.2403178726
  0
LINE
  5
2AA
100
AcDbEntity
  8
IMPORT_IGES
100
AcDbLine
 62
253
  6
CONTINUOUS
 10
-3.8203932811
 20
-6.2396401645
 11
3.8203932811
 21
-6.2396401645
  0
LWPOLYLINE
  5
2AB
100
AcDbEntity
  8
IMPORT_IGES
100
AcDbPolyline
 62
253
  6
CONTINUOUS
 90
3
 70
0
 10
3.8969589939
 20
-6.2403178726
 10
3.8465119352
 20
-6.2399689722
 10
3.82038664
 20
-6.2396400849
  0
LWPOLYLINE
  5
2AC
100
AcDbEntity
  8
IMPORT_IGES
100
AcDbPolyline
 62
253
  6
CONTINUOUS
 90
13
 70
0
 10
-4.1756469517
 20
-5.6979689718
 10
-4.1564301139
 20
-5.6987233256
 10
-4.1375800999
 20
-5.7012041551
 10
-4.1194020489
 20
-5.7053568169
 10
-4.1022656407
 20
-5.7110689917
 10
-4.0863491085
 20
-5.7182520811
 10
-4.0716980789
 20
-5.726912448
 10
-4.0585315851
 20
-5.7370201205
 10
-4.0472322938
 20
-5.7483954993
 10
-4.0381012243
 20
-5.7608220055
 10
-4.0313541726
 20
-5.774079915
 10
-4.0271469499
 20
-5.7879643157
 10
-4.0256083757
 20
-5.8022338389
  0
LWPOLYLINE
  5
2AD
100
AcDbEntity
  8
IMPORT_IGES
100
AcDbPolyline
 62
253
  6
CONTINUOUS
 90
13
 70
0
 10
-4.55
 20
-5.4679730088
 10
-4.5758106793
 20
-5.4667903934
 10
-4.6011027992
 20
-5.4632785774
 10
-4.6254629351
 20
-5.4575198652
 10
-4.6483867782
 20
-5.4496776894
 10
-4.6696435154
 20
-5.439877354
 10
-4.6891905184
 20
-5.4281045934
 10
-4.7067361386
 20
-5.4143974916
 10
-4.7217575101
 20
-5.3990063202
 10
-4.7338479058
 20
-5.3822290607
 10
-4.7427175985
 20
-5.3643665124
 10
-4.7481586431
 20
-5.3456978294
 10
-4.75
 20
-5.3265516526
  0
LWPOLYLINE
  5
2AE
100
AcDbEntity
  8
IMPORT_IGES
100
AcDbPolyline
 62
253
  6
CONTINUOUS
 90
4
 70
0
 10
4.0203546974
 20
-6.2397088905
 10
4.0186464619
 20
-6.2395924549
 10
4.0135452681
 20
-6.2395548997
 10
4.0051398378
 20
-6.2395878303
  0
LWPOLYLINE
  5
2AF
100
AcDbEntity
  8
IMPORT_IGES
100
AcDbPolyline
 62
253
  6
CONTINUOUS
 90
5
 70
0
 10
7.1363196299
 20
-7.7429476774
 10
7.1761944839
 20
-7.7509749478
 10
7.2139563799
 20
-7.7616610011
 10
7.2495280051
 20
-7.7749555014
 10
7.2826774215
 20
-7.790707441
  0
LWPOLYLINE
  5
2B0
100
AcDbEntity
  8
IMPORT_IGES
100
AcDbPolyline
 62
253
  6
CONTINUOUS
 90
9
 70
0
 10
-4.75
 20
-5.2580134772
 10
-4.7483275292
 20
-5.258574215
 10
-4.7433610714
 20
-5.259123687
 10
-4.7352170226
 20
-5.2596529117
 10
-4.7241265112
 20
-5.2601509329
 10
-4.7102667441
 20
-5.2606127361
 10
-4.6936175463
 20
-5.2610373954
 10
-4.6742327771
 20
-5.2614185745
 10
-4.6287397459
 20
-5.2620075784
  0
LWPOLYLINE
  5
2B1
100
AcDbEntity
  8
IMPORT_IGES
100
AcDbPolyline
 62
253
  6
CONTINUOUS
 90
10
 70
0
 10
-3.9816024459
 20
-5.5705658789
 10
-3.9897549398
 20
-5.5564358902
 10
-3.999523038
 20
-5.542447426
 10
-4.0107086705
 20
-5.5289150483
 10
-4.0228752287
 20
-5.5163002192
 10
-4.0358645914
 20
-5.5046649103
 10
-4.0499488624
 20
-5.4937763779
 10
-4.0650609864
 20
-5.4837938796
 10
-4.0806837752
 20
-5.4751245897
 10
-4.0964593881
 20
-5.46796154
  0
LWPOLYLINE
  5
2B2
100
AcDbEntity
  8
IMPORT_IGES
100
AcDbPolyline
 62
7
  6
CONTINUOUS
 90
14
 70
0
 10
-4.1511317379
 20
-7.7379532236
 10
-4.1491739437
 20
-7.7449472051
 10
-4.146425507
 20
-7.7516467695
 10
-4.1430169855
 20
-7.757997724
 10
-4.1392166028
 20
-7.7639352469
 10
-4.1349840443
 20
-7.7694257203
 10
-4.1300253293
 20
-7.7744892465
 10
-4.1244013189
 20
-7.7791294484
 10
-4.1183018119
 20
-7.7833646736
 10
-4.1116736864
 20
-7.7872820991
 10
-4.1045299655
 20
-7.790965823
 10
-4.0969945996
 20
-7.7944971725
 10
-4.0891766046
 20
-7.7979673543
 10
-4.0882115755
 20
-7.7983888596
  0
LWPOLYLINE
  5
2B3
100
AcDbEntity
  8
IMPORT_IGES
100
AcDbPolyline
 62
253
  6
CONTINUOUS
 90
13
 70
0
 10
-5.75
 20
-3.4806277818
 10
-5.7483275524
 20
-3.4912604685
 10
-5.7433611969
 20
-3.5016795838
 10
-5.7352172825
 20
-3.5117148178
 10
-5.724126872
 20
-3.5211584295
 10
-5.7102671415
 20
-3.529915311
 10
-5.6936179648
 20
-3.5379678553
 10
-5.6742332514
 20
-3.5451958319
 10
-5.6524669019
 20
-3.5513839316
 10
-5.6287402659
 20
-3.5563648146
 10
-5.6034787081
 20
-3.5600191864
 10
-5.5770770284
 20
-3.5622613
 10
-5.55
 20
-3.5630206837
  0
LWPOLYLINE
  5
2B4
100
AcDbEntity
  8
IMPORT_IGES
100
AcDbPolyline
 62
253
  6
CONTINUOUS
 90
13
 70
0
 10
-5.75
 20
-0.4037347741
 10
-5.7483275117
 20
-0.4143675899
 10
-5.7433610575
 20
-0.4247867935
 10
-5.7352170226
 20
-0.434822073
 10
-5.7241265201
 20
-0.4442656784
 10
-5.7102667495
 20
-0.4530225197
 10
-5.6936175463
 20
-0.4610750255
 10
-5.6742327771
 20
-0.4683030469
 10
-5.6524663738
 20
-0.4744911891
 10
-5.6287397459
 20
-0.4794718987
 10
-5.6034782879
 20
-0.4831258207
 10
-5.5770767832
 20
-0.4853672911
 10
-5.55
 20
-0.4861258489
  0
LWPOLYLINE
  5
2B5
100
AcDbEntity
  8
IMPORT_IGES
100
AcDbPolyline
 62
253
  6
CONTINUOUS
 90
8
 70
0
 10
-4.002894374
 20
-7.6936342188
 10
-4.0043123023
 20
-7.6783186424
 10
-4.0081600687
 20
-7.6633250142
 10
-4.0143551083
 20
-7.6488953115
 10
-4.0227324542
 20
-7.635321929
 10
-4.0331640075
 20
-7.6227452907
 10
-4.0456578189
 20
-7.6112018299
 10
-4.0601743447
 20
-7.6008612445
  0
LWPOLYLINE
  5
2B6
100
AcDbEntity
  8
IMPORT_IGES
100
AcDbPolyline
 62
7
  6
CONTINUOUS
 90
10
 70
0
 10
-4.75
 20
-7.0770979458
 10
-4.7495709782
 20
-7.0965781303
 10
-4.7484788268
 20
-7.1157606782
 10
-4.746723546
 20
-7.134645589
 10
-4.7442731286
 20
-7.1533221686
 10
-4.7411595818
 20
-7.1717011111
 10
-4.7374789267
 20
-7.1895144992
 10
-4.7332631706
 20
-7.2066730271
 10
-4.7284803062
 20
-7.2232660005
 10
-4.7231303336
 20
-7.2392934195
  0
LINE
  5
2B7
100
AcDbEntity
  8
IMPORT_IGES
100
AcDbLine
 62
253
  6
CONTINUOUS
 10
-5.6500001416
 20
-10.5441381411
 11
-5.6500013496
 21
-10.3441381416
  0
LINE
  5
2B8
100
AcDbEntity
  8
IMPORT_IGES
100
AcDbLine
 62
253
  6
CONTINUOUS
 10
-5.55
 20
-0.4399479565
 11
-5.55
 21
-7.2392871042
  0
LINE
  5
2B9
100
AcDbEntity
  8
IMPORT_IGES
100
AcDbLine
 62
253
  6
CONTINUOUS
 10
-5.45
 20
-0.4491381416
 11
-5.45
 21
-0.1491381416
  0
LINE
  5
2BA
100
AcDbEntity
  8
IMPORT_IGES
100
AcDbLine
 62
253
  6
CONTINUOUS
 10
-5.1
 20
-0.1491381416
 11
-5.1
 21
-0.4491381416
  0
LINE
  5
2BB
100
AcDbEntity
  8
IMPORT_IGES
100
AcDbLine
 62
253
  6
CONTINUOUS
 10
-5.05
 20
3.2508618584
 11
-5.05
 21
3.8508618584
  0
LINE
  5
2BC
100
AcDbEntity
  8
IMPORT_IGES
100
AcDbLine
 62
7
  6
CONTINUOUS
 10
-4.9273029486
 20
-11.7558618584
 11
-4.9273029486
 21
-10.6058618591
  0
LINE
  5
2BD
100
AcDbEntity
  8
IMPORT_IGES
100
AcDbLine
 62
253
  6
CONTINUOUS
 10
-4.8
 20
0.1508618584
 11
-4.7999991816
 21
6.949914423
  0
LINE
  5
2BE
100
AcDbEntity
  8
IMPORT_IGES
100
AcDbLine
 62
7
  6
CONTINUOUS
 10
-4.75
 20
-7.0770979454
 11
-4.75
 21
-0.5846077472
  0
LWPOLYLINE
  5
2BF
100
AcDbEntity
  8
IMPORT_IGES
100
AcDbPolyline
 62
253
  6
CONTINUOUS
 90
13
 70
0
 10
-4.0
 20
9.1925390312
 10
-3.9983309363
 20
9.2107714736
 10
-3.9933724381
 20
9.2286438426
 10
-3.9852374924
 20
9.2458639744
 10
-3.9741524536
 20
9.2620766532
 10
-3.9602924049
 20
9.2771155958
 10
-3.9436409406
 20
9.2909446494
 10
-3.9242548253
 20
9.3033559885
 10
-3.9024863108
 20
9.3139816499
 10
-3.8787563157
 20
9.3225342433
 10
-3.8534901281
 20
9.3288087584
 10
-3.8270830045
 20
9.3326578803
 10
-3.8
 20
9.3339605175
  0
LWPOLYLINE
  5
2C0
100
AcDbEntity
  8
IMPORT_IGES
100
AcDbPolyline
 62
253
  6
CONTINUOUS
 90
6
 70
0
 10
-4.0
 20
11.2679938927
 10
-3.9982889723
 20
11.2864530838
 10
-3.9931851653
 20
11.3045964331
 10
-3.9847759065
 20
11.3221135027
 10
-3.9732050808
 20
11.3387045708
 10
-3.9586706681
 20
11.3540857596
  0
LINE
  5
2C1
100
AcDbEntity
  8
IMPORT_IGES
100
AcDbLine
 62
7
  6
CONTINUOUS
 10
-4.0367559346
 20
8.3665189526
 11
-4.1416667458
 21
7.5754640224
  0
LWPOLYLINE
  5
2C2
100
AcDbEntity
  8
IMPORT_IGES
100
AcDbPolyline
 62
7
  6
CONTINUOUS
 90
31
 70
0
 10
-7.3800828182
 20
-7.3484381307
 10
-7.3705262163
 20
-7.3168942274
 10
-7.3615845778
 20
-7.2842445066
 10
-7.3532579028
 20
-7.2504889682
 10
-7.3456304309
 20
-7.2156365871
 10
-7.3386179225
 20
-7.1796783884
 10
-7.3319676586
 20
-7.142587448
 10
-7.3256249465
 20
-7.1043583665
 10
-7.3196444789
 20
-7.0649965433
 10
-7.3139376149
 20
-7.0244912514
 10
-7.308489045
 20
-6.9828682522
 10
-7.3033140787
 20
-6.9401017843
 10
-7.2983700032
 20
-6.8961038365
 10
-7.2936473549
 20
-6.8508833607
 10
-7.2891555975
 20
-6.804431405
 10
-7.284880409
 20
-6.7566331026
 10
-7.2808145687
 20
-6.7074807844
 10
-7.2769652973
 20
-6.6569821195
 10
-7.2733399351
 20
-6.6050452479
 10
-7.269933612
 20
-6.5516714692
 10
-7.2667511981
 20
-6.4968594838
 10
-7.2638146443
 20
-6.440513533
 10
-7.2611190239
 20
-6.3826352452
 10
-7.2586692636
 20
-6.323222992
 10
-7.2565020942
 20
-6.2621761296
 10
-7.2546114983
 20
-6.1994923463
 10
-7.2530034935
 20
-6.1351739538
 10
-7.2517328628
 20
-6.0691272429
 10
-7.2508178676
 20
-6.0013209774
 10
-7.2502402467
 20
-5.9317863936
 10
-7.25
 20
0.1347879039
  0
LWPOLYLINE
  5
2C3
100
AcDbEntity
  8
IMPORT_IGES
100
AcDbPolyline
 62
253
  6
CONTINUOUS
 90
4
 70
0
 10
-2.6375594702
 20
7.3838037877
 10
-2.6032155077
 20
7.4913861393
 10
-2.5526763807
 20
7.6549269445
 10
-2.5000473188
 20
7.8271796462
  0
LINE
  5
2C4
100
AcDbEntity
  8
IMPORT_IGES
100
AcDbLine
 62
253
  6
CONTINUOUS
 10
4.6742327771
 20
-5.2614185745
 11
4.6287397459
 21
-5.2620075784
  0
LINE
  5
2C5
100
AcDbEntity
  8
IMPORT_IGES
100
AcDbLine
 62
253
  6
CONTINUOUS
 10
4.6287397459
 20
-5.2620075784
 11
4.5770767832
 21
-5.2623184796
  0
LINE
  5
2C6
100
AcDbEntity
  8
IMPORT_IGES
100
AcDbLine
 62
253
  6
CONTINUOUS
 10
-4.0964593868
 20
-5.4679665381
 11
-4.55
 21
-5.4679730086
  0
LINE
  5
2C7
100
AcDbEntity
  8
IMPORT_IGES
100
AcDbLine
 62
253
  6
CONTINUOUS
 10
4.55
 20
-5.4679730086
 11
4.096458952
 21
-5.4679596701
  0
LINE
  5
2C8
100
AcDbEntity
  8
IMPORT_IGES
100
AcDbLine
 62
253
  6
CONTINUOUS
 10
3.832129547
 20
-5.2623584831
 11
4.5770767832
 21
-5.2623184796
  0
LINE
  5
2C9
100
AcDbEntity
  8
IMPORT_IGES
100
AcDbLine
 62
253
  6
CONTINUOUS
 10
-4.5770767832
 20
-5.2623184796
 11
-3.832129547
 21
-5.2623584831
  0
LINE
  5
2CA
100
AcDbEntity
  8
IMPORT_IGES
100
AcDbLine
 62
253
  6
CONTINUOUS
 10
-4.6287397459
 20
-5.2620075784
 11
-4.5770767832
 21
-5.2623184796
  0
LWPOLYLINE
  5
2CB
100
AcDbEntity
  8
IMPORT_IGES
100
AcDbPolyline
 62
7
  6
CONTINUOUS
 90
15
 70
0
 10
7.1300620629
 20
-7.7850180117
 10
7.151351842
 20
-7.7914383429
 10
7.1704772716
 20
-7.7988902336
 10
7.1873569976
 20
-7.8070608055
 10
7.2018286368
 20
-7.8155767426
 10
7.213888316
 20
-7.8240806241
 10
7.2239014711
 20
-7.8324812442
 10
7.2320864728
 20
-7.8406868907
 10
7.2384241207
 20
-7.848367067
 10
7.2429800455
 20
-7.8551399439
 10
7.2462490554
 20
-7.8612891423
 10
7.248384974
 20
-7.8667312684
 10
7.2494159034
 20
-7.8706891916
 10
7.2498786128
 20
-7.8736429686
 10
7.2499971737
 20
-7.875098819
  0
LWPOLYLINE
  5
2CC
100
AcDbEntity
  8
IMPORT_IGES
100
AcDbPolyline
 62
253
  6
CONTINUOUS
 90
13
 70
0
 10
-4.0129148702
 20
-6.859225093
 10
-4.0109225409
 20
-6.8802258261
 10
-4.0054589755
 20
-6.9008934904
 10
-3.9965956576
 20
-6.9208352987
 10
-3.9843811705
 20
-6.9398043551
 10
-3.9690557116
 20
-6.9573265047
 10
-3.951227462
 20
-6.9728067932
 10
-3.9315837962
 20
-6.9859183804
 10
-3.9103566429
 20
-6.9967399414
 10
-3.8875499799
 20
-7.0053406372
 10
-3.8633768836
 20
-7.0116050449
 10
-3.838357604
 20
-7.0153649165
 10
-3.8128962593
 20
-7.0165504914
  0
LINE
  5
2CD
100
AcDbEntity
  8
IMPORT_IGES
100
AcDbLine
 62
253
  6
CONTINUOUS
 10
-4.2039117447
 20
-7.7748007831
 11
-4.2007029653
 21
-7.8693006506
  0
LINE
  5
2CE
100
AcDbEntity
  8
IMPORT_IGES
100
AcDbLine
 62
253
  6
CONTINUOUS
 10
-4.1543131955
 20
-7.477232425
 11
-4.1526247022
 21
-7.5756394826
  0
LINE
  5
2CF
100
AcDbEntity
  8
IMPORT_IGES
100
AcDbLine
 62
7
  6
CONTINUOUS
 10
-3.9734353236
 20
-10.1466964106
 11
-4.0256085126
 21
-5.8022224454
  0
LINE
  5
2D0
100
AcDbEntity
  8
IMPORT_IGES
100
AcDbLine
 62
253
  6
CONTINUOUS
 10
-3.7778043933
 20
-9.9414091568
 11
-3.8129292279
 21
-7.0165560051
  0
LINE
  5
2D1
100
AcDbEntity
  8
IMPORT_IGES
100
AcDbLine
 62
253
  6
CONTINUOUS
 10
-3.8203932811
 20
-6.2396401645
 11
-3.832129547
 21
-5.2623584831
  0
LINE
  5
2D2
100
AcDbEntity
  8
IMPORT_IGES
100
AcDbLine
 62
7
  6
CONTINUOUS
 10
-4.2007029653
 20
-7.8693006506
 11
-4.1734520392
 21
-10.1450204441
  0
LINE
  5
2D3
100
AcDbEntity
  8
IMPORT_IGES
100
AcDbLine
 62
253
  6
CONTINUOUS
 10
-4.1756133673
 20
-5.6979687642
 11
-4.1543131955
 21
-7.477232769
  0
LINE
  5
2D4
100
AcDbEntity
  8
IMPORT_IGES
100
AcDbLine
 62
7
  6
CONTINUOUS
 10
-3.7734511638
 20
-10.3441381416
 11
-3.7778050669
 21
-9.9414091639
  0
LINE
  5
2D5
100
AcDbEntity
  8
IMPORT_IGES
100
AcDbLine
 62
7
  6
CONTINUOUS
 10
-3.8203930427
 20
-6.239640162
 11
-3.8129292279
 21
-7.0165536883
  0
LINE
  5
2D6
100
AcDbEntity
  8
IMPORT_IGES
100
AcDbLine
 62
253
  6
CONTINUOUS
 10
-4.1511317385
 20
-7.7379506854
 11
-4.1526247022
 21
-7.5756394827
  0
LINE
  5
2D7
100
AcDbEntity
  8
IMPORT_IGES
100
AcDbLine
 62
253
  6
CONTINUOUS
 10
-4.55
 20
-7.4772320233
 11
-4.55
 21
-0.3302281071
  0
LINE
  5
2D8
100
AcDbEntity
  8
IMPORT_IGES
100
AcDbLine
 62
7
  6
CONTINUOUS
 10
-4.55
 20
-0.3302281071
 11
-4.55
 21
-0.088301511
  0
LINE
  5
2D9
100
AcDbEntity
  8
IMPORT_IGES
100
AcDbLine
 62
7
  6
CONTINUOUS
 10
-4.5
 20
0.1508618583
 11
-4.5
 21
3.8831285598
  0
LINE
  5
2DA
100
AcDbEntity
  8
IMPORT_IGES
100
AcDbLine
 62
7
  6
CONTINUOUS
 10
-4.5
 20
5.1664435634
 11
-4.5
 21
6.9504654153
  0
LINE
  5
2DB
100
AcDbEntity
  8
IMPORT_IGES
100
AcDbLine
 62
253
  6
CONTINUOUS
 10
-4.2094905981
 20
-7.7749914175
 11
-4.2094905995
 21
-7.7347185693
  0
LINE
  5
2DC
100
AcDbEntity
  8
IMPORT_IGES
100
AcDbLine
 62
253
  6
CONTINUOUS
 10
-4.2
 20
9.1807430659
 11
-4.1999999992
 21
11.5558618584
  0
LINE
  5
2DD
100
AcDbEntity
  8
IMPORT_IGES
100
AcDbLine
 62
253
  6
CONTINUOUS
 10
-4.1734520392
 20
-10.1450204441
 11
-4.1734592499
 21
-10.3441381416
  0
LINE
  5
2DE
100
AcDbEntity
  8
IMPORT_IGES
100
AcDbLine
 62
7
  6
CONTINUOUS
 10
-4.1048535023
 20
8.2417195889
 11
-4.1048535023
 21
8.1735377707
  0
LINE
  5
2DF
100
AcDbEntity
  8
IMPORT_IGES
100
AcDbLine
 62
253
  6
CONTINUOUS
 10
-4.0877513367
 20
3.7190671388
 11
-4.087751337
 21
3.9190671388
  0
LINE
  5
2E0
100
AcDbEntity
  8
IMPORT_IGES
100
AcDbLine
 62
7
  6
CONTINUOUS
 10
-4.0
 20
11.3558618584
 11
-4.0
 21
9.1925390319
  0
LINE
  5
2E1
100
AcDbEntity
  8
0
100
AcDbLine
 62
7
  6
CONTINUOUS
 10
-3.7340923596
 20
-10.6058618591
 11
-3.7340923596
 21
-10.7058618591
  0
LWPOLYLINE
  5
2E2
100
AcDbEntity
  8
IMPORT_IGES
100
AcDbPolyline
 62
253
  6
CONTINUOUS
 90
5
 70
0
 10
-3.8
 20
3.7190671388
 10
-3.799917264
 20
3.372446218
 10
-3.8003542982
 20
3.3221320623
 10
-3.8010297546
 20
3.2708196337
 10
-3.801943633
 20
3.2190684212
  0
LWPOLYLINE
  5
2E3
100
AcDbEntity
  8
IMPORT_IGES
100
AcDbPolyline
 62
253
  6
CONTINUOUS
 90
10
 70
0
 10
-4.0256085222
 20
-5.8022216472
 10
-4.0253274971
 20
-5.7734065932
 10
-4.0238075542
 20
-5.7453196595
 10
-4.021092188
 20
-5.7179796782
 10
-4.0172538695
 20
-5.6913478808
 10
-4.0123360477
 20
-5.6654609002
 10
-4.006301257
 20
-5.6404297455
 10
-3.9991334238
 20
-5.6162899128
 10
-3.990889146
 20
-5.59300242
 10
-3.9816050143
 20
-5.5705657972
  0
LWPOLYLINE
  5
2E4
100
AcDbEntity
  8
IMPORT_IGES
100
AcDbPolyline
 62
253
  6
CONTINUOUS
 90
7
 70
0
 10
-4.2
 20
9.1807430659
 10
-4.2080748485
 20
8.7921964334
 10
-4.2326904938
 20
8.4046630479
 10
-4.2738469358
 20
8.0181757114
 10
-4.3316661424
 20
7.6317725413
 10
-4.4060261458
 20
7.2464816389
 10
-4.4137885998
 20
7.2138001547
  0
LINE
  5
2E5
100
AcDbEntity
  8
IMPORT_IGES
100
AcDbLine
 62
253
  6
CONTINUOUS
 10
-3.8210480159
 20
8.7023089564
 11
-3.8253537172
 21
8.5988017631
  0
LINE
  5
2E6
100
AcDbEntity
  8
IMPORT_IGES
100
AcDbLine
 62
253
  6
CONTINUOUS
 10
-3.8253537172
 20
8.5988017631
 11
-3.8330646792
 21
8.4356221281
  0
LINE
  5
2E7
100
AcDbEntity
  8
IMPORT_IGES
100
AcDbLine
 62
253
  6
CONTINUOUS
 10
-3.8330646792
 20
8.4356221281
 11
-3.8375463848
 21
8.3487550766
  0
LWPOLYLINE
  5
2E8
100
AcDbEntity
  8
IMPORT_IGES
100
AcDbPolyline
 62
253
  6
CONTINUOUS
 90
10
 70
0
 10
-3.8210224345
 20
8.7023085206
 10
-3.8166100489
 20
8.7724517034
 10
-3.8127167693
 20
8.8426064297
 10
-3.8093425956
 20
8.9127726995
 10
-3.8064874891
 20
8.9829524467
 10
-3.8041514885
 20
9.0531437374
 10
-3.8023347102
 20
9.12334077
 10
-3.8010371927
 20
9.1935416106
 10
-3.8002588975
 20
9.2637481931
 10
-3.8
 20
11.5558618584
  0
LWPOLYLINE
  5
2E9
100
AcDbEntity
  8
IMPORT_IGES
100
AcDbPolyline
 62
7
  6
CONTINUOUS
 90
10
 70
0
 10
-4.7454596355
 20
-0.4861257692
 10
-4.7464154558
 20
-0.4970480286
 10
-4.7472584759
 20
-0.5079760614
 10
-4.7479886957
 20
-0.5189098677
 10
-4.7486061602
 20
-0.5298504179
 10
-4.7491108244
 20
-0.5407967416
 10
-4.7495025539
 20
-0.5517459275
 10
-4.749781304
 20
-0.5626970051
 10
-4.7499471193
 20
-0.573650945
 10
-4.75
 20
-0.5846077471
  0
LWPOLYLINE
  5
2EA
100
AcDbEntity
  8
IMPORT_IGES
100
AcDbPolyline
 62
7
  6
CONTINUOUS
 90
4
 70
0
 10
-4.7167526098
 20
-0.3097881882
 10
-4.7189925263
 20
-0.3207357283
 10
-4.7333362446
 20
-0.4029449814
 10
-4.7454596355
 20
-0.486125817
  0
LINE
  5
2EB
100
AcDbEntity
  8
IMPORT_IGES
100
AcDbLine
 62
253
  6
CONTINUOUS
 10
-5.0972590663
 20
-0.4501084633
 11
-5.1100095844
 21
-0.4861257213
  0
LINE
  5
2EC
100
AcDbEntity
  8
IMPORT_IGES
100
AcDbLine
 62
253
  6
CONTINUOUS
 10
-6.05
 20
0.5874422745
 11
-6.1060815424
 21
0.5347798757
  0
LWPOLYLINE
  5
2ED
100
AcDbEntity
  8
IMPORT_IGES
100
AcDbPolyline
 62
253
  6
CONTINUOUS
 90
13
 70
0
 10
-8.0415784153
 20
-4.1329730835
 10
-8.0803322919
 20
-4.1333221561
 10
-8.1182771703
 20
-4.1330346538
 10
-8.1547945857
 20
-4.1321234028
 10
-8.1891238257
 20
-4.1306209768
 10
-8.2209358907
 20
-4.1285560073
 10
-8.2501984834
 20
-4.1259224003
 10
-8.2764844252
 20
-4.1227215826
 10
-8.2990032302
 20
-4.119007252
 10
-8.3171457195
 20
-4.1148483465
 10
-8.3304791042
 20
-4.1103174147
 10
-8.3386933848
 20
-4.1054830999
 10
-8.3415327238
 20
-4.1004282368
  0
LWPOLYLINE
  5
2EE
100
AcDbEntity
  8
IMPORT_IGES
100
AcDbPolyline
 62
253
  6
CONTINUOUS
 90
13
 70
0
 10
-7.45
 20
-4.1329743688
 10
-7.4241893207
 20
-4.1327631727
 10
-7.3988972009
 20
-4.132137291
 10
-7.3745370651
 20
-4.1311113818
 10
-7.3516132219
 20
-4.1297146003
 10
-7.3303564847
 20
-4.1279692152
 10
-7.3108094817
 20
-4.1258725425
 10
-7.2932638616
 20
-4.1234313172
 10
-7.27824249
 20
-4.1206901604
 10
-7.2661520943
 20
-4.1177021422
 10
-7.2572824016
 20
-4.1145208348
 10
-7.251841357
 20
-4.1111959554
 10
-7.25
 20
-4.1077860347
  0
LWPOLYLINE
  5
2EF
100
AcDbEntity
  8
IMPORT_IGES
100
AcDbPolyline
 62
253
  6
CONTINUOUS
 90
13
 70
0
 10
5.55
 20
-4.1329719725
 10
5.5758106793
 20
-4.1327618415
 10
5.6011027991
 20
-4.1321367585
 10
5.6254629349
 20
-4.1311113818
 10
5.6483867781
 20
-4.1297147778
 10
5.6696435153
 20
-4.1279693039
 10
5.6891905183
 20
-4.1258725425
 10
5.7067361384
 20
-4.1234313172
 10
5.72175751
 20
-4.1206901604
 10
5.7338479057
 20
-4.1177021422
 10
5.7427175984
 20
-4.1145208348
 10
5.748158643
 20
-4.1111959554
 10
5.75
 20
-4.1077860347
  0
LINE
  5
2F0
100
AcDbEntity
  8
IMPORT_IGES
100
AcDbLine
 62
253
  6
CONTINUOUS
 10
5.55
 20
-4.1329721626
 11
4.75
 21
-4.1329782893
  0
LINE
  5
2F1
100
AcDbEntity
  8
IMPORT_IGES
100
AcDbLine
 62
253
  6
CONTINUOUS
 10
-7.45
 20
-4.1329748404
 11
-8.0415782852
 21
-4.1329753119
  0
LINE
  5
2F2
100
AcDbEntity
  8
IMPORT_IGES
100
AcDbLine
 62
253
  6
CONTINUOUS
 10
-5.55
 20
-4.132972183
 11
-4.75
 21
-4.1329800187
  0
LINE
  5
2F3
100
AcDbEntity
  8
IMPORT_IGES
100
AcDbLine
 62
253
  6
CONTINUOUS
 10
7.45
 20
-4.1329780606
 11
8.041578185
 21
-4.1329806031
  0
LWPOLYLINE
  5
2F4
100
AcDbEntity
  8
IMPORT_IGES
100
AcDbPolyline
 62
253
  6
CONTINUOUS
 90
13
 70
0
 10
7.45
 20
-4.1329730794
 10
7.4241890074
 20
-4.1327624513
 10
7.3988966734
 20
-4.1321369869
 10
7.3745364269
 20
-4.1311113491
 10
7.3516125991
 20
-4.1297146515
 10
7.3303559594
 20
-4.1279692135
 10
7.3108090498
 20
-4.1258724898
 10
7.2932625642
 20
-4.1234311111
 10
7.2782406551
 20
-4.120689773
 10
7.2661518715
 20
-4.1177020767
 10
7.2572846648
 20
-4.1145218618
 10
7.2518443367
 20
-4.1111987006
 10
7.250000004
 20
-4.107791078
  0
LWPOLYLINE
  5
2F5
100
AcDbEntity
  8
IMPORT_IGES
100
AcDbPolyline
 62
253
  6
CONTINUOUS
 90
13
 70
0
 10
8.0415782264
 20
-4.1329806038
 10
8.0803324584
 20
-4.1333263329
 10
8.1182776378
 20
-4.133036314
 10
8.1547952885
 20
-4.1321233747
 10
8.1891246927
 20
-4.130620369
 10
8.220936844
 20
-4.1285556517
 10
8.2501994415
 20
-4.1259222958
 10
8.276485317
 20
-4.1227214523
 10
8.299003993
 20
-4.1190071003
 10
8.3171462999
 20
-4.1148481823
 10
8.3304794747
 20
-4.11031725
 10
8.3386935519
 20
-4.1054829474
 10
8.3415327239
 20
-4.1004282349
  0
LWPOLYLINE
  5
2F6
100
AcDbEntity
  8
IMPORT_IGES
100
AcDbPolyline
 62
253
  6
CONTINUOUS
 90
7
 70
0
 10
7.3303564851
 20
-9.5436704424
 10
7.3108094816
 20
-9.5303738002
 10
7.2932638615
 20
-9.5148924322
 10
7.2782424899
 20
-9.4975090067
 10
7.2661520942
 20
-9.4785600849
 10
7.2572824015
 20
-9.458385405
 10
7.2518413568
 20
-9.437300252
  0
LWPOLYLINE
  5
2F7
100
AcDbEntity
  8
IMPORT_IGES
100
AcDbPolyline
 62
7
  6
CONTINUOUS
 90
10
 70
0
 10
-6.1060818204
 20
0.5347802524
 10
-6.1550996671
 20
0.5929635208
 10
-6.1987747816
 20
0.6540581404
 10
-6.2371071638
 20
0.7180641111
 10
-6.2702784461
 20
0.7854398199
 10
-6.2981069962
 20
0.8557268799
 10
-6.3200479164
 20
0.9275501298
 10
-6.3359195741
 20
1.0004511827
 10
-6.345903602
 20
1.0748884255
 10
-6.35
 20
1.1508618583
  0
LINE
  5
2F8
100
AcDbEntity
  8
0
100
AcDbLine
 62
253
  6
CONTINUOUS
 10
-3.644625439
 20
-10.6058618591
 11
-3.644625439
 21
-10.7058618591
  0
LINE
  5
2F9
100
AcDbEntity
  8
0
100
AcDbLine
 62
253
  6
CONTINUOUS
 10
-3.556441145
 20
-10.6058618591
 11
-3.556441145
 21
-10.7058618591
  0
LINE
  5
2FA
100
AcDbEntity
  8
0
100
AcDbLine
 62
7
  6
CONTINUOUS
 10
-3.2387188245
 20
-10.6058618591
 11
-3.2387188245
 21
-10.7058618591
  0
LINE
  5
2FB
100
AcDbEntity
  8
0
100
AcDbLine
 62
7
  6
CONTINUOUS
 10
-3.203701048
 20
-10.6058618591
 11
-3.203701048
 21
-10.7058618591
  0
LINE
  5
2FC
100
AcDbEntity
  8
0
100
AcDbLine
 62
7
  6
CONTINUOUS
 10
-2.9372242261
 20
-10.6058618591
 11
-2.9372242261
 21
-10.7058618591
  0
LINE
  5
2FD
100
AcDbEntity
  8
IMPORT_IGES
100
AcDbLine
 62
7
  6
CONTINUOUS
 10
-2.9048535023
 20
4.2203576175
 11
-2.9048535023
 21
4.2286509802
  0
LWPOLYLINE
  5
2FE
100
AcDbEntity
  8
IMPORT_IGES
100
AcDbPolyline
 62
253
  6
CONTINUOUS
 90
13
 70
0
 10
5.55
 20
-3.5630188565
 10
5.5758109926
 20
-3.5623298555
 10
5.6011033267
 20
-3.5602838534
 10
5.6254635731
 20
-3.556928815
 10
5.648387401
 20
-3.5523599758
 10
5.6696440406
 20
-3.5466503467
 10
5.6891909502
 20
-3.5397916009
 10
5.7067369808
 20
-3.531805666
 10
5.7217585943
 20
-3.5228385572
 10
5.7338481285
 20
-3.5130647678
 10
5.7427165107
 20
-3.5026599907
 10
5.7481571519
 20
-3.4917866157
 10
5.749999999
 20
-3.4806360302
  0
LWPOLYLINE
  5
2FF
100
AcDbEntity
  8
IMPORT_IGES
100
AcDbPolyline
 62
253
  6
CONTINUOUS
 90
13
 70
0
 10
-7.45
 20
-3.5630188565
 10
-7.4241890074
 20
-3.5623298555
 10
-7.3988966733
 20
-3.5602838534
 10
-7.3745364269
 20
-3.556928815
 10
-7.351612599
 20
-3.5523599758
 10
-7.3303559594
 20
-3.5466503467
 10
-7.3108090498
 20
-3.5397916009
 10
-7.2932630192
 20
-3.531805666
 10
-7.2782414057
 20
-3.5228385572
 10
-7.2661518715
 20
-3.5130647678
 10
-7.2572834893
 20
-3.5026599907
 10
-7.2518428481
 20
-3.4917866157
 10
-7.250000001
 20
-3.4806360302
  0
LWPOLYLINE
  5
300
100
AcDbEntity
  8
IMPORT_IGES
100
AcDbPolyline
 62
253
  6
CONTINUOUS
 90
13
 70
0
 10
8.0530247561
 20
-3.563018854
 10
8.0916624141
 20
-3.5625492811
 10
8.1294972132
 20
-3.5600434475
 10
8.1659162394
 20
-3.5555684411
 10
8.2001650463
 20
-3.5492610989
 10
8.2319176595
 20
-3.5412276553
 10
8.2611433091
 20
-3.5314495765
 10
8.2874192061
 20
-3.5199489185
 10
8.3099613534
 20
-3.5069317085
 10
8.328165202
 20
-3.4926455044
 10
8.3416001186
 20
-3.4773424353
 10
8.3499568142
 20
-3.461257153
 10
8.3529790623
 20
-3.4446679474
  0
LINE
  5
301
100
AcDbEntity
  8
IMPORT_IGES
100
AcDbLine
 62
7
  6
CONTINUOUS
 10
-1.1048535023
 20
-3.7106571295
 11
1.1048535023
 21
-3.7106571295
  0
LINE
  5
302
100
AcDbEntity
  8
IMPORT_IGES
100
AcDbLine
 62
253
  6
CONTINUOUS
 10
-8.0530247281
 20
-3.5630157486
 11
-7.4499999999
 21
-3.5630167994
  0
LINE
  5
303
100
AcDbEntity
  8
IMPORT_IGES
100
AcDbLine
 62
253
  6
CONTINUOUS
 10
7.45
 20
-3.5630181278
 11
8.0530246782
 21
-3.563017932
  0
LINE
  5
304
100
AcDbEntity
  8
IMPORT_IGES
100
AcDbLine
 62
253
  6
CONTINUOUS
 10
-5.55
 20
-3.5630209067
 11
-4.75
 21
-3.5630154713
  0
LINE
  5
305
100
AcDbEntity
  8
IMPORT_IGES
100
AcDbLine
 62
253
  6
CONTINUOUS
 10
4.75
 20
-3.5630133325
 11
5.55
 21
-3.5630193976
  0
LINE
  5
306
100
AcDbEntity
  8
IMPORT_IGES
100
AcDbLine
 62
7
  6
CONTINUOUS
 10
-1.4048535023
 20
-3.14013516
 11
1.4048535023
 21
-3.14013516
  0
LINE
  5
307
100
AcDbEntity
  8
IMPORT_IGES
100
AcDbLine
 62
7
  6
CONTINUOUS
 10
2.6048535023
 20
-3.0380337158
 11
1.7048535023
 21
-3.0380337158
  0
LINE
  5
308
100
AcDbEntity
  8
IMPORT_IGES
100
AcDbLine
 62
7
  6
CONTINUOUS
 10
-1.7048535023
 20
-3.0380337158
 11
-2.6048535023
 21
-3.0380337158
  0
LINE
  5
309
100
AcDbEntity
  8
IMPORT_IGES
100
AcDbLine
 62
7
  6
CONTINUOUS
 10
2.909988884
 20
-3.0058908587
 11
-2.9099886235
 21
-3.0058908587
  0
LWPOLYLINE
  5
30A
100
AcDbEntity
  8
IMPORT_IGES
100
AcDbPolyline
 62
253
  6
CONTINUOUS
 90
13
 70
0
 10
7.45
 20
-3.5630183235
 10
7.4241893207
 20
-3.5623295762
 10
7.3988972009
 20
-3.5602837924
 10
7.374537065
 20
-3.5569289221
 10
7.3516132219
 20
-3.5523601602
 10
7.3303564847
 20
-3.546650528
 10
7.3108094817
 20
-3.5397917734
 10
7.2932638559
 20
-3.5318061008
 10
7.2782424807
 20
-3.5228392996
 10
7.2661520943
 20
-3.5130649821
 10
7.2572824161
 20
-3.5026583976
 10
7.2518413753
 20
-3.4917821765
 10
7.25
 20
-3.4806277818
  0
LINE
  5
30B
100
AcDbEntity
  8
IMPORT_IGES
100
AcDbLine
 62
253
  6
CONTINUOUS
 10
-7.2275187086
 20
0.2347804058
 11
-7.3974980996
 21
0.3347751433
  0
LWPOLYLINE
  5
30C
100
AcDbEntity
  8
IMPORT_IGES
100
AcDbPolyline
 62
253
  6
CONTINUOUS
 90
10
 70
0
 10
7.2826774215
 20
-7.790707441
 10
7.3135187943
 20
-7.8090276575
 10
7.3419379583
 20
-7.8298053133
 10
7.36736048
 20
-7.8525568876
 10
7.389810336
 20
-7.8768771908
 10
7.4092635497
 20
-7.9031714126
 10
7.4250737577
 20
-7.9321716009
 10
7.4370255057
 20
-7.9641217716
 10
7.445334248
 20
-7.9987779088
 10
7.4499999846
 20
-8.0361400125
  0
LINE
  5
30D
100
AcDbEntity
  8
0
100
AcDbLine
 62
7
  6
CONTINUOUS
 10
-2.6758720685
 20
-10.6058618591
 11
-2.6758720685
 21
-10.7058618591
  0
LINE
  5
30E
100
AcDbEntity
  8
0
100
AcDbLine
 62
7
  6
CONTINUOUS
 10
-2.640854292
 20
-10.6058618591
 11
-2.640854292
 21
-10.7058618591
  0
LINE
  5
30F
100
AcDbEntity
  8
IMPORT_IGES
100
AcDbLine
 62
253
  6
CONTINUOUS
 10
-2.6048535023
 20
4.4615677784
 11
-2.6048535023
 21
4.2155957128
  0
LINE
  5
310
100
AcDbEntity
  8
IMPORT_IGES
100
AcDbLine
 62
253
  6
CONTINUOUS
 10
-2.6048535023
 20
-3.0380337158
 11
-2.6048535023
 21
-3.2408417119
  0
LINE
  5
311
100
AcDbEntity
  8
0
100
AcDbLine
 62
253
  6
CONTINUOUS
 10
-2.2958006192
 20
-10.6058618591
 11
-2.2958006192
 21
-10.7058618591
  0
LINE
  5
312
100
AcDbEntity
  8
0
100
AcDbLine
 62
253
  6
CONTINUOUS
 10
-2.2172242017
 20
-10.6058618591
 11
-2.2172242017
 21
-10.7058618591
  0
LINE
  5
313
100
AcDbEntity
  8
0
100
AcDbLine
 62
7
  6
CONTINUOUS
 10
-2.1326690961
 20
-10.6058618591
 11
-2.1326690961
 21
-10.7058618591
  0
LINE
  5
314
100
AcDbEntity
  8
0
100
AcDbLine
 62
7
  6
CONTINUOUS
 10
-2.0891100217
 20
-10.6058618591
 11
-2.0891100217
 21
-10.7058618591
  0
LINE
  5
315
100
AcDbEntity
  8
0
100
AcDbLine
 62
253
  6
CONTINUOUS
 10
-1.9996432454
 20
-10.6058618591
 11
-1.9996432454
 21
-10.7058618591
  0
LINE
  5
316
100
AcDbEntity
  8
0
100
AcDbLine
 62
253
  6
CONTINUOUS
 10
-1.9114588071
 20
-10.6058618591
 11
-1.9114588071
 21
-10.7058618591
  0
LINE
  5
317
100
AcDbEntity
  8
IMPORT_IGES
100
AcDbLine
 62
7
  6
CONTINUOUS
 10
4.4048535023
 20
7.5457162003
 11
4.2296286832
 21
7.3689392501
  0
LWPOLYLINE
  5
318
100
AcDbEntity
  8
IMPORT_IGES
100
AcDbPolyline
 62
253
  6
CONTINUOUS
 90
7
 70
0
 10
-7.2963732994
 20
0.1730456619
 10
-7.3156482986
 20
0.166332137
 10
-7.336690874
 20
0.1611872125
 10
-7.3592657172
 20
0.1578842903
 10
-7.3824532046
 20
0.1557380377
 10
-7.405578662
 20
0.1539599336
 10
-7.4282474259
 20
0.152888375
  0
LWPOLYLINE
  5
319
100
AcDbEntity
  8
IMPORT_IGES
100
AcDbPolyline
 62
253
  6
CONTINUOUS
 90
5
 70
0
 10
-6.1060818204
 20
0.5347802524
 10
-6.0898726437
 20
0.5280701625
 10
-6.0733633753
 20
0.5215585089
 10
-6.0565540152
 20
0.5152512881
 10
-6.05
 20
0.5129185738
  0
LWPOLYLINE
  5
31A
100
AcDbEntity
  8
IMPORT_IGES
100
AcDbPolyline
 62
253
  6
CONTINUOUS
 90
4
 70
0
 10
3.9940451936
 20
-5.3866029359
 10
3.9009924543
 20
-5.3147849556
 10
3.867253338
 20
-5.2888949962
 10
3.832129547
 20
-5.2623584831
  0
LINE
  5
31B
100
AcDbEntity
  8
IMPORT_IGES
100
AcDbLine
 62
253
  6
CONTINUOUS
 10
-1.7048533252
 20
-3.7382810982
 11
-1.7048535023
 21
-3.0380337158
  0
LINE
  5
31C
100
AcDbEntity
  8
IMPORT_IGES
100
AcDbLine
 62
253
  6
CONTINUOUS
 10
-1.704853018
 20
4.2155957128
 11
-1.7048528344
 21
4.9508095716
  0
LINE
  5
31D
100
AcDbEntity
  8
0
100
AcDbLine
 62
7
  6
CONTINUOUS
 10
-1.5937364865
 20
-10.6058618591
 11
-1.5937364865
 21
-10.7058618591
  0
LINE
  5
31E
100
AcDbEntity
  8
0
100
AcDbLine
 62
7
  6
CONTINUOUS
 10
-1.55871871
 20
-10.6058618591
 11
-1.55871871
 21
-10.7058618591
  0
LINE
  5
31F
100
AcDbEntity
  8
IMPORT_IGES
100
AcDbLine
 62
7
  6
CONTINUOUS
 10
-1.4048535023
 20
-3.848651905
 11
-1.4048535023
 21
-3.0451765729
  0
LINE
  5
320
100
AcDbEntity
  8
IMPORT_IGES
100
AcDbLine
 62
7
  6
CONTINUOUS
 10
-1.4048535023
 20
4.2203576175
 11
-1.4048535023
 21
5.0603965024
  0
LINE
  5
321
100
AcDbEntity
  8
0
100
AcDbLine
 62
7
  6
CONTINUOUS
 10
-1.2922418881
 20
-10.6058618591
 11
-1.2922418881
 21
-10.7058618591
  0
LINE
  5
322
100
AcDbEntity
  8
IMPORT_IGES
100
AcDbLine
 62
7
  6
CONTINUOUS
 10
-1.1048535023
 20
-3.9352270843
 11
-1.1048535023
 21
-3.7106571295
  0
LINE
  5
323
100
AcDbEntity
  8
IMPORT_IGES
100
AcDbLine
 62
7
  6
CONTINUOUS
 10
-1.1048535023
 20
4.981390604
 11
-1.1048535023
 21
5.1469194824
  0
LINE
  5
324
100
AcDbEntity
  8
0
100
AcDbLine
 62
7
  6
CONTINUOUS
 10
-1.0308897305
 20
-10.6058618591
 11
-1.0308897305
 21
-10.7058618591
  0
LINE
  5
325
100
AcDbEntity
  8
0
100
AcDbLine
 62
7
  6
CONTINUOUS
 10
-0.995871954
 20
-10.6058618591
 11
-0.995871954
 21
-10.7058618591
  0
LWPOLYLINE
  5
326
100
AcDbEntity
  8
IMPORT_IGES
100
AcDbPolyline
 62
253
  6
CONTINUOUS
 90
3
 70
0
 10
-3.9816050143
 20
-5.5705657972
 10
-3.9685482183
 20
-5.5419479126
 10
-3.9542745489
 20
-5.5118347741
  0
LINE
  5
327
100
AcDbEntity
  8
IMPORT_IGES
100
AcDbLine
 62
253
  6
CONTINUOUS
 10
-3.9542745489
 20
-5.5118347741
 11
-3.9060659871
 21
-5.412294432
  0
LINE
  5
328
100
AcDbEntity
  8
IMPORT_IGES
100
AcDbLine
 62
253
  6
CONTINUOUS
 10
-3.851281826
 20
-5.301528493
 11
-3.8321229061
 21
-5.2623584034
  0
LWPOLYLINE
  5
329
100
AcDbEntity
  8
IMPORT_IGES
100
AcDbPolyline
 62
253
  6
CONTINUOUS
 90
3
 70
0
 10
-3.9060659871
 20
-5.412294432
 10
-3.8884724253
 20
-5.3764387092
 10
-3.851281826
 20
-5.301528493
  0
LINE
  5
32A
100
AcDbEntity
  8
IMPORT_IGES
100
AcDbLine
 62
253
  6
CONTINUOUS
 10
-7.0500050012
 20
-9.6853293711
 11
-7.0984607427
 21
-9.7688529423
  0
LINE
  5
32B
100
AcDbEntity
  8
IMPORT_IGES
100
AcDbLine
 62
253
  6
CONTINUOUS
 10
-7.0984607427
 20
-9.7688529423
 11
-7.1278329477
 21
-9.81895591
  0
LWPOLYLINE
  5
32C
100
AcDbEntity
  8
IMPORT_IGES
100
AcDbPolyline
 62
253
  6
CONTINUOUS
 90
5
 70
0
 10
-7.1278329477
 20
-9.81895591
 10
-7.1414329069
 20
-9.8418194178
 10
-7.146077989
 20
-9.8494684448
 10
-7.1489597006
 20
-9.8540456101
 10
-7.1499995977
 20
-9.8554266955
  0
LINE
  5
32D
100
AcDbEntity
  8
IMPORT_IGES
100
AcDbLine
 62
253
  6
CONTINUOUS
 10
2.814383876
 20
7.0401065508
 11
2.9247518712
 21
7.2068965554
  0
LINE
  5
32E
100
AcDbEntity
  8
IMPORT_IGES
100
AcDbLine
 62
253
  6
CONTINUOUS
 10
4.0221021721
 20
-5.408551842
 11
3.9940451936
 21
-5.3866029359
  0
LINE
  5
32F
100
AcDbEntity
  8
IMPORT_IGES
100
AcDbLine
 62
253
  6
CONTINUOUS
 10
4.096458952
 20
-5.4679663392
 11
4.0221021721
 21
-5.408551842
  0
LWPOLYLINE
  5
330
100
AcDbEntity
  8
IMPORT_IGES
100
AcDbPolyline
 62
253
  6
CONTINUOUS
 90
10
 70
0
 10
-7.9590672199
 20
10.2463013246
 10
-7.9864052188
 20
10.2872969089
 10
-8.0142355167
 20
10.3227652879
 10
-8.0418879157
 20
10.3523257624
 10
-8.0687697818
 20
10.376083281
 10
-8.0940124994
 20
10.393231133
 10
-8.1168222711
 20
10.4027302132
 10
-8.1369286744
 20
10.4048543728
 10
-8.1542349937
 20
10.4005009035
 10
-8.1686835105
 20
10.3902384245
  0
LINE
  5
331
100
AcDbEntity
  8
0
100
AcDbLine
 62
253
  6
CONTINUOUS
 10
-0.6508185674
 20
-10.6058618591
 11
-0.6508185674
 21
-10.7058618591
  0
LINE
  5
332
100
AcDbEntity
  8
IMPORT_IGES
100
AcDbLine
 62
7
  6
CONTINUOUS
 10
-0.6
 20
4.4941671413
 11
-0.6
 21
5.2458975519
  0
LINE
  5
333
100
AcDbEntity
  8
0
100
AcDbLine
 62
253
  6
CONTINUOUS
 10
-0.5722419243
 20
-10.6058618591
 11
-0.5722419243
 21
-10.7058618591
  0
LINE
  5
334
100
AcDbEntity
  8
0
100
AcDbLine
 62
7
  6
CONTINUOUS
 10
-0.4876867581
 20
-10.6058618591
 11
-0.4876867581
 21
-10.7058618591
  0
LINE
  5
335
100
AcDbEntity
  8
0
100
AcDbLine
 62
7
  6
CONTINUOUS
 10
-0.4321708966
 20
-10.6058618591
 11
-0.4321708966
 21
-10.7058618591
  0
LINE
  5
336
100
AcDbEntity
  8
0
100
AcDbLine
 62
253
  6
CONTINUOUS
 10
-0.308327469
 20
-10.6058618591
 11
-0.308327469
 21
-10.7058618591
  0
LINE
  5
337
100
AcDbEntity
  8
0
100
AcDbLine
 62
253
  6
CONTINUOUS
 10
-0.2152312566
 20
-10.6058618591
 11
-0.2152312566
 21
-10.7058618591
  0
LINE
  5
338
100
AcDbEntity
  8
0
100
AcDbLine
 62
7
  6
CONTINUOUS
 10
-0.089679556
 20
-10.6058618591
 11
-0.089679556
 21
-10.7058618591
  0
LINE
  5
339
100
AcDbEntity
  8
IMPORT_IGES
100
AcDbLine
 62
253
  6
CONTINUOUS
 10
-6.2731431955
 20
-10.1316871586
 11
-6.3587864358
 21
-10.2795642766
  0
LWPOLYLINE
  5
33A
100
AcDbEntity
  8
IMPORT_IGES
100
AcDbPolyline
 62
253
  6
CONTINUOUS
 90
4
 70
0
 10
-6.3587864358
 20
-10.2795642766
 10
-6.3694163513
 20
-10.2977427086
 10
-6.3721779702
 20
-10.3024010599
 10
-6.3731422926
 20
-10.3039458914
  0
LINE
  5
33B
100
AcDbEntity
  8
IMPORT_IGES
100
AcDbLine
 62
7
  6
CONTINUOUS
 10
-5.55
 20
-7.2392781967
 11
-5.6199171818
 21
-7.3484381307
  0
LWPOLYLINE
  5
33C
100
AcDbEntity
  8
IMPORT_IGES
100
AcDbPolyline
 62
253
  6
CONTINUOUS
 90
10
 70
0
 10
-4.0964593868
 20
-5.4679665381
 10
-4.1123536853
 20
-5.4890689603
 10
-4.1265499721
 20
-5.5113218302
 10
-4.1390482473
 20
-5.5347251478
 10
-4.1499509658
 20
-5.559328383
 10
-4.1591556727
 20
-5.5850820658
 10
-4.1663550028
 20
-5.6118377864
 10
-4.1714465011
 20
-5.6395460746
 10
-4.1745326226
 20
-5.6682564006
 10
-4.1756133673
 20
-5.6979687642
  0
LWPOLYLINE
  5
33D
100
AcDbEntity
  8
IMPORT_IGES
100
AcDbPolyline
 62
253
  6
CONTINUOUS
 90
13
 70
0
 10
8.1067321136
 20
-0.4861254285
 10
8.1453672975
 20
-0.4856561397
 10
8.1832007226
 20
-0.4831507124
 10
8.2196194701
 20
-0.4786760684
 10
8.2538693266
 20
-0.472368796
 10
8.2856237345
 20
-0.4643350426
 10
8.3148507987
 20
-0.4545565246
 10
8.3411275758
 20
-0.4430554108
 10
8.3636702122
 20
-0.430037705
 10
8.3818739357
 20
-0.4157512226
 10
8.3953083129
 20
-0.4004482409
 10
8.4036644489
 20
-0.384363382
 10
8.4066864295
 20
-0.3677749421
  0
LWPOLYLINE
  5
33E
100
AcDbEntity
  8
IMPORT_IGES
100
AcDbPolyline
 62
253
  6
CONTINUOUS
 90
13
 70
0
 10
7.4499999999
 20
0.1530293082
 10
7.4238776111
 20
0.1527918427
 10
7.3982331391
 20
0.1523234728
 10
7.3735025031
 20
0.1516240422
 10
7.3501179524
 20
0.1506928974
 10
7.3284551742
 20
0.1495296553
 10
7.3088389349
 20
0.148135604
 10
7.2916082972
 20
0.1465074391
 10
7.2770598126
 20
0.1446440912
 10
7.2654252551
 20
0.1425498899
 10
7.2569252475
 20
0.1402195886
 10
7.251743847
 20
0.1376360471
 10
7.25
 20
0.1347798727
  0
LINE
  5
33F
100
AcDbEntity
  8
IMPORT_IGES
100
AcDbLine
 62
253
  6
CONTINUOUS
 10
7.45
 20
-0.4861258486
 11
8.1067321905
 21
-0.4861254296
  0
LINE
  5
340
100
AcDbEntity
  8
IMPORT_IGES
100
AcDbLine
 62
253
  6
CONTINUOUS
 10
-8.1067323708
 20
-0.486125786
 11
-7.4499999998
 21
-0.4861258152
  0
LINE
  5
341
100
AcDbEntity
  8
IMPORT_IGES
100
AcDbLine
 62
253
  6
CONTINUOUS
 10
-5.55
 20
-0.4861256991
 11
-4.7454596355
 21
-0.4861257692
  0
LINE
  5
342
100
AcDbEntity
  8
IMPORT_IGES
100
AcDbLine
 62
253
  6
CONTINUOUS
 10
4.7454596355
 20
-0.4861250677
 11
5.55
 21
-0.4861237895
  0
LINE
  5
343
100
AcDbEntity
  8
IMPORT_IGES
100
AcDbLine
 62
7
  6
CONTINUOUS
 10
-5.45
 20
-0.4491381416
 11
-5.1
 21
-0.4491381416
  0
LINE
  5
344
100
AcDbEntity
  8
IMPORT_IGES
100
AcDbLine
 62
7
  6
CONTINUOUS
 10
5.1
 20
-0.4491381416
 11
5.45
 21
-0.4491381416
  0
LINE
  5
345
100
AcDbEntity
  8
IMPORT_IGES
100
AcDbLine
 62
7
  6
CONTINUOUS
 10
-4.4360261456
 20
-0.3302281071
 11
-4.55
 21
-0.3302281071
  0
LINE
  5
346
100
AcDbEntity
  8
IMPORT_IGES
100
AcDbLine
 62
253
  6
CONTINUOUS
 10
-5.45
 20
-0.1491381416
 11
-5.1
 21
-0.1491381416
  0
LINE
  5
347
100
AcDbEntity
  8
IMPORT_IGES
100
AcDbLine
 62
253
  6
CONTINUOUS
 10
5.1
 20
-0.1491381416
 11
5.45
 21
-0.1491381416
  0
LINE
  5
348
100
AcDbEntity
  8
IMPORT_IGES
100
AcDbLine
 62
7
  6
CONTINUOUS
 10
4.4353662579
 20
-0.330115882
 11
4.55
 21
-0.3302281071
  0
LWPOLYLINE
  5
349
100
AcDbEntity
  8
IMPORT_IGES
100
AcDbPolyline
 62
253
  6
CONTINUOUS
 90
13
 70
0
 10
-7.4499895162
 20
0.1530278003
 10
-7.4238311189
 20
0.1527893621
 10
-7.3981572412
 20
0.1523205741
 10
-7.3734050035
 20
0.1516217227
 10
-7.3500060574
 20
0.1506925932
 10
-7.3283376003
 20
0.1495319909
 10
-7.3087270344
 20
0.148139035
 10
-7.291512289
 20
0.1465077264
 10
-7.2769857024
 20
0.1446391937
 10
-7.2653753591
 20
0.1425427327
 10
-7.2568982382
 20
0.1402144778
 10
-7.2517347258
 20
0.1376352886
 10
-7.25
 20
0.1347886235
  0
LWPOLYLINE
  5
34A
100
AcDbEntity
  8
IMPORT_IGES
100
AcDbPolyline
 62
253
  6
CONTINUOUS
 90
13
 70
0
 10
7.45
 20
-0.4861258489
 10
7.4241896804
 20
-0.485436884
 10
7.3988978066
 20
-0.4833909692
 10
7.3745377977
 20
-0.4800360374
 10
7.351613937
 20
-0.4754672796
 10
7.3303570878
 20
-0.469757686
 10
7.3108099775
 20
-0.4628989637
 10
7.2932642876
 20
-0.4549133175
 10
7.2782428425
 20
-0.4459465418
 10
7.2661523501
 20
-0.4361722205
 10
7.25728255
 20
-0.4257655888
 10
7.2518414138
 20
-0.4148892848
 10
7.25
 20
-0.4037347741
  0
LWPOLYLINE
  5
34B
100
AcDbEntity
  8
IMPORT_IGES
100
AcDbPolyline
 62
253
  6
CONTINUOUS
 90
10
 70
0
 10
7.4499999683
 20
-9.575402792
 10
7.4625092043
 20
-9.5899126562
 10
7.4749669553
 20
-9.6022351075
 10
7.487222205
 20
-9.6123178207
 10
7.4990889108
 20
-9.6201572473
 10
7.5104674896
 20
-9.625705361
 10
7.5213492925
 20
-9.6288808167
 10
7.5316566121
 20
-9.6296873416
 10
7.5412399235
 20
-9.6282014916
 10
7.54999907
 20
-9.6244878483
  0
LWPOLYLINE
  5
34C
100
AcDbEntity
  8
IMPORT_IGES
100
AcDbPolyline
 62
253
  6
CONTINUOUS
 90
10
 70
0
 10
4.096458952
 20
-5.4679596701
 10
4.1122099268
 20
-5.4888095781
 10
4.1263105252
 20
-5.510869241
 10
4.1387607472
 20
-5.5341386586
 10
4.1496793561
 20
-5.5586619638
 10
4.1589475887
 20
-5.5843950238
 10
4.1662091551
 20
-5.6112054404
 10
4.1713452922
 20
-5.6390490809
 10
4.1744747632
 20
-5.6679700779
 10
4.1755975682
 20
-5.6979684316
  0
LWPOLYLINE
  5
34D
100
AcDbEntity
  8
IMPORT_IGES
100
AcDbPolyline
 62
253
  6
CONTINUOUS
 90
3
 70
0
 10
6.3731434186
 20
-10.3039457738
 10
6.3722867496
 20
-10.3025819647
 10
6.3697804221
 20
-10.2983607582
  0
LINE
  5
34E
100
AcDbEntity
  8
0
100
AcDbLine
 62
7
  6
CONTINUOUS
 10
0.4005693149
 20
-10.6058618591
 11
0.4005693149
 21
-10.7058618591
  0
LINE
  5
34F
100
AcDbEntity
  8
0
100
AcDbLine
 62
253
  6
CONTINUOUS
 10
0.5517437648
 20
-10.6058618591
 11
0.5517437648
 21
-10.7058618591
  0
LINE
  5
350
100
AcDbEntity
  8
IMPORT_IGES
100
AcDbLine
 62
7
  6
CONTINUOUS
 10
0.6
 20
5.2458973094
 11
0.6
 21
4.4941671413
  0
LINE
  5
351
100
AcDbEntity
  8
0
100
AcDbLine
 62
253
  6
CONTINUOUS
 10
0.6405693542
 20
-10.6058618591
 11
0.6405693542
 21
-10.7058618591
  0
LINE
  5
352
100
AcDbEntity
  8
0
100
AcDbLine
 62
7
  6
CONTINUOUS
 10
0.7430606555
 20
-10.6058618591
 11
0.7430606555
 21
-10.7058618591
  0
LINE
  5
353
100
AcDbEntity
  8
0
100
AcDbLine
 62
7
  6
CONTINUOUS
 10
0.7868476528
 20
-10.7058618591
 11
0.7868476528
 21
-10.6058618591
  0
LINE
  5
354
100
AcDbEntity
  8
0
100
AcDbLine
 62
7
  6
CONTINUOUS
 10
0.8077819983
 20
-10.6058618591
 11
0.8077819983
 21
-10.7058618591
  0
LINE
  5
355
100
AcDbEntity
  8
0
100
AcDbLine
 62
7
  6
CONTINUOUS
 10
0.8206800276
 20
-10.6058618591
 11
0.8206800276
 21
-10.7058618591
  0
LINE
  5
356
100
AcDbEntity
  8
0
100
AcDbLine
 62
7
  6
CONTINUOUS
 10
0.8259075832
 20
-10.6058618591
 11
0.8259075832
 21
-10.7058618591
  0
LINE
  5
357
100
AcDbEntity
  8
0
100
AcDbLine
 62
253
  6
CONTINUOUS
 10
0.9497509492
 20
-10.6058618591
 11
0.9497509492
 21
-10.7058618591
  0
LINE
  5
358
100
AcDbEntity
  8
0
100
AcDbLine
 62
253
  6
CONTINUOUS
 10
1.0428469371
 20
-10.6058618591
 11
1.0428469371
 21
-10.7058618591
  0
LWPOLYLINE
  5
359
100
AcDbEntity
  8
IMPORT_IGES
100
AcDbPolyline
 62
253
  6
CONTINUOUS
 90
4
 70
0
 10
-7.2758734889
 20
-9.4942507333
 10
-7.289733256
 20
-9.511227126
 10
-7.3063824537
 20
-9.5268380643
 10
-7.3257672229
 20
-9.5408506196
  0
LWPOLYLINE
  5
35A
100
AcDbEntity
  8
IMPORT_IGES
100
AcDbPolyline
 62
253
  6
CONTINUOUS
 90
6
 70
0
 10
-7.4499999342
 20
-9.5754027124
 10
-7.4624791043
 20
-9.5898805994
 10
-7.4749149
 20
-9.6021879338
 10
-7.4871567079
 20
-9.6122689818
 10
-7.4990179268
 20
-9.6201167224
 10
-7.5103986751
 20
-9.6256789571
  0
LWPOLYLINE
  5
35B
100
AcDbEntity
  8
IMPORT_IGES
100
AcDbPolyline
 62
7
  6
CONTINUOUS
 90
10
 70
0
 10
-7.0501577719
 20
0.334805624
 10
-7.0718368765
 20
0.3336079538
 10
-7.0939110894
 20
0.3299430224
 10
-7.1160787858
 20
0.3236430004
 10
-7.1382769103
 20
0.3144241381
 10
-7.159806067
 20
0.3022672453
 10
-7.1795652202
 20
0.2878018322
 10
-7.1972573212
 20
0.2716157306
 10
-7.2131808947
 20
0.253843564
 10
-7.2275187086
 20
0.2347804058
  0
LINE
  5
35C
100
AcDbEntity
  8
IMPORT_IGES
100
AcDbLine
 62
253
  6
CONTINUOUS
 10
-8.1189112984
 20
0.3347777524
 11
-8.4188581795
 21
0.3295441535
  0
LINE
  5
35D
100
AcDbEntity
  8
IMPORT_IGES
100
AcDbLine
 62
253
  6
CONTINUOUS
 10
-6.05
 20
0.1508618584
 11
-5.75
 21
0.1508618584
  0
LINE
  5
35E
100
AcDbEntity
  8
IMPORT_IGES
100
AcDbLine
 62
253
  6
CONTINUOUS
 10
-4.8
 20
0.1508618584
 11
-4.5
 21
0.1508618583
  0
LINE
  5
35F
100
AcDbEntity
  8
IMPORT_IGES
100
AcDbLine
 62
253
  6
CONTINUOUS
 10
4.8
 20
0.1508618584
 11
4.5
 21
0.1508618584
  0
LINE
  5
360
100
AcDbEntity
  8
IMPORT_IGES
100
AcDbLine
 62
253
  6
CONTINUOUS
 10
5.75
 20
0.1508618584
 11
6.05
 21
0.1508618583
  0
LINE
  5
361
100
AcDbEntity
  8
IMPORT_IGES
100
AcDbLine
 62
253
  6
CONTINUOUS
 10
7.3974982454
 20
0.3347769044
 11
8.119384815
 21
0.3347797084
  0
LINE
  5
362
100
AcDbEntity
  8
IMPORT_IGES
100
AcDbLine
 62
253
  6
CONTINUOUS
 10
-8.1189112984
 20
0.3347764479
 11
-7.3974980996
 21
0.3347751433
  0
LINE
  5
363
100
AcDbEntity
  8
IMPORT_IGES
100
AcDbLine
 62
7
  6
CONTINUOUS
 10
6.05
 20
0.3347798753
 11
7.0501548037
 21
0.3347798752
  0
LINE
  5
364
100
AcDbEntity
  8
IMPORT_IGES
100
AcDbLine
 62
7
  6
CONTINUOUS
 10
-6.05
 20
0.3347798752
 11
-7.0500167009
 21
0.3347798753
  0
LINE
  5
365
100
AcDbEntity
  8
IMPORT_IGES
100
AcDbLine
 62
253
  6
CONTINUOUS
 10
6.1060730709
 20
0.5347790645
 11
7.050154201
 21
0.5347795747
  0
LINE
  5
366
100
AcDbEntity
  8
IMPORT_IGES
100
AcDbLine
 62
253
  6
CONTINUOUS
 10
-7.0501569748
 20
0.5347796386
 11
-6.1060818204
 21
0.5347802524
  0
LINE
  5
367
100
AcDbEntity
  8
IMPORT_IGES
100
AcDbLine
 62
7
  6
CONTINUOUS
 10
-8.4227212945
 20
0.5508618584
 11
-8.1220539428
 21
0.5508619508
  0
LINE
  5
368
100
AcDbEntity
  8
IMPORT_IGES
100
AcDbLine
 62
7
  6
CONTINUOUS
 10
8.4227212945
 20
0.5508618584
 11
8.1223723772
 21
0.5508674679
  0
LWPOLYLINE
  5
369
100
AcDbEntity
  8
IMPORT_IGES
100
AcDbPolyline
 62
253
  6
CONTINUOUS
 90
9
 70
0
 10
7.4499993728
 20
0.1530289572
 10
7.4278590833
 20
0.1532035492
 10
7.405245357
 20
0.1544692603
 10
7.382657096
 20
0.1561180469
 10
7.360600801
 20
0.1579818997
 10
7.3394771423
 20
0.1606743484
 10
7.3196043439
 20
0.1648498924
 10
7.3013180762
 20
0.1705207336
 10
7.2847416503
 20
0.1779760771
  0
LINE
  5
36A
100
AcDbEntity
  8
IMPORT_IGES
100
AcDbLine
 62
253
  6
CONTINUOUS
 10
8.118903875
 20
0.334780103
 11
8.4188581795
 21
0.3295441533
  0
LWPOLYLINE
  5
36B
100
AcDbEntity
  8
IMPORT_IGES
100
AcDbPolyline
 62
253
  6
CONTINUOUS
 90
10
 70
0
 10
7.050154201
 20
0.5347795747
 10
7.0955816184
 20
0.5317479144
 10
7.1397938333
 20
0.5237176399
 10
7.1827908457
 20
0.5106887513
 10
7.2252302636
 20
0.4923933826
 10
7.2664544789
 20
0.4690993998
 10
7.3044906672
 20
0.4416104007
 10
7.3386812203
 20
0.4101942515
 10
7.3696837464
 20
0.374583086
 10
7.3974982454
 20
0.3347769044
  0
LINE
  5
36C
100
AcDbEntity
  8
IMPORT_IGES
100
AcDbLine
 62
7
  6
CONTINUOUS
 10
5.6199171818
 20
-7.3484381307
 11
5.55
 21
-7.2392701047
  0
LWPOLYLINE
  5
36D
100
AcDbEntity
  8
IMPORT_IGES
100
AcDbPolyline
 62
253
  6
CONTINUOUS
 90
5
 70
0
 10
7.1353944754
 20
-9.8317190749
 10
7.1415022765
 20
-9.8419340013
 10
7.1461163334
 20
-9.8495293473
 10
7.1489722693
 20
-9.8540628752
 10
7.1499997817
 20
-9.855425142
  0
LINE
  5
36E
100
AcDbEntity
  8
IMPORT_IGES
100
AcDbLine
 62
253
  6
CONTINUOUS
 10
6.3697804221
 20
-10.2983607582
 11
6.3448042906
 21
-10.255518681
  0
LINE
  5
36F
100
AcDbEntity
  8
IMPORT_IGES
100
AcDbLine
 62
253
  6
CONTINUOUS
 10
6.3448042906
 20
-10.255518681
 11
6.2731428441
 21
-10.1316866276
  0
LINE
  5
370
100
AcDbEntity
  8
IMPORT_IGES
100
AcDbLine
 62
7
  6
CONTINUOUS
 10
1.1048535023
 20
-3.9352272216
 11
1.1048535023
 21
-3.7106571295
  0
LINE
  5
371
100
AcDbEntity
  8
IMPORT_IGES
100
AcDbLine
 62
7
  6
CONTINUOUS
 10
1.1048535023
 20
4.981390604
 11
1.1048535023
 21
5.1469194043
  0
LINE
  5
372
100
AcDbEntity
  8
0
100
AcDbLine
 62
7
  6
CONTINUOUS
 10
1.1683986377
 20
-10.6058618591
 11
1.1683986377
 21
-10.7058618591
  0
LINE
  5
373
100
AcDbEntity
  8
IMPORT_IGES
100
AcDbLine
 62
7
  6
CONTINUOUS
 10
1.4048535023
 20
-3.8486520755
 11
1.4048535023
 21
-3.0451765729
  0
LINE
  5
374
100
AcDbEntity
  8
IMPORT_IGES
100
AcDbLine
 62
7
  6
CONTINUOUS
 10
1.4048535023
 20
4.2203576175
 11
1.4048535023
 21
5.0603964118
  0
LINE
  5
375
100
AcDbEntity
  8
0
100
AcDbLine
 62
7
  6
CONTINUOUS
 10
1.6586476516
 20
-10.6058618591
 11
1.6586476516
 21
-10.7058618591
  0
LINE
  5
376
100
AcDbEntity
  8
IMPORT_IGES
100
AcDbLine
 62
253
  6
CONTINUOUS
 10
1.7048530175
 20
-3.0380337158
 11
1.7048530175
 21
-3.7382810476
  0
LINE
  5
377
100
AcDbEntity
  8
IMPORT_IGES
100
AcDbLine
 62
253
  6
CONTINUOUS
 10
1.704853015
 20
4.2155957128
 11
1.704853015
 21
4.950809384
  0
LINE
  5
378
100
AcDbEntity
  8
0
100
AcDbLine
 62
253
  6
CONTINUOUS
 10
1.8098221015
 20
-10.6058618591
 11
1.8098221015
 21
-10.7058618591
  0
LINE
  5
379
100
AcDbEntity
  8
0
100
AcDbLine
 62
253
  6
CONTINUOUS
 10
1.8986476909
 20
-10.6058618591
 11
1.8986476909
 21
-10.7058618591
  0
LINE
  5
37A
100
AcDbEntity
  8
0
100
AcDbLine
 62
7
  6
CONTINUOUS
 10
2.0011388492
 20
-10.6058618591
 11
2.0011388492
 21
-10.7058618591
  0
LWPOLYLINE
  5
37B
100
AcDbEntity
  8
IMPORT_IGES
100
AcDbPolyline
 62
253
  6
CONTINUOUS
 90
4
 70
0
 10
-4.0964593868
 20
-5.467960067
 10
-4.0223076782
 20
-5.4087275498
 10
-3.9942763128
 20
-5.3867986041
 10
-3.9011597893
 20
-5.3149143189
  0
LWPOLYLINE
  5
37C
100
AcDbEntity
  8
IMPORT_IGES
100
AcDbPolyline
 62
253
  6
CONTINUOUS
 90
3
 70
0
 10
-3.9011597893
 20
-5.3149143189
 10
-3.8673493596
 20
-5.2889685006
 10
-3.832129547
 20
-5.2623584831
  0
LWPOLYLINE
  5
37D
100
AcDbEntity
  8
IMPORT_IGES
100
AcDbPolyline
 62
253
  6
CONTINUOUS
 90
5
 70
0
 10
6.05
 20
0.5129219443
 10
6.0565477205
 20
0.5152524605
 10
6.0733564977
 20
0.5215591441
 10
6.0898649478
 20
0.5280698406
 10
6.1060730709
 20
0.5347785543
  0
LINE
  5
37E
100
AcDbEntity
  8
IMPORT_IGES
100
AcDbLine
 62
253
  6
CONTINUOUS
 10
6.3499999999
 20
1.1508618584
 11
6.05
 21
1.1508618583
  0
LINE
  5
37F
100
AcDbEntity
  8
IMPORT_IGES
100
AcDbLine
 62
253
  6
CONTINUOUS
 10
-6.05
 20
1.1508618583
 11
-6.35
 21
1.1508618584
  0
LINE
  5
380
100
AcDbEntity
  8
IMPORT_IGES
100
AcDbLine
 62
253
  6
CONTINUOUS
 10
-2.9247518712
 20
7.2068965554
 11
-2.814383876
 21
7.0401065508
  0
LINE
  5
381
100
AcDbEntity
  8
IMPORT_IGES
100
AcDbLine
 62
253
  6
CONTINUOUS
 10
7.1193266894
 20
-9.8045134674
 11
7.1353944754
 21
-9.8317190749
  0
LINE
  5
382
100
AcDbEntity
  8
IMPORT_IGES
100
AcDbLine
 62
253
  6
CONTINUOUS
 10
7.0751453606
 20
-9.728767663
 11
7.1193266894
 21
-9.8045134674
  0
LINE
  5
383
100
AcDbEntity
  8
IMPORT_IGES
100
AcDbLine
 62
253
  6
CONTINUOUS
 10
7.0500038541
 20
-9.6853296277
 11
7.0751453606
 21
-9.728767663
  0
LWPOLYLINE
  5
384
100
AcDbEntity
  8
IMPORT_IGES
100
AcDbPolyline
 62
253
  6
CONTINUOUS
 90
6
 70
0
 10
3.832122906
 20
-5.2623584034
 10
3.8512723474
 20
-5.3015093448
 10
3.8701077006
 20
-5.3395221664
 10
3.8884515608
 20
-5.376396211
 10
3.9060430917
 20
-5.4122478663
 10
3.9542605079
 20
-5.5118039249
  0
LWPOLYLINE
  5
385
100
AcDbEntity
  8
IMPORT_IGES
100
AcDbPolyline
 62
253
  6
CONTINUOUS
 90
3
 70
0
 10
3.9542605079
 20
-5.5118039249
 10
3.9685411253
 20
-5.5419309893
 10
3.9816056377
 20
-5.5705671638
  0
LWPOLYLINE
  5
386
100
AcDbEntity
  8
IMPORT_IGES
100
AcDbPolyline
 62
253
  6
CONTINUOUS
 90
10
 70
0
 10
3.9816056377
 20
-5.5705671638
 10
3.9908770727
 20
-5.5929687463
 10
3.9991136338
 20
-5.6162267732
 10
4.0062780788
 20
-5.6403426885
 10
4.0123123197
 20
-5.665351031
 10
4.0172326271
 20
-5.6912207073
 10
4.0210769399
 20
-5.7178539287
 10
4.0237997844
 20
-5.7452184324
 10
4.0253256359
 20
-5.7733485357
 10
4.0256085397
 20
-5.8022201887
  0
LINE
  5
387
100
AcDbEntity
  8
0
100
AcDbLine
 62
7
  6
CONTINUOUS
 10
2.1360854339
 20
-10.6058618591
 11
2.1360854339
 21
-10.7058618591
  0
LINE
  5
388
100
AcDbEntity
  8
0
100
AcDbLine
 62
7
  6
CONTINUOUS
 10
2.1574376773
 20
-10.6058618591
 11
2.1574376773
 21
-10.7058618591
  0
LINE
  5
389
100
AcDbEntity
  8
0
100
AcDbLine
 62
253
  6
CONTINUOUS
 10
2.2966548022
 20
-10.6058618591
 11
2.2966548022
 21
-10.7058618591
  0
LINE
  5
38A
100
AcDbEntity
  8
IMPORT_IGES
100
AcDbLine
 62
253
  6
CONTINUOUS
 10
2.6048535023
 20
-3.2408417594
 11
2.6048535023
 21
-3.0380337158
  0
LINE
  5
38B
100
AcDbEntity
  8
IMPORT_IGES
100
AcDbLine
 62
253
  6
CONTINUOUS
 10
2.6048535023
 20
4.2155957128
 11
2.6048535023
 21
4.461568061
  0
LINE
  5
38C
100
AcDbEntity
  8
0
100
AcDbLine
 62
253
  6
CONTINUOUS
 10
2.6408541393
 20
-10.6058618591
 11
2.6408541393
 21
-10.7058618591
  0
LINE
  5
38D
100
AcDbEntity
  8
0
100
AcDbLine
 62
253
  6
CONTINUOUS
 10
2.8065480662
 20
-10.6058618591
 11
2.8065480662
 21
-10.7058618591
  0
LINE
  5
38E
100
AcDbEntity
  8
0
100
AcDbLine
 62
7
  6
CONTINUOUS
 10
2.8680427503
 20
-10.6058618591
 11
2.8680427503
 21
-10.7058618591
  0
LINE
  5
38F
100
AcDbEntity
  8
IMPORT_IGES
100
AcDbLine
 62
7
  6
CONTINUOUS
 10
2.9048535023
 20
4.228650262
 11
2.9048535023
 21
4.2203576175
  0
LINE
  5
390
100
AcDbEntity
  8
0
100
AcDbLine
 62
7
  6
CONTINUOUS
 10
2.9637011241
 20
-10.6058618591
 11
2.9637011241
 21
-10.7058618591
  0
LWPOLYLINE
  5
391
100
AcDbEntity
  8
IMPORT_IGES
100
AcDbPolyline
 62
253
  6
CONTINUOUS
 90
10
 70
0
 10
7.2030000003
 20
11.0023685441
 10
7.222862755
 20
11.0562609325
 10
7.2426231746
 20
11.102101567
 10
7.2616254139
 20
11.1400472211
 10
7.2789417858
 20
11.1704258309
 10
7.2945814329
 20
11.1935905384
 10
7.3092829812
 20
11.209507982
 10
7.3229295592
 20
11.218112073
 10
7.3347556827
 20
11.2196946943
 10
7.3444213565
 20
11.2145005785
  0
LINE
  5
392
100
AcDbEntity
  8
IMPORT_IGES
100
AcDbLine
 62
253
  6
CONTINUOUS
 10
6.35
 20
2.5508618584
 11
5.75
 21
2.5508618584
  0
LINE
  5
393
100
AcDbEntity
  8
IMPORT_IGES
100
AcDbLine
 62
253
  6
CONTINUOUS
 10
-5.75
 20
2.5508618584
 11
-6.35
 21
2.5508618584
  0
LINE
  5
394
100
AcDbEntity
  8
IMPORT_IGES
100
AcDbLine
 62
7
  6
CONTINUOUS
 10
4.0960746081
 20
2.6908618584
 11
4.5
 21
2.6908618584
  0
LINE
  5
395
100
AcDbEntity
  8
IMPORT_IGES
100
AcDbLine
 62
7
  6
CONTINUOUS
 10
-4.0960746081
 20
2.6908618584
 11
-4.5
 21
2.6908618584
  0
LINE
  5
396
100
AcDbEntity
  8
IMPORT_IGES
100
AcDbLine
 62
7
  6
CONTINUOUS
 10
-4.2296286832
 20
7.3689392501
 11
-4.4048535023
 21
7.5457162003
  0
LWPOLYLINE
  5
397
100
AcDbEntity
  8
IMPORT_IGES
100
AcDbPolyline
 62
253
  6
CONTINUOUS
 90
13
 70
0
 10
-6.8767996593
 20
11.3284918518
 10
-6.8967532269
 20
11.3504969523
 10
-6.9184023801
 20
11.3724424942
 10
-6.9409900147
 20
11.3934752426
 10
-6.9633302876
 20
11.4125209574
 10
-6.9848983821
 20
11.4292381376
 10
-7.0059090386
 20
11.443818096
 10
-7.0256574836
 20
11.4557385343
 10
-7.0434735326
 20
11.4646233693
 10
-7.0594449165
 20
11.4704976898
 10
-7.0730658103
 20
11.4730568985
 10
-7.0836334755
 20
11.4721502412
 10
-7.0909282315
 20
11.4679937358
  0
LWPOLYLINE
  5
398
100
AcDbEntity
  8
IMPORT_IGES
100
AcDbPolyline
 62
253
  6
CONTINUOUS
 90
9
 70
0
 10
3.8002589938
 20
9.2637481879
 10
3.8010367154
 20
9.1935416012
 10
3.8023338504
 20
9.1233407574
 10
3.8041504631
 20
9.0531437241
 10
3.8064864892
 20
8.9829524338
 10
3.8093417357
 20
8.9127726838
 10
3.8127161382
 20
8.8426064066
 10
3.8166097612
 20
8.7724516699
 10
3.8210226047
 20
8.7023084735
  0
LINE
  5
399
100
AcDbEntity
  8
0
100
AcDbLine
 62
253
  6
CONTINUOUS
 10
3.1832028715
 20
-10.6058618591
 11
3.1832028715
 21
-10.7058618591
  0
LINE
  5
39A
100
AcDbEntity
  8
0
100
AcDbLine
 62
253
  6
CONTINUOUS
 10
3.6734519761
 20
-10.6058618591
 11
3.6734519761
 21
-10.7058618591
  0
LINE
  5
39B
100
AcDbEntity
  8
0
100
AcDbLine
 62
7
  6
CONTINUOUS
 10
3.7016370308
 20
-10.6058618591
 11
3.7016370308
 21
-10.7058618591
  0
LINE
  5
39C
100
AcDbEntity
  8
0
100
AcDbLine
 62
7
  6
CONTINUOUS
 10
3.7340925511
 20
-10.6058618591
 11
3.7340925511
 21
-10.7058618591
  0
LINE
  5
39D
100
AcDbEntity
  8
IMPORT_IGES
100
AcDbLine
 62
253
  6
CONTINUOUS
 10
3.8
 20
11.5558618584
 11
3.8002589938
 21
9.2637481879
  0
LWPOLYLINE
  5
39E
100
AcDbEntity
  8
IMPORT_IGES
100
AcDbPolyline
 62
253
  6
CONTINUOUS
 90
6
 70
0
 10
3.8
 20
3.7190671388
 10
3.7998032311
 20
3.4212127771
 10
3.7999158822
 20
3.3724801543
 10
3.8003530373
 20
3.3221585913
 10
3.8010289542
 20
3.270834778
 10
3.801943633
 20
3.2190684212
  0
LINE
  5
39F
100
AcDbEntity
  8
IMPORT_IGES
100
AcDbLine
 62
7
  6
CONTINUOUS
 10
3.8129295204
 20
-7.0165513723
 11
3.8203932808
 21
-6.2396401646
  0
LINE
  5
3A0
100
AcDbEntity
  8
IMPORT_IGES
100
AcDbLine
 62
7
  6
CONTINUOUS
 10
3.7778043677
 20
-9.9414091523
 11
3.7734528596
 21
-10.3441381411
  0
LINE
  5
3A1
100
AcDbEntity
  8
IMPORT_IGES
100
AcDbLine
 62
253
  6
CONTINUOUS
 10
3.832129547
 20
-5.2623584831
 11
3.8203932811
 21
-6.2396401645
  0
LINE
  5
3A2
100
AcDbEntity
  8
IMPORT_IGES
100
AcDbLine
 62
253
  6
CONTINUOUS
 10
3.8129292811
 20
-7.0165513715
 11
3.7778043935
 21
-9.9414091524
  0
LINE
  5
3A3
100
AcDbEntity
  8
IMPORT_IGES
100
AcDbLine
 62
253
  6
CONTINUOUS
 10
7.2275165383
 20
0.2347799985
 11
7.3974982454
 21
0.3347741003
  0
LINE
  5
3A4
100
AcDbEntity
  8
IMPORT_IGES
100
AcDbLine
 62
253
  6
CONTINUOUS
 10
4.6825206373
 20
4.3981207876
 11
4.4842642038
 21
4.3717695713
  0
LINE
  5
3A5
100
AcDbEntity
  8
IMPORT_IGES
100
AcDbLine
 62
253
  6
CONTINUOUS
 10
-4.5025898749
 20
3.8509663636
 11
-4.5
 21
3.8510242287
  0
LINE
  5
3A6
100
AcDbEntity
  8
IMPORT_IGES
100
AcDbLine
 62
253
  6
CONTINUOUS
 10
-4.5229591699
 20
3.8508745639
 11
-4.5025898749
 21
3.8509663636
  0
LINE
  5
3A7
100
AcDbEntity
  8
IMPORT_IGES
100
AcDbLine
 62
253
  6
CONTINUOUS
 10
5.05
 20
3.2508618584
 11
4.5
 21
3.2508618584
  0
LINE
  5
3A8
100
AcDbEntity
  8
IMPORT_IGES
100
AcDbLine
 62
253
  6
CONTINUOUS
 10
-4.5
 20
3.2508618584
 11
-5.05
 21
3.2508618584
  0
LINE
  5
3A9
100
AcDbEntity
  8
IMPORT_IGES
100
AcDbLine
 62
7
  6
CONTINUOUS
 10
5.0499999999
 20
3.5508618584
 11
4.8
 21
3.5508618584
  0
LINE
  5
3AA
100
AcDbEntity
  8
IMPORT_IGES
100
AcDbLine
 62
7
  6
CONTINUOUS
 10
-4.7999999999
 20
3.5508618584
 11
-5.05
 21
3.5508618584
  0
LINE
  5
3AB
100
AcDbEntity
  8
IMPORT_IGES
100
AcDbLine
 62
7
  6
CONTINUOUS
 10
4.087751337
 20
3.7190671388
 11
3.4266717018
 21
3.7190671388
  0
LINE
  5
3AC
100
AcDbEntity
  8
IMPORT_IGES
100
AcDbLine
 62
7
  6
CONTINUOUS
 10
-3.4266717018
 20
3.7190671388
 11
-4.0877513364
 21
3.7190671388
  0
LINE
  5
3AD
100
AcDbEntity
  8
IMPORT_IGES
100
AcDbLine
 62
253
  6
CONTINUOUS
 10
4.5
 20
3.8508618053
 11
5.05
 21
3.8508618584
  0
LINE
  5
3AE
100
AcDbEntity
  8
IMPORT_IGES
100
AcDbLine
 62
253
  6
CONTINUOUS
 10
-4.087751337
 20
3.9190671388
 11
-3.2429794848
 21
3.9190671388
  0
LINE
  5
3AF
100
AcDbEntity
  8
IMPORT_IGES
100
AcDbLine
 62
253
  6
CONTINUOUS
 10
3.2429794848
 20
3.9190671388
 11
4.087751337
 21
3.9190671388
  0
LINE
  5
3B0
100
AcDbEntity
  8
IMPORT_IGES
100
AcDbLine
 62
253
  6
CONTINUOUS
 10
-5.05
 20
3.8508618583
 11
-4.5229591699
 21
3.8508745639
  0
LINE
  5
3B1
100
AcDbEntity
  8
IMPORT_IGES
100
AcDbLine
 62
253
  6
CONTINUOUS
 10
-4.6825206373
 20
4.3981207877
 11
-4.4842642038
 21
4.3717695713
  0
LWPOLYLINE
  5
3B2
100
AcDbEntity
  8
IMPORT_IGES
100
AcDbPolyline
 62
7
  6
CONTINUOUS
 90
11
 70
0
 10
4.7454596355
 20
-0.486123896
 10
4.743257353
 20
-0.4652472194
 10
4.7408743966
 20
-0.4449376828
 10
4.7383107665
 20
-0.4252074371
 10
4.7355363879
 20
-0.406096872
 10
4.7325813356
 20
-0.3875878122
 10
4.7295358332
 20
-0.3696024052
 10
4.7264113484
 20
-0.3521440925
 10
4.7231964135
 20
-0.3352254549
 10
4.7199468497
 20
-0.3187797914
 10
4.7184210188
 20
-0.3113441632
  0
LINE
  5
3B3
100
AcDbEntity
  8
IMPORT_IGES
100
AcDbLine
 62
253
  6
CONTINUOUS
 10
3.8309538368
 20
8.4782077871
 11
3.8375209569
 21
8.34875374
  0
LINE
  5
3B4
100
AcDbEntity
  8
IMPORT_IGES
100
AcDbLine
 62
253
  6
CONTINUOUS
 10
3.8253265995
 20
8.5987921406
 11
3.8309538368
 21
8.4782077871
  0
LINE
  5
3B5
100
AcDbEntity
  8
IMPORT_IGES
100
AcDbLine
 62
253
  6
CONTINUOUS
 10
3.821022297
 20
8.7023084648
 11
3.8253265995
 21
8.5987921406
  0
LWPOLYLINE
  5
3B6
100
AcDbEntity
  8
IMPORT_IGES
100
AcDbPolyline
 62
7
  6
CONTINUOUS
 90
10
 70
0
 10
4.75
 20
-0.5846077471
 10
4.7499471052
 20
-0.5736508622
 10
4.7497812793
 20
-0.5626968395
 10
4.7495025223
 20
-0.5517456789
 10
4.7491107892
 20
-0.5407964083
 10
4.748606125
 20
-0.5298499999
 10
4.7479886641
 20
-0.51890937
 10
4.7472584513
 20
-0.5079754907
 10
4.7464154417
 20
-0.49704739
 10
4.7454596355
 20
-0.4861250677
  0
LINE
  5
3B7
100
AcDbEntity
  8
IMPORT_IGES
100
AcDbLine
 62
7
  6
CONTINUOUS
 10
4.0
 20
9.192539032
 11
4.0
 21
11.3558618584
  0
LINE
  5
3B8
100
AcDbEntity
  8
IMPORT_IGES
100
AcDbLine
 62
253
  6
CONTINUOUS
 10
4.087751337
 20
3.7190671388
 11
4.087751337
 21
3.9190671388
  0
LINE
  5
3B9
100
AcDbEntity
  8
IMPORT_IGES
100
AcDbLine
 62
7
  6
CONTINUOUS
 10
4.1048535023
 20
8.7941671413
 11
4.1048535023
 21
8.2543070015
  0
LINE
  5
3BA
100
AcDbEntity
  8
IMPORT_IGES
100
AcDbLine
 62
7
  6
CONTINUOUS
 10
4.1048535023
 20
8.1735377707
 11
4.1048535023
 21
8.2417195889
  0
LINE
  5
3BB
100
AcDbEntity
  8
IMPORT_IGES
100
AcDbLine
 62
253
  6
CONTINUOUS
 10
4.1734592793
 20
-10.3441381416
 11
4.1734421839
 21
-10.1450203151
  0
LINE
  5
3BC
100
AcDbEntity
  8
IMPORT_IGES
100
AcDbLine
 62
253
  6
CONTINUOUS
 10
4.2
 20
9.1807430659
 11
4.1999999452
 21
11.5558618584
  0
LINE
  5
3BD
100
AcDbEntity
  8
IMPORT_IGES
100
AcDbLine
 62
253
  6
CONTINUOUS
 10
4.2094854821
 20
-7.774991422
 11
4.2094854821
 21
-7.7347185245
  0
LINE
  5
3BE
100
AcDbEntity
  8
IMPORT_IGES
100
AcDbLine
 62
7
  6
CONTINUOUS
 10
4.5
 20
6.9504613344
 11
4.5
 21
5.1664435634
  0
LINE
  5
3BF
100
AcDbEntity
  8
IMPORT_IGES
100
AcDbLine
 62
7
  6
CONTINUOUS
 10
4.5
 20
3.8831285636
 11
4.5
 21
0.1508618584
  0
LINE
  5
3C0
100
AcDbEntity
  8
IMPORT_IGES
100
AcDbLine
 62
7
  6
CONTINUOUS
 10
4.55
 20
-0.0874452682
 11
4.55
 21
-0.3302281071
  0
LINE
  5
3C1
100
AcDbEntity
  8
IMPORT_IGES
100
AcDbLine
 62
253
  6
CONTINUOUS
 10
4.55
 20
-7.4772321631
 11
4.55
 21
-0.3302281071
  0
LINE
  5
3C2
100
AcDbEntity
  8
IMPORT_IGES
100
AcDbLine
 62
7
  6
CONTINUOUS
 10
4.75
 20
-7.0770979454
 11
4.75
 21
-0.5846077471
  0
LINE
  5
3C3
100
AcDbEntity
  8
IMPORT_IGES
100
AcDbLine
 62
253
  6
CONTINUOUS
 10
4.8000027839
 20
6.9502239067
 11
4.8
 21
0.1508618584
  0
LINE
  5
3C4
100
AcDbEntity
  8
IMPORT_IGES
100
AcDbLine
 62
7
  6
CONTINUOUS
 10
4.9273029486
 20
-10.6058618591
 11
4.9273029486
 21
-11.7558618584
  0
LINE
  5
3C5
100
AcDbEntity
  8
IMPORT_IGES
100
AcDbLine
 62
253
  6
CONTINUOUS
 10
4.1511435721
 20
-7.7379510761
 11
4.1526328089
 21
-7.5756397383
  0
LINE
  5
3C6
100
AcDbEntity
  8
IMPORT_IGES
100
AcDbLine
 62
7
  6
CONTINUOUS
 10
3.973423846
 20
-10.1476521534
 11
4.0256085274
 21
-5.8022212128
  0
LINE
  5
3C7
100
AcDbEntity
  8
IMPORT_IGES
100
AcDbLine
 62
253
  6
CONTINUOUS
 10
4.154313196
 20
-7.4772323964
 11
4.1755975682
 21
-5.6979684316
  0
LINE
  5
3C8
100
AcDbEntity
  8
IMPORT_IGES
100
AcDbLine
 62
253
  6
CONTINUOUS
 10
4.1526328089
 20
-7.5756404984
 11
4.154313196
 21
-7.4772324274
  0
LWPOLYLINE
  5
3C9
100
AcDbEntity
  8
IMPORT_IGES
100
AcDbPolyline
 62
7
  6
CONTINUOUS
 90
10
 70
0
 10
4.1734421839
 20
-10.1450203151
 10
4.1794419457
 20
-9.8922206679
 10
4.1839548752
 20
-9.6393845892
 10
4.1869809723
 20
-9.3865215907
 10
4.1875280555
 20
-9.1336416258
 10
4.1865883063
 20
-8.8807537966
 10
4.1871382693
 20
-8.6278663545
 10
4.190170126
 20
-8.3749884231
 10
4.1946916949
 20
-8.1221299973
 10
4.200702976
 20
-7.8693006507
  0
LINE
  5
3CA
100
AcDbEntity
  8
IMPORT_IGES
100
AcDbLine
 62
253
  6
CONTINUOUS
 10
4.200702976
 20
-7.8693006507
 11
4.2039088854
 21
-7.7748022333
  0
LWPOLYLINE
  5
3CB
100
AcDbEntity
  8
IMPORT_IGES
100
AcDbPolyline
 62
253
  6
CONTINUOUS
 90
13
 70
0
 10
3.9777899742
 20
-9.78408361
 10
3.9757976447
 20
-9.8050843542
 10
3.9703340793
 20
-9.8257520269
 10
3.9614707613
 20
-9.8456938407
 10
3.9492562742
 20
-9.8646628989
 10
3.9339308155
 20
-9.8821850476
 10
3.9161025659
 20
-9.8976653351
 10
3.8964589002
 20
-9.9107769224
 10
3.8752317469
 20
-9.9215984833
 10
3.852425084
 20
-9.9301991792
 10
3.8282519876
 20
-9.9364635869
 10
3.8032327082
 20
-9.9402234585
 10
3.7777713635
 20
-9.9414090335
  0
LWPOLYLINE
  5
3CC
100
AcDbEntity
  8
IMPORT_IGES
100
AcDbPolyline
 62
7
  6
CONTINUOUS
 90
10
 70
0
 10
6.1060730709
 20
0.5347790645
 10
6.1549759495
 20
0.5927728118
 10
6.1985743046
 20
0.6537216342
 10
6.236868136
 20
0.7176255315
 10
6.2700513744
 20
0.7849379717
 10
6.2979300893
 20
0.8552054868
 10
6.3199224885
 20
0.9270676734
 10
6.3358346413
 20
1.0000710636
 10
6.3458604784
 20
1.0746691253
 10
6.3499999999
 20
1.1508618584
  0
LWPOLYLINE
  5
3CD
100
AcDbEntity
  8
IMPORT_IGES
100
AcDbPolyline
 62
253
  6
CONTINUOUS
 90
10
 70
0
 10
-7.955194248
 20
-9.2837287947
 10
-7.97358297
 20
-9.2943233597
 10
-7.991941438
 20
-9.3030007283
 10
-8.0101195042
 20
-9.3096538982
 10
-8.0280429835
 20
-9.3142053815
 10
-8.0454715556
 20
-9.3165421557
 10
-8.0620303499
 20
-9.3166176071
 10
-8.0775328604
 20
-9.3144946302
 10
-8.0919511889
 20
-9.310243742
 10
-8.105194248
 20
-9.3039457628
  0
LWPOLYLINE
  5
3CE
100
AcDbEntity
  8
IMPORT_IGES
100
AcDbPolyline
 62
253
  6
CONTINUOUS
 90
6
 70
0
 10
-7.3257672229
 20
-9.5408506196
 10
-7.3475336262
 20
-9.5528472203
 10
-7.3712602541
 20
-9.5625030396
 10
-7.3965217121
 20
-9.5695866912
 10
-7.4229232168
 20
-9.5739321027
 10
-7.45
 20
-9.5754026757
  0
LWPOLYLINE
  5
3CF
100
AcDbEntity
  8
IMPORT_IGES
100
AcDbPolyline
 62
253
  6
CONTINUOUS
 90
5
 70
0
 10
-7.2771970861
 20
-7.7880181587
 10
-7.2431563277
 20
-7.7723214765
 10
-7.2069323925
 20
-7.759261732
 10
-7.1694160119
 20
-7.7489595106
 10
-7.1309040964
 20
-7.7414550072
  0
LINE
  5
3D0
100
AcDbEntity
  8
IMPORT_IGES
100
AcDbLine
 62
7
  6
CONTINUOUS
 10
-2.9457777472
 20
4.1941671413
 11
-0.9
 21
4.1941671413
  0
LINE
  5
3D1
100
AcDbEntity
  8
IMPORT_IGES
100
AcDbLine
 62
7
  6
CONTINUOUS
 10
0.9
 20
4.1941671413
 11
2.9457777636
 21
4.1941671413
  0
LINE
  5
3D2
100
AcDbEntity
  8
IMPORT_IGES
100
AcDbLine
 62
7
  6
CONTINUOUS
 10
-2.6048535023
 20
4.2155957128
 11
-1.7048535023
 21
4.2155957128
  0
LINE
  5
3D3
100
AcDbEntity
  8
IMPORT_IGES
100
AcDbLine
 62
7
  6
CONTINUOUS
 10
1.7048535023
 20
4.2155957128
 11
2.6048535023
 21
4.2155957128
  0
LINE
  5
3D4
100
AcDbEntity
  8
IMPORT_IGES
100
AcDbLine
 62
7
  6
CONTINUOUS
 10
-1.4048535023
 20
4.2818871706
 11
-0.6880160053
 21
4.2818871706
  0
LINE
  5
3D5
100
AcDbEntity
  8
IMPORT_IGES
100
AcDbLine
 62
7
  6
CONTINUOUS
 10
0.6880160053
 20
4.2818871706
 11
1.4048535023
 21
4.2818871706
  0
LWPOLYLINE
  5
3D6
100
AcDbEntity
  8
IMPORT_IGES
100
AcDbPolyline
 62
253
  6
CONTINUOUS
 90
4
 70
0
 10
7.2847416503
 20
0.1779760771
 10
7.269562279
 20
0.1883355291
 10
7.2552917889
 20
0.2017847894
 10
7.2414975422
 20
0.2174565141
  0
LINE
  5
3D7
100
AcDbEntity
  8
IMPORT_IGES
100
AcDbLine
 62
253
  6
CONTINUOUS
 10
6.05
 20
0.5874250197
 11
6.1060730709
 21
0.5347785543
  0
LINE
  5
3D8
100
AcDbEntity
  8
IMPORT_IGES
100
AcDbLine
 62
253
  6
CONTINUOUS
 10
5.0973054311
 20
-0.4489958874
 11
5.1100082658
 21
-0.486123896
  0
LINE
  5
3D9
100
AcDbEntity
  8
IMPORT_IGES
100
AcDbLine
 62
253
  6
CONTINUOUS
 10
2.6374021122
 20
7.3839007185
 11
2.6012829937
 21
7.4972419196
  0
LINE
  5
3DA
100
AcDbEntity
  8
IMPORT_IGES
100
AcDbLine
 62
253
  6
CONTINUOUS
 10
2.6012829937
 20
7.4972419196
 11
2.5000473188
 21
7.8271796462
  0
LWPOLYLINE
  5
3DB
100
AcDbEntity
  8
IMPORT_IGES
100
AcDbPolyline
 62
253
  6
CONTINUOUS
 90
6
 70
0
 10
4.0
 20
11.2679938927
 10
3.9982889723
 20
11.2864530838
 10
3.9931851653
 20
11.3045964331
 10
3.9847759065
 20
11.3221135027
 10
3.9732050808
 20
11.3387045708
 10
3.9586706681
 20
11.3540857596
  0
LINE
  5
3DC
100
AcDbEntity
  8
IMPORT_IGES
100
AcDbLine
 62
253
  6
CONTINUOUS
 10
5.05
 20
3.8508618584
 11
5.05
 21
3.2508618584
  0
LINE
  5
3DD
100
AcDbEntity
  8
IMPORT_IGES
100
AcDbLine
 62
253
  6
CONTINUOUS
 10
5.1
 20
-0.4491381416
 11
5.1
 21
-0.1491381416
  0
LINE
  5
3DE
100
AcDbEntity
  8
IMPORT_IGES
100
AcDbLine
 62
253
  6
CONTINUOUS
 10
5.45
 20
-0.4491381416
 11
5.45
 21
-0.1491381416
  0
LINE
  5
3DF
100
AcDbEntity
  8
IMPORT_IGES
100
AcDbLine
 62
253
  6
CONTINUOUS
 10
5.55
 20
-7.2392701047
 11
5.5500000001
 21
-0.4399462441
  0
LINE
  5
3E0
100
AcDbEntity
  8
IMPORT_IGES
100
AcDbLine
 62
253
  6
CONTINUOUS
 10
5.6500001766
 20
-10.3441381417
 11
5.6500001407
 21
-10.544138141
  0
LINE
  5
3E1
100
AcDbEntity
  8
IMPORT_IGES
100
AcDbLine
 62
253
  6
CONTINUOUS
 10
5.75
 20
2.5508618584
 11
5.75
 21
0.1508618584
  0
LWPOLYLINE
  5
3E2
100
AcDbEntity
  8
IMPORT_IGES
100
AcDbPolyline
 62
253
  6
CONTINUOUS
 90
13
 70
0
 10
4.75
 20
-5.3265516524
 10
4.7483275292
 20
-5.3448025587
 10
4.7433610714
 20
-5.3626867882
 10
4.7352170226
 20
-5.3799120054
 10
4.7241265112
 20
-5.3961216103
 10
4.7102667441
 20
-5.4111523934
 10
4.6936175463
 20
-5.4249742117
 10
4.6742327771
 20
-5.4373808387
 10
4.6524663738
 20
-5.4480025524
 10
4.6287397459
 20
-5.4565517532
 10
4.6034782879
 20
-5.462823573
 10
4.5770767832
 20
-5.4666709726
 10
4.55
 20
-5.4679730086
  0
LWPOLYLINE
  5
3E3
100
AcDbEntity
  8
IMPORT_IGES
100
AcDbPolyline
 62
253
  6
CONTINUOUS
 90
13
 70
0
 10
5.7499999515
 20
-0.4037920739
 10
5.7483260318
 20
-0.4143722734
 10
5.74335977
 20
-0.4247888002
 10
5.7352167419
 20
-0.4348223568
 10
5.7241268698
 20
-0.4442654234
 10
5.7102667698
 20
-0.4530225085
 10
5.6936170945
 20
-0.4610752176
 10
5.674232265
 20
-0.4683032509
 10
5.6524658036
 20
-0.4744914029
 10
5.6287391843
 20
-0.4794719978
 10
5.6034778342
 20
-0.4831256517
 10
5.5770765184
 20
-0.4853667537
 10
5.55
 20
-0.4861248548
  0
LINE
  5
3E4
100
AcDbEntity
  8
IMPORT_IGES
100
AcDbLine
 62
253
  6
CONTINUOUS
 10
-1.1048535023
 20
4.981390604
 11
-0.6
 21
4.981390604
  0
LINE
  5
3E5
100
AcDbEntity
  8
IMPORT_IGES
100
AcDbLine
 62
253
  6
CONTINUOUS
 10
0.6
 20
4.981390604
 11
1.1048535023
 21
4.981390604
  0
LINE
  5
3E6
100
AcDbEntity
  8
IMPORT_IGES
100
AcDbLine
 62
253
  6
CONTINUOUS
 10
7.2414975422
 20
0.2174565141
 11
7.2275165383
 21
0.2347799985
  0
LINE
  5
3E7
100
AcDbEntity
  8
IMPORT_IGES
100
AcDbLine
 62
253
  6
CONTINUOUS
 10
7.2518413568
 20
-9.437300252
 11
7.2499999999
 21
-9.4156758067
  0
LINE
  5
3E8
100
AcDbEntity
  8
IMPORT_IGES
100
AcDbLine
 62
7
  6
CONTINUOUS
 10
6.05
 20
2.5508618584
 11
6.05
 21
0.1508618583
  0
LINE
  5
3E9
100
AcDbEntity
  8
IMPORT_IGES
100
AcDbLine
 62
253
  6
CONTINUOUS
 10
6.15
 20
11.5558618584
 11
6.1500004231
 21
11.7558618583
  0
LINE
  5
3EA
100
AcDbEntity
  8
IMPORT_IGES
100
AcDbLine
 62
253
  6
CONTINUOUS
 10
6.2231434353
 20
-10.1450203151
 11
6.2231434947
 21
-10.3441381416
  0
LINE
  5
3EB
100
AcDbEntity
  8
IMPORT_IGES
100
AcDbLine
 62
253
  6
CONTINUOUS
 10
6.3499999999
 20
1.1508618584
 11
6.3499999999
 21
2.5508618583
  0
LINE
  5
3EC
100
AcDbEntity
  8
IMPORT_IGES
100
AcDbLine
 62
253
  6
CONTINUOUS
 10
6.8030000015
 20
11.5558618584
 11
6.8029981821
 21
8.8077204273
  0
LWPOLYLINE
  5
3ED
100
AcDbEntity
  8
IMPORT_IGES
100
AcDbPolyline
 62
7
  6
CONTINUOUS
 90
10
 70
0
 10
4.0045477886
 20
-7.8986490566
 10
4.0067954611
 20
-7.8906428876
 10
4.0097102767
 20
-7.8821740701
 10
4.0133911116
 20
-7.873307067
 10
4.0177341362
 20
-7.8645030961
 10
4.0226589758
 20
-7.8559783749
 10
4.0282343922
 20
-7.8476536006
 10
4.0345074086
 20
-7.8395334035
 10
4.0414641361
 20
-7.8317108938
 10
4.0490813743
 20
-7.8242727145
  0
LINE
  5
3EE
100
AcDbEntity
  8
IMPORT_IGES
100
AcDbLine
 62
7
  6
CONTINUOUS
 10
4.1491793417
 20
-7.7449394852
 11
4.1511435712
 21
-7.7379548115
  0
LWPOLYLINE
  5
3EF
100
AcDbEntity
  8
IMPORT_IGES
100
AcDbPolyline
 62
7
  6
CONTINUOUS
 90
10
 70
0
 10
4.7231303335
 20
-7.2392838548
 10
4.7284769271
 20
-7.2232737733
 10
4.7332575448
 20
-7.2066937892
 10
4.7374721866
 20
-7.1895439025
 10
4.741153243
 20
-7.1717344347
 10
4.7442683234
 20
-7.1533550643
 10
4.7467202565
 20
-7.1346748266
 10
4.7484766517
 20
-7.1157834001
 10
4.7495698996
 20
-7.0965911064
 10
4.75
 20
-7.0770979454
  0
LWPOLYLINE
  5
3F0
100
AcDbEntity
  8
IMPORT_IGES
100
AcDbPolyline
 62
253
  6
CONTINUOUS
 90
10
 70
0
 10
4.0964589533
 20
-5.4679611441
 10
4.0812992697
 20
-5.4748150134
 10
4.0661055904
 20
-5.4831630467
 10
4.0512065321
 20
-5.492881448
 10
4.0370762299
 20
-5.5036622832
 10
4.023851969
 20
-5.5153656365
 10
4.0114113949
 20
-5.5281341297
 10
3.9999706828
 20
-5.5418629983
 10
3.9899588874
 20
-5.5561182529
 10
3.9816030646
 20
-5.570567245
  0
LWPOLYLINE
  5
3F1
100
AcDbEntity
  8
IMPORT_IGES
100
AcDbPolyline
 62
253
  6
CONTINUOUS
 90
8
 70
0
 10
4.75
 20
-5.2580134772
 10
4.7483275292
 20
-5.258574215
 10
4.7433610714
 20
-5.259123687
 10
4.7352170226
 20
-5.2596529117
 10
4.7241265112
 20
-5.2601509329
 10
4.7102667441
 20
-5.2606127361
 10
4.6936175463
 20
-5.2610373954
 10
4.6742327771
 20
-5.2614185745
  0
LINE
  5
3F2
100
AcDbEntity
  8
IMPORT_IGES
100
AcDbLine
 62
253
  6
CONTINUOUS
 10
4.1416667458
 20
7.5754640224
 11
3.9447133433
 21
7.5406882131
  0
LINE
  5
3F3
100
AcDbEntity
  8
IMPORT_IGES
100
AcDbLine
 62
7
  6
CONTINUOUS
 10
8.3074277517
 20
7.0076563314
 11
8.310015322
 21
7.007782698
  0
LWPOLYLINE
  5
3F4
100
AcDbEntity
  8
IMPORT_IGES
100
AcDbPolyline
 62
7
  6
CONTINUOUS
 90
3
 70
0
 10
4.5
 20
6.9504613344
 10
4.502589799
 20
6.9505595604
 10
4.5102959886
 20
6.950619462
  0
LINE
  5
3F5
100
AcDbEntity
  8
IMPORT_IGES
100
AcDbLine
 62
7
  6
CONTINUOUS
 10
8.1603353552
 20
7.0029430742
 11
8.3074277517
 21
7.0076563314
  0
LINE
  5
3F6
100
AcDbEntity
  8
IMPORT_IGES
100
AcDbLine
 62
7
  6
CONTINUOUS
 10
8.0098316646
 20
6.9983205706
 11
8.1603353552
 21
7.0029430742
  0
LINE
  5
3F7
100
AcDbEntity
  8
IMPORT_IGES
100
AcDbLine
 62
7
  6
CONTINUOUS
 10
-8.0100852126
 20
7.002516346
 11
-8.3100157199
 21
7.0077599008
  0
LINE
  5
3F8
100
AcDbEntity
  8
IMPORT_IGES
100
AcDbLine
 62
253
  6
CONTINUOUS
 10
-3.9447133425
 20
7.540688213
 11
-4.1416667458
 21
7.5754640224
  0
LWPOLYLINE
  5
3F9
100
AcDbEntity
  8
IMPORT_IGES
100
AcDbPolyline
 62
7
  6
CONTINUOUS
 90
10
 70
0
 10
7.227516464
 20
0.2347799548
 10
7.2144158377
 20
0.2522516408
 10
7.1996181837
 20
0.2691444042
 10
7.1828084687
 20
0.2850734898
 10
7.1634669754
 20
0.2998533054
 10
7.1418267973
 20
0.3126588831
 10
7.1191745654
 20
0.3225424596
 10
7.0962991826
 20
0.3293950392
 10
7.073183609
 20
0.3334577838
 10
7.050155296
 20
0.3348078216
  0
LINE
  5
3FA
100
AcDbEntity
  8
IMPORT_IGES
100
AcDbLine
 62
253
  6
CONTINUOUS
 10
2.5764514029
 20
7.7109142517
 11
2.8839457694
 21
7.248554155
  0
LINE
  5
3FB
100
AcDbEntity
  8
IMPORT_IGES
100
AcDbLine
 62
253
  6
CONTINUOUS
 10
2.5000316096
 20
7.8272087026
 11
2.5764514029
 21
7.7109142517
  0
LINE
  5
3FC
100
AcDbEntity
  8
IMPORT_IGES
100
AcDbLine
 62
253
  6
CONTINUOUS
 10
2.8839457694
 20
7.248554155
 11
2.9021403837
 21
7.2208249729
  0
LWPOLYLINE
  5
3FD
100
AcDbEntity
  8
IMPORT_IGES
100
AcDbPolyline
 62
253
  6
CONTINUOUS
 90
7
 70
0
 10
4.4137891563
 20
7.2137999147
 10
4.4060208731
 20
7.2465063276
 10
4.3316621444
 20
7.6317967117
 10
4.2738442175
 20
8.0181969466
 10
4.2326886766
 20
8.4046796315
 10
4.2080739375
 20
8.7922059397
 10
4.2
 20
9.1807430659
  0
LWPOLYLINE
  5
3FE
100
AcDbEntity
  8
IMPORT_IGES
100
AcDbPolyline
 62
253
  6
CONTINUOUS
 90
13
 70
0
 10
7.4499999999
 20
0.1530312064
 10
7.4494976219
 20
0.1613981904
 10
7.4481913327
 20
0.171986322
 10
7.4460811323
 20
0.1847982836
 10
7.4430235597
 20
0.2007825208
 10
7.4391620758
 20
0.2189971989
 10
7.4349270634
 20
0.2366045915
 10
7.4306484803
 20
0.2522457516
 10
7.4259963686
 20
0.2672746155
 10
7.4204112383
 20
0.2829195161
 10
7.4137065926
 20
0.2995899015
 10
7.4060689283
 20
0.3168751265
 10
7.3974982454
 20
0.3347741003
  0
LINE
  5
3FF
100
AcDbEntity
  8
IMPORT_IGES
100
AcDbLine
 62
7
  6
CONTINUOUS
 10
7.003
 20
11.0730780789
 11
7.003
 21
8.7544266186
  0
LINE
  5
400
100
AcDbEntity
  8
IMPORT_IGES
100
AcDbLine
 62
253
  6
CONTINUOUS
 10
7.0499991095
 20
-7.7347184974
 11
7.0500033344
 21
-9.6853287278
  0
LINE
  5
401
100
AcDbEntity
  8
IMPORT_IGES
100
AcDbLine
 62
253
  6
CONTINUOUS
 10
7.050154201
 20
0.5347790644
 11
7.0501548138
 21
0.3347798757
  0
LINE
  5
402
100
AcDbEntity
  8
IMPORT_IGES
100
AcDbLine
 62
253
  6
CONTINUOUS
 10
7.203
 20
11.0023685439
 11
7.203
 21
8.675298722
  0
LINE
  5
403
100
AcDbEntity
  8
IMPORT_IGES
100
AcDbLine
 62
7
  6
CONTINUOUS
 10
7.25
 20
0.1347798737
 11
7.25
 21
-5.8605234915
  0
LINE
  5
404
100
AcDbEntity
  8
IMPORT_IGES
100
AcDbLine
 62
7
  6
CONTINUOUS
 10
7.2499999999
 20
-7.8764132152
 11
7.2499999999
 21
-9.4512822305
  0
LINE
  5
405
100
AcDbEntity
  8
IMPORT_IGES
100
AcDbLine
 62
253
  6
CONTINUOUS
 10
7.4499999846
 20
-8.0361400125
 11
7.4499999683
 21
-9.575402792
  0
LINE
  5
406
100
AcDbEntity
  8
IMPORT_IGES
100
AcDbLine
 62
253
  6
CONTINUOUS
 10
7.45
 20
-7.2392921114
 11
7.4499999999
 21
0.1530312064
  0
LWPOLYLINE
  5
407
100
AcDbEntity
  8
IMPORT_IGES
100
AcDbPolyline
 62
7
  6
CONTINUOUS
 90
31
 70
0
 10
5.6199171818
 20
-7.3484381307
 10
5.6294737764
 20
-7.3168942587
 10
5.6384154101
 20
-7.2842445589
 10
5.6467420828
 20
-7.2504890315
 10
5.6543695557
 20
-7.2156366493
 10
5.6613820677
 20
-7.1796784394
 10
5.6680323354
 20
-7.1425874832
 10
5.674375051
 20
-7.1043583813
 10
5.6803555224
 20
-7.0649965332
 10
5.6860623896
 20
-7.0244912183
 10
5.6915109613
 20
-6.982868203
 10
5.6966859289
 20
-6.9401017209
 10
5.701630006
 20
-6.8961037521
 10
5.7063526567
 20
-6.850883243
 10
5.710844417
 20
-6.8044312472
 10
5.7151196078
 20
-6.7566329067
 10
5.7191854496
 20
-6.7074805541
 10
5.7230347218
 20
-6.6569818568
 10
5.7266600843
 20
-6.6050449582
 10
5.730066407
 20
-6.5516711587
 10
5.7332488198
 20
-6.4968591579
 10
5.7361853723
 20
-6.4405131981
 10
5.7388809909
 20
-6.3826349069
 10
5.7413307492
 20
-6.3232226568
 10
5.7434979164
 20
-6.2621758074
 10
5.7453885099
 20
-6.1994920475
 10
5.7469965123
 20
-6.1351736883
 10
5.7482671408
 20
-6.0691270238
 10
5.7491821344
 20
-6.0013208184
 10
5.7497597542
 20
-5.9317863077
 10
5.75
 20
-0.3687533839
  0
LWPOLYLINE
  5
408
100
AcDbEntity
  8
IMPORT_IGES
100
AcDbPolyline
 62
7
  6
CONTINUOUS
 90
46
 70
0
 10
4.7231314396
 20
-7.2392884415
 10
4.7187133083
 20
-7.2512831537
 10
4.7141837171
 20
-7.2627784696
 10
4.709584909
 20
-7.2737826463
 10
4.7049703182
 20
-7.284292195
 10
4.7003636517
 20
-7.294331795
 10
4.6957528784
 20
-7.3039504174
 10
4.691160918
 20
-7.3131572168
 10
4.6866152163
 20
-7.3219616568
 10
4.6820987674
 20
-7.330408196
 10
4.6776260826
 20
-7.3385063657
 10
4.6732167346
 20
-7.3462624736
 10
4.6688538076
 20
-7.3537121185
 10
4.6645468881
 20
-7.3608637696
 10
4.6603099483
 20
-7.3677221378
 10
4.656127917
 20
-7.374314126
 10
4.6520078948
 20
-7.3806461403
 10
4.6479594377
 20
-7.3867227274
 10
4.6439680778
 20
-7.3925656399
 10
4.6400390472
 20
-7.3981800547
 10
4.6361790115
 20
-7.4035697833
 10
4.6323735308
 20
-7.40875259
 10
4.6286262235
 20
-7.4137331962
 10
4.6249420107
 20
-7.4185141133
 10
4.6213069085
 20
-7.4231081528
 10
4.6177237577
 20
-7.4275193714
 10
4.614195901
 20
-7.4317494417
 10
4.6107090287
 20
-7.4358061732
 10
4.6072661421
 20
-7.439692736
 10
4.6038687451
 20
-7.44341035
 10
4.6004994434
 20
-7.4469625014
 10
4.5971619209
 20
-7.4503521544
 10
4.5938557467
 20
-7.4535793254
 10
4.5905566255
 20
-7.4566414376
 10
4.5872644633
 20
-7.4595459293
 10
4.5839816241
 20
-7.4622864649
 10
4.5806869449
 20
-7.4648381138
 10
4.5773901492
 20
-7.4672048513
 10
4.5740833552
 20
-7.4693825399
 10
4.5707184835
 20
-7.4713315792
 10
4.5672523604
 20
-7.4730679304
 10
4.5637294689
 20
-7.474570679
 10
4.5602333672
 20
-7.4757462273
 10
4.5567928025
 20
-7.4765654807
 10
4.5533813354
 20
-7.4770604233
 10
4.55
 20
-7.4772321631
  0
LWPOLYLINE
  5
409
100
AcDbEntity
  8
IMPORT_IGES
100
AcDbPolyline
 62
253
  6
CONTINUOUS
 90
5
 70
0
 10
-7.5103986751
 20
-9.6256789571
 10
-7.5212902942
 20
-9.6288695863
 10
-7.5316137986
 20
-9.6296881062
 10
-7.5412171686
 20
-9.6282074569
 10
-7.5500000001
 20
-9.6244873113
  0
LWPOLYLINE
  5
40A
100
AcDbEntity
  8
IMPORT_IGES
100
AcDbPolyline
 62
253
  6
CONTINUOUS
 90
3
 70
0
 10
7.1528006752
 20
8.6977097002
 10
7.1768947616
 20
8.7010985884
 10
7.203
 20
8.7023084676
  0
LINE
  5
40B
100
AcDbEntity
  8
IMPORT_IGES
100
AcDbLine
 62
7
  6
CONTINUOUS
 10
-4.5025898608
 20
6.9504550653
 11
-4.5
 21
6.9504857289
  0
LINE
  5
40C
100
AcDbEntity
  8
IMPORT_IGES
100
AcDbLine
 62
7
  6
CONTINUOUS
 10
-4.7999991816
 20
6.949914423
 11
-4.5025898608
 21
6.9504550653
  0
LINE
  5
40D
100
AcDbEntity
  8
IMPORT_IGES
100
AcDbLine
 62
7
  6
CONTINUOUS
 10
4.121597376
 20
7.6941671413
 11
4.2648630836
 21
7.6941671413
  0
LINE
  5
40E
100
AcDbEntity
  8
IMPORT_IGES
100
AcDbLine
 62
7
  6
CONTINUOUS
 10
-4.1259241721
 20
7.6941671413
 11
-4.2648630836
 21
7.6941671413
  0
LWPOLYLINE
  5
40F
100
AcDbEntity
  8
IMPORT_IGES
100
AcDbPolyline
 62
7
  6
CONTINUOUS
 90
3
 70
0
 10
4.5102959886
 20
6.950619462
 10
4.5403226642
 20
6.9506145462
 10
4.799998684
 20
6.9499360231
  0
LWPOLYLINE
  5
410
100
AcDbEntity
  8
IMPORT_IGES
100
AcDbPolyline
 62
253
  6
CONTINUOUS
 90
3
 70
0
 10
-7.1528075988
 20
8.697710674
 10
-7.1768947616
 20
8.7010985885
 10
-7.203
 20
8.7023084678
  0
LWPOLYLINE
  5
411
100
AcDbEntity
  8
IMPORT_IGES
100
AcDbPolyline
 62
253
  6
CONTINUOUS
 90
15
 70
0
 10
2.5000316096
 20
7.8272087026
 10
2.7211342096
 20
7.6411388003
 10
2.9232910377
 20
7.4647670462
 10
3.1065020938
 20
7.2980934401
 10
3.2660752293
 20
7.1463649768
 10
3.4067025928
 20
7.0043346616
 10
3.5424606306
 20
6.8562615103
 10
3.6796727183
 20
6.6962901623
 10
3.8120154802
 20
6.5302759782
 10
3.9345952358
 20
6.360044056
 10
4.0467995038
 20
6.1846774046
 10
4.1492407654
 20
6.005093015
 10
4.2388627843
 20
5.8258669583
 10
4.3146941613
 20
5.6509204618
 10
4.3658631859
 20
5.5091460853
  0
LINE
  5
412
100
AcDbEntity
  8
IMPORT_IGES
100
AcDbLine
 62
253
  6
CONTINUOUS
 10
7.9884829207
 20
8.3487550766
 11
7.994670625
 21
7.9942617362
  0
LINE
  5
413
100
AcDbEntity
  8
IMPORT_IGES
100
AcDbLine
 62
253
  6
CONTINUOUS
 10
7.9590625198
 20
10.2462989996
 11
7.9860144018
 21
8.7023084675
  0
LINE
  5
414
100
AcDbEntity
  8
IMPORT_IGES
100
AcDbLine
 62
7
  6
CONTINUOUS
 10
8.4227212944
 20
0.5508618584
 11
8.3100156476
 21
7.0077640418
  0
LINE
  5
415
100
AcDbEntity
  8
IMPORT_IGES
100
AcDbLine
 62
7
  6
CONTINUOUS
 10
8.3119346561
 20
7.0078241188
 11
8.2565057833
 21
10.1833421135
  0
LINE
  5
416
100
AcDbEntity
  8
IMPORT_IGES
100
AcDbLine
 62
253
  6
CONTINUOUS
 10
8.010149868
 20
6.9982754916
 11
8.1220555343
 21
0.5508619374
  0
LINE
  5
417
100
AcDbEntity
  8
IMPORT_IGES
100
AcDbLine
 62
7
  6
CONTINUOUS
 10
7.9860144018
 20
8.7023084676
 11
7.9884830685
 21
8.3487550772
  0
LINE
  5
418
100
AcDbEntity
  8
IMPORT_IGES
100
AcDbLine
 62
7
  6
CONTINUOUS
 10
7.9873573988
 20
-7.2392921114
 11
7.9850089773
 21
-7.5756419106
  0
LINE
  5
419
100
AcDbEntity
  8
IMPORT_IGES
100
AcDbLine
 62
253
  6
CONTINUOUS
 10
7.9559191794
 20
-9.2434560355
 11
7.9556144928
 21
-9.2837254924
  0
LINE
  5
41A
100
AcDbEntity
  8
IMPORT_IGES
100
AcDbLine
 62
253
  6
CONTINUOUS
 10
8.119384815
 20
0.3347797084
 11
8.1220555343
 21
0.5508619374
  0
LINE
  5
41B
100
AcDbEntity
  8
IMPORT_IGES
100
AcDbLine
 62
7
  6
CONTINUOUS
 10
8.119384815
 20
0.3347797084
 11
8.1067321905
 21
-0.4861254296
  0
LINE
  5
41C
100
AcDbEntity
  8
IMPORT_IGES
100
AcDbLine
 62
253
  6
CONTINUOUS
 10
7.9850090078
 20
-7.5756415846
 11
7.9559191794
 21
-9.2434560355
  0
LINE
  5
41D
100
AcDbEntity
  8
IMPORT_IGES
100
AcDbLine
 62
7
  6
CONTINUOUS
 10
8.2551485566
 20
-9.0493738635
 11
8.4227212944
 21
0.5508618584
  0
LINE
  5
41E
100
AcDbEntity
  8
IMPORT_IGES
100
AcDbLine
 62
253
  6
CONTINUOUS
 10
8.1067321905
 20
-0.4861254296
 11
7.9873573988
 21
-7.2392921069
  0
LWPOLYLINE
  5
41F
100
AcDbEntity
  8
IMPORT_IGES
100
AcDbPolyline
 62
253
  6
CONTINUOUS
 90
6
 70
0
 10
4.0358633713
 20
-7.6199862723
 10
4.0245656439
 20
-7.6328441589
 10
4.0154310845
 20
-7.6468827804
 10
4.0086750888
 20
-7.6618542977
 10
4.004453274
 20
-7.67752766
 10
4.0028944147
 20
-7.6936308348
  0
LWPOLYLINE
  5
420
100
AcDbEntity
  8
IMPORT_IGES
100
AcDbPolyline
 62
7
  6
CONTINUOUS
 90
6
 70
0
 10
4.1301709357
 20
-7.7743849692
 10
4.1350865715
 20
-7.7693380654
 10
4.1392830966
 20
-7.7638711714
 10
4.1430533083
 20
-7.7579571048
 10
4.1464399968
 20
-7.7516246154
 10
4.1491793417
 20
-7.7449394852
  0
LWPOLYLINE
  5
421
100
AcDbEntity
  8
IMPORT_IGES
100
AcDbPolyline
 62
7
  6
CONTINUOUS
 90
6
 70
0
 10
4.0490813743
 20
-7.8242727145
 10
4.0573990664
 20
-7.8172427064
 10
4.0663535977
 20
-7.8107347525
 10
4.0758972401
 20
-7.8048289426
 10
4.0860907862
 20
-7.7995422897
 10
4.0890211489
 20
-7.7982004581
  0
LWPOLYLINE
  5
422
100
AcDbEntity
  8
IMPORT_IGES
100
AcDbPolyline
 62
7
  6
CONTINUOUS
 90
5
 70
0
 10
4.0483306391
 20
-7.8177660199
 10
4.056501434
 20
-7.813161492
 10
4.0647748449
 20
-7.808960927
 10
4.0730834379
 20
-7.8050646076
 10
4.0814238525
 20
-7.80134694
  0
LWPOLYLINE
  5
423
100
AcDbEntity
  8
IMPORT_IGES
100
AcDbPolyline
 62
7
  6
CONTINUOUS
 90
7
 70
0
 10
4.0889741044
 20
-7.7980579485
 10
4.0973338614
 20
-7.7943530469
 10
4.1048588494
 20
-7.7908269682
 10
4.1119858765
 20
-7.7871475371
 10
4.1185710294
 20
-7.7832378743
 10
4.1246066094
 20
-7.7790134282
 10
4.1301709357
 20
-7.7743849692
  0
LINE
  5
424
100
AcDbEntity
  8
IMPORT_IGES
100
AcDbLine
 62
7
  6
CONTINUOUS
 10
4.0814238525
 20
-7.80134694
 11
4.0889741044
 21
-7.7980579485
  0
LWPOLYLINE
  5
425
100
AcDbEntity
  8
IMPORT_IGES
100
AcDbPolyline
 62
7
  6
CONTINUOUS
 90
3
 70
0
 10
4.0845593115
 20
-7.7999790342
 10
4.0981739246
 20
-7.7944886828
 10
4.1194300774
 20
-7.7874987723
  0
LINE
  5
426
100
AcDbEntity
  8
IMPORT_IGES
100
AcDbLine
 62
253
  6
CONTINUOUS
 10
4.0367559346
 20
8.3665189526
 11
3.8375463848
 21
8.3487550772
  0
LINE
  5
427
100
AcDbEntity
  8
IMPORT_IGES
100
AcDbLine
 62
253
  6
CONTINUOUS
 10
8.2884372293
 20
8.3539907981
 11
7.9884829207
 21
8.3487550768
  0
LWPOLYLINE
  5
428
100
AcDbEntity
  8
IMPORT_IGES
100
AcDbPolyline
 62
253
  6
CONTINUOUS
 90
13
 70
0
 10
-3.8210217456
 20
8.7023084449
 10
-3.8457184103
 20
8.7020466034
 10
-3.8703774095
 20
8.6995692774
 10
-3.8943815398
 20
8.6948731378
 10
-3.9168450576
 20
8.6881717636
 10
-3.9375677844
 20
8.6796332503
 10
-3.9568889154
 20
8.6690945415
 10
-3.9743600857
 20
8.6566475262
 10
-3.9893982608
 20
8.6426110019
 10
-4.0018868771
 20
8.6269774902
 10
-4.0114485644
 20
8.6099950095
 10
-4.0177068759
 20
8.5922328969
 10
-4.0205798567
 20
8.5741850378
  0
LINE
  5
429
100
AcDbEntity
  8
IMPORT_IGES
100
AcDbLine
 62
7
  6
CONTINUOUS
 10
4.1048535023
 20
8.2941671413
 11
4.0435555709
 21
8.2941671413
  0
LINE
  5
42A
100
AcDbEntity
  8
IMPORT_IGES
100
AcDbLine
 62
7
  6
CONTINUOUS
 10
-4.046351333
 20
8.2941671413
 11
-4.1048535023
 21
8.2941671413
  0
LINE
  5
42B
100
AcDbEntity
  8
IMPORT_IGES
100
AcDbLine
 62
253
  6
CONTINUOUS
 10
7.9884829207
 20
8.3487550766
 11
7.693214385
 21
8.3487550765
  0
LINE
  5
42C
100
AcDbEntity
  8
IMPORT_IGES
100
AcDbLine
 62
253
  6
CONTINUOUS
 10
3.8375463848
 20
8.3487550765
 11
-3.8375463848
 21
8.3487550772
  0
LINE
  5
42D
100
AcDbEntity
  8
IMPORT_IGES
100
AcDbLine
 62
253
  6
CONTINUOUS
 10
-7.6932177674
 20
8.3487550765
 11
-7.9884829208
 21
8.3487550764
  0
LINE
  5
42E
100
AcDbEntity
  8
IMPORT_IGES
100
AcDbLine
 62
253
  6
CONTINUOUS
 10
7.203
 20
8.7023084676
 11
7.9860144018
 21
8.7023084675
  0
LINE
  5
42F
100
AcDbEntity
  8
IMPORT_IGES
100
AcDbLine
 62
253
  6
CONTINUOUS
 10
-7.2030016412
 20
8.7023084675
 11
-7.9860144018
 21
8.7023084676
  0
LINE
  5
430
100
AcDbEntity
  8
IMPORT_IGES
100
AcDbLine
 62
253
  6
CONTINUOUS
 10
3.8210226047
 20
8.7023084735
 11
-3.8210224345
 21
8.7023085206
  0
LWPOLYLINE
  5
431
100
AcDbEntity
  8
IMPORT_IGES
100
AcDbPolyline
 62
253
  6
CONTINUOUS
 90
13
 70
0
 10
3.8210222866
 20
8.7023008631
 10
3.8457183831
 20
8.7020390987
 10
3.8703768541
 20
8.6995619859
 10
3.8943805374
 20
8.6948661834
 10
3.916843771
 20
8.688165224
 10
3.9375663399
 20
8.6796271823
 10
3.9568873223
 20
8.6690890627
 10
3.9743583754
 20
8.6566427765
 10
3.9893965424
 20
8.6426070884
 10
4.0018852893
 20
8.6269745344
 10
4.0114473002
 20
8.609993106
 10
4.0177061664
 20
8.5922320681
 10
4.0205799357
 20
8.5741852418
  0
LINE
  5
432
100
AcDbEntity
  8
IMPORT_IGES
100
AcDbLine
 62
253
  6
CONTINUOUS
 10
-7.9884829213
 20
8.3487550467
 11
-8.2884372293
 21
8.3539907991
  0
LINE
  5
433
100
AcDbEntity
  8
IMPORT_IGES
100
AcDbLine
 62
253
  6
CONTINUOUS
 10
-4.0367559346
 20
8.3665189526
 11
-3.8375463895
 21
8.3487550252
  0
LWPOLYLINE
  5
434
100
AcDbEntity
  8
IMPORT_IGES
100
AcDbPolyline
 62
253
  6
CONTINUOUS
 90
13
 70
0
 10
-6.8787973437
 20
11.5558618189
 10
-6.8739364091
 20
11.5542101402
 10
-6.8690728908
 20
11.5491669342
 10
-6.8643364117
 20
11.5407327424
 10
-6.859892486
 20
11.5292092637
 10
-6.8558101063
 20
11.5148849528
 10
-6.85208265
 20
11.4977387436
 10
-6.8488118088
 20
11.4781930217
 10
-6.8460723086
 20
11.4567550307
 10
-6.8438615323
 20
11.4333438028
 10
-6.8422380208
 20
11.408342994
 10
-6.8412584921
 20
11.3826830986
 10
-6.8409186903
 20
11.357084661
  0
LWPOLYLINE
  5
435
100
AcDbEntity
  8
IMPORT_IGES
100
AcDbPolyline
 62
253
  6
CONTINUOUS
 90
13
 70
0
 10
8.2859687103
 20
8.4954121553
 10
8.2829632423
 20
8.5228342804
 10
8.2749563082
 20
8.5497063504
 10
8.2620827676
 20
8.5755757633
 10
8.2445594477
 20
8.600006803
 10
8.2226814913
 20
8.6225879825
 10
8.1968173854
 20
8.6429389741
 10
8.1674027555
 20
8.6607170104
 10
8.134933028
 20
8.6756226571
 10
8.0999550856
 20
8.6874048606
 10
8.0630580568
 20
8.6958651749
 10
8.024863393
 20
8.7008611043
 10
7.9860144012
 20
8.702308503
  0
LWPOLYLINE
  5
436
100
AcDbEntity
  8
IMPORT_IGES
100
AcDbPolyline
 62
253
  6
CONTINUOUS
 90
3
 70
0
 10
8.2590181559
 20
10.0394083847
 10
8.2560603585
 20
10.0665945181
 10
8.248229725
 20
10.0931337531
  0
LWPOLYLINE
  5
437
100
AcDbEntity
  8
IMPORT_IGES
100
AcDbPolyline
 62
253
  6
CONTINUOUS
 90
13
 70
0
 10
8.2849633178
 20
-7.3412873376
 10
8.2819739583
 20
-7.371831829
 10
8.2741533865
 20
-7.4017019113
 10
8.2616720688
 20
-7.4304185232
 10
8.2448655339
 20
-7.4574020885
 10
8.2239913865
 20
-7.4823801158
 10
8.1990294433
 20
-7.5052894042
 10
8.170079385
 20
-7.5257826786
 10
8.137651717
 20
-7.5432712001
 10
8.1023264895
 20
-7.5573020483
 10
8.0647063846
 20
-7.5675358476
 10
8.0253775865
 20
-7.5737179522
 10
7.9850199943
 20
-7.57564198
  0
LWPOLYLINE
  5
438
100
AcDbEntity
  8
IMPORT_IGES
100
AcDbPolyline
 62
253
  6
CONTINUOUS
 90
13
 70
0
 10
-7.9860136848
 20
8.7023084614
 10
-8.0248629986
 20
8.7008611021
 10
-8.0630579034
 20
8.6958651673
 10
-8.0999550862
 20
8.6874048254
 10
-8.1349330747
 20
8.6756226036
 10
-8.1674027773
 20
8.660716964
 10
-8.196817386
 20
8.6429389389
 10
-8.2226814919
 20
8.622587946
 10
-8.2445594484
 20
8.6000067652
 10
-8.2620827682
 20
8.5755757281
 10
-8.2749563087
 20
8.549706323
 10
-8.2829632426
 20
8.5228342648
 10
-8.2859687103
 20
8.4954121553
  0
LWPOLYLINE
  5
439
100
AcDbEntity
  8
IMPORT_IGES
100
AcDbPolyline
 62
253
  6
CONTINUOUS
 90
13
 70
0
 10
-4.2
 20
9.1807430659
 10
-4.1742155415
 20
9.1808415079
 10
-4.1489402748
 20
9.181133962
 10
-4.1245873815
 20
9.1816137643
 10
-4.1016592051
 20
9.1822675647
 10
-4.0803909146
 20
9.1830850367
 10
-4.0608336631
 20
9.1840671479
 10
-4.0432813678
 20
9.1852071706
 10
-4.0282544019
 20
9.1864877122
 10
-4.0161592
 20
9.1878940751
 10
-4.0072856909
 20
9.1894045311
 10
-4.0018422079
 20
9.1909923695
 10
-4.0
 20
9.19263014
  0
LWPOLYLINE
  5
43A
100
AcDbEntity
  8
IMPORT_IGES
100
AcDbPolyline
 62
253
  6
CONTINUOUS
 90
13
 70
0
 10
4.2
 20
9.1807430659
 10
4.1738947616
 20
9.1808439839
 10
4.148236191
 20
9.1811450095
 10
4.1234633135
 20
9.181640992
 10
4.1
 20
9.182323445
 10
4.0782477142
 20
9.1831806915
 10
4.0585786438
 20
9.184198064
 10
4.0413293319
 20
9.1853581552
 10
4.0267949192
 20
9.1866411154
 10
4.0152240935
 20
9.1880249928
 10
4.0068148347
 20
9.1894861089
 10
4.0017110277
 20
9.1909994636
 10
4.0
 20
9.1925391631
  0
LWPOLYLINE
  5
43B
100
AcDbEntity
  8
IMPORT_IGES
100
AcDbPolyline
 62
253
  6
CONTINUOUS
 90
13
 70
0
 10
3.8
 20
9.3339605175
 10
3.8257844852
 20
9.3327803113
 10
3.8510597702
 20
9.3292741236
 10
3.8754126732
 20
9.3235218485
 10
3.8983408497
 20
9.3156835425
 10
3.9196091331
 20
9.3058830082
 10
3.9391663751
 20
9.294108645
 10
3.9567186593
 20
9.2804005963
 10
3.9717456139
 20
9.2650079369
 10
3.9838408078
 20
9.2482282867
 10
3.9927143122
 20
9.2303623652
 10
3.9981577928
 20
9.2116896654
 10
4.0
 20
9.1925390313
  0
LINE
  5
43C
100
AcDbEntity
  8
IMPORT_IGES
100
AcDbLine
 62
7
  6
CONTINUOUS
 10
7.45
 20
-7.239292116
 11
7.3800828182
 21
-7.3484381307
  0
LWPOLYLINE
  5
43D
100
AcDbEntity
  8
IMPORT_IGES
100
AcDbPolyline
 62
253
  6
CONTINUOUS
 90
13
 70
0
 10
7.203
 20
11.0023685193
 10
7.1775608255
 20
11.0012198411
 10
7.1524907659
 20
10.9977843241
 10
7.1282018426
 20
10.9921059136
 10
7.1051709402
 20
10.9842951972
 10
7.0836991056
 20
10.9744533228
 10
7.063964123
 20
10.9626059672
 10
7.0462769558
 20
10.9488046815
 10
7.0311542911
 20
10.9332971866
 10
7.0190422015
 20
10.9164427862
 10
7.0102097334
 20
10.8985763667
 10
7.0048171702
 20
10.8799677708
 10
7.003
 20
10.8609471882
  0
LWPOLYLINE
  5
43E
100
AcDbEntity
  8
IMPORT_IGES
100
AcDbPolyline
 62
253
  6
CONTINUOUS
 90
13
 70
0
 10
-7.9590638468
 20
10.2463047304
 10
-7.9975767299
 20
10.2448853047
 10
-8.0352954098
 20
10.2400060669
 10
-8.0716126671
 20
10.2317902072
 10
-8.105780924
 20
10.2204813071
 10
-8.1374761594
 20
10.206264539
 10
-8.1666669501
 20
10.1891093214
 10
-8.1929346562
 20
10.1690597988
 10
-8.2155021218
 20
10.1464775543
 10
-8.2337690156
 20
10.1217921817
 10
-8.2473072452
 20
10.0954381776
 10
-8.2558089769
 20
10.0678182324
 10
-8.2590181559
 20
10.0394083847
  0
LWPOLYLINE
  5
43F
100
AcDbEntity
  8
IMPORT_IGES
100
AcDbPolyline
 62
253
  6
CONTINUOUS
 90
13
 70
0
 10
-7.2030016412
 20
11.0023895679
 10
-7.1768956655
 20
11.001170429
 10
-7.1512365433
 20
10.9975544672
 10
-7.1264633135
 20
10.9916034847
 10
-7.1029998947
 20
10.9834200751
 10
-7.081247666
 20
10.9731434887
 10
-7.0615786438
 20
10.9609471882
 10
-7.0443293319
 20
10.9470390551
 10
-7.0297949192
 20
10.9316578663
 10
-7.0182240935
 20
10.9150667982
 10
-7.0098148347
 20
10.8975497286
 10
-7.0047110277
 20
10.8794063793
 10
-7.003
 20
10.8609471882
  0
LWPOLYLINE
  5
440
100
AcDbEntity
  8
IMPORT_IGES
100
AcDbPolyline
 62
253
  6
CONTINUOUS
 90
3
 70
0
 10
7.2458235581
 20
-9.4572419767
 10
7.2489602943
 20
-9.4530514667
 10
7.2499999999
 20
-9.4512824826
  0
LWPOLYLINE
  5
441
100
AcDbEntity
  8
IMPORT_IGES
100
AcDbPolyline
 62
253
  6
CONTINUOUS
 90
5
 70
0
 10
7.1857015087
 20
-9.5298393163
 10
7.2124518621
 20
-9.4983803915
 10
7.2237195434
 20
-9.4849433729
 10
7.2331896988
 20
-9.4731797315
 10
7.2458235581
 20
-9.4572419767
  0
LWPOLYLINE
  5
442
100
AcDbEntity
  8
IMPORT_IGES
100
AcDbPolyline
 62
253
  6
CONTINUOUS
 90
4
 70
0
 10
7.05
 20
-9.6853287278
 10
7.0719398469
 20
-9.6597309186
 10
7.093409389
 20
-9.6352141011
 10
7.1340082922
 20
-9.5892644694
  0
LWPOLYLINE
  5
443
100
AcDbEntity
  8
IMPORT_IGES
100
AcDbPolyline
 62
253
  6
CONTINUOUS
 90
3
 70
0
 10
7.1340082922
 20
-9.5892644694
 10
7.1700371421
 20
-9.5479820783
 10
7.1857015087
 20
-9.5298393163
  0
LWPOLYLINE
  5
444
100
AcDbEntity
  8
IMPORT_IGES
100
AcDbPolyline
 62
253
  6
CONTINUOUS
 90
4
 70
0
 10
8.0675461267
 20
-9.267000715
 10
8.1024822216
 20
-9.2537927275
 10
8.1351088276
 20
-9.2369932701
 10
8.1647604422
 20
-9.2168948379
  0
LWPOLYLINE
  5
445
100
AcDbEntity
  8
IMPORT_IGES
100
AcDbPolyline
 62
253
  6
CONTINUOUS
 90
4
 70
0
 10
4.0000000012
 20
11.3558626234
 10
4.0017138088
 20
11.3560344659
 10
4.0068201191
 20
11.3561929317
 10
4.015231479
 20
11.3563407284
  0
LINE
  5
446
100
AcDbEntity
  8
IMPORT_IGES
100
AcDbLine
 62
253
  6
CONTINUOUS
 10
4.015231479
 20
11.3563407284
 11
4.0413392571
 21
11.3566236031
  0
LINE
  5
447
100
AcDbEntity
  8
IMPORT_IGES
100
AcDbLine
 62
253
  6
CONTINUOUS
 10
4.0413392571
 20
11.3566236031
 11
4.1234712879
 21
11.3570144411
  0
LINE
  5
448
100
AcDbEntity
  8
IMPORT_IGES
100
AcDbLine
 62
253
  6
CONTINUOUS
 10
3.8
 20
11.409415249
 11
-3.8
 21
11.4094152492
  0
LINE
  5
449
100
AcDbEntity
  8
IMPORT_IGES
100
AcDbLine
 62
7
  6
CONTINUOUS
 10
6.878796659
 20
11.5558618584
 11
-6.8787973437
 21
11.5558618584
  0
LINE
  5
44A
100
AcDbEntity
  8
IMPORT_IGES
100
AcDbLine
 62
253
  6
CONTINUOUS
 10
6.5
 20
11.6558618584
 11
-6.5
 21
11.6558618584
  0
LINE
  5
44B
100
AcDbEntity
  8
IMPORT_IGES
100
AcDbLine
 62
253
  6
CONTINUOUS
 10
6.8409281986
 20
11.3570844516
 11
4.1234712879
 21
11.3570144411
  0
LINE
  5
44C
100
AcDbEntity
  8
IMPORT_IGES
100
AcDbLine
 62
253
  6
CONTINUOUS
 10
-6.8409186905
 20
11.357084661
 11
-4.1482381129
 21
11.3570628807
  0
LINE
  5
44D
100
AcDbEntity
  8
IMPORT_IGES
100
AcDbLine
 62
253
  6
CONTINUOUS
 10
-4.1482381129
 20
11.3570628807
 11
-4.0585810954
 21
11.3567443571
  0
LWPOLYLINE
  5
44E
100
AcDbEntity
  8
IMPORT_IGES
100
AcDbPolyline
 62
253
  6
CONTINUOUS
 90
6
 70
0
 10
-4.0585810954
 20
11.3567443571
 10
-4.0267966659
 20
11.3564840023
 10
-4.0152252923
 20
11.356339788
 10
-4.0068154557
 20
11.3561920352
 10
-4.0017112046
 20
11.3560336281
 10
-4.0
 20
11.3558618583
  0
LWPOLYLINE
  5
44F
100
AcDbEntity
  8
IMPORT_IGES
100
AcDbPolyline
 62
253
  6
CONTINUOUS
 90
8
 70
0
 10
3.9586706681
 20
11.3540857596
 10
3.9414213562
 20
11.3679938927
 10
3.9217522858
 20
11.3801909981
 10
3.9
 20
11.3904683798
 10
3.8765366865
 20
11.3986501892
 10
3.851763809
 20
11.4045964331
 10
3.8261052384
 20
11.4082053697
 10
3.8
 20
11.4094152491
  0
LWPOLYLINE
  5
450
100
AcDbEntity
  8
IMPORT_IGES
100
AcDbPolyline
 62
253
  6
CONTINUOUS
 90
8
 70
0
 10
6.9713906808
 20
11.1372890692
 10
6.9785254693
 20
11.1231881181
 10
6.9850740733
 20
11.1099212096
 10
6.9908092253
 20
11.0980425092
 10
6.9957184783
 20
11.088342028
 10
6.9995863679
 20
11.0810815375
 10
7.0021026565
 20
11.0759944478
 10
7.0029999987
 20
11.0730769353
  0
LWPOLYLINE
  5
451
100
AcDbEntity
  8
IMPORT_IGES
100
AcDbPolyline
 62
253
  6
CONTINUOUS
 90
3
 70
0
 10
6.8764383616
 20
11.3275237309
 10
6.9549667537
 20
11.1705327852
 10
6.9713906808
 20
11.1372890692
  0
LWPOLYLINE
  5
452
100
AcDbEntity
  8
IMPORT_IGES
100
AcDbPolyline
 62
253
  6
CONTINUOUS
 90
7
 70
0
 10
8.1647604422
 20
-9.2168948379
 10
8.1909137278
 20
-9.1938181528
 10
8.2130997073
 20
-9.1681383043
 10
8.2308711639
 20
-9.1403560195
 10
8.2439228931
 20
-9.1109753793
 10
8.2520586906
 20
-9.0804746723
 10
8.2551485566
 20
-9.0493738635
  0
LINE
  5
453
100
AcDbEntity
  8
IMPORT_IGES
100
AcDbLine
 62
7
  6
CONTINUOUS
 10
8.105194248
 20
-9.3039457628
 11
6.3731378189
 21
-10.3039490084
  0
LINE
  5
454
100
AcDbEntity
  8
IMPORT_IGES
100
AcDbLine
 62
253
  6
CONTINUOUS
 10
7.9556144928
 20
-9.2837254924
 11
7.4499999683
 21
-9.575402792
  0
LINE
  5
455
100
AcDbEntity
  8
IMPORT_IGES
100
AcDbLine
 62
253
  6
CONTINUOUS
 10
7.0500033344
 20
-9.6853287278
 11
6.2731434312
 21
-10.1316874863
  0
LWPOLYLINE
  5
456
100
AcDbEntity
  8
IMPORT_IGES
100
AcDbPolyline
 62
253
  6
CONTINUOUS
 90
10
 70
0
 10
6.2731434312
 20
-10.1316874863
 10
6.2680009158
 20
-10.1344439585
 10
6.2627411999
 20
-10.1368857361
 10
6.2573642838
 20
-10.1390128191
 10
6.2518515799
 20
-10.1408306289
 10
6.2462216757
 20
-10.1423337436
 10
6.2405303329
 20
-10.1435058973
 10
6.2347961389
 20
-10.1443416679
 10
6.2290005064
 20
-10.1448464773
 10
6.2231434353
 20
-10.1450203254
  0
LWPOLYLINE
  5
457
100
AcDbEntity
  8
IMPORT_IGES
100
AcDbPolyline
 62
253
  6
CONTINUOUS
 90
10
 70
0
 10
8.105194248
 20
-9.3039457628
 10
8.0919566719
 20
-9.3102416472
 10
8.077543651
 20
-9.3144923247
 10
8.0620459601
 20
-9.3166165961
 10
8.0454887381
 20
-9.3165448754
 10
8.0280607166
 20
-9.3142124421
 10
8.0101440484
 20
-9.3096615287
 10
7.9919814513
 20
-9.3030035856
 10
7.9736445579
 20
-9.2943171539
 10
7.9552834855
 20
-9.2837089791
  0
LINE
  5
458
100
AcDbEntity
  8
IMPORT_IGES
100
AcDbLine
 62
7
  6
CONTINUOUS
 10
6.3997278077
 20
11.7558618584
 11
-6.4
 21
11.7558618584
  0
LWPOLYLINE
  5
459
100
AcDbEntity
  8
IMPORT_IGES
100
AcDbPolyline
 62
253
  6
CONTINUOUS
 90
10
 70
0
 10
6.8409281986
 20
11.3570844516
 10
6.8458939432
 20
11.356368349
 10
6.8505406993
 20
11.355040186
 10
6.8548706615
 20
11.3530998802
 10
6.8588081732
 20
11.3505872578
 10
6.8624359126
 20
11.3474623271
 10
6.8659902379
 20
11.3436054019
 10
6.8695479294
 20
11.3389766758
 10
6.8730306887
 20
11.3336160971
 10
6.8764383616
 20
11.3275237309
  0
LWPOLYLINE
  5
45A
100
AcDbEntity
  8
IMPORT_IGES
100
AcDbPolyline
 62
253
  6
CONTINUOUS
 90
11
 70
0
 10
8.248229725
 20
10.0931337531
 10
8.2357155188
 20
10.1185999323
 10
8.2188806837
 20
10.1424707086
 10
8.197995146
 20
10.1645216127
 10
8.1730166023
 20
10.1847296279
 10
8.1440179695
 20
10.2028001798
 10
8.11152975
 20
10.218192822
 10
8.0761741684
 20
10.2304933431
 10
8.0385761441
 20
10.2394097599
 10
7.9993126979
 20
10.244734701
 10
7.9590632332
 20
10.2462990058
  0
LWPOLYLINE
  5
45B
100
AcDbEntity
  8
IMPORT_IGES
100
AcDbPolyline
 62
253
  6
CONTINUOUS
 90
13
 70
0
 10
7.0909264735
 20
11.4679954891
 10
7.0835914189
 20
11.4721629675
 10
7.0729527122
 20
11.4730496965
 10
7.0592333366
 20
11.4704369242
 10
7.0431476297
 20
11.4644798424
 10
7.0252095224
 20
11.4554892331
 10
7.0053296989
 20
11.4434392074
 10
6.9841616439
 20
11.4286933241
 10
6.9624478066
 20
11.4117992132
 10
6.9400558765
 20
11.3926383396
 10
6.9175343178
 20
11.3715940912
 10
6.8960279652
 20
11.3497252405
 10
6.8762646594
 20
11.327871292
  0
LWPOLYLINE
  5
45C
100
AcDbEntity
  8
IMPORT_IGES
100
AcDbPolyline
 62
253
  6
CONTINUOUS
 90
10
 70
0
 10
8.1686821363
 20
10.3902397986
 10
8.1547035484
 20
10.400320839
 10
8.1379600292
 20
10.4048411779
 10
8.1183889338
 20
10.4031364727
 10
8.0959472372
 20
10.3942281258
 10
8.0708306505
 20
10.3776736805
 10
8.0438356336
 20
10.354260082
 10
8.015815949
 20
10.3246161612
 10
7.9873283363
 20
10.2885410324
 10
7.9590672032
 20
10.2463013413
  0
LINE
  5
45D
100
AcDbEntity
  8
IMPORT_IGES
100
AcDbLine
 62
253
  6
CONTINUOUS
 10
7.203
 20
11.0023685439
 11
7.9590625198
 21
10.2462989996
  0
LINE
  5
45E
100
AcDbEntity
  8
IMPORT_IGES
100
AcDbLine
 62
7
  6
CONTINUOUS
 10
8.168684219
 20
10.3902377161
 11
7.0909282199
 21
11.4679937151
  0
ARC
  5
45F
100
AcDbEntity
  8
IMPORT_IGES
100
AcDbCircle
 62
7
  6
CONTINUOUS
 10
-5.1
 20
0.1508618584
 40
0.6
100
AcDbArc
 50
269.9999999999
 51
360.0
  0
ARC
  5
460
100
AcDbEntity
  8
IMPORT_IGES
100
AcDbCircle
 62
7
  6
CONTINUOUS
 10
-5.45
 20
0.1508618584
 40
0.6
100
AcDbArc
 50
180.0
 51
270.0
  0
ARC
  5
461
100
AcDbEntity
  8
IMPORT_IGES
100
AcDbCircle
 62
7
  6
CONTINUOUS
 10
-6.2231434405
 20
-10.0441381416
 40
0.3
100
AcDbArc
 50
240.0000120939
 51
270.0000000642
  0
ARC
  5
462
100
AcDbEntity
  8
IMPORT_IGES
100
AcDbCircle
 62
253
  6
CONTINUOUS
 10
-5.1
 20
0.1508618584
 40
0.3
100
AcDbArc
 50
270.0000000001
 51
360.0
  0
ARC
  5
463
100
AcDbEntity
  8
IMPORT_IGES
100
AcDbCircle
 62
253
  6
CONTINUOUS
 10
-5.45
 20
0.1508618584
 40
0.3
100
AcDbArc
 50
180.0
 51
270.0
  0
ARC
  5
464
100
AcDbEntity
  8
IMPORT_IGES
100
AcDbCircle
 62
7
  6
CONTINUOUS
 10
-7.9551964078
 20
-9.0441385076
 40
0.2999990457
100
AcDbArc
 50
180.9998575135
 51
240.0057583378
  0
ARC
  5
465
100
AcDbEntity
  8
IMPORT_IGES
100
AcDbCircle
 62
7
  6
CONTINUOUS
 10
-7.45
 20
-9.4512822306
 40
0.2
100
AcDbArc
 50
240.0000032026
 51
359.9999543684
  0
ARC
  5
466
100
AcDbEntity
  8
IMPORT_IGES
100
AcDbCircle
 62
7
  6
CONTINUOUS
 10
-7.05
 20
0.1347798753
 40
0.2
100
AcDbArc
 50
90.0000000761
 51
179.9990411618
  0
ARC
  5
467
100
AcDbEntity
  8
IMPORT_IGES
100
AcDbCircle
 62
7
  6
CONTINUOUS
 10
-3.7734545901
 20
-10.1441362659
 40
0.1999996962
100
AcDbArc
 50
180.6869390008
 51
270.0029465965
  0
ARC
  5
468
100
AcDbEntity
  8
IMPORT_IGES
100
AcDbCircle
 62
7
  6
CONTINUOUS
 10
-5.9
 20
-10.4441381416
 40
0.1
100
AcDbArc
 50
179.9999999998
 51
270.0012693104
  0
ARC
  5
469
100
AcDbEntity
  8
IMPORT_IGES
100
AcDbCircle
 62
7
  6
CONTINUOUS
 10
-6.1
 20
-10.4441381416
 40
0.1
100
AcDbArc
 50
0.0000000003
 51
89.9975836551
  0
ARC
  5
46A
100
AcDbEntity
  8
IMPORT_IGES
100
AcDbCircle
 62
253
  6
CONTINUOUS
 10
-13.3
 20
9.1925391612
 40
9.5
100
AcDbArc
 50
349.9865678122
 51
354.9043096237
  0
ARC
  5
46B
100
AcDbEntity
  8
IMPORT_IGES
100
AcDbCircle
 62
7
  6
CONTINUOUS
 10
-13.3
 20
9.1925391612
 40
9.3
100
AcDbArc
 50
349.9865678122
 51
0.0001398085
  0
ARC
  5
46C
100
AcDbEntity
  8
IMPORT_IGES
100
AcDbCircle
 62
7
  6
CONTINUOUS
 10
-7.9565514748
 20
10.1781063915
 40
0.3
100
AcDbArc
 50
135.0000018621
 51
179.0
  0
ARC
  5
46D
100
AcDbEntity
  8
IMPORT_IGES
100
AcDbCircle
 62
7
  6
CONTINUOUS
 10
-7.203
 20
11.0730792225
 40
0.2
100
AcDbArc
 50
0.0
 51
135.000001097
  0
ARC
  5
46E
100
AcDbEntity
  8
IMPORT_IGES
100
AcDbCircle
 62
253
  6
CONTINUOUS
 10
-5.05
 20
2.5508618584
 40
1.3
100
AcDbArc
 50
89.999999999
 51
180.0
  0
ARC
  5
46F
100
AcDbEntity
  8
IMPORT_IGES
100
AcDbCircle
 62
7
  6
CONTINUOUS
 10
-5.05
 20
2.5508618584
 40
1.0
100
AcDbArc
 50
90.0
 51
180.0
  0
ARC
  5
470
100
AcDbEntity
  8
IMPORT_IGES
100
AcDbCircle
 62
253
  6
CONTINUOUS
 10
-3.8
 20
3.9190671388
 40
0.7
100
AcDbArc
 50
186.1256577714
 51
269.8387858744
  0
ARC
  5
471
100
AcDbEntity
  8
IMPORT_IGES
100
AcDbCircle
 62
253
  6
CONTINUOUS
 10
-5.05
 20
2.5508618584
 40
0.7
100
AcDbArc
 50
90.0
 51
180.0
  0
ARC
  5
472
100
AcDbEntity
  8
IMPORT_IGES
100
AcDbCircle
 62
7
  6
CONTINUOUS
 10
-4.6446828416
 20
2.9341911257
 40
0.6
100
AcDbArc
 50
283.9720463855
 51
334.8767063357
  0
ARC
  5
473
100
AcDbEntity
  8
IMPORT_IGES
100
AcDbCircle
 62
7
  6
CONTINUOUS
 10
-4.087751337
 20
4.3190671388
 40
0.6
100
AcDbArc
 50
172.4289186542
 51
269.9999999999
  0
ARC
  5
474
100
AcDbEntity
  8
IMPORT_IGES
100
AcDbCircle
 62
253
  6
CONTINUOUS
 10
-4.087751337
 20
4.3190671388
 40
0.4
100
AcDbArc
 50
172.4289186646
 51
269.9999999999
  0
ARC
  5
475
100
AcDbEntity
  8
IMPORT_IGES
100
AcDbCircle
 62
7
  6
CONTINUOUS
 10
-4.8
 20
3.2508618584
 40
0.3
100
AcDbArc
 50
0.0
 51
90.0000000002
  0
ARC
  5
476
100
AcDbEntity
  8
IMPORT_IGES
100
AcDbCircle
 62
7
  6
CONTINUOUS
 10
-6.4055080062
 20
6.9458504649
 40
1.905513565
100
AcDbArc
 50
0.1395587833
 51
178.1372298283
  0
ARC
  5
477
100
AcDbEntity
  8
IMPORT_IGES
100
AcDbCircle
 62
253
  6
CONTINUOUS
 10
-6.4055080062
 20
6.9458504649
 40
1.6054856081
100
AcDbArc
 50
0.1450301271
 51
178.0267814416
  0
ARC
  5
478
100
AcDbEntity
  8
IMPORT_IGES
100
AcDbCircle
 62
7
  6
CONTINUOUS
 10
-0.7173919684
 20
3.8710964625
 40
4.0
100
AcDbArc
 50
123.4933347856
 51
172.4289186646
  0
ARC
  5
479
100
AcDbEntity
  8
IMPORT_IGES
100
AcDbCircle
 62
253
  6
CONTINUOUS
 10
-0.7173919684
 20
3.8710964625
 40
3.8
100
AcDbArc
 50
123.4933347857
 51
172.4289186646
  0
ARC
  5
47A
100
AcDbEntity
  8
IMPORT_IGES
100
AcDbCircle
 62
7
  6
CONTINUOUS
 10
-0.9
 20
4.4941671413
 40
0.3
100
AcDbArc
 50
270.0
 51
360.0
  0
ARC
  5
47B
100
AcDbEntity
  8
IMPORT_IGES
100
AcDbCircle
 62
253
  6
CONTINUOUS
 10
-4.6340502541
 20
7.662403546
 40
0.7
100
AcDbArc
 50
280.7609054582
 51
349.9865678122
  0
ARC
  5
47C
100
AcDbEntity
  8
IMPORT_IGES
100
AcDbCircle
 62
7
  6
CONTINUOUS
 10
-4.6340502541
 20
7.662403546
 40
0.5
100
AcDbArc
 50
283.6943991251
 51
349.9865678122
  0
ARC
  5
47D
100
AcDbEntity
  8
IMPORT_IGES
100
AcDbCircle
 62
7
  6
CONTINUOUS
 10
-6.8787960079
 20
11.2558618584
 40
0.3
100
AcDbArc
 50
90.0
 51
135.000071038
  0
ARC
  5
47E
100
AcDbEntity
  8
IMPORT_IGES
100
AcDbCircle
 62
7
  6
CONTINUOUS
 10
-3.8
 20
11.3558618584
 40
0.2
100
AcDbArc
 50
90.000000014
 51
179.9999999998
  0
ARC
  5
47F
100
AcDbEntity
  8
IMPORT_IGES
100
AcDbCircle
 62
7
  6
CONTINUOUS
 10
-6.4
 20
11.6558618584
 40
0.1
100
AcDbArc
 50
89.9985366611
 51
179.9999999999
  0
ARC
  5
480
100
AcDbEntity
  8
IMPORT_IGES
100
AcDbCircle
 62
7
  6
CONTINUOUS
 10
-6.6
 20
11.6558618584
 40
0.1
100
AcDbArc
 50
270.0028894103
 51
360.0
  0
ARC
  5
481
100
AcDbEntity
  8
IMPORT_IGES
100
AcDbCircle
 62
7
  6
CONTINUOUS
 10
3.7734612692
 20
-10.1441300282
 40
0.1999984052
100
AcDbArc
 50
269.9972218018
 51
359.1932880889
  0
ARC
  5
482
100
AcDbEntity
  8
IMPORT_IGES
100
AcDbCircle
 62
7
  6
CONTINUOUS
 10
-0.0
 20
0.4258618584
 40
4.5
100
AcDbArc
 50
183.051925112
 51
356.9480150513
  0
ARC
  5
483
100
AcDbEntity
  8
IMPORT_IGES
100
AcDbCircle
 62
7
  6
CONTINUOUS
 10
6.2231434405
 20
-10.0441381416
 40
0.3
100
AcDbArc
 50
269.9999717711
 51
299.9999553967
  0
ARC
  5
484
100
AcDbEntity
  8
IMPORT_IGES
100
AcDbCircle
 62
7
  6
CONTINUOUS
 10
7.9551966713
 20
-9.0441386972
 40
0.2999989024
100
AcDbArc
 50
300.0000000008
 51
359.0003443683
  0
ARC
  5
485
100
AcDbEntity
  8
IMPORT_IGES
100
AcDbCircle
 62
7
  6
CONTINUOUS
 10
7.4499999999
 20
-9.4512822306
 40
0.2
100
AcDbArc
 50
180.0000360725
 51
300.0000003414
  0
ARC
  5
486
100
AcDbEntity
  8
IMPORT_IGES
100
AcDbCircle
 62
7
  6
CONTINUOUS
 10
6.1
 20
-10.4441381416
 40
0.1
100
AcDbArc
 50
90.0032404254
 51
179.9999999998
  0
ARC
  5
487
100
AcDbEntity
  8
IMPORT_IGES
100
AcDbCircle
 62
7
  6
CONTINUOUS
 10
5.9
 20
-10.4441381416
 40
0.1
100
AcDbArc
 50
269.998492417
 51
360.0
  0
ARC
  5
488
100
AcDbEntity
  8
IMPORT_IGES
100
AcDbCircle
 62
7
  6
CONTINUOUS
 10
5.1
 20
0.1508618584
 40
0.6
100
AcDbArc
 50
180.0
 51
270.0
  0
ARC
  5
489
100
AcDbEntity
  8
IMPORT_IGES
100
AcDbCircle
 62
7
  6
CONTINUOUS
 10
5.45
 20
0.1508618584
 40
0.6
100
AcDbArc
 50
269.9999999999
 51
360.0
  0
ARC
  5
48A
100
AcDbEntity
  8
IMPORT_IGES
100
AcDbCircle
 62
253
  6
CONTINUOUS
 10
5.45
 20
0.1508618584
 40
0.3
100
AcDbArc
 50
270.0000000001
 51
359.9999999999
  0
ARC
  5
48B
100
AcDbEntity
  8
IMPORT_IGES
100
AcDbCircle
 62
253
  6
CONTINUOUS
 10
5.1
 20
0.1508618584
 40
0.3
100
AcDbArc
 50
180.0
 51
270.0
  0
ARC
  5
48C
100
AcDbEntity
  8
IMPORT_IGES
100
AcDbCircle
 62
7
  6
CONTINUOUS
 10
7.05
 20
0.1347798752
 40
0.2
100
AcDbArc
 50
0.0
 51
89.9855208623
  0
ARC
  5
48D
100
AcDbEntity
  8
IMPORT_IGES
100
AcDbCircle
 62
253
  6
CONTINUOUS
 10
-0.0
 20
0.756159606
 40
7.4999707336
100
AcDbArc
 50
70.5285040378
 51
109.4716831012
  0
ARC
  5
48E
100
AcDbEntity
  8
IMPORT_IGES
100
AcDbCircle
 62
7
  6
CONTINUOUS
 10
0.0
 20
0.756159606
 40
4.53
100
AcDbArc
 50
25.1232936643
 51
154.8767063357
  0
ARC
  5
48F
100
AcDbEntity
  8
IMPORT_IGES
100
AcDbCircle
 62
7
  6
CONTINUOUS
 10
0.0
 20
2.7869614323
 40
5.3
100
AcDbArc
 50
56.5066652144
 51
123.4933347856
  0
ARC
  5
490
100
AcDbEntity
  8
IMPORT_IGES
100
AcDbCircle
 62
253
  6
CONTINUOUS
 10
0.0
 20
2.7869614324
 40
5.0999439942
100
AcDbArc
 50
56.5066652143
 51
123.4933347857
  0
ARC
  5
491
100
AcDbEntity
  8
IMPORT_IGES
100
AcDbCircle
 62
7
  6
CONTINUOUS
 10
0.7173919684
 20
3.8710964625
 40
4.0
100
AcDbArc
 50
7.571081337
 51
56.5066652144
  0
ARC
  5
492
100
AcDbEntity
  8
IMPORT_IGES
100
AcDbCircle
 62
253
  6
CONTINUOUS
 10
0.7173919684
 20
3.8710964625
 40
3.8
100
AcDbArc
 50
7.5710813354
 51
56.5066652143
  0
ARC
  5
493
100
AcDbEntity
  8
IMPORT_IGES
100
AcDbCircle
 62
7
  6
CONTINUOUS
 10
0.9
 20
4.4941671413
 40
0.3
100
AcDbArc
 50
180.0
 51
270.0
  0
ARC
  5
494
100
AcDbEntity
  8
IMPORT_IGES
100
AcDbCircle
 62
253
  6
CONTINUOUS
 10
5.05
 20
2.5508618584
 40
1.3
100
AcDbArc
 50
0.0
 51
90.0
  0
ARC
  5
495
100
AcDbEntity
  8
IMPORT_IGES
100
AcDbCircle
 62
7
  6
CONTINUOUS
 10
5.05
 20
2.5508618584
 40
1.0
100
AcDbArc
 50
0.0
 51
90.0
  0
ARC
  5
496
100
AcDbEntity
  8
IMPORT_IGES
100
AcDbCircle
 62
253
  6
CONTINUOUS
 10
5.05
 20
2.5508618584
 40
0.7
100
AcDbArc
 50
0.0
 51
90.0
  0
ARC
  5
497
100
AcDbEntity
  8
IMPORT_IGES
100
AcDbCircle
 62
253
  6
CONTINUOUS
 10
3.8
 20
3.9190671388
 40
0.7
100
AcDbArc
 50
270.1612141257
 51
354.4162937363
  0
ARC
  5
498
100
AcDbEntity
  8
IMPORT_IGES
100
AcDbCircle
 62
7
  6
CONTINUOUS
 10
4.087751337
 20
4.3190671388
 40
0.6
100
AcDbArc
 50
269.9999999428
 51
7.5710813447
  0
ARC
  5
499
100
AcDbEntity
  8
IMPORT_IGES
100
AcDbCircle
 62
7
  6
CONTINUOUS
 10
4.6446828416
 20
2.9341911257
 40
0.6
100
AcDbArc
 50
205.1232936644
 51
256.0468877463
  0
ARC
  5
49A
100
AcDbEntity
  8
IMPORT_IGES
100
AcDbCircle
 62
253
  6
CONTINUOUS
 10
4.087751337
 20
4.3190671388
 40
0.4
100
AcDbArc
 50
270.0000000002
 51
7.5710813353
  0
ARC
  5
49B
100
AcDbEntity
  8
IMPORT_IGES
100
AcDbCircle
 62
7
  6
CONTINUOUS
 10
4.8
 20
3.2508618584
 40
0.3
100
AcDbArc
 50
90.0000000003
 51
179.9999999994
  0
ARC
  5
49C
100
AcDbEntity
  8
IMPORT_IGES
100
AcDbCircle
 62
7
  6
CONTINUOUS
 10
6.4055080062
 20
6.9458504649
 40
1.905513565
100
AcDbArc
 50
1.8627654693
 51
179.8604365352
  0
ARC
  5
49D
100
AcDbEntity
  8
IMPORT_IGES
100
AcDbCircle
 62
253
  6
CONTINUOUS
 10
6.4055080062
 20
6.9458504649
 40
1.605485616
100
AcDbArc
 50
1.8712366982
 51
179.8439250555
  0
ARC
  5
49E
100
AcDbEntity
  8
IMPORT_IGES
100
AcDbCircle
 62
253
  6
CONTINUOUS
 10
4.6340502541
 20
7.662403546
 40
0.7
100
AcDbArc
 50
190.0134321878
 51
259.2439469407
  0
ARC
  5
49F
100
AcDbEntity
  8
IMPORT_IGES
100
AcDbCircle
 62
7
  6
CONTINUOUS
 10
4.6340502541
 20
7.662403546
 40
0.5
100
AcDbArc
 50
190.0134321878
 51
256.3053094334
  0
ARC
  5
4A0
100
AcDbEntity
  8
IMPORT_IGES
100
AcDbCircle
 62
7
  6
CONTINUOUS
 10
3.8
 20
11.3558618584
 40
0.2
100
AcDbArc
 50
0.0000000002
 51
90.0
  0
ARC
  5
4A1
100
AcDbEntity
  8
IMPORT_IGES
100
AcDbCircle
 62
7
  6
CONTINUOUS
 10
6.4
 20
11.6558618584
 40
0.1
100
AcDbArc
 50
0.0000000001
 51
90.0014633388
  0
ARC
  5
4A2
100
AcDbEntity
  8
IMPORT_IGES
100
AcDbCircle
 62
7
  6
CONTINUOUS
 10
6.6
 20
11.6558618584
 40
0.1
100
AcDbArc
 50
179.9999999999
 51
269.9971105898
  0
ARC
  5
4A3
100
AcDbEntity
  8
IMPORT_IGES
100
AcDbCircle
 62
253
  6
CONTINUOUS
 10
13.3
 20
9.1925391612
 40
9.5
100
AcDbArc
 50
185.0956903802
 51
190.0134321878
  0
ARC
  5
4A4
100
AcDbEntity
  8
IMPORT_IGES
100
AcDbCircle
 62
7
  6
CONTINUOUS
 10
13.3
 20
9.1925391612
 40
9.3
100
AcDbArc
 50
180.0000007965
 51
190.0134321859
  0
ARC
  5
4A5
100
AcDbEntity
  8
IMPORT_IGES
100
AcDbCircle
 62
7
  6
CONTINUOUS
 10
6.8787960079
 20
11.2558618584
 40
0.3
100
AcDbArc
 50
44.9999520207
 51
89.9997513231
  0
ARC
  5
4A6
100
AcDbEntity
  8
IMPORT_IGES
100
AcDbCircle
 62
7
  6
CONTINUOUS
 10
7.9565514748
 20
10.1781063915
 40
0.3
100
AcDbArc
 50
1.0
 51
44.9999963826
  0
ARC
  5
4A7
100
AcDbEntity
  8
IMPORT_IGES
100
AcDbCircle
 62
7
  6
CONTINUOUS
 10
7.203
 20
11.0730792225
 40
0.2
100
AcDbArc
 50
44.9999998017
 51
180.0
  0
ELLIPSE
  5
4A8
100
AcDbEntity
  8
IMPORT_IGES
100
AcDbEllipse
 62
7
  6
CONTINUOUS
 10
-5.4226866561
 20
-8.6058618591
 30
0.0
 11
0.0
 21
2.0
 31
0.0
 40
0.0633224816
 41
-3.3881354374
 42
-3.1415926536
  0
ELLIPSE
  5
4A9
100
AcDbEntity
  8
IMPORT_IGES
100
AcDbEllipse
 62
7
  6
CONTINUOUS
 10
5.4226866561
 20
-8.6058618591
 30
0.0
 11
0.0
 21
2.0
 31
0.0
 40
0.0633224816
 41
-3.1415926536
 42
-2.8950499539
  0
ELLIPSE
  5
4AA
100
AcDbEntity
  8
IMPORT_IGES
100
AcDbEllipse
 62
7
  6
CONTINUOUS
 10
-1.7048535023
 20
-3.0451765729
 30
0.0
 11
0.3
 21
-0.0
 31
0.0
 40
0.0238095238
 41
-0.0
 42
1.5707963268
  0
ELLIPSE
  5
4AB
100
AcDbEntity
  8
IMPORT_IGES
100
AcDbEllipse
 62
7
  6
CONTINUOUS
 10
1.8048535023
 20
4.981390604
 30
0.0
 11
0.3153066986
 21
0.6249653477
 31
0.0
 40
1.0
 41
-4.2451329571
 42
-3.2825822092
  0
ELLIPSE
  5
4AC
100
AcDbEntity
  8
IMPORT_IGES
100
AcDbEllipse
 62
7
  6
CONTINUOUS
 10
-1.8048535023
 20
4.981390604
 30
0.0
 11
0.2656593838
 21
0.6476303666
 31
0.0
 40
1.0
 41
-2.1440767772
 42
-1.1815260293
  0
ELLIPSE
  5
4AD
100
AcDbEntity
  8
IMPORT_IGES
100
AcDbEllipse
 62
7
  6
CONTINUOUS
 10
2.6048535023
 20
4.2203576175
 30
0.0
 11
0.3
 21
0.0
 31
0.0
 40
0.0158730159
 41
-1.5707963268
 42
0.0
  0
ELLIPSE
  5
4AE
100
AcDbEntity
  8
IMPORT_IGES
100
AcDbEllipse
 62
7
  6
CONTINUOUS
 10
2.6048535023
 20
-3.0451765729
 30
0.0
 11
0.3
 21
0.0
 31
0.0
 40
0.0238095238
 41
0.517709493
 42
1.5707963268
  0
ELLIPSE
  5
4AF
100
AcDbEntity
  8
IMPORT_IGES
100
AcDbEllipse
 62
7
  6
CONTINUOUS
 10
-1.7048535023
 20
4.2203576175
 30
0.0
 11
0.3
 21
0.0
 31
0.0
 40
0.0158730159
 41
-1.5707963268
 42
0.0
  0
ELLIPSE
  5
4B0
100
AcDbEntity
  8
IMPORT_IGES
100
AcDbEllipse
 62
7
  6
CONTINUOUS
 10
1.7048535023
 20
4.2203576175
 30
0.0
 11
0.3
 21
0.0
 31
0.0
 40
0.0158730159
 41
-3.1415926536
 42
-1.5707963268
  0
ELLIPSE
  5
4B1
100
AcDbEntity
  8
IMPORT_IGES
100
AcDbEllipse
 62
7
  6
CONTINUOUS
 10
-4.4048535023
 20
8.2543070015
 30
0.0
 11
0.3
 21
-0.0
 31
0.0
 40
0.020979021
 41
-0.5228872352
 42
-0.0
  0
ELLIPSE
  5
4B2
100
AcDbEntity
  8
IMPORT_IGES
100
AcDbEllipse
 62
7
  6
CONTINUOUS
 10
-1.7949012909
 20
-3.8282753655
 30
0.0
 11
-0.0241031401
 21
0.6995849045
 31
0.0
 40
1.0
 41
-1.4364092838
 42
-0.6254632777
  0
ELLIPSE
  5
4B3
100
AcDbEntity
  8
IMPORT_IGES
100
AcDbEllipse
 62
7
  6
CONTINUOUS
 10
1.7048535023
 20
-3.0451765729
 30
0.0
 11
0.3
 21
-0.0
 31
0.0
 40
0.0238095238
 41
1.5707963268
 42
3.1415926536
  0
ELLIPSE
  5
4B4
100
AcDbEntity
  8
IMPORT_IGES
100
AcDbEllipse
 62
7
  6
CONTINUOUS
 10
1.7949012909
 20
-3.8282753655
 30
0.0
 11
0.2725084586
 21
0.644778365
 31
0.0
 40
1.0
 41
0.9908925408
 42
1.8018385468
  0
ELLIPSE
  5
4B5
100
AcDbEntity
  8
IMPORT_IGES
100
AcDbEllipse
 62
7
  6
CONTINUOUS
 10
-2.6048535023
 20
4.2203576175
 30
0.0
 11
0.3
 21
0.0
 31
0.0
 40
0.0158730159
 41
3.1415926536
 42
4.7123889804
  0
ELLIPSE
  5
4B6
100
AcDbEntity
  8
IMPORT_IGES
100
AcDbEllipse
 62
7
  6
CONTINUOUS
 10
-2.6048535023
 20
-3.0451765729
 30
0.0
 11
0.3
 21
-0.0
 31
0.0
 40
0.0238095238
 41
1.5707963268
 42
2.6238824923
  0
ELLIPSE
  5
4B7
100
AcDbEntity
  8
IMPORT_IGES
100
AcDbEllipse
 62
7
  6
CONTINUOUS
 10
7.45
 20
-5.8605234913
 30
0.0
 11
0.0
 21
1.5881180375
 31
0.0
 40
0.1259352235
 41
-4.7123889803
 42
-3.4987217427
  0
ELLIPSE
  5
4B8
100
AcDbEntity
  8
IMPORT_IGES
100
AcDbEllipse
 62
7
  6
CONTINUOUS
 10
-5.55
 20
-5.8605234913
 30
0.0
 11
0.0
 21
1.5881180375
 31
0.0
 40
0.1259352235
 41
-4.7123889803
 42
-3.4987217427
  0
ENDSEC
  0
SECTION
  2
OBJECTS
  0
DICTIONARY
  5
C
100
AcDbDictionary
280
0
281
1
  3
ACAD_GROUP
350
D
  3
ACAD_MLINESTYLE
350
17
  3
ACAD_LAYOUT
350
1A
  3
ACAD_PLOTSETTINGS
350
19
  3
ACAD_PLOTSTYLENAME
350
E
  0
DICTIONARY
  5
D
102
{ACAD_REACTORS
330
C
102
}
100
AcDbDictionary
280
0
281
1
  0
ACDBDICTIONARYWDFLT
  5
E
102
{ACAD_REACTORS
330
C
102
}
100
AcDbDictionary
281
1
  3
Normal
350
F
100
AcDbDictionaryWithDefault
340
F
  0
DICTIONARY
  5
17
102
{ACAD_REACTORS
330
C
102
}
100
AcDbDictionary
280
0
281
1
  3
Standard
350
18
  0
DICTIONARY
  5
19
102
{ACAD_REACTORS
330
C
102
}
100
AcDbDictionary
281
1
  0
DICTIONARY
  5
1A
102
{ACAD_REACTORS
330
C
102
}
100
AcDbDictionary
281
1
  3
Model
350
4B9
  3
Layout1
350
4BA
  0
ACDBPLACEHOLDER
  5
F
102
{ACAD_REACTORS
330
E
102
}
  0
MLINESTYLE
  5
18
102
{ACAD_REACTORS
330
17
102
}
100
AcDbMlineStyle
  2
STANDARD
 70
0
  3

 62
256
 51
90.0
 52
90.0
 71
2
 49
0.5
 62
256
  6
BYLAYER
 49
-0.5
 62
256
  6
BYLAYER
  0
LAYOUT
  5
4B9
102
{ACAD_REACTORS
330
1A
102
}
100
AcDbPlotSettings
  1

  2
none_device
  4
ISO_A4_(297.00_x_210.00_MM)
  6

 40
0.0
 41
0.0
 42
0.0
 43
0.0
 44
297.0
 45
210.0
 46
0.0
 47
0.0
 48
0.0
 49
0.0
140
0.0
141
0.0
142
1.0
143
1.0
 70
1024
 72
1
 73
0
 74
0
  7

 75
0
147
1.0
148
0.0
149
0.0
100
AcDbLayout
  1
Model
 70
0
 71
0
 10
0.0
 20
0.0
 11
297.0
 21
210.0
 12
0.0
 22
0.0
 32
0.0
 14
0.0
 24
0.0
 34
0.0
 15
0.0
 25
0.0
 35
0.0
146
0.0
 13
0.0
 23
0.0
 33
0.0
 16
1.0
 26
0.0
 36
0.0
 17
0.0
 27
1.0
 37
0.0
 76
0
330
213
345
0
346
0
  0
LAYOUT
  5
4BA
102
{ACAD_REACTORS
330
1A
102
}
100
AcDbPlotSettings
  1

  2
none_device
  4
ISO_A4_(297.00_x_210.00_MM)
  6

 40
0.0
 41
0.0
 42
0.0
 43
0.0
 44
297.0
 45
210.0
 46
0.0
 47
0.0
 48
0.0
 49
0.0
140
0.0
141
0.0
142
1.0
143
1.0
 70
0
 72
1
 73
0
 74
0
  7

 75
0
147
1.0
148
0.0
149
0.0
100
AcDbLayout
  1
Layout1
 70
0
 71
1
 10
0.0
 20
0.0
 11
297.0
 21
210.0
 12
0.0
 22
0.0
 32
0.0
 14
0.0
 24
0.0
 34
0.0
 15
0.0
 25
0.0
 35
0.0
146
0.0
 13
0.0
 23
0.0
 33
0.0
 16
1.0
 26
0.0
 36
0.0
 17
0.0
 27
1.0
 37
0.0
 76
0
330
214
345
0
346
0
  0
ENDSEC
  0
EOF
