  0
SECTION
  2
HEADER
  9
$ACADVER
  1
AC1015
  9
$DWGCODEPAGE
  3
ANSI_1252
  9
$EXTMAX
 10
297.0
 20
210.0
 30
0.0
  9
$EXTMIN
 10
0.0
 20
0.0
 30
0.0
  9
$LIMMIN
 10
0.0
 20
0.0
  9
$LIMMAX
 10
297.0
 20
210.0
  9
$VIEWCTR
 10
148.5
 20
105.0
  9
$VIEWSIZE
 40
210.0
  9
$CLAYER
  8
0
  9
$LTSCALE
 40
16.335
  9
$CELTYPE
  6
BYLAYER
  9
$DIMSCALE
 40
1.0
  9
$DIMASZ
 40
3.0
  9
$DIMEXO
 40
1.85625
  9
$DIMDLI
 40
11.286
  9
$DIMEXE
 40
5.346
  9
$DIMCEN
 40
2.673
  9
$DIMLFAC
 40
1.0
  9
$DIMBLK
  1
_FILLED
  9
$DIMTXT
 40
3.0
  9
$DIMTOL
 70
1
  9
$DIMLIM
 70
0
  9
$DIMTFAC
 40
1.0
  9
$DIMTP
 40
0.01
  9
$DIMTM
 40
0.01
  9
$PDMODE
 70
3
  9
$PDSIZE
 40
3.0
  9
$HANDSEED
  5
55F
  9
$TILEMODE
 70
1
  9
$MEASUREMENT
 70
1
  9
$INSUNITS
 70
4
  0
ENDSEC
  0
SECTION
  2
CLASSES
  0
CLASS
  1
ACDBDICTIONARYWDFLT
  2
AcDbDictionaryWithDefault
  3
AutoCAD 2000
 90
0
280
0
281
0
  0
CLASS
  1
ACDBPLACEHOLDER
  2
AcDbPlaceHolder
  3
AutoCAD 2000
 90
0
280
0
281
0
  0
CLASS
  1
LAYOUT
  2
AcDbLayout
  3
AutoCAD 2000
 90
0
280
0
281
0
  0
ENDSEC
  0
SECTION
  2
TABLES
  0
TABLE
  2
VPORT
  5
8
100
AcDbSymbolTable
 70
2
  0
VPORT
  5
1F4
100
AcDbSymbolTableRecord
100
AcDbViewportTableRecord
  2
*ACTIVE
 70
0
 10
0.0
 20
0.0
 11
1.0
 21
1.0
 12
148.5
 22
105.0
 13
0.0
 23
0.0
 14
1.0
 24
1.0
 15
0.0
 25
0.0
 16
0.0
 26
0.0
 36
1.0
 17
0.0
 27
0.0
 37
0.0
 40
210.0
 41
1.4142857143
 42
50.0
 43
0.0
 44
0.0
 50
0.0
 51
0.0
 71
0
 72
100
 73
1
 74
1
 75
0
 76
0
 77
0
 78
0
  0
ENDTAB
  0
TABLE
  2
LTYPE
  5
5
100
AcDbSymbolTable
 70
6
  0
LTYPE
  5
14
100
AcDbSymbolTableRecord
100
AcDbLinetypeTableRecord
  2
BYBLOCK
 70
0
  3

 72
65
 73
0
 40
0.0
  0
LTYPE
  5
15
100
AcDbSymbolTableRecord
100
AcDbLinetypeTableRecord
  2
BYLAYER
 70
0
  3

 72
65
 73
0
 40
0.0
  0
LTYPE
  5
16
100
AcDbSymbolTableRecord
100
AcDbLinetypeTableRecord
  2
CONTINUOUS
 70
64
  3
Solid line
 72
65
 73
0
 40
0.0
  0
LTYPE
  5
1F5
100
AcDbSymbolTableRecord
100
AcDbLinetypeTableRecord
  2
CENTER
 70
64
  3
____ _ ____ _ ____ _ ____ _ ____ _ ____ _ ____
 72
65
 73
4
 40
0.6
 49
0.375
 74
0
 49
-0.075
 74
0
 49
0.075
 74
0
 49
-0.075
 74
0
  0
LTYPE
  5
1F6
100
AcDbSymbolTableRecord
100
AcDbLinetypeTableRecord
  2
HIDDEN
 70
64
  3
- - - - - - - - - - - - - - - - - - - -
 72
65
 73
2
 40
0.2
 49
0.1
 74
0
 49
-0.1
 74
0
  0
LTYPE
  5
1F7
100
AcDbSymbolTableRecord
100
AcDbLinetypeTableRecord
  2
PHANTOM
 70
64
  3
_____ _ _ _____ _ _ _____ _ _ _____
 72
65
 73
6
 40
0.8
 49
0.45
 74
0
 49
-0.05
 74
0
 49
0.1
 74
0
 49
-0.05
 74
0
 49
0.1
 74
0
 49
-0.05
 74
0
  0
LTYPE
  5
1F8
100
AcDbSymbolTableRecord
100
AcDbLinetypeTableRecord
  2
DOT
 70
64
  3
. . . . . . . . . . . . . . . . . . . .
 72
65
 73
2
 40
0.2
 49
0.1
 74
0
 49
-0.1
 74
0
  0
LTYPE
  5
1F9
100
AcDbSymbolTableRecord
100
AcDbLinetypeTableRecord
  2
DASHED
 70
64
  3
- - - - - - - - - - - - - - - - - - - -
 72
65
 73
2
 40
0.2
 49
0.1
 74
0
 49
-0.1
 74
0
  0
ENDTAB
  0
TABLE
  2
LAYER
  5
2
100
AcDbSymbolTable
 70
36
  0
LAYER
  5
10
100
AcDbSymbolTableRecord
100
AcDbLayerTableRecord
  2
0
 70
0
 62
7
  6
CONTINUOUS
370
-3
390
F
  0
LAYER
  5
1FA
100
AcDbSymbolTableRecord
100
AcDbLayerTableRecord
  2
DEFAULT_1
 70
0
 62
7
  6
CENTER
370
-3
390
F
  0
LAYER
  5
1FB
100
AcDbSymbolTableRecord
100
AcDbLayerTableRecord
  2
DEFAULT_2
 70
0
 62
7
  6
HIDDEN
370
-3
390
F
  0
LAYER
  5
1FC
100
AcDbSymbolTableRecord
100
AcDbLayerTableRecord
  2
DEFAULT_3
 70
0
 62
7
  6
PHANTOM
370
-3
390
F
  0
LAYER
  5
1FD
100
AcDbSymbolTableRecord
100
AcDbLayerTableRecord
  2
06___PRT_ALL_SURFS
 70
0
 62
7
  6
CONTINUOUS
370
-3
390
F
  0
LAYER
  5
1FE
100
AcDbSymbolTableRecord
100
AcDbLayerTableRecord
  2
ASSI
 70
0
 62
7
  6
CONTINUOUS
370
-3
390
F
  0
LAYER
  5
1FF
100
AcDbSymbolTableRecord
100
AcDbLayerTableRecord
  2
COLOR3
 70
0
 62
7
  6
CONTINUOUS
370
-3
390
F
  0
LAYER
  5
200
100
AcDbSymbolTableRecord
100
AcDbLayerTableRecord
  2
COLOR4
 70
0
 62
7
  6
CONTINUOUS
370
-3
390
F
  0
LAYER
  5
201
100
AcDbSymbolTableRecord
100
AcDbLayerTableRecord
  2
COLOR5
 70
0
 62
7
  6
CONTINUOUS
370
-3
390
F
  0
LAYER
  5
202
100
AcDbSymbolTableRecord
100
AcDbLayerTableRecord
  2
COORDINATE
 70
0
 62
7
  6
CONTINUOUS
370
-3
390
F
  0
LAYER
  5
203
100
AcDbSymbolTableRecord
100
AcDbLayerTableRecord
  2
COPY_PUBLISH
 70
0
 62
7
  6
CONTINUOUS
370
-3
390
F
  0
LAYER
  5
204
100
AcDbSymbolTableRecord
100
AcDbLayerTableRecord
  2
COSMETICI
 70
0
 62
7
  6
CONTINUOUS
370
-3
390
F
  0
LAYER
  5
205
100
AcDbSymbolTableRecord
100
AcDbLayerTableRecord
  2
CURVE
 70
0
 62
7
  6
CONTINUOUS
370
-3
390
F
  0
LAYER
  5
206
100
AcDbSymbolTableRecord
100
AcDbLayerTableRecord
  2
DRAFT
 70
0
 62
7
  6
CONTINUOUS
370
-3
390
F
  0
LAYER
  5
207
100
AcDbSymbolTableRecord
100
AcDbLayerTableRecord
  2
IMPORT_IGES
 70
0
 62
7
  6
CONTINUOUS
370
-3
390
F
  0
LAYER
  5
208
100
AcDbSymbolTableRecord
100
AcDbLayerTableRecord
  2
INTF_BLANK
 70
0
 62
7
  6
CONTINUOUS
370
-3
390
F
  0
LAYER
  5
209
100
AcDbSymbolTableRecord
100
AcDbLayerTableRecord
  2
NOTE
 70
0
 62
7
  6
CONTINUOUS
370
-3
390
F
  0
LAYER
  5
20A
100
AcDbSymbolTableRecord
100
AcDbLayerTableRecord
  2
PIANI
 70
0
 62
7
  6
CONTINUOUS
370
-3
390
F
  0
LAYER
  5
20B
100
AcDbSymbolTableRecord
100
AcDbLayerTableRecord
  2
PUNTI
 70
0
 62
7
  6
CONTINUOUS
370
-3
390
F
  0
LAYER
  5
20C
100
AcDbSymbolTableRecord
100
AcDbLayerTableRecord
  2
RACCORDO
 70
0
 62
7
  6
CONTINUOUS
370
-3
390
F
  0
LAYER
  5
20D
100
AcDbSymbolTableRecord
100
AcDbLayerTableRecord
  2
SIMBOLI
 70
0
 62
7
  6
CONTINUOUS
370
-3
390
F
  0
LAYER
  5
20E
100
AcDbSymbolTableRecord
100
AcDbLayerTableRecord
  2
SMUSSO
 70
0
 62
7
  6
CONTINUOUS
370
-3
390
F
  0
LAYER
  5
20F
100
AcDbSymbolTableRecord
100
AcDbLayerTableRecord
  2
SNAPLINE
 70
0
 62
7
  6
CONTINUOUS
370
-3
390
F
  0
LAYER
  5
210
100
AcDbSymbolTableRecord
100
AcDbLayerTableRecord
  2
SUPERFICI
 70
0
 62
7
  6
CONTINUOUS
370
-3
390
F
  0
LAYER
  5
211
100
AcDbSymbolTableRecord
100
AcDbLayerTableRecord
  2
TRASH
 70
0
 62
7
  6
CONTINUOUS
370
-3
390
F
  0
LAYER
  5
212
100
AcDbSymbolTableRecord
100
AcDbLayerTableRecord
  2
_BLACK_HOLE
 70
0
 62
7
  6
CONTINUOUS
370
-3
390
F
  0
LAYER
  5
213
100
AcDbSymbolTableRecord
100
AcDbLayerTableRecord
  2
___SHELL
 70
0
 62
7
  6
CONTINUOUS
370
-3
390
F
  0
ENDTAB
  0
TABLE
  2
STYLE
  5
3
100
AcDbSymbolTable
 70
1
  0
STYLE
  5
11
100
AcDbSymbolTableRecord
100
AcDbTextStyleTableRecord
  2
STANDARD
 70
0
 40
0.0
 41
0.8
 50
0.0
 71
0
 42
0.2
  3
txt
  4

  0
STYLE
  5
214
100
AcDbSymbolTableRecord
100
AcDbTextStyleTableRecord
  2
TEXTSTYLE_1
 70
0
 40
0.0
 41
0.8
 50
0.0
 71
0
 42
0.2
  3
gdt
  4

  0
ENDTAB
  0
TABLE
  2
VIEW
  5
6
100
AcDbSymbolTable
 70
0
  0
ENDTAB
  0
TABLE
  2
UCS
  5
7
100
AcDbSymbolTable
 70
0
  0
ENDTAB
  0
TABLE
  2
APPID
  5
9
100
AcDbSymbolTable
 70
1
  0
APPID
  5
215
100
AcDbSymbolTableRecord
100
AcDbRegAppTableRecord
  2
ACAD
 70
0
  0
ENDTAB
  0
TABLE
  2
BLOCK_RECORD
  5
1
100
AcDbSymbolTable
 70
0
  0
BLOCK_RECORD
  5
216
100
AcDbSymbolTableRecord
100
AcDbBlockTableRecord
  2
*Model_Space
  0
BLOCK_RECORD
  5
217
100
AcDbSymbolTableRecord
100
AcDbBlockTableRecord
  2
*Paper_Space
  0
ENDTAB
  0
TABLE
  2
DIMSTYLE
  5
A
100
AcDbSymbolTable
 70
1
100
AcDbDimStyleTable
 71
0
  0
DIMSTYLE
105
218
100
AcDbSymbolTableRecord
100
AcDbDimStyleTableRecord
  2
STANDARD
 70
0
  3

  4

 40
1.0
 41
3.0
 42
0.0625
 43
0.38
 44
0.18
 45
0.0
 46
0.0
 47
0.01
 48
0.01
140
3.0
141
0.09
142
0.0
143
25.4
144
1.0
145
0.0
146
1.0
147
0.09
 71
1.0
 72
0.0
 73
0
 74
0
 75
0
 76
0
 77
1
 78
8
170
0
171
2
172
0
173
0
174
0
175
0
176
0
177
0
178
0
270
2
271
2
272
2
273
2
274
2
275
0
280
0
281
0
282
0
283
1
284
8
285
0
286
0
287
3
288
0
340
11
  0
ENDTAB
  0
ENDSEC
  0
SECTION
  2
BLOCKS
  0
BLOCK
  5
20
100
AcDbEntity
  8
0
100
AcDbBlockBegin
  2
*Model_Space
 70
0
 10
0.0
 20
0.0
 30
0.0
  3
*Model_Space
  1

  0
ENDBLK
  5
21
100
AcDbEntity
  8
0
100
AcDbBlockEnd
  0
BLOCK
  5
1C
100
AcDbEntity
  8
0
100
AcDbBlockBegin
  2
*Paper_Space
 70
0
 10
0.0
 20
0.0
 30
0.0
  3
*Paper_Space
  1

  0
ENDBLK
  5
1D
100
AcDbEntity
  8
0
100
AcDbBlockEnd
  0
ENDSEC
  0
SECTION
  2
ENTITIES
  0
LINE
  5
219
100
AcDbEntity
  8
IMPORT_IGES
100
AcDbLine
 62
7
  6
CONTINUOUS
 10
-7.9121320346
 20
10.6659425419
 11
-7.0909280423
 21
11.4871465342
  0
LINE
  5
21A
100
AcDbEntity
  8
IMPORT_IGES
100
AcDbLine
 62
253
  6
CONTINUOUS
 10
-7.7
 20
10.6659425424
 11
-7.4999993545
 21
10.8659380569
  0
LINE
  5
21B
100
AcDbEntity
  8
IMPORT_IGES
100
AcDbLine
 62
253
  6
CONTINUOUS
 10
-7.1
 20
11.197344442
 11
-6.9494814966
 21
11.3471415274
  0
LWPOLYLINE
  5
21C
100
AcDbEntity
  8
IMPORT_IGES
100
AcDbPolyline
 62
253
  6
CONTINUOUS
 90
10
 70
0
 10
-6.9494814966
 20
11.3471415274
 10
-6.9429440581
 20
11.3530661981
 10
-6.936030872
 20
11.3583372986
 10
-6.9287419383
 20
11.3629548271
 10
-6.9210164642
 20
11.3669438116
 10
-6.9129152425
 20
11.3702792214
 10
-6.9046206512
 20
11.3728859668
 10
-6.8961934832
 20
11.3747390173
 10
-6.8875729456
 20
11.3758634019
 10
-6.8787590385
 20
11.3762591203
  0
LWPOLYLINE
  5
21D
100
AcDbEntity
  8
IMPORT_IGES
100
AcDbPolyline
 62
253
  6
CONTINUOUS
 90
8
 70
0
 10
-7.8837731143
 20
10.621481976
 10
-7.9132720328
 20
10.6030000517
 10
-7.939035452
 20
10.5819940729
 10
-7.9606475379
 20
10.5588411247
 10
-7.977742181
 20
10.5339955467
 10
-7.9900788638
 20
10.5079134319
 10
-7.9975195434
 20
10.481032937
 10
-8.0
 20
10.4538105078
  0
LWPOLYLINE
  5
21E
100
AcDbEntity
  8
IMPORT_IGES
100
AcDbPolyline
 62
253
  6
CONTINUOUS
 90
3
 70
0
 10
-7.8156382917
 20
10.6495498568
 10
-7.8510246072
 20
10.6371020352
 10
-7.8837731143
 20
10.621481976
  0
LWPOLYLINE
  5
21F
100
AcDbEntity
  8
IMPORT_IGES
100
AcDbPolyline
 62
253
  6
CONTINUOUS
 90
3
 70
0
 10
-7.2821134058
 20
10.8334934566
 10
-7.2684430625
 20
10.8596249154
 10
-7.2561825169
 20
10.8851328728
  0
LINE
  5
220
100
AcDbEntity
  8
IMPORT_IGES
100
AcDbLine
 62
7
  6
CONTINUOUS
 10
4.9273029486
 20
-11.7750144998
 11
-4.9273029486
 21
-11.7750144998
  0
LWPOLYLINE
  5
221
100
AcDbEntity
  8
IMPORT_IGES
100
AcDbPolyline
 62
253
  6
CONTINUOUS
 90
10
 70
0
 10
-7.475
 20
-9.64863594
 10
-7.4685886609
 20
-9.6510468542
 10
-7.4614860169
 20
-9.6512109332
 10
-7.4537584452
 20
-9.6490082191
 10
-7.4455043269
 20
-9.6442569738
 10
-7.4367998053
 20
-9.6369130999
 10
-7.4277404689
 20
-9.6272093215
 10
-7.4184786595
 20
-9.6153283056
 10
-7.4091806888
 20
-9.6012648497
 10
-7.4
 20
-9.585117702
  0
LWPOLYLINE
  5
222
100
AcDbEntity
  8
IMPORT_IGES
100
AcDbPolyline
 62
253
  6
CONTINUOUS
 90
10
 70
0
 10
-7.8500000005
 20
-9.4321295888
 10
-7.8365338809
 20
-9.4385124603
 10
-7.8219706378
 20
-9.4427563475
 10
-7.8064272948
 20
-9.4448271485
 10
-7.7900287512
 20
-9.4447082232
 10
-7.7729067781
 20
-9.4424005273
 10
-7.7551989596
 20
-9.4379226044
 10
-7.7370475877
 20
-9.4313104371
 10
-7.7185985184
 20
-9.4226171576
 10
-7.7
 20
-9.4119126211
  0
LINE
  5
223
100
AcDbEntity
  8
IMPORT_IGES
100
AcDbLine
 62
7
  6
CONTINUOUS
 10
-7.8500000001
 20
-9.432129589
 11
-6.3731434404
 21
-10.2847931213
  0
LINE
  5
224
100
AcDbEntity
  8
IMPORT_IGES
100
AcDbLine
 62
253
  6
CONTINUOUS
 10
-7.4
 20
-9.5851177018
 11
-7.7
 21
-9.4119126212
  0
LINE
  5
225
100
AcDbEntity
  8
IMPORT_IGES
100
AcDbLine
 62
253
  6
CONTINUOUS
 10
-6.2981434405
 20
-10.1584332575
 11
-7.0500094013
 21
-9.7243412437
  0
LWPOLYLINE
  5
226
100
AcDbEntity
  8
IMPORT_IGES
100
AcDbPolyline
 62
253
  6
CONTINUOUS
 90
6
 70
0
 10
-7.0500094013
 20
-9.7243412437
 10
-7.0777704872
 20
-9.6955368865
 10
-7.1046633767
 20
-9.668434879
 10
-7.1302091238
 20
-9.6430294317
 10
-7.1540006697
 20
-9.6189853757
 10
-7.2112036548
 20
-9.5600802399
  0
LWPOLYLINE
  5
227
100
AcDbEntity
  8
IMPORT_IGES
100
AcDbPolyline
 62
253
  6
CONTINUOUS
 90
3
 70
0
 10
-7.2112036548
 20
-9.5600802399
 10
-7.22476131
 20
-9.5458799475
 10
-7.2435340444
 20
-9.5264037131
  0
LWPOLYLINE
  5
228
100
AcDbEntity
  8
IMPORT_IGES
100
AcDbPolyline
 62
253
  6
CONTINUOUS
 90
3
 70
0
 10
-7.2435340444
 20
-9.5264037131
 10
-7.2483713045
 20
-9.5211108577
 10
-7.2499999981
 20
-9.5187340219
  0
LWPOLYLINE
  5
229
100
AcDbEntity
  8
IMPORT_IGES
100
AcDbPolyline
 62
253
  6
CONTINUOUS
 90
5
 70
0
 10
-7.2993660313
 20
10.796618353
 10
-7.2974054846
 20
10.8009239856
 10
-7.2940365933
 20
10.8081545681
 10
-7.2889149596
 20
10.8193539358
 10
-7.2821134058
 20
10.8334934566
  0
LINE
  5
22A
100
AcDbEntity
  8
IMPORT_IGES
100
AcDbLine
 62
253
  6
CONTINUOUS
 10
-7.1189159022
 20
11.1594276465
 11
-7.1
 21
11.1973444421
  0
LWPOLYLINE
  5
22B
100
AcDbEntity
  8
IMPORT_IGES
100
AcDbPolyline
 62
253
  6
CONTINUOUS
 90
3
 70
0
 10
-7.2561825169
 20
10.8851328728
 10
-7.1536167994
 20
11.0905348028
 10
-7.1189159022
 20
11.1594276465
  0
LINE
  5
22C
100
AcDbEntity
  8
IMPORT_IGES
100
AcDbLine
 62
253
  6
CONTINUOUS
 10
7.7780239732
 20
-9.4036676109
 11
7.8152865441
 21
-9.3935151891
  0
LWPOLYLINE
  5
22D
100
AcDbEntity
  8
IMPORT_IGES
100
AcDbPolyline
 62
253
  6
CONTINUOUS
 90
13
 70
0
 10
4.8719874955
 20
-10.3249748718
 10
4.8897046813
 20
-10.3237816763
 10
4.9074218439
 20
-10.3201373812
 10
4.9246731933
 20
-10.3140510067
 10
4.9407946387
 20
-10.3057912555
 10
4.9556232283
 20
-10.2955563971
 10
4.9693902982
 20
-10.2831544548
 10
4.9817509842
 20
-10.2687182271
 10
4.9922760929
 20
-10.2526368446
 10
5.0008770735
 20
-10.2349038185
 10
5.0072705093
 20
-10.2158226063
 10
5.0111851161
 20
-10.1960707068
 10
5.0125762586
 20
-10.1762214514
  0
LWPOLYLINE
  5
22E
100
AcDbEntity
  8
IMPORT_IGES
100
AcDbPolyline
 62
253
  6
CONTINUOUS
 90
13
 70
0
 10
4.85
 20
-10.3206155672
 10
4.8692945447
 20
-10.3193721825
 10
4.8882228242
 20
-10.3156747085
 10
4.9064753615
 20
-10.3096020299
 10
4.9236786837
 20
-10.3013155944
 10
4.9396491544
 20
-10.2909428776
 10
4.9543341912
 20
-10.2784778553
 10
4.9675095644
 20
-10.2639678384
 10
4.9787891533
 20
-10.2476736275
 10
4.9878686233
 20
-10.2299093916
 10
4.9945301795
 20
-10.2109932159
 10
4.9986169057
 20
-10.1912216853
 10
5.0
 20
-10.1620227262
  0
LINE
  5
22F
100
AcDbEntity
  8
0
100
AcDbLine
 62
7
  6
CONTINUOUS
 10
3.7340925511
 20
-10.7250145005
 11
2.9637011241
 21
-10.7250145005
  0
LINE
  5
230
100
AcDbEntity
  8
0
100
AcDbLine
 62
7
  6
CONTINUOUS
 10
2.8680427503
 20
-10.7250145005
 11
0.8259075832
 21
-10.7250145005
  0
LINE
  5
231
100
AcDbEntity
  8
0
100
AcDbLine
 62
7
  6
CONTINUOUS
 10
0.8206800276
 20
-10.7250145005
 11
-3.7340923596
 21
-10.7250145005
  0
LINE
  5
232
100
AcDbEntity
  8
IMPORT_IGES
100
AcDbLine
 62
7
  6
CONTINUOUS
 10
5.4226866561
 20
-10.6250145005
 11
3.7230847372
 21
-10.6250145005
  0
LINE
  5
233
100
AcDbEntity
  8
IMPORT_IGES
100
AcDbLine
 62
7
  6
CONTINUOUS
 10
2.9642506611
 20
-10.6250145005
 11
2.8680427503
 21
-10.6250145005
  0
LINE
  5
234
100
AcDbEntity
  8
IMPORT_IGES
100
AcDbLine
 62
7
  6
CONTINUOUS
 10
2.1574376773
 20
-10.6250145005
 11
1.6586476516
 21
-10.6250145005
  0
LINE
  5
235
100
AcDbEntity
  8
IMPORT_IGES
100
AcDbLine
 62
7
  6
CONTINUOUS
 10
1.1683986377
 20
-10.6250145005
 11
0.4005693149
 21
-10.6250145005
  0
LINE
  5
236
100
AcDbEntity
  8
IMPORT_IGES
100
AcDbLine
 62
7
  6
CONTINUOUS
 10
-0.089679556
 20
-10.6250145005
 11
-0.7473988905
 21
-10.6250145005
  0
LINE
  5
237
100
AcDbEntity
  8
IMPORT_IGES
100
AcDbLine
 62
7
  6
CONTINUOUS
 10
-1.2842872884
 20
-10.6250145005
 11
-1.3003524638
 21
-10.6250145005
  0
LINE
  5
238
100
AcDbEntity
  8
IMPORT_IGES
100
AcDbLine
 62
7
  6
CONTINUOUS
 10
-1.833110862
 20
-10.6250145005
 11
-2.3923810224
 21
-10.6250145005
  0
LINE
  5
239
100
AcDbEntity
  8
IMPORT_IGES
100
AcDbLine
 62
7
  6
CONTINUOUS
 10
-2.9292696263
 20
-10.6250145005
 11
-2.9453348018
 21
-10.6250145005
  0
LINE
  5
23A
100
AcDbEntity
  8
IMPORT_IGES
100
AcDbLine
 62
7
  6
CONTINUOUS
 10
-3.4780931999
 20
-10.6250145005
 11
-5.4226866561
 21
-10.6250145005
  0
LINE
  5
23B
100
AcDbEntity
  8
0
100
AcDbLine
 62
7
  6
CONTINUOUS
 10
5.4226866561
 20
-10.6250145005
 11
-5.4226866561
 21
-10.6250145005
  0
LINE
  5
23C
100
AcDbEntity
  8
IMPORT_IGES
100
AcDbLine
 62
7
  6
CONTINUOUS
 10
5.9
 20
-10.5249855001
 11
-5.9467037363
 21
-10.5249855001
  0
LINE
  5
23D
100
AcDbEntity
  8
IMPORT_IGES
100
AcDbLine
 62
253
  6
CONTINUOUS
 10
6.0
 20
-10.4249855001
 11
-6.0
 21
-10.4249855001
  0
LWPOLYLINE
  5
23E
100
AcDbEntity
  8
IMPORT_IGES
100
AcDbPolyline
 62
253
  6
CONTINUOUS
 90
12
 70
0
 10
-4.85
 20
-10.3109716905
 10
-4.8695789288
 20
-10.3096974115
 10
-4.8888228568
 20
-10.3058963776
 10
-4.9074025149
 20
-10.2996336257
 10
-4.925
 20
-10.2910163131
 10
-4.9413142144
 20
-10.2801918846
 10
-4.9560660172
 20
-10.2673455489
 10
-4.969003001
 20
-10.2526971106
 10
-4.9799038106
 20
-10.2364972084
 10
-4.9885819299
 20
-10.2190230271
 10
-4.9948888739
 20
-10.2005735549
 10
-4.9987167292
 20
-10.1814644674
  0
LWPOLYLINE
  5
23F
100
AcDbEntity
  8
IMPORT_IGES
100
AcDbPolyline
 62
253
  6
CONTINUOUS
 90
13
 70
0
 10
-4.85
 20
-10.3206155656
 10
-4.8695789288
 20
-10.3193350987
 10
-4.8888228568
 20
-10.3155156071
 10
-4.9074025149
 20
-10.3092224435
 10
-4.925
 20
-10.3005632856
 10
-4.9413142144
 20
-10.289686294
 10
-4.9560660172
 20
-10.2767775771
 10
-4.969003001
 20
-10.2620580064
 10
-4.9799038106
 20
-10.2457794381
 10
-4.9885819299
 20
-10.2282204029
 10
-4.9948888739
 20
-10.2096813407
 10
-4.9987167292
 20
-10.1904794602
 10
-5.0
 20
-10.1620227262
  0
LWPOLYLINE
  5
240
100
AcDbEntity
  8
IMPORT_IGES
100
AcDbPolyline
 62
253
  6
CONTINUOUS
 90
13
 70
0
 10
-4.8719900331
 20
-10.3249776539
 10
-4.890031552
 20
-10.3237382521
 10
-4.9080839648
 20
-10.3199513682
 10
-4.9256551245
 20
-10.3136212479
 10
-4.9421114225
 20
-10.3049895559
 10
-4.9572017301
 20
-10.2942866569
 10
-4.9709854702
 20
-10.2814862935
 10
-4.983096283
 20
-10.2668868569
 10
-4.9932525236
 20
-10.2508757552
 10
-5.0014796782
 20
-10.2333885699
 10
-5.0075590568
 20
-10.2146917825
 10
-5.0112583912
 20
-10.1954608839
 10
-5.0125698321
 20
-10.1762218844
  0
LWPOLYLINE
  5
241
100
AcDbEntity
  8
IMPORT_IGES
100
AcDbPolyline
 62
253
  6
CONTINUOUS
 90
3
 70
0
 10
-7.7778718632
 20
-9.4037002973
 10
-7.7392838179
 20
-9.4098496244
 10
-7.7
 20
-9.4119126212
  0
LWPOLYLINE
  5
242
100
AcDbEntity
  8
IMPORT_IGES
100
AcDbPolyline
 62
253
  6
CONTINUOUS
 90
10
 70
0
 10
-5.0
 20
-9.3297107625
 10
-5.0017110277
 20
-9.329093992
 10
-5.0068148347
 20
-9.3284877746
 10
-5.0152240935
 20
-9.3279024829
 10
-5.0267949192
 20
-9.3273481313
 10
-5.0413293319
 20
-9.326834205
 10
-5.0585786438
 20
-9.3263694974
 10
-5.0782481119
 20
-9.3259619526
 10
-5.1000008683
 20
-9.3256185534
 10
-5.1482332855
 20
-9.325146528
  0
LINE
  5
243
100
AcDbEntity
  8
IMPORT_IGES
100
AcDbLine
 62
253
  6
CONTINUOUS
 10
-5.0099472483
 20
-10.1760461282
 11
-5.01256454
 21
-10.1762218181
  0
LWPOLYLINE
  5
244
100
AcDbEntity
  8
IMPORT_IGES
100
AcDbPolyline
 62
253
  6
CONTINUOUS
 90
13
 70
0
 10
4.85
 20
-10.0791149065
 10
4.8695789288
 20
-10.0778406275
 10
4.8888228568
 20
-10.0740395936
 10
4.9074025149
 20
-10.0677768417
 10
4.925
 20
-10.0591595292
 10
4.9413142144
 20
-10.0483351006
 10
4.9560660172
 20
-10.0354887649
 10
4.969003001
 20
-10.0208403266
 10
4.9799038106
 20
-10.0046404244
 10
4.9885819299
 20
-9.9871662431
 10
4.9948888739
 20
-9.9687167709
 10
4.9987167292
 20
-9.9496076834
 10
5.0
 20
-9.9301659422
  0
LWPOLYLINE
  5
245
100
AcDbEntity
  8
IMPORT_IGES
100
AcDbPolyline
 62
253
  6
CONTINUOUS
 90
3
 70
0
 10
7.7
 20
-9.4119126211
 10
7.7393738634
 20
-9.4098401147
 10
7.7780239732
 20
-9.4036676109
  0
LWPOLYLINE
  5
246
100
AcDbEntity
  8
IMPORT_IGES
100
AcDbPolyline
 62
253
  6
CONTINUOUS
 90
13
 70
0
 10
4.85
 20
-9.7932285925
 10
4.8695789288
 20
-9.792321183
 10
4.8888228568
 20
-9.7896144806
 10
4.9074025149
 20
-9.7851547977
 10
4.925
 20
-9.7790184407
 10
4.9413142143
 20
-9.7713104044
 10
4.9560660172
 20
-9.7621625753
 10
4.969003001
 20
-9.7517314755
 10
4.9799038106
 20
-9.7401955839
 10
4.9885819299
 20
-9.7277522829
 10
4.9948888739
 20
-9.7146144806
 10
4.9987167292
 20
-9.7010069687
 10
5.0
 20
-9.6871625753
  0
LWPOLYLINE
  5
247
100
AcDbEntity
  8
IMPORT_IGES
100
AcDbPolyline
 62
253
  6
CONTINUOUS
 90
3
 70
0
 10
-5.01256454
 20
-10.1762218181
 10
-5.0236586672
 20
-10.1766828868
 10
-5.0379591037
 20
-10.1770821457
  0
LINE
  5
248
100
AcDbEntity
  8
IMPORT_IGES
100
AcDbLine
 62
253
  6
CONTINUOUS
 10
-5.0379591037
 20
-10.1770821457
 11
-5.0750808992
 21
-10.1777449116
  0
LWPOLYLINE
  5
249
100
AcDbEntity
  8
IMPORT_IGES
100
AcDbPolyline
 62
253
  6
CONTINUOUS
 90
10
 70
0
 10
-4.8719913397
 20
-10.3249855001
 10
-4.867450575
 20
-10.3249363822
 10
-4.8634159918
 20
-10.3247860743
 10
-4.8599059378
 20
-10.3245312547
 10
-4.8569152547
 20
-10.324168608
 10
-4.8544491009
 20
-10.323694735
 10
-4.852522951
 20
-10.3231060596
 10
-4.8511419633
 20
-10.3223989917
 10
-4.8503009797
 20
-10.3215700218
 10
-4.85
 20
-10.3206155656
  0
LINE
  5
24A
100
AcDbEntity
  8
IMPORT_IGES
100
AcDbLine
 62
253
  6
CONTINUOUS
 10
-5.0750808992
 20
-10.1777449116
 11
-5.1212358534
 21
-10.1782425578
  0
LINE
  5
24B
100
AcDbEntity
  8
IMPORT_IGES
100
AcDbLine
 62
253
  6
CONTINUOUS
 10
-5.1212358534
 20
-10.1782425578
 11
-5.1999729275
 21
-10.1785294659
  0
LINE
  5
24C
100
AcDbEntity
  8
IMPORT_IGES
100
AcDbLine
 62
7
  6
CONTINUOUS
 10
6.2231434429
 20
-10.3249855001
 11
-6.2231434475
 21
-10.3249855001
  0
LINE
  5
24D
100
AcDbEntity
  8
IMPORT_IGES
100
AcDbLine
 62
253
  6
CONTINUOUS
 10
-4.85
 20
-10.3109716905
 11
4.85
 21
-10.3109716905
  0
LINE
  5
24E
100
AcDbEntity
  8
IMPORT_IGES
100
AcDbLine
 62
253
  6
CONTINUOUS
 10
-6.2231434405
 20
-10.1785294047
 11
-5.1999729283
 21
-10.1785294047
  0
LINE
  5
24F
100
AcDbEntity
  8
IMPORT_IGES
100
AcDbLine
 62
253
  6
CONTINUOUS
 10
4.85
 20
-10.0791149065
 11
-4.85
 21
-10.0791149066
  0
LINE
  5
250
100
AcDbEntity
  8
IMPORT_IGES
100
AcDbLine
 62
253
  6
CONTINUOUS
 10
-4.85
 20
-9.7932285924
 11
4.85
 21
-9.7932285923
  0
LINE
  5
251
100
AcDbEntity
  8
IMPORT_IGES
100
AcDbLine
 62
253
  6
CONTINUOUS
 10
6.2231434405
 20
-10.1785294469
 11
5.1466751487
 21
-10.1783911967
  0
LINE
  5
252
100
AcDbEntity
  8
IMPORT_IGES
100
AcDbLine
 62
253
  6
CONTINUOUS
 10
5.1466751487
 20
-10.1783911967
 11
5.0972253543
 21
-10.1780251684
  0
LWPOLYLINE
  5
253
100
AcDbEntity
  8
IMPORT_IGES
100
AcDbPolyline
 62
253
  6
CONTINUOUS
 90
5
 70
0
 10
5.0972253543
 20
-10.1780251684
 10
5.0552045732
 20
-10.1774294458
 10
5.0379589977
 20
-10.1770821675
 10
5.0236586171
 20
-10.1766828867
 10
5.0125645405
 20
-10.1762217907
  0
LWPOLYLINE
  5
254
100
AcDbEntity
  8
IMPORT_IGES
100
AcDbPolyline
 62
253
  6
CONTINUOUS
 90
10
 70
0
 10
-6.2231434405
 20
-10.1785294047
 10
-6.2319136328
 20
-10.1782692456
 10
-6.2405960754
 20
-10.1775101472
 10
-6.2491907684
 20
-10.1762521096
 10
-6.2577263318
 20
-10.1744874624
 10
-6.2661741455
 20
-10.172223876
 10
-6.2744483492
 20
-10.1694843612
 10
-6.2825203229
 20
-10.1662765883
 10
-6.2904186867
 20
-10.1625928871
 10
-6.2981434405
 20
-10.1584332575
  0
LWPOLYLINE
  5
255
100
AcDbEntity
  8
IMPORT_IGES
100
AcDbPolyline
 62
253
  6
CONTINUOUS
 90
13
 70
0
 10
-4.85
 20
-9.7932285924
 10
-4.8695789288
 20
-9.792321183
 10
-4.8888228568
 20
-9.7896144806
 10
-4.9074025149
 20
-9.7851547977
 10
-4.925
 20
-9.7790184407
 10
-4.9413142144
 20
-9.7713104044
 10
-4.9560660172
 20
-9.7621625754
 10
-4.969003001
 20
-9.7517314755
 10
-4.9799038106
 20
-9.7401955839
 10
-4.9885819299
 20
-9.7277522829
 10
-4.9948888739
 20
-9.7146144806
 10
-4.9987167292
 20
-9.7010069687
 10
-5.0
 20
-9.6871625754
  0
LWPOLYLINE
  5
256
100
AcDbEntity
  8
IMPORT_IGES
100
AcDbPolyline
 62
253
  6
CONTINUOUS
 90
13
 70
0
 10
-4.85
 20
-10.0791149065
 10
-4.8695789288
 20
-10.0778406275
 10
-4.8888228568
 20
-10.0740395936
 10
-4.9074025149
 20
-10.0677768417
 10
-4.925
 20
-10.0591595292
 10
-4.9413142144
 20
-10.0483351006
 10
-4.9560660172
 20
-10.0354887649
 10
-4.969003001
 20
-10.0208403266
 10
-4.9799038106
 20
-10.0046404244
 10
-4.9885819299
 20
-9.9871662431
 10
-4.9948888739
 20
-9.9687167709
 10
-4.9987167292
 20
-9.9496076834
 10
-5.0
 20
-9.9301659422
  0
LWPOLYLINE
  5
257
100
AcDbEntity
  8
IMPORT_IGES
100
AcDbPolyline
 62
253
  6
CONTINUOUS
 90
10
 70
0
 10
5.0125645405
 20
-10.1762217907
 10
5.0099473055
 20
-10.1760461125
 10
5.0076290666
 20
-10.175769041
 10
5.0056132457
 20
-10.1753902936
 10
5.0039027932
 20
-10.1749104439
 10
5.00250016
 20
-10.1743283452
 10
5.0014073085
 20
-10.1736411315
 10
5.0006257361
 20
-10.1728476531
 10
5.0001564596
 20
-10.171948477
 10
5.0
 20
-10.1709433107
  0
LWPOLYLINE
  5
258
100
AcDbEntity
  8
IMPORT_IGES
100
AcDbPolyline
 62
253
  6
CONTINUOUS
 90
10
 70
0
 10
-7.3768135189
 20
-7.3668197162
 10
-7.3929371011
 20
-7.3570614292
 10
-7.4069556526
 20
-7.345761782
 10
-7.4188691733
 20
-7.3328829675
 10
-7.4285346529
 20
-7.3184064139
 10
-7.4360951017
 20
-7.302279012
 10
-7.4419795505
 20
-7.2844133357
 10
-7.4463310096
 20
-7.2647656639
 10
-7.4490064687
 20
-7.2433410649
 10
-7.4500059279
 20
-7.2201394871
  0
LWPOLYLINE
  5
259
100
AcDbEntity
  8
IMPORT_IGES
100
AcDbPolyline
 62
253
  6
CONTINUOUS
 90
13
 70
0
 10
-8.0
 20
-7.3168989723
 10
-7.9974334584
 20
-7.3481718279
 10
-7.9897777479
 20
-7.3789095963
 10
-7.9771638598
 20
-7.4085863457
 10
-7.9598076211
 20
-7.4366942988
 10
-7.9380060021
 20
-7.4627525206
 10
-7.9121320344
 20
-7.4863151477
 10
-7.8826284287
 20
-7.5069790171
 10
-7.85
 20
-7.5243905643
 10
-7.8148050297
 20
-7.5382518728
 10
-7.7776457135
 20
-7.5483257717
 10
-7.7391578577
 20
-7.554439894
 10
-7.7
 20
-7.5564896253
  0
LWPOLYLINE
  5
25A
100
AcDbEntity
  8
IMPORT_IGES
100
AcDbPolyline
 62
253
  6
CONTINUOUS
 90
11
 70
0
 10
-8.0
 20
-9.172321968
 10
-7.9974538689
 20
-9.2034707586
 10
-7.9898504936
 20
-9.2341153622
 10
-7.9773070117
 20
-9.2637328453
 10
-7.9600242693
 20
-9.2918171089
 10
-7.9382865053
 20
-9.3178831028
 10
-7.9124592162
 20
-9.3414764407
 10
-7.8829769193
 20
-9.3621881286
 10
-7.8503379533
 20
-9.379657498
 10
-7.8151018097
 20
-9.3935765432
 10
-7.7778718632
 20
-9.4037002973
  0
LWPOLYLINE
  5
25B
100
AcDbEntity
  8
IMPORT_IGES
100
AcDbPolyline
 62
253
  6
CONTINUOUS
 90
16
 70
0
 10
5.6726704992
 20
-7.2890824531
 10
5.6637862661
 20
-7.2914714248
 10
5.6555111632
 20
-7.2925386302
 10
5.6478509247
 20
-7.2923222988
 10
5.6406236293
 20
-7.2908614829
 10
5.6340099117
 20
-7.2881941444
 10
5.6285234854
 20
-7.2843495074
 10
5.6243318644
 20
-7.2790062252
 10
5.6211762897
 20
-7.2725098036
 10
5.6189113303
 20
-7.2658515545
 10
5.6175747618
 20
-7.2595289685
 10
5.6170788166
 20
-7.252991549
 10
5.6171081182
 20
-7.2456540505
 10
5.6175492757
 20
-7.2373173637
 10
5.6184882564
 20
-7.2281562152
 10
5.6199124936
 20
-7.2181556766
  0
LINE
  5
25C
100
AcDbEntity
  8
IMPORT_IGES
100
AcDbLine
 62
7
  6
CONTINUOUS
 10
5.1328024452
 20
-7.8134670001
 11
5.1328577958
 21
-7.8134544758
  0
LINE
  5
25D
100
AcDbEntity
  8
IMPORT_IGES
100
AcDbLine
 62
7
  6
CONTINUOUS
 10
5.132866206
 20
-7.8134770171
 11
5.1404853218
 21
-7.8118675185
  0
LWPOLYLINE
  5
25E
100
AcDbEntity
  8
IMPORT_IGES
100
AcDbPolyline
 62
253
  6
CONTINUOUS
 90
8
 70
0
 10
5.1000025733
 20
-7.786911673
 10
5.1109564221
 20
-7.7845978283
 10
5.1219493952
 20
-7.7825577641
 10
5.1329814925
 20
-7.7807914805
 10
5.1440525542
 20
-7.7792998877
 10
5.1551627401
 20
-7.7780820755
 10
5.1663125297
 20
-7.777135313
 10
5.1775020828
 20
-7.7764586899
  0
LINE
  5
25F
100
AcDbEntity
  8
IMPORT_IGES
100
AcDbLine
 62
7
  6
CONTINUOUS
 10
5.1404853218
 20
-7.8118675185
 11
5.1627757314
 21
-7.8083368612
  0
LWPOLYLINE
  5
260
100
AcDbEntity
  8
IMPORT_IGES
100
AcDbPolyline
 62
253
  6
CONTINUOUS
 90
8
 70
0
 10
5.0782477142
 20
-9.3259619598
 10
5.0585786438
 20
-9.3263694974
 10
5.0413293319
 20
-9.326834205
 10
5.0267949192
 20
-9.3273481313
 10
5.0152240935
 20
-9.3279024829
 10
5.0068148347
 20
-9.3284877746
 10
5.0017110277
 20
-9.329093992
 10
5.0
 20
-9.3297107625
  0
LWPOLYLINE
  5
261
100
AcDbEntity
  8
IMPORT_IGES
100
AcDbPolyline
 62
253
  6
CONTINUOUS
 90
8
 70
0
 10
-7.1717522858
 20
-9.3259619598
 10
-7.1914213562
 20
-9.3263694974
 10
-7.2086709785
 20
-9.3268342146
 10
-7.2232055907
 20
-9.3273481522
 10
-7.2347759065
 20
-9.3279024829
 10
-7.2431843733
 20
-9.3284877048
 10
-7.2482879737
 20
-9.3290938128
 10
-7.2499999995
 20
-9.3297104372
  0
LINE
  5
262
100
AcDbEntity
  8
IMPORT_IGES
100
AcDbLine
 62
253
  6
CONTINUOUS
 10
5.1234633135
 20
-9.3253451893
 11
5.0782477142
 21
-9.3259619598
  0
LINE
  5
263
100
AcDbEntity
  8
IMPORT_IGES
100
AcDbLine
 62
253
  6
CONTINUOUS
 10
-7.1265366865
 20
-9.3253451893
 11
-7.1717522858
 21
-9.3259619598
  0
LINE
  5
264
100
AcDbEntity
  8
IMPORT_IGES
100
AcDbLine
 62
253
  6
CONTINUOUS
 10
5.1738947616
 20
-9.3250259254
 11
5.1234633135
 21
-9.3253451893
  0
LINE
  5
265
100
AcDbEntity
  8
IMPORT_IGES
100
AcDbLine
 62
253
  6
CONTINUOUS
 10
-7.0761052384
 20
-9.3250259254
 11
-7.1265366865
 21
-9.3253451893
  0
LINE
  5
266
100
AcDbEntity
  8
IMPORT_IGES
100
AcDbLine
 62
253
  6
CONTINUOUS
 10
-7.0761052384
 20
-9.3250259254
 11
-5.2
 21
-9.3249855001
  0
LINE
  5
267
100
AcDbEntity
  8
IMPORT_IGES
100
AcDbLine
 62
253
  6
CONTINUOUS
 10
7.0761071827
 20
-9.3250259315
 11
5.1738947616
 21
-9.3250259254
  0
LINE
  5
268
100
AcDbEntity
  8
IMPORT_IGES
100
AcDbLine
 62
253
  6
CONTINUOUS
 10
-5.1482332855
 20
-9.325146528
 11
-5.1999864641
 21
-9.3249855002
  0
LINE
  5
269
100
AcDbEntity
  8
IMPORT_IGES
100
AcDbLine
 62
253
  6
CONTINUOUS
 10
7.1265366865
 20
-9.3253451893
 11
7.0761071827
 21
-9.3250259315
  0
LINE
  5
26A
100
AcDbEntity
  8
IMPORT_IGES
100
AcDbLine
 62
253
  6
CONTINUOUS
 10
-5.1109583155
 20
-7.7845979942
 11
-5.1000000191
 21
-7.7869127817
  0
LWPOLYLINE
  5
26B
100
AcDbEntity
  8
IMPORT_IGES
100
AcDbPolyline
 62
7
  6
CONTINUOUS
 90
5
 70
0
 10
-5.1328989524
 20
-7.813444716
 10
-5.129166471
 20
-7.8144388212
 10
-5.1202130082
 20
-7.8182820229
 10
-5.1117825983
 20
-7.824007946
 10
-5.1035713057
 20
-7.8316848103
  0
LWPOLYLINE
  5
26C
100
AcDbEntity
  8
IMPORT_IGES
100
AcDbPolyline
 62
7
  6
CONTINUOUS
 90
3
 70
0
 10
-5.1035713057
 20
-7.8316848103
 10
-5.0955453919
 20
-7.8411809423
 10
-5.0876401827
 20
-7.8523483485
  0
LINE
  5
26D
100
AcDbEntity
  8
IMPORT_IGES
100
AcDbLine
 62
7
  6
CONTINUOUS
 10
-8.25
 20
-5.1749855001
 11
-8.25
 21
6.1250144999
  0
LINE
  5
26E
100
AcDbEntity
  8
IMPORT_IGES
100
AcDbLine
 62
7
  6
CONTINUOUS
 10
-8.0
 20
-9.172321968
 11
-8.0
 21
10.4538105078
  0
LINE
  5
26F
100
AcDbEntity
  8
IMPORT_IGES
100
AcDbLine
 62
253
  6
CONTINUOUS
 10
-7.7
 20
-9.4119126212
 11
-7.7
 21
7.5105232111
  0
LINE
  5
270
100
AcDbEntity
  8
IMPORT_IGES
100
AcDbLine
 62
253
  6
CONTINUOUS
 10
-7.7
 20
8.3610154549
 11
-7.7
 21
10.6659425424
  0
LINE
  5
271
100
AcDbEntity
  8
IMPORT_IGES
100
AcDbLine
 62
253
  6
CONTINUOUS
 10
-7.1035898385
 20
5.1536205932
 11
-7.0767949192
 21
5.3518175465
  0
LINE
  5
272
100
AcDbEntity
  8
IMPORT_IGES
100
AcDbLine
 62
7
  6
CONTINUOUS
 10
5.1627757314
 20
-7.8083368612
 11
5.1846703591
 21
-7.8064902613
  0
LWPOLYLINE
  5
273
100
AcDbEntity
  8
IMPORT_IGES
100
AcDbPolyline
 62
253
  6
CONTINUOUS
 90
10
 70
0
 10
5.6199137897
 20
-7.2181421823
 10
5.6124253006
 20
-7.2186808656
 10
5.6048384493
 20
-7.2191412754
 10
5.5971651773
 20
-7.2195229494
 10
5.5894173535
 20
-7.2198255561
 10
5.58160738
 20
-7.2200486803
 10
5.5737481874
 20
-7.2201918333
 10
5.5658523707
 20
-7.2202547374
 10
5.5579321538
 20
-7.2202373154
 10
5.5500000056
 20
-7.220139482
  0
LWPOLYLINE
  5
274
100
AcDbEntity
  8
IMPORT_IGES
100
AcDbPolyline
 62
253
  6
CONTINUOUS
 90
10
 70
0
 10
5.1
 20
-7.5564896253
 10
5.0826351822
 20
-7.5577029321
 10
5.0657979857
 20
-7.5613059867
 10
5.05
 20
-7.5671893123
 10
5.035721239
 20
-7.5751741468
 10
5.0233955556
 20
-7.5850178752
 10
5.0133974596
 20
-7.5964214007
 10
5.0060307378
 20
-7.6090382331
 10
5.0015192246
 20
-7.6224850162
 10
4.9999999998
 20
-7.6363531763
  0
LWPOLYLINE
  5
275
100
AcDbEntity
  8
IMPORT_IGES
100
AcDbPolyline
 62
253
  6
CONTINUOUS
 90
13
 70
0
 10
-7.4
 20
-8.0396625098
 10
-7.3804210712
 20
-8.0386376444
 10
-7.3611771432
 20
-8.0355805834
 10
-7.3425974851
 20
-8.030543634
 10
-7.325
 20
-8.0236129798
 10
-7.3086857856
 20
-8.0149072062
 10
-7.2939339828
 20
-8.0045752715
 10
-7.280996999
 20
-7.9927939579
 10
-7.2700961894
 20
-7.979764847
 10
-7.2614180701
 20
-7.9657108705
 10
-7.2551111261
 20
-7.9508724958
 10
-7.2512832708
 20
-7.9355036116
 10
-7.25
 20
-7.9198671838
  0
LINE
  5
276
100
AcDbEntity
  8
IMPORT_IGES
100
AcDbLine
 62
253
  6
CONTINUOUS
 10
5.1775020828
 20
-7.7764586899
 11
5.1887312396
 21
-7.7760531165
  0
LINE
  5
277
100
AcDbEntity
  8
IMPORT_IGES
100
AcDbLine
 62
7
  6
CONTINUOUS
 10
5.1846703591
 20
-7.8064902613
 11
5.1999990073
 21
-7.8061217318
  0
LINE
  5
278
100
AcDbEntity
  8
IMPORT_IGES
100
AcDbLine
 62
253
  6
CONTINUOUS
 10
5.1887312396
 20
-7.7760531165
 11
5.2000000001
 21
-7.7759185928
  0
LINE
  5
279
100
AcDbEntity
  8
IMPORT_IGES
100
AcDbLine
 62
7
  6
CONTINUOUS
 10
-5.2
 20
-7.8061232662
 11
-7.0500013455
 21
-7.8061232662
  0
LINE
  5
27A
100
AcDbEntity
  8
IMPORT_IGES
100
AcDbLine
 62
253
  6
CONTINUOUS
 10
-7.0499999999
 20
-7.7759185928
 11
-5.2000000002
 21
-7.7759185928
  0
LINE
  5
27B
100
AcDbEntity
  8
IMPORT_IGES
100
AcDbLine
 62
253
  6
CONTINUOUS
 10
7.0499999998
 20
-7.7759185928
 11
5.2000000001
 21
-7.7759185928
  0
LINE
  5
27C
100
AcDbEntity
  8
IMPORT_IGES
100
AcDbLine
 62
253
  6
CONTINUOUS
 10
7.7
 20
-7.5564896254
 11
5.1000012866
 21
-7.5564896253
  0
LINE
  5
27D
100
AcDbEntity
  8
IMPORT_IGES
100
AcDbLine
 62
253
  6
CONTINUOUS
 10
-5.1
 20
-7.5564896255
 11
-7.7
 21
-7.5564896258
  0
LWPOLYLINE
  5
27E
100
AcDbEntity
  8
IMPORT_IGES
100
AcDbPolyline
 62
7
  6
CONTINUOUS
 90
4
 70
0
 10
5.1999986545
 20
-7.8061232662
 10
7.0524588506
 20
-7.8061342932
 10
7.076431087
 20
-7.8072394639
 10
7.099888422
 20
-7.8101340278
  0
LWPOLYLINE
  5
27F
100
AcDbEntity
  8
IMPORT_IGES
100
AcDbPolyline
 62
7
  6
CONTINUOUS
 90
4
 70
0
 10
-5.1999998793
 20
-7.8061201656
 10
-5.1936356088
 20
-7.8061818192
 10
-5.1785166968
 20
-7.8068523759
 10
-5.1633515722
 20
-7.8082678712
  0
LWPOLYLINE
  5
280
100
AcDbEntity
  8
IMPORT_IGES
100
AcDbPolyline
 62
253
  6
CONTINUOUS
 90
5
 70
0
 10
-5.2000000002
 20
-7.7759185928
 10
-5.1887364267
 20
-7.7760527732
 10
-5.1775109258
 20
-7.7764580758
 10
-5.1663234975
 20
-7.7771345006
 10
-5.1551740838
 20
-7.7780810784
  0
LWPOLYLINE
  5
281
100
AcDbEntity
  8
IMPORT_IGES
100
AcDbPolyline
 62
253
  6
CONTINUOUS
 90
10
 70
0
 10
-5.1
 20
-7.5564896253
 10
-5.0826351822
 20
-7.5577029321
 10
-5.0657979857
 20
-7.5613059867
 10
-5.05
 20
-7.5671893123
 10
-5.035721239
 20
-7.5751741468
 10
-5.0233955557
 20
-7.5850178752
 10
-5.0133974596
 20
-7.5964214008
 10
-5.0060307379
 20
-7.6090382331
 10
-5.0015192247
 20
-7.6224850162
 10
-5.0
 20
-7.6363531763
  0
LWPOLYLINE
  5
282
100
AcDbEntity
  8
IMPORT_IGES
100
AcDbPolyline
 62
253
  6
CONTINUOUS
 90
10
 70
0
 10
-7.3369077057
 20
-7.3765186593
 10
-7.3419082872
 20
-7.3760205782
 10
-7.3467505689
 20
-7.3753826154
 10
-7.3514345507
 20
-7.3746044836
 10
-7.3559380335
 20
-7.3736913075
 10
-7.3602832165
 20
-7.3726372185
 10
-7.3645366968
 20
-7.3714252941
 10
-7.3687206735
 20
-7.3700494494
 10
-7.3728129475
 20
-7.3685145001
 10
-7.3768135189
 20
-7.3668197162
  0
LWPOLYLINE
  5
283
100
AcDbEntity
  8
IMPORT_IGES
100
AcDbPolyline
 62
253
  6
CONTINUOUS
 90
5
 70
0
 10
-5.1551740838
 20
-7.7780810784
 10
-5.1440627428
 20
-7.7792987785
 10
-5.1329896484
 20
-7.7807905081
 10
-5.1219548586
 20
-7.7825572364
 10
-5.1109583155
 20
-7.7845979942
  0
LWPOLYLINE
  5
284
100
AcDbEntity
  8
IMPORT_IGES
100
AcDbPolyline
 62
7
  6
CONTINUOUS
 90
4
 70
0
 10
-5.1633515722
 20
-7.8082678712
 10
-5.1487515784
 20
-7.8103564922
 10
-5.13443633
 20
-7.8131285923
 10
-5.1328780196
 20
-7.8134750558
  0
LWPOLYLINE
  5
285
100
AcDbEntity
  8
IMPORT_IGES
100
AcDbPolyline
 62
253
  6
CONTINUOUS
 90
16
 70
0
 10
-5.6726706311
 20
-7.2890833438
 10
-5.6643568564
 20
-7.2911599374
 10
-5.6562538966
 20
-7.2922978226
 10
-5.6485052688
 20
-7.2923694755
 10
-5.64123997
 20
-7.2912318675
 10
-5.634708389
 20
-7.2887596007
 10
-5.629202628
 20
-7.2849765688
 10
-5.6248118863
 20
-7.2800002437
 10
-5.6215212442
 20
-7.2740060064
 10
-5.6192681977
 20
-7.2673233691
 10
-5.6179351663
 20
-7.2604006338
 10
-5.6172790582
 20
-7.2532822541
 10
-5.6171148625
 20
-7.245573455
 10
-5.6174131683
 20
-7.237129153
 10
-5.6181693874
 20
-7.2281719568
 10
-5.6193598703
 20
-7.2187434578
  0
LWPOLYLINE
  5
286
100
AcDbEntity
  8
IMPORT_IGES
100
AcDbPolyline
 62
7
  6
CONTINUOUS
 90
3
 70
0
 10
-5.0876401827
 20
-7.8523483485
 10
-5.0797202584
 20
-7.8651782341
 10
-5.0720208159
 20
-7.8791823276
  0
LWPOLYLINE
  5
287
100
AcDbEntity
  8
IMPORT_IGES
100
AcDbPolyline
 62
7
  6
CONTINUOUS
 90
21
 70
0
 10
-5.0720208159
 20
-7.8791823276
 10
-5.0648816943
 20
-7.8936901237
 10
-5.0583834825
 20
-7.9084362502
 10
-5.0524529959
 20
-7.923308985
 10
-5.0470192364
 20
-7.9381761377
 10
-5.0419732787
 20
-7.9531097383
 10
-5.0371604514
 20
-7.9686317103
 10
-5.0325178923
 20
-7.9850371074
 10
-5.0280638489
 20
-8.0022513974
 10
-5.0238432848
 20
-8.0201115371
 10
-5.0198913184
 20
-8.0385320829
 10
-5.016283467
 20
-8.0571974954
 10
-5.0130617226
 20
-8.0758760964
 10
-5.010213838
 20
-8.0946113752
 10
-5.0077165469
 20
-8.1135248321
 10
-5.0055681189
 20
-8.1325790996
 10
-5.0037648905
 20
-8.1517249877
 10
-5.002297244
 20
-8.1711253938
 10
-5.0011740311
 20
-8.1908504695
 10
-5.0004117983
 20
-8.2108163447
 10
-5.0000176802
 20
-8.2310213305
  0
LWPOLYLINE
  5
288
100
AcDbEntity
  8
IMPORT_IGES
100
AcDbPolyline
 62
253
  6
CONTINUOUS
 90
22
 70
0
 10
-5.6726701529
 20
-7.289083487
 10
-5.6982406878
 20
-7.2196370078
 10
-5.7237744353
 20
-7.1299202733
 10
-5.7492713954
 20
-7.0199332834
 10
-5.7760005288
 20
-6.8798093127
 10
-5.8026928748
 20
-6.7194150866
 10
-5.825541552
 20
-6.5683507818
 10
-5.8423097913
 20
-6.4409181616
 10
-5.8552343617
 20
-6.3228154627
 10
-5.8672186898
 20
-6.2007375711
 10
-5.8792854914
 20
-6.068755364
 10
-5.8904120507
 20
-5.9327979642
 10
-5.9004336462
 20
-5.7973476264
 10
-5.909141565
 20
-5.6666803074
 10
-5.9167445199
 20
-5.5365200504
 10
-5.9237039282
 20
-5.3985212394
 10
-5.9302798447
 20
-5.2544698114
 10
-5.9362122145
 20
-5.1025798295
 10
-5.9411822898
 20
-4.9291478668
 10
-5.9450838212
 20
-4.7296061143
 10
-5.948023058
 20
-4.5085223811
 10
-5.9500000003
 20
-4.2658966671
  0
LWPOLYLINE
  5
289
100
AcDbEntity
  8
IMPORT_IGES
100
AcDbPolyline
 62
253
  6
CONTINUOUS
 90
17
 70
0
 10
-7.2727889058
 20
5.4756223418
 10
-7.2694211194
 20
5.4424031941
 10
-7.2647882642
 20
5.4121039094
 10
-7.2589374947
 20
5.3844558997
 10
-7.252426044
 20
5.3586534014
 10
-7.2454984252
 20
5.334726981
 10
-7.2378715264
 20
5.3126460721
 10
-7.2294216685
 20
5.2915132119
 10
-7.2202150311
 20
5.2710500144
 10
-7.210127965
 20
5.2515348656
 10
-7.198698034
 20
5.2329054615
 10
-7.1855796035
 20
5.21462194
 10
-7.1710058874
 20
5.1972241632
 10
-7.1554037793
 20
5.1822694124
 10
-7.138977922
 20
5.1702767813
 10
-7.1216699246
 20
5.1607271762
 10
-7.1035898597
 20
5.153620597
  0
LINE
  5
28A
100
AcDbEntity
  8
IMPORT_IGES
100
AcDbLine
 62
253
  6
CONTINUOUS
 10
-7.2752171756
 20
5.5114927644
 11
-7.2727889058
 21
5.4756223418
  0
LINE
  5
28B
100
AcDbEntity
  8
IMPORT_IGES
100
AcDbLine
 62
253
  6
CONTINUOUS
 10
-7.2767949192
 20
5.5500144621
 11
-7.2752171756
 21
5.5114927644
  0
LWPOLYLINE
  5
28C
100
AcDbEntity
  8
IMPORT_IGES
100
AcDbPolyline
 62
253
  6
CONTINUOUS
 90
10
 70
0
 10
-7.05
 20
1.1715737501
 10
-7.0547038525
 20
1.3316393676
 10
-7.0603351647
 20
1.4894082109
 10
-7.0668939368
 20
1.6446326856
 10
-7.0751999234
 20
1.7958626189
 10
-7.0844333699
 20
1.944110949
 10
-7.0921350116
 20
2.0929029972
 10
-7.0974850936
 20
2.243342818
 10
-7.1013033709
 20
2.3940629734
 10
-7.1035898434
 20
2.544926252
  0
LWPOLYLINE
  5
28D
100
AcDbEntity
  8
IMPORT_IGES
100
AcDbPolyline
 62
253
  6
CONTINUOUS
 90
3
 70
0
 10
-7.2544458378
 20
1.4542314448
 10
-7.2512669622
 20
1.2872693083
 10
-7.25
 20
1.1166396853
  0
LWPOLYLINE
  5
28E
100
AcDbEntity
  8
IMPORT_IGES
100
AcDbPolyline
 62
253
  6
CONTINUOUS
 90
5
 70
0
 10
-7.2767949192
 20
2.544925371
 10
-7.276118567
 20
2.3926807092
 10
-7.2742473176
 20
2.2395072937
 10
-7.2713081691
 20
2.0854051244
 10
-7.2544458378
 20
1.4542314448
  0
LINE
  5
28F
100
AcDbEntity
  8
IMPORT_IGES
100
AcDbLine
 62
253
  6
CONTINUOUS
 10
-7.4999993545
 20
10.8659380569
 11
-7.5
 21
8.5632247883
  0
LINE
  5
290
100
AcDbEntity
  8
IMPORT_IGES
100
AcDbLine
 62
253
  6
CONTINUOUS
 10
-7.4500029639
 20
-7.2201394921
 11
-7.45
 21
6.8705111126
  0
LINE
  5
291
100
AcDbEntity
  8
IMPORT_IGES
100
AcDbLine
 62
253
  6
CONTINUOUS
 10
-7.4
 20
-9.5851177018
 11
-7.4
 21
-8.0396625098
  0
LINE
  5
292
100
AcDbEntity
  8
IMPORT_IGES
100
AcDbLine
 62
253
  6
CONTINUOUS
 10
-7.3273287824
 20
-7.2890824646
 11
-7.3273294422
 21
-7.3769773319
  0
LINE
  5
293
100
AcDbEntity
  8
IMPORT_IGES
100
AcDbLine
 62
7
  6
CONTINUOUS
 10
-7.3
 20
8.6987200969
 11
-7.3
 21
10.795231864
  0
LINE
  5
294
100
AcDbEntity
  8
IMPORT_IGES
100
AcDbLine
 62
253
  6
CONTINUOUS
 10
-7.2767949192
 20
2.54492537
 11
-7.2767949192
 21
5.5500144621
  0
LINE
  5
295
100
AcDbEntity
  8
IMPORT_IGES
100
AcDbLine
 62
7
  6
CONTINUOUS
 10
-7.25
 20
6.8705111126
 11
-7.25
 21
5.5500223265
  0
LINE
  5
296
100
AcDbEntity
  8
IMPORT_IGES
100
AcDbLine
 62
7
  6
CONTINUOUS
 10
-7.25
 20
-9.5187330757
 11
-7.25
 21
-7.9198671838
  0
LINE
  5
297
100
AcDbEntity
  8
IMPORT_IGES
100
AcDbLine
 62
7
  6
CONTINUOUS
 10
-7.25
 20
-4.2658966671
 11
-7.25
 21
1.1166396853
  0
LINE
  5
298
100
AcDbEntity
  8
IMPORT_IGES
100
AcDbLine
 62
7
  6
CONTINUOUS
 10
-7.2
 20
5.5205144999
 11
-7.2
 21
6.9205144999
  0
LINE
  5
299
100
AcDbEntity
  8
IMPORT_IGES
100
AcDbLine
 62
253
  6
CONTINUOUS
 10
-7.15
 20
6.9705111126
 11
-7.15
 21
7.1705111125
  0
LINE
  5
29A
100
AcDbEntity
  8
IMPORT_IGES
100
AcDbLine
 62
253
  6
CONTINUOUS
 10
-7.1035898434
 20
2.5449266303
 11
-7.1035898516
 21
5.153620597
  0
LINE
  5
29B
100
AcDbEntity
  8
IMPORT_IGES
100
AcDbLine
 62
253
  6
CONTINUOUS
 10
-7.1
 20
8.7901181424
 11
-7.1
 21
11.197344442
  0
LINE
  5
29C
100
AcDbEntity
  8
IMPORT_IGES
100
AcDbLine
 62
253
  6
CONTINUOUS
 10
-7.05
 20
5.3500144999
 11
-7.05
 21
5.1500144999
  0
LINE
  5
29D
100
AcDbEntity
  8
IMPORT_IGES
100
AcDbLine
 62
253
  6
CONTINUOUS
 10
-7.05
 20
-4.2658966671
 11
-7.05
 21
1.1715737501
  0
LINE
  5
29E
100
AcDbEntity
  8
IMPORT_IGES
100
AcDbLine
 62
253
  6
CONTINUOUS
 10
-7.0500094013
 20
-9.7243412437
 11
-7.0500013455
 21
-7.7759185928
  0
LINE
  5
29F
100
AcDbEntity
  8
IMPORT_IGES
100
AcDbLine
 62
253
  6
CONTINUOUS
 10
-6.8787960123
 20
11.3762645194
 11
-6.8787960123
 21
11.5750144999
  0
LINE
  5
2A0
100
AcDbEntity
  8
IMPORT_IGES
100
AcDbLine
 62
253
  6
CONTINUOUS
 10
-6.6400078903
 20
8.5705111126
 11
-6.6400078901
 21
8.8705111126
  0
LWPOLYLINE
  5
2A1
100
AcDbEntity
  8
IMPORT_IGES
100
AcDbPolyline
 62
253
  6
CONTINUOUS
 90
8
 70
0
 10
-7.25
 20
-4.2658966671
 10
-7.250719981
 20
-4.5339566026
 10
-7.2526968621
 20
-4.7821892354
 10
-7.25566545
 20
-5.0105859054
 10
-7.2593477083
 20
-5.2176769386
 10
-7.2635310558
 20
-5.4049278654
 10
-7.2681271592
 20
-5.5767361013
 10
-7.2729776333
 20
-5.7325514539
  0
LWPOLYLINE
  5
2A2
100
AcDbEntity
  8
IMPORT_IGES
100
AcDbPolyline
 62
253
  6
CONTINUOUS
 90
6
 70
0
 10
-7.0681985295
 20
-5.2136445664
 10
-7.0626487177
 20
-5.0655102329
 10
-7.0579835713
 20
-4.8972985884
 10
-7.0544377155
 20
-4.7069085923
 10
-7.0517765251
 20
-4.4964412852
 10
-7.05
 20
-4.2658966671
  0
LINE
  5
2A3
100
AcDbEntity
  8
IMPORT_IGES
100
AcDbLine
 62
253
  6
CONTINUOUS
 10
-7.2729776333
 20
-5.7325514539
 11
-7.2831743637
 21
-6.0039233073
  0
LWPOLYLINE
  5
2A4
100
AcDbEntity
  8
IMPORT_IGES
100
AcDbPolyline
 62
7
  6
CONTINUOUS
 90
14
 70
0
 10
-7.2499960814
 20
-7.9185154292
 10
-7.2499478032
 20
-7.9173699438
 10
-7.2492114476
 20
-7.9110662441
 10
-7.2475166669
 20
-7.9041457345
 10
-7.2443873217
 20
-7.8960811172
 10
-7.2397931368
 20
-7.8875593909
 10
-7.233584187
 20
-7.8786391494
 10
-7.2253267029
 20
-7.8691205658
 10
-7.2150290098
 20
-7.8594317914
 10
-7.2027276422
 20
-7.8499000788
 10
-7.1883147609
 20
-7.840679889
 10
-7.1716866539
 20
-7.8319639966
 10
-7.153027098
 20
-7.8241057074
 10
-7.1326037127
 20
-7.8174086205
  0
LWPOLYLINE
  5
2A5
100
AcDbEntity
  8
IMPORT_IGES
100
AcDbPolyline
 62
253
  6
CONTINUOUS
 90
9
 70
0
 10
-7.2831743637
 20
-6.0039233073
 10
-7.2927506961
 20
-6.2191359463
 10
-7.2998065082
 20
-6.3466580128
 10
-7.3113316643
 20
-6.5276812578
 10
-7.3262059273
 20
-6.7331556818
 10
-7.3412287264
 20
-6.9101900591
 10
-7.3548027942
 20
-7.0412231005
 10
-7.3678231665
 20
-7.1438916959
 10
-7.3800991233
 20
-7.2182223487
  0
LWPOLYLINE
  5
2A6
100
AcDbEntity
  8
IMPORT_IGES
100
AcDbPolyline
 62
253
  6
CONTINUOUS
 90
13
 70
0
 10
-7.25
 20
-3.4614750396
 10
-7.2517110277
 20
-3.472229246
 10
-7.2568148347
 20
-3.4827994449
 10
-7.2652240935
 20
-3.4930047774
 10
-7.2767949192
 20
-3.5026706273
 10
-7.2913293319
 20
-3.5116316093
 10
-7.3085786438
 20
-3.5197343985
 10
-7.3282477142
 20
-3.5268403538
 10
-7.35
 20
-3.5328278906
 10
-7.3734633135
 20
-3.5375945602
 10
-7.398236191
 20
-3.5410588038
 10
-7.4238947616
 20
-3.5431613471
 10
-7.45
 20
-3.543866215
  0
LWPOLYLINE
  5
2A7
100
AcDbEntity
  8
IMPORT_IGES
100
AcDbPolyline
 62
253
  6
CONTINUOUS
 90
13
 70
0
 10
-7.25
 20
-3.245220061
 10
-7.2483218056
 20
-3.2354327785
 10
-7.2432930757
 20
-3.225777933
 10
-7.2349656932
 20
-3.2164211103
 10
-7.2234367667
 20
-3.2075173177
 10
-7.2088799885
 20
-3.1992341091
 10
-7.1915714113
 20
-3.1917417846
 10
-7.1718066402
 20
-3.1851709774
 10
-7.1499245451
 20
-3.1796366898
 10
-7.1263709897
 20
-3.1752470811
 10
-7.1015870393
 20
-3.1720718022
 10
-7.0759830764
 20
-3.1701515766
 10
-7.05
 20
-3.1695099397
  0
LWPOLYLINE
  5
2A8
100
AcDbEntity
  8
IMPORT_IGES
100
AcDbPolyline
 62
253
  6
CONTINUOUS
 90
16
 70
0
 10
-5.8964101145
 20
5.1536206053
 10
-5.8816274642
 20
5.1582137995
 10
-5.8663795307
 20
5.1660742734
 10
-5.8507704693
 20
5.1772020271
 10
-5.8345235175
 20
5.1919889704
 10
-5.8182082035
 20
5.2100431934
 10
-5.8031141415
 20
5.2301889668
 10
-5.789502198
 20
5.2525241129
 10
-5.7771209094
 20
5.2769508093
 10
-5.7662844117
 20
5.30199986
 10
-5.7569986408
 20
5.3272524689
 10
-5.7490398004
 20
5.3531274322
 10
-5.7423004957
 20
5.3794119419
 10
-5.7365860334
 20
5.4058602232
 10
-5.7318701809
 20
5.4327180511
 10
-5.7282633318
 20
5.4605099429
  0
LINE
  5
2A9
100
AcDbEntity
  8
IMPORT_IGES
100
AcDbLine
 62
253
  6
CONTINUOUS
 10
-7.0842222902
 20
-7.7771241617
 11
-7.117781948
 21
-7.7808437628
  0
LWPOLYLINE
  5
2AA
100
AcDbEntity
  8
IMPORT_IGES
100
AcDbPolyline
 62
253
  6
CONTINUOUS
 90
10
 70
0
 10
-7.3800991233
 20
-7.2182223487
 10
-7.3875868369
 20
-7.2187372852
 10
-7.3951728744
 20
-7.2191776491
 10
-7.4028452988
 20
-7.219542978
 10
-7.4105922093
 20
-7.2198329278
 10
-7.4184012443
 20
-7.2200470966
 10
-7.4262595879
 20
-7.2201850338
 10
-7.4341546885
 20
-7.2202464724
 10
-7.4420742902
 20
-7.2202313209
 10
-7.4500059279
 20
-7.2201394921
  0
LWPOLYLINE
  5
2AB
100
AcDbEntity
  8
IMPORT_IGES
100
AcDbPolyline
 62
253
  6
CONTINUOUS
 90
13
 70
0
 10
4.85
 20
-7.0496890019
 10
4.8695789288
 20
-7.0487815923
 10
4.8888228568
 20
-7.0460748899
 10
4.9074025149
 20
-7.0416152069
 10
4.925
 20
-7.0354788499
 10
4.9413142144
 20
-7.0277708136
 10
4.9560660172
 20
-7.0186229845
 10
4.969003001
 20
-7.0081918847
 10
4.9799038106
 20
-6.9966559931
 10
4.9885819299
 20
-6.9842126921
 10
4.9948888739
 20
-6.9710748898
 10
4.9987167292
 20
-6.9574673779
 10
5.0
 20
-6.9436229845
  0
LINE
  5
2AC
100
AcDbEntity
  8
IMPORT_IGES
100
AcDbLine
 62
253
  6
CONTINUOUS
 10
-7.0499999999
 20
-7.7759185928
 11
-7.0842222902
 21
-7.7771241617
  0
LWPOLYLINE
  5
2AD
100
AcDbEntity
  8
IMPORT_IGES
100
AcDbPolyline
 62
253
  6
CONTINUOUS
 90
10
 70
0
 10
5.1
 20
-7.220139482
 10
5.0826351822
 20
-7.2203308059
 10
5.0657979857
 20
-7.2208989643
 10
5.05
 20
-7.2218266941
 10
5.035721239
 20
-7.2230858065
 10
5.0233955557
 20
-7.2246380442
 10
5.0133974596
 20
-7.2264362432
 10
5.0060307379
 20
-7.228425766
 10
5.0015192247
 20
-7.2305461622
 10
5.0
 20
-7.2327330044
  0
LWPOLYLINE
  5
2AE
100
AcDbEntity
  8
IMPORT_IGES
100
AcDbPolyline
 62
253
  6
CONTINUOUS
 90
10
 70
0
 10
-5.5499998924
 20
-7.2201328641
 10
-5.5577571188
 20
-7.220172162
 10
-5.5655356209
 20
-7.2201636058
 10
-5.5733233674
 20
-7.220106797
 10
-5.5811150454
 20
-7.2200013671
 10
-5.5888910256
 20
-7.219846998
 10
-5.596617869
 20
-7.2196437709
 10
-5.6042763845
 20
-7.2193919783
 10
-5.6118611603
 20
-7.2190917792
 10
-5.6193598745
 20
-7.2187434593
  0
LINE
  5
2AF
100
AcDbEntity
  8
IMPORT_IGES
100
AcDbLine
 62
253
  6
CONTINUOUS
 10
7.3273383266
 20
-7.3770226472
 11
5.672670559
 21
-7.3770226472
  0
LINE
  5
2B0
100
AcDbEntity
  8
IMPORT_IGES
100
AcDbLine
 62
253
  6
CONTINUOUS
 10
-5.6726707733
 20
-7.3769773319
 11
-7.3273294422
 21
-7.3769773319
  0
LINE
  5
2B1
100
AcDbEntity
  8
IMPORT_IGES
100
AcDbLine
 62
253
  6
CONTINUOUS
 10
-5.6726701529
 20
-7.289083487
 11
-7.3273295009
 21
-7.28908297
  0
LINE
  5
2B2
100
AcDbEntity
  8
IMPORT_IGES
100
AcDbLine
 62
253
  6
CONTINUOUS
 10
7.3273294862
 20
-7.2890822616
 11
5.6726704992
 21
-7.2890823573
  0
LINE
  5
2B3
100
AcDbEntity
  8
IMPORT_IGES
100
AcDbLine
 62
253
  6
CONTINUOUS
 10
-5.1
 20
-7.220139482
 11
-5.5499998924
 21
-7.2201361731
  0
LINE
  5
2B4
100
AcDbEntity
  8
IMPORT_IGES
100
AcDbLine
 62
253
  6
CONTINUOUS
 10
5.5500000028
 20
-7.220139482
 11
5.1
 21
-7.220139482
  0
LINE
  5
2B5
100
AcDbEntity
  8
IMPORT_IGES
100
AcDbLine
 62
253
  6
CONTINUOUS
 10
-7.4500029639
 20
-7.2201394921
 11
-7.7
 21
-7.2201394822
  0
LINE
  5
2B6
100
AcDbEntity
  8
IMPORT_IGES
100
AcDbLine
 62
253
  6
CONTINUOUS
 10
-4.85
 20
-7.049689002
 11
4.85
 21
-7.049689002
  0
LWPOLYLINE
  5
2B7
100
AcDbEntity
  8
IMPORT_IGES
100
AcDbPolyline
 62
253
  6
CONTINUOUS
 90
10
 70
0
 10
7.7
 20
-7.2201394817
 10
7.4420757231
 20
-7.2201262165
 10
7.4341604869
 20
-7.2200693337
 10
7.4262701394
 20
-7.2199689266
 10
7.4184170809
 20
-7.2198251349
 10
7.4106136574
 20
-7.2196381911
 10
7.4028721408
 20
-7.2194084198
 10
7.3952047017
 20
-7.2191361758
 10
7.38762339
 20
-7.2188218438
 10
7.3801401223
 20
-7.2184658837
  0
LWPOLYLINE
  5
2B8
100
AcDbEntity
  8
IMPORT_IGES
100
AcDbPolyline
 62
253
  6
CONTINUOUS
 90
10
 70
0
 10
-7.3273294422
 20
-7.3769319331
 10
-7.3284275781
 20
-7.3769227749
 10
-7.3295247526
 20
-7.3769055346
 10
-7.3306209658
 20
-7.3768802117
 10
-7.3317262306
 20
-7.3768482803
 10
-7.3328305342
 20
-7.3768082648
 10
-7.3339038373
 20
-7.37675574
 10
-7.3349361271
 20
-7.3766892286
 10
-7.3359374166
 20
-7.3766102028
 10
-7.3369077057
 20
-7.3765186593
  0
LWPOLYLINE
  5
2B9
100
AcDbEntity
  8
IMPORT_IGES
100
AcDbPolyline
 62
253
  6
CONTINUOUS
 90
13
 70
0
 10
-7.7
 20
-7.2201394822
 10
-7.7391578577
 20
-7.2198162641
 10
-7.7776457135
 20
-7.2188521404
 10
-7.8148050297
 20
-7.2172636076
 10
-7.85
 20
-7.2150778458
 10
-7.8826284287
 20
-7.212332254
 10
-7.9121320344
 20
-7.2090738101
 10
-7.9380060021
 20
-7.2053582669
 10
-7.9598076211
 20
-7.2012491985
 10
-7.9771638598
 20
-7.196816912
 10
-7.9897777479
 20
-7.1921372452
 10
-7.9974334584
 20
-7.1872902685
 10
-8.0
 20
-7.182358915
  0
LWPOLYLINE
  5
2BA
100
AcDbEntity
  8
IMPORT_IGES
100
AcDbPolyline
 62
253
  6
CONTINUOUS
 90
10
 70
0
 10
-5.1
 20
-7.220139482
 10
-5.0826351822
 20
-7.2203308059
 10
-5.0657979857
 20
-7.2208989643
 10
-5.05
 20
-7.2218266941
 10
-5.035721239
 20
-7.2230858065
 10
-5.0233955557
 20
-7.2246380442
 10
-5.0133974596
 20
-7.2264362432
 10
-5.0060307379
 20
-7.228425766
 10
-5.0015192247
 20
-7.2305461622
 10
-5.0
 20
-7.2327330044
  0
LINE
  5
2BB
100
AcDbEntity
  8
IMPORT_IGES
100
AcDbLine
 62
253
  6
CONTINUOUS
 10
7.0499999998
 20
-7.7759185928
 11
7.0853209449
 21
-7.7773155713
  0
LWPOLYLINE
  5
2BC
100
AcDbEntity
  8
IMPORT_IGES
100
AcDbPolyline
 62
253
  6
CONTINUOUS
 90
13
 70
0
 10
5.672670559
 20
-7.3770226709
 10
5.6533750516
 20
-7.3751046645
 10
5.6358021519
 20
-7.3711968835
 10
5.6199518599
 20
-7.3652750346
 10
5.6059429412
 20
-7.3573494072
 10
5.5936566303
 20
-7.3473309696
 10
5.5827366303
 20
-7.335029509
 10
5.5728862703
 20
-7.3199780201
 10
5.5644022212
 20
-7.3025141155
 10
5.5578181986
 20
-7.2836893003
 10
5.5533121077
 20
-7.2638667019
 10
5.5507060434
 20
-7.2426801939
 10
5.5500000056
 20
-7.220139482
  0
LINE
  5
2BD
100
AcDbEntity
  8
IMPORT_IGES
100
AcDbLine
 62
253
  6
CONTINUOUS
 10
7.0853209449
 20
-7.7773155713
 11
7.1196642793
 21
-7.7812136095
  0
LWPOLYLINE
  5
2BE
100
AcDbEntity
  8
IMPORT_IGES
100
AcDbPolyline
 62
253
  6
CONTINUOUS
 90
13
 70
0
 10
-5.75
 20
-4.0886333932
 10
-5.7482889723
 20
-4.0919209622
 10
-5.7431851653
 20
-4.0951522801
 10
-5.7347759065
 20
-4.0982720579
 10
-5.7232050808
 20
-4.1012269156
 10
-5.7086706681
 20
-4.1039662945
 10
-5.6914213562
 20
-4.1064433233
 10
-5.6717522858
 20
-4.1086156193
 10
-5.65
 20
-4.1104460138
 10
-5.6265366865
 20
-4.1119031883
 10
-5.601763809
 20
-4.1129622102
 10
-5.5761052384
 20
-4.1136049593
 10
-5.55
 20
-4.1138204379
  0
LWPOLYLINE
  5
2BF
100
AcDbEntity
  8
IMPORT_IGES
100
AcDbPolyline
 62
7
  6
CONTINUOUS
 90
9
 70
0
 10
-5.0356195388
 20
-7.9090337052
 10
-5.0396411577
 20
-7.894640851
 10
-5.0448750577
 20
-7.8784884056
 10
-5.0520733889
 20
-7.858654711
 10
-5.0607720627
 20
-7.83754787
 10
-5.0700882454
 20
-7.8193694702
 10
-5.079629351
 20
-7.8054825192
 10
-5.0896300359
 20
-7.7946384332
 10
-5.1
 20
-7.7869127817
  0
LWPOLYLINE
  5
2C0
100
AcDbEntity
  8
IMPORT_IGES
100
AcDbPolyline
 62
253
  6
CONTINUOUS
 90
11
 70
0
 10
-5.6193598745
 20
-7.2187434593
 10
-5.631011822
 20
-7.147539666
 10
-5.6429146652
 20
-7.0573443111
 10
-5.6549607025
 20
-6.9481461009
 10
-5.667600353
 20
-6.811436051
 10
-5.6800495346
 20
-6.6556924633
 10
-5.69062925
 20
-6.5064358083
 10
-5.6987359122
 20
-6.3753724948
 10
-5.7053993031
 20
-6.2508721122
 10
-5.7115521755
 20
-6.123473132
 10
-5.7174735539
 20
-5.9885165556
  0
LWPOLYLINE
  5
2C1
100
AcDbEntity
  8
IMPORT_IGES
100
AcDbPolyline
 62
253
  6
CONTINUOUS
 90
6
 70
0
 10
-7.3
 20
10.7245213473
 10
-7.3016242634
 20
10.7425083862
 10
-7.3064764681
 20
10.7602189845
 10
-7.3144862424
 20
10.7773637817
 10
-7.3254898982
 20
10.793609061
 10
-7.339338217
 20
10.8087466151
  0
LINE
  5
2C2
100
AcDbEntity
  8
IMPORT_IGES
100
AcDbLine
 62
253
  6
CONTINUOUS
 10
-5.7174735539
 20
-5.9885165556
 11
-5.7276148932
 21
-5.7144329947
  0
LINE
  5
2C3
100
AcDbEntity
  8
IMPORT_IGES
100
AcDbLine
 62
253
  6
CONTINUOUS
 10
-5.7276148932
 20
-5.7144329947
 11
-5.7352164753
 21
-5.4551199257
  0
LINE
  5
2C4
100
AcDbEntity
  8
IMPORT_IGES
100
AcDbLine
 62
253
  6
CONTINUOUS
 10
-5.7352164753
 20
-5.4551199257
 11
-5.7414126344
 21
-5.1794498756
  0
LINE
  5
2C5
100
AcDbEntity
  8
IMPORT_IGES
100
AcDbLine
 62
253
  6
CONTINUOUS
 10
-5.7414126344
 20
-5.1794498756
 11
-5.7463035835
 21
-4.8689150373
  0
LWPOLYLINE
  5
2C6
100
AcDbEntity
  8
IMPORT_IGES
100
AcDbPolyline
 62
253
  6
CONTINUOUS
 90
3
 70
0
 10
-5.7463035835
 20
-4.8689150373
 10
-5.7495230247
 20
-4.4837826911
 10
-5.75
 20
-4.2658966673
  0
LINE
  5
2C7
100
AcDbEntity
  8
IMPORT_IGES
100
AcDbLine
 62
253
  6
CONTINUOUS
 10
-6.5000000002
 20
8.8705111126
 11
-6.5
 21
8.5705111126
  0
LINE
  5
2C8
100
AcDbEntity
  8
IMPORT_IGES
100
AcDbLine
 62
253
  6
CONTINUOUS
 10
-6.2231434405
 20
-10.1785294469
 11
-6.2231434417
 21
-10.3249855001
  0
LINE
  5
2C9
100
AcDbEntity
  8
IMPORT_IGES
100
AcDbLine
 62
253
  6
CONTINUOUS
 10
-6.1500000002
 20
11.5750144999
 11
-6.15
 21
11.7750144999
  0
LINE
  5
2CA
100
AcDbEntity
  8
IMPORT_IGES
100
AcDbLine
 62
253
  6
CONTINUOUS
 10
-5.95
 20
5.3500144999
 11
-5.95
 21
5.1500144999
  0
LINE
  5
2CB
100
AcDbEntity
  8
IMPORT_IGES
100
AcDbLine
 62
253
  6
CONTINUOUS
 10
-5.9500000003
 20
-4.2658966671
 11
-5.95
 21
1.1715737501
  0
LINE
  5
2CC
100
AcDbEntity
  8
IMPORT_IGES
100
AcDbLine
 62
7
  6
CONTINUOUS
 10
-5.9467037363
 20
-10.5249855001
 11
-5.9467032667
 21
-10.5131253325
  0
LINE
  5
2CD
100
AcDbEntity
  8
IMPORT_IGES
100
AcDbLine
 62
253
  6
CONTINUOUS
 10
-5.8964101326
 20
2.5449270087
 11
-5.8964101615
 21
5.1536205932
  0
LINE
  5
2CE
100
AcDbEntity
  8
IMPORT_IGES
100
AcDbLine
 62
253
  6
CONTINUOUS
 10
-5.8499999998
 20
7.1705111126
 11
-5.85
 21
6.9705111126
  0
LINE
  5
2CF
100
AcDbEntity
  8
IMPORT_IGES
100
AcDbLine
 62
7
  6
CONTINUOUS
 10
-5.8
 20
5.5205144999
 11
-5.8
 21
6.9205144999
  0
LINE
  5
2D0
100
AcDbEntity
  8
IMPORT_IGES
100
AcDbLine
 62
7
  6
CONTINUOUS
 10
-5.75
 20
-4.2658966671
 11
-5.75
 21
1.1166396854
  0
LINE
  5
2D1
100
AcDbEntity
  8
IMPORT_IGES
100
AcDbLine
 62
7
  6
CONTINUOUS
 10
-5.75
 20
5.550014495
 11
-5.75
 21
6.8705111126
  0
LINE
  5
2D2
100
AcDbEntity
  8
IMPORT_IGES
100
AcDbLine
 62
253
  6
CONTINUOUS
 10
-5.7232050808
 20
5.5500145199
 11
-5.7232050808
 21
2.544925371
  0
LINE
  5
2D3
100
AcDbEntity
  8
IMPORT_IGES
100
AcDbLine
 62
253
  6
CONTINUOUS
 10
-5.6726701529
 20
-7.28908297
 11
-5.6726707733
 21
-7.3769773319
  0
LINE
  5
2D4
100
AcDbEntity
  8
IMPORT_IGES
100
AcDbLine
 62
253
  6
CONTINUOUS
 10
-5.65
 20
-10.3249855001
 11
-5.65
 21
-10.5249855001
  0
LWPOLYLINE
  5
2D5
100
AcDbEntity
  8
IMPORT_IGES
100
AcDbPolyline
 62
253
  6
CONTINUOUS
 90
4
 70
0
 10
-5.7232050808
 20
2.544925371
 10
-5.7238749161
 20
2.3932048003
 10
-5.7257337229
 20
2.2405516015
 10
-5.7286560694
 20
2.0869657747
  0
LWPOLYLINE
  5
2D6
100
AcDbEntity
  8
IMPORT_IGES
100
AcDbPolyline
 62
253
  6
CONTINUOUS
 90
10
 70
0
 10
-5.8964101508
 20
2.5449270087
 10
-5.8985411696
 20
2.3974748278
 10
-5.9022345777
 20
2.2493955605
 10
-5.907490375
 20
2.100822328
 10
-5.9151172775
 20
1.9532429655
 10
-5.9243065692
 20
1.8054363037
 10
-5.9326321022
 20
1.6535264326
 10
-5.9392851603
 20
1.49640021
 10
-5.9450744595
 20
1.3356548435
 10
-5.95
 20
1.1715737501
  0
LWPOLYLINE
  5
2D7
100
AcDbEntity
  8
IMPORT_IGES
100
AcDbPolyline
 62
253
  6
CONTINUOUS
 90
3
 70
0
 10
-5.7455038296
 20
1.456801534
 10
-5.7487165437
 20
1.2888105871
 10
-5.75
 20
1.1166396854
  0
LINE
  5
2D8
100
AcDbEntity
  8
IMPORT_IGES
100
AcDbLine
 62
253
  6
CONTINUOUS
 10
-5.7286560694
 20
2.0869657747
 11
-5.7455038296
 21
1.456801534
  0
LWPOLYLINE
  5
2D9
100
AcDbEntity
  8
IMPORT_IGES
100
AcDbPolyline
 62
253
  6
CONTINUOUS
 90
13
 70
0
 10
-7.25
 20
-9.4653223752
 10
-7.2512832708
 20
-9.4809588007
 10
-7.2551111261
 20
-9.4963276832
 10
-7.2614180701
 20
-9.5111660568
 10
-7.2700961894
 20
-9.5252200329
 10
-7.280996999
 20
-9.538249144
 10
-7.2939339828
 20
-9.5500304578
 10
-7.3086857856
 20
-9.5603623925
 10
-7.325
 20
-9.5690681661
 10
-7.3425974851
 20
-9.5759988203
 10
-7.3611771432
 20
-9.5810357698
 10
-7.3804210712
 20
-9.5840928309
 10
-7.4
 20
-9.5851176965
  0
LWPOLYLINE
  5
2DA
100
AcDbEntity
  8
IMPORT_IGES
100
AcDbPolyline
 62
253
  6
CONTINUOUS
 90
4
 70
0
 10
-5.7282633318
 20
5.4605099429
 10
-5.7257124009
 20
5.4894107379
 10
-5.7240478305
 20
5.5192455969
 10
-5.7232050808
 20
5.5500145199
  0
LWPOLYLINE
  5
2DB
100
AcDbEntity
  8
IMPORT_IGES
100
AcDbPolyline
 62
7
  6
CONTINUOUS
 90
5
 70
0
 10
-7.1326037127
 20
-7.8174086205
 10
-7.1106494687
 20
-7.8120930844
 10
-7.0876184532
 20
-7.8083906485
 10
-7.0641167696
 20
-7.8064432512
 10
-7.0500009855
 20
-7.8061239938
  0
LWPOLYLINE
  5
2DC
100
AcDbEntity
  8
IMPORT_IGES
100
AcDbPolyline
 62
253
  6
CONTINUOUS
 90
5
 70
0
 10
-7.117781948
 20
-7.7808437628
 10
-7.1506789735
 20
-7.7870773961
 10
-7.1832993982
 20
-7.7958995069
 10
-7.2152571906
 20
-7.8072356498
 10
-7.2453942556
 20
-7.8208624892
  0
LINE
  5
2DD
100
AcDbEntity
  8
IMPORT_IGES
100
AcDbLine
 62
253
  6
CONTINUOUS
 10
-5.0
 20
-6.3425822205
 11
5.0
 21
-6.3425822205
  0
LWPOLYLINE
  5
2DE
100
AcDbEntity
  8
IMPORT_IGES
100
AcDbPolyline
 62
253
  6
CONTINUOUS
 90
5
 70
0
 10
7.1196642793
 20
-7.7812136095
 10
7.153030003
 20
-7.7876127073
 10
7.1857034454
 20
-7.7965888491
 10
7.2173992772
 20
-7.8080660505
 10
7.2472615102
 20
-7.8218163583
  0
LWPOLYLINE
  5
2DF
100
AcDbEntity
  8
IMPORT_IGES
100
AcDbPolyline
 62
7
  6
CONTINUOUS
 90
3
 70
0
 10
7.099888422
 20
-7.8101340278
 10
7.1223921078
 20
-7.8147085735
 10
7.1434151158
 20
-7.8207270519
  0
LWPOLYLINE
  5
2E0
100
AcDbEntity
  8
IMPORT_IGES
100
AcDbPolyline
 62
253
  6
CONTINUOUS
 90
9
 70
0
 10
7.25
 20
-9.3297107625
 10
7.2482889723
 20
-9.329093992
 10
7.2431851653
 20
-9.3284877746
 10
7.2347759065
 20
-9.3279024829
 10
7.2232050808
 20
-9.3273481313
 10
7.2086706681
 20
-9.326834205
 10
7.1914213562
 20
-9.3263694974
 10
7.1717521821
 20
-9.3259619579
 10
7.1265366865
 20
-9.3253451893
  0
LWPOLYLINE
  5
2E1
100
AcDbEntity
  8
IMPORT_IGES
100
AcDbPolyline
 62
253
  6
CONTINUOUS
 90
10
 70
0
 10
-5.0
 20
-4.1264139603
 10
-5.0015192247
 20
-4.1242271181
 10
-5.0060307379
 20
-4.1221067219
 10
-5.0133974596
 20
-4.1201171991
 10
-5.0233955557
 20
-4.1183190001
 10
-5.035721239
 20
-4.1167667624
 10
-5.05
 20
-4.11550765
 10
-5.0657979857
 20
-4.1145799202
 10
-5.0826351822
 20
-4.1140117618
 10
-5.1
 20
-4.1138204379
  0
LWPOLYLINE
  5
2E2
100
AcDbEntity
  8
IMPORT_IGES
100
AcDbPolyline
 62
253
  6
CONTINUOUS
 90
13
 70
0
 10
-5.75
 20
-0.3845820319
 10
-5.7482889723
 20
-0.3953362384
 10
-5.7431851653
 20
-0.4059064373
 10
-5.7347759065
 20
-0.4161117698
 10
-5.7232050808
 20
-0.4257776197
 10
-5.7086706681
 20
-0.4347386017
 10
-5.6914213562
 20
-0.4428413908
 10
-5.6717522858
 20
-0.4499473462
 10
-5.65
 20
-0.4559348829
 10
-5.6265366865
 20
-0.4607015526
 10
-5.601763809
 20
-0.4641657962
 10
-5.5761052384
 20
-0.4662683395
 10
-5.55
 20
-0.4669732074
  0
LWPOLYLINE
  5
2E3
100
AcDbEntity
  8
IMPORT_IGES
100
AcDbPolyline
 62
253
  6
CONTINUOUS
 90
13
 70
0
 10
-5.0
 20
-6.9436229845
 10
-4.9987167292
 20
-6.9574673779
 10
-4.9948888739
 20
-6.9710748898
 10
-4.9885819299
 20
-6.9842126921
 10
-4.9799038106
 20
-6.9966559931
 10
-4.969003001
 20
-7.0081918847
 10
-4.9560660172
 20
-7.0186229845
 10
-4.9413142144
 20
-7.0277708136
 10
-4.925
 20
-7.0354788499
 10
-4.9074025149
 20
-7.0416152069
 10
-4.8888228568
 20
-7.0460748898
 10
-4.8695789288
 20
-7.0487815922
 10
-4.85
 20
-7.0496890017
  0
LWPOLYLINE
  5
2E4
100
AcDbEntity
  8
IMPORT_IGES
100
AcDbPolyline
 62
253
  6
CONTINUOUS
 90
10
 70
0
 10
-5.0040502491
 20
-0.4965644043
 10
-5.0031999239
 20
-0.5133628238
 10
-5.002449793
 20
-0.5302296582
 10
-5.0017999647
 20
-0.5471635484
 10
-5.0012509028
 20
-0.5641624494
 10
-5.0008018541
 20
-0.5812257025
 10
-5.0004517705
 20
-0.5983540909
 10
-5.000200984
 20
-0.6155470332
 10
-5.0000502869
 20
-0.6328025302
 10
-5.0
 20
-0.650119275
  0
LWPOLYLINE
  5
2E5
100
AcDbEntity
  8
IMPORT_IGES
100
AcDbPolyline
 62
7
  6
CONTINUOUS
 90
14
 70
0
 10
-5.0
 20
-8.2329010972
 10
-5.0004448808
 20
-8.19346512
 10
-5.0016729202
 20
-8.1568374702
 10
-5.0035283148
 20
-8.1230575284
 10
-5.0058455858
 20
-8.0923854301
 10
-5.0084980641
 20
-8.0645843622
 10
-5.0114344646
 20
-8.0389348687
 10
-5.0145721349
 20
-8.0153583758
 10
-5.0178295078
 20
-7.9939164691
 10
-5.0212199489
 20
-7.9741111292
 10
-5.0246482772
 20
-7.9561470922
 10
-5.0281140125
 20
-7.9397948895
 10
-5.0318399583
 20
-7.9239420968
 10
-5.0356195388
 20
-7.9090337052
  0
LINE
  5
2E6
100
AcDbEntity
  8
IMPORT_IGES
100
AcDbLine
 62
253
  6
CONTINUOUS
 10
-5.5499998924
 20
-7.2201361731
 11
-5.55
 21
6.8705111124
  0
LINE
  5
2E7
100
AcDbEntity
  8
IMPORT_IGES
100
AcDbLine
 62
253
  6
CONTINUOUS
 10
-5.3
 20
0.4700144999
 11
-5.3
 21
7.3705111126
  0
LINE
  5
2E8
100
AcDbEntity
  8
IMPORT_IGES
100
AcDbLine
 62
253
  6
CONTINUOUS
 10
-5.1
 20
-1.0051951141
 11
-5.1
 21
0.3539325167
  0
LINE
  5
2E9
100
AcDbEntity
  8
IMPORT_IGES
100
AcDbLine
 62
253
  6
CONTINUOUS
 10
-5.1000000191
 20
-7.7869127817
 11
-5.1
 21
-1.0411854404
  0
LINE
  5
2EA
100
AcDbEntity
  8
IMPORT_IGES
100
AcDbLine
 62
7
  6
CONTINUOUS
 10
-5.0
 20
-10.1709433107
 11
-5.0
 21
-1.2582911579
  0
LINE
  5
2EB
100
AcDbEntity
  8
IMPORT_IGES
100
AcDbLine
 62
7
  6
CONTINUOUS
 10
-5.0
 20
-0.8000875865
 11
-5.0
 21
-0.650119275
  0
LINE
  5
2EC
100
AcDbEntity
  8
IMPORT_IGES
100
AcDbLine
 62
7
  6
CONTINUOUS
 10
-5.0
 20
0.5700144999
 11
-5.0
 21
7.3705111126
  0
LINE
  5
2ED
100
AcDbEntity
  8
IMPORT_IGES
100
AcDbLine
 62
7
  6
CONTINUOUS
 10
-4.9273029486
 20
-11.7750144998
 11
-4.9273029486
 21
-10.6250145005
  0
LINE
  5
2EE
100
AcDbEntity
  8
IMPORT_IGES
100
AcDbLine
 62
253
  6
CONTINUOUS
 10
-4.85
 20
-0.6501192748
 11
-4.85
 21
-0.7237541674
  0
LINE
  5
2EF
100
AcDbEntity
  8
IMPORT_IGES
100
AcDbLine
 62
253
  6
CONTINUOUS
 10
-4.85
 20
-10.3206155656
 11
-4.85
 21
-1.4569558805
  0
LINE
  5
2F0
100
AcDbEntity
  8
IMPORT_IGES
100
AcDbLine
 62
253
  6
CONTINUOUS
 10
-4.6999999998
 20
-2.4545022895
 11
-4.6999999998
 21
-1.6407156002
  0
LINE
  5
2F1
100
AcDbEntity
  8
IMPORT_IGES
100
AcDbLine
 62
253
  6
CONTINUOUS
 10
-4.6999999998
 20
-0.6737394736
 11
-4.7
 21
0.5700144999
  0
LINE
  5
2F2
100
AcDbEntity
  8
IMPORT_IGES
100
AcDbLine
 62
253
  6
CONTINUOUS
 10
-4.670682221
 20
3.7549276307
 11
-4.6706822208
 21
3.5549276307
  0
LINE
  5
2F3
100
AcDbEntity
  8
IMPORT_IGES
100
AcDbLine
 62
253
  6
CONTINUOUS
 10
-5.2000000002
 20
-7.7759185928
 11
-5.199999929
 21
-10.3249855001
  0
LWPOLYLINE
  5
2F4
100
AcDbEntity
  8
IMPORT_IGES
100
AcDbPolyline
 62
253
  6
CONTINUOUS
 90
13
 70
0
 10
-5.5499998924
 20
-7.2201328641
 10
-5.5507948566
 20
-7.2428260288
 10
-5.553409619
 20
-7.2640422055
 10
-5.5578441796
 20
-7.2837746437
 10
-5.5640973158
 20
-7.3022346289
 10
-5.5721702502
 20
-7.3192257374
 10
-5.5820666505
 20
-7.3341652226
 10
-5.5940497541
 20
-7.347103067
 10
-5.6078563236
 20
-7.3580877209
 10
-5.6227003147
 20
-7.3665761213
 10
-5.6383197126
 20
-7.3724290401
 10
-5.6549765322
 20
-7.3758874769
 10
-5.6726707733
 20
-7.3769773336
  0
LWPOLYLINE
  5
2F5
100
AcDbEntity
  8
IMPORT_IGES
100
AcDbPolyline
 62
253
  6
CONTINUOUS
 90
13
 70
0
 10
-4.0
 20
9.2116918027
 10
-3.9983313563
 20
9.2299219028
 10
-3.9933738394
 20
9.2477927601
 10
-3.9852400164
 20
9.2650122319
 10
-3.9741556529
 20
9.2812252788
 10
-3.9602955701
 20
9.296265233
 10
-3.9436438268
 20
9.3100951844
 10
-3.9242575456
 20
9.3225071049
 10
-3.9024887705
 20
9.3331332535
 10
-3.8787583599
 20
9.3416862656
 10
-3.8534915888
 20
9.3479611132
 10
-3.827083772
 20
9.3518104476
 10
-3.8
 20
9.353113159
  0
LINE
  5
2F6
100
AcDbEntity
  8
IMPORT_IGES
100
AcDbLine
 62
253
  6
CONTINUOUS
 10
-3.9982889722
 20
11.3056057255
 11
-4.0
 21
11.2871465345
  0
LWPOLYLINE
  5
2F7
100
AcDbEntity
  8
IMPORT_IGES
100
AcDbPolyline
 62
253
  6
CONTINUOUS
 90
13
 70
0
 10
-4.0205799246
 20
8.5933378443
 10
-4.0178970226
 20
8.6106208944
 10
-4.0120988347
 20
8.6276865518
 10
-4.0032315923
 20
8.6440984102
 10
-3.9916733548
 20
8.6592520558
 10
-3.977681282
 20
8.6730142556
 10
-3.9609998522
 20
8.6856015012
 10
-3.9417993
 20
8.6967097062
 10
-3.9205829105
 20
8.7059599869
 10
-3.8973509386
 20
8.7132696571
 10
-3.8724816455
 20
8.7183977834
 10
-3.8468054905
 20
8.7211315141
 10
-3.8210222912
 20
8.7214550817
  0
LWPOLYLINE
  5
2F8
100
AcDbEntity
  8
IMPORT_IGES
100
AcDbPolyline
 62
7
  6
CONTINUOUS
 90
28
 70
0
 10
-4.1522052088
 20
2.5100144999
 10
-4.1470968478
 20
2.5235446961
 10
-4.1429521531
 20
2.5367059275
 10
-4.1397711246
 20
2.5494981941
 10
-4.1375848935
 20
2.5619427456
 10
-4.1363623287
 20
2.5740183323
 10
-4.136010037
 20
2.5856612053
 10
-4.1365295769
 20
2.5968757518
 10
-4.13791939
 20
2.6076575846
 10
-4.1400814077
 20
2.6179297924
 10
-4.1430187311
 20
2.6276783759
 10
-4.146728259
 20
2.6369173344
 10
-4.1511026196
 20
2.6456117542
 10
-4.1561418175
 20
2.6537542997
 10
-4.1618458479
 20
2.6613523064
 10
-4.168107325
 20
2.6683928677
 10
-4.1749078146
 20
2.6748646998
 10
-4.1822657508
 20
2.6807790865
 10
-4.1901290502
 20
2.6861569718
 10
-4.1984873272
 20
2.6910069882
 10
-4.2073509674
 20
2.6953205032
 10
-4.2166990446
 20
2.6990925639
 10
-4.2265093061
 20
2.7023337405
 10
-4.2368040047
 20
2.7050334628
 10
-4.2476289722
 20
2.7071550664
 10
-4.2589994858
 20
2.7086863296
 10
-4.2709002683
 20
2.7096394741
 10
-4.2833313197
 20
2.7100144999
  0
LWPOLYLINE
  5
2F9
100
AcDbEntity
  8
IMPORT_IGES
100
AcDbPolyline
 62
253
  6
CONTINUOUS
 90
7
 70
0
 10
-3.755941367
 20
3.4625331194
 10
-3.7847619559
 20
3.4391417363
 10
-3.8152462182
 20
3.4138954183
 10
-3.8476554566
 20
3.3867933856
 10
-3.8816389816
 20
3.3572003274
 10
-3.9170798968
 20
3.3250038967
 10
-3.9926845872
 20
3.2549276307
  0
LWPOLYLINE
  5
2FA
100
AcDbEntity
  8
IMPORT_IGES
100
AcDbPolyline
 62
253
  6
CONTINUOUS
 90
4
 70
0
 10
-3.6531936267
 20
3.5414044123
 10
-3.6845853199
 20
3.5179752935
 10
-3.7052097141
 20
3.5021296419
 10
-3.755941367
 20
3.4625331194
  0
LWPOLYLINE
  5
2FB
100
AcDbEntity
  8
IMPORT_IGES
100
AcDbPolyline
 62
253
  6
CONTINUOUS
 90
4
 70
0
 10
-3.6348190853
 20
3.5549276289
 10
-3.6372059829
 20
3.5534116112
 10
-3.64333083
 20
3.5488875612
 10
-3.6531936267
 20
3.5414044123
  0
LWPOLYLINE
  5
2FC
100
AcDbEntity
  8
IMPORT_IGES
100
AcDbPolyline
 62
253
  6
CONTINUOUS
 90
16
 70
0
 10
-7.3273295009
 20
-7.2890824531
 10
-7.3362135071
 20
-7.2914712548
 10
-7.3444883328
 20
-7.2925384888
 10
-7.3521482485
 20
-7.2923223787
 10
-7.3593752546
 20
-7.2908612212
 10
-7.3659886413
 20
-7.288193733
 10
-7.3714744848
 20
-7.2843513314
 10
-7.3756647277
 20
-7.2790140225
 10
-7.3788186793
 20
-7.2725258214
 10
-7.381083157
 20
-7.2658760125
 10
-7.3824209588
 20
-7.2595618073
 10
-7.3829191754
 20
-7.253033129
 10
-7.3828926851
 20
-7.2457038257
 10
-7.3824547155
 20
-7.2373745024
 10
-7.3815194578
 20
-7.2282202352
 10
-7.3800994835
 20
-7.218226121
  0
LINE
  5
2FD
100
AcDbEntity
  8
IMPORT_IGES
100
AcDbLine
 62
7
  6
CONTINUOUS
 10
-8.05
 20
-5.3749855001
 11
-8.0
 21
-5.3749855001
  0
LINE
  5
2FE
100
AcDbEntity
  8
IMPORT_IGES
100
AcDbLine
 62
7
  6
CONTINUOUS
 10
8.0
 20
-5.3749855001
 11
8.05
 21
-5.3749855001
  0
LWPOLYLINE
  5
2FF
100
AcDbEntity
  8
IMPORT_IGES
100
AcDbPolyline
 62
7
  6
CONTINUOUS
 90
14
 70
0
 10
7.1434151158
 20
-7.8207270519
 10
7.1625336611
 20
-7.8278804935
 10
7.1797357275
 20
-7.8359579582
 10
7.1948561068
 20
-7.8446450589
 10
7.2077977368
 20
-7.8536100395
 10
7.218781501
 20
-7.8627450165
 10
7.2279727706
 20
-7.871959489
 10
7.2353399819
 20
-7.8809617834
 10
7.2408826928
 20
-7.8893776651
 10
7.2450022552
 20
-7.8974492154
 10
7.2478162635
 20
-7.9051367201
 10
7.2493343014
 20
-7.9117864706
 10
7.249970352
 20
-7.9178986085
 10
7.2499965957
 20
-7.9186438969
  0
LINE
  5
300
100
AcDbEntity
  8
IMPORT_IGES
100
AcDbLine
 62
253
  6
CONTINUOUS
 10
-4.8330221321
 20
-0.9289179219
 11
-4.8962844122
 21
-0.7391868387
  0
LWPOLYLINE
  5
301
100
AcDbEntity
  8
IMPORT_IGES
100
AcDbPolyline
 62
253
  6
CONTINUOUS
 90
13
 70
0
 10
-5.75
 20
1.1166396853
 10
-5.7516698148
 20
1.1237233859
 10
-5.7566300617
 20
1.1306666817
 10
-5.7647669932
 20
1.1373560696
 10
-5.7758531826
 20
1.1436534561
 10
-5.7897130783
 20
1.1494945102
 10
-5.8063639637
 20
1.1548656871
 10
-5.8257497628
 20
1.1596863787
 10
-5.847517842
 20
1.1638135098
 10
-5.8712471437
 20
1.1671354469
 10
-5.8965123407
 20
1.1695725744
 10
-5.9229182912
 20
1.171067684
 10
-5.95
 20
1.1715737501
  0
LINE
  5
302
100
AcDbEntity
  8
IMPORT_IGES
100
AcDbLine
 62
253
  6
CONTINUOUS
 10
-5.8964105296
 20
5.1536205448
 11
-5.9232050808
 21
5.3518175465
  0
LWPOLYLINE
  5
303
100
AcDbEntity
  8
IMPORT_IGES
100
AcDbPolyline
 62
253
  6
CONTINUOUS
 90
8
 70
0
 10
-5.1
 20
0.3539325167
 10
-5.0597798189
 20
0.0535830527
 10
-5.0475445993
 20
-0.0430742941
 10
-5.0362616846
 20
-0.1379788075
 10
-5.0259670391
 20
-0.2307777938
 10
-5.0169193919
 20
-0.3214056926
 10
-5.0095116778
 20
-0.4100091134
 10
-5.0040502491
 20
-0.4965644043
  0
LWPOLYLINE
  5
304
100
AcDbEntity
  8
IMPORT_IGES
100
AcDbPolyline
 62
253
  6
CONTINUOUS
 90
10
 70
0
 10
-4.8601257802
 20
-0.4791548191
 10
-4.857964561
 20
-0.49832257
 10
-4.8560640673
 20
-0.5174500441
 10
-4.854424299
 20
-0.5365372413
 10
-4.8530475126
 20
-0.5555876928
 10
-4.8519314516
 20
-0.5745978675
 10
-4.8510693467
 20
-0.5935571723
 10
-4.8504589417
 20
-0.6124620763
 10
-4.8501024928
 20
-0.6313161105
 10
-4.85
 20
-0.6501192748
  0
LINE
  5
305
100
AcDbEntity
  8
IMPORT_IGES
100
AcDbLine
 62
253
  6
CONTINUOUS
 10
-4.6316847109
 20
6.9950144999
 11
-4.6316847113
 21
7.1950144999
  0
LINE
  5
306
100
AcDbEntity
  8
IMPORT_IGES
100
AcDbLine
 62
7
  6
CONTINUOUS
 10
-4.5
 20
0.4700144999
 11
-4.5
 21
-0.6070532154
  0
LINE
  5
307
100
AcDbEntity
  8
IMPORT_IGES
100
AcDbLine
 62
7
  6
CONTINUOUS
 10
-4.5
 20
-1.8697615647
 11
-4.5
 21
-2.4545022895
  0
LINE
  5
308
100
AcDbEntity
  8
IMPORT_IGES
100
AcDbLine
 62
253
  6
CONTINUOUS
 10
-4.3831372518
 20
3.5549276307
 11
-4.3831372525
 21
3.2549276307
  0
LINE
  5
309
100
AcDbEntity
  8
IMPORT_IGES
100
AcDbLine
 62
7
  6
CONTINUOUS
 10
-4.25
 20
-2.1187685592
 11
-4.25
 21
-2.9479923439
  0
LINE
  5
30A
100
AcDbEntity
  8
IMPORT_IGES
100
AcDbLine
 62
253
  6
CONTINUOUS
 10
-4.2
 20
9.1998957074
 11
-4.1999999983
 21
11.5750144999
  0
LINE
  5
30B
100
AcDbEntity
  8
IMPORT_IGES
100
AcDbLine
 62
253
  6
CONTINUOUS
 10
-4.15
 20
-2.2135381388
 11
-4.15
 21
-3.070134121
  0
LINE
  5
30C
100
AcDbEntity
  8
IMPORT_IGES
100
AcDbLine
 62
7
  6
CONTINUOUS
 10
-4.1048535023
 20
8.7750144999
 11
-4.1048535023
 21
8.23515436
  0
LINE
  5
30D
100
AcDbEntity
  8
IMPORT_IGES
100
AcDbLine
 62
7
  6
CONTINUOUS
 10
-4.1048535023
 20
8.2225669474
 11
-4.1048535023
 21
8.1543851292
  0
LINE
  5
30E
100
AcDbEntity
  8
IMPORT_IGES
100
AcDbLine
 62
7
  6
CONTINUOUS
 10
-4.0
 20
11.3750144929
 11
-4.0
 21
9.2116916887
  0
LINE
  5
30F
100
AcDbEntity
  8
IMPORT_IGES
100
AcDbLine
 62
253
  6
CONTINUOUS
 10
-3.9214927418
 20
-0.4249855001
 11
-3.9214927418
 21
-0.6249855001
  0
LINE
  5
310
100
AcDbEntity
  8
0
100
AcDbLine
 62
7
  6
CONTINUOUS
 10
-3.7340923596
 20
-10.6250145005
 11
-3.7340923596
 21
-10.7250145005
  0
LWPOLYLINE
  5
311
100
AcDbEntity
  8
IMPORT_IGES
100
AcDbPolyline
 62
253
  6
CONTINUOUS
 90
7
 70
0
 10
-4.2
 20
9.1998957074
 10
-4.206593584
 20
8.8498586187
 10
-4.2265648392
 20
8.5006562123
 10
-4.2599137656
 20
8.1523124779
 10
-4.3067045886
 20
7.8042045512
 10
-4.3668730828
 20
7.4570034784
 10
-4.4117638491
 20
7.2462780786
  0
LINE
  5
312
100
AcDbEntity
  8
IMPORT_IGES
100
AcDbLine
 62
253
  6
CONTINUOUS
 10
-3.8253262732
 20
8.6179462903
 11
-3.8210222993
 21
8.7214611062
  0
LINE
  5
313
100
AcDbEntity
  8
IMPORT_IGES
100
AcDbLine
 62
253
  6
CONTINUOUS
 10
-3.8330381199
 20
8.4547675506
 11
-3.8253262732
 21
8.6179462903
  0
LINE
  5
314
100
AcDbEntity
  8
IMPORT_IGES
100
AcDbLine
 62
253
  6
CONTINUOUS
 10
-3.8375208547
 20
8.3679077187
 11
-3.8330381199
 21
8.4547675506
  0
LWPOLYLINE
  5
315
100
AcDbEntity
  8
IMPORT_IGES
100
AcDbPolyline
 62
253
  6
CONTINUOUS
 90
10
 70
0
 10
-3.8210224345
 20
8.7214611091
 10
-3.8166096668
 20
8.791604308
 10
-3.8127161006
 20
8.8617590467
 10
-3.8093417358
 20
8.9319253252
 10
-3.8064865272
 20
9.0021050756
 10
-3.8041505201
 20
9.0722963658
 10
-3.8023338502
 20
9.1424933989
 10
-3.8010365629
 20
9.2126942426
 10
-3.8002586128
 20
9.2829008293
 10
-3.8
 20
11.5750144999
  0
LWPOLYLINE
  5
316
100
AcDbEntity
  8
IMPORT_IGES
100
AcDbPolyline
 62
253
  6
CONTINUOUS
 90
19
 70
0
 10
-7.3273295009
 20
-7.28908297
 10
-7.3105671268
 20
-7.2508519408
 10
-7.2916966735
 20
-7.189568284
 10
-7.2707181408
 20
-7.1052319996
 10
-7.2457914307
 20
-6.9884353414
 10
-7.2187566412
 20
-6.8485860556
 10
-7.195134067
 20
-6.7139073811
 10
-7.1773856507
 20
-6.594475306
 10
-7.1630494495
 20
-6.4802138422
 10
-7.1502599297
 20
-6.3691182639
 10
-7.1387941447
 20
-6.2638638775
 10
-7.1288750411
 20
-6.1617753765
 10
-7.119305924
 20
-6.0528221158
 10
-7.1094256146
 20
-5.9294707909
 10
-7.0998952918
 20
-5.7992547063
 10
-7.0915017978
 20
-5.6747431292
 10
-7.0848260931
 20
-5.5666187144
 10
-7.0792872171
 20
-5.4641988072
 10
-7.0681985295
 20
-5.2136445664
  0
LWPOLYLINE
  5
317
100
AcDbEntity
  8
IMPORT_IGES
100
AcDbPolyline
 62
253
  6
CONTINUOUS
 90
13
 70
0
 10
-7.25
 20
-4.0886333932
 10
-7.2517110277
 20
-4.0919209622
 10
-7.2568148347
 20
-4.0951522801
 10
-7.2652240935
 20
-4.0982720579
 10
-7.2767949192
 20
-4.1012269156
 10
-7.2913293319
 20
-4.1039662945
 10
-7.3085786438
 20
-4.1064433233
 10
-7.3282476271
 20
-4.1086156108
 10
-7.3499998099
 20
-4.1104459999
 10
-7.3734633135
 20
-4.1119031883
 10
-7.3982368272
 20
-4.1129622316
 10
-7.4238963941
 20
-4.1136049863
 10
-7.4500029639
 20
-4.1138204379
  0
LWPOLYLINE
  5
318
100
AcDbEntity
  8
IMPORT_IGES
100
AcDbPolyline
 62
253
  6
CONTINUOUS
 90
13
 70
0
 10
7.7
 20
-3.543866215
 10
7.7391578577
 20
-3.5428089131
 10
7.7776457135
 20
-3.5396550982
 10
7.8148050297
 20
-3.5344587328
 10
7.85
 20
-3.5273087283
 10
7.8826284287
 20
-3.5183274232
 10
7.9121320344
 20
-3.5076684902
 10
7.9380060021
 20
-3.4955143064
 10
7.9598076211
 20
-3.4820728334
 10
7.9771638598
 20
-3.4675740586
 10
7.9897777479
 20
-3.4522660599
 10
7.9974334584
 20
-3.4364107615
 10
8.0
 20
-3.4202794518
  0
LINE
  5
319
100
AcDbEntity
  8
IMPORT_IGES
100
AcDbLine
 62
253
  6
CONTINUOUS
 10
-7.25
 20
-4.2658966643
 11
-7.0499999942
 21
-4.2658966671
  0
LINE
  5
31A
100
AcDbEntity
  8
IMPORT_IGES
100
AcDbLine
 62
253
  6
CONTINUOUS
 10
-5.95
 20
-4.2658966671
 11
-5.75
 21
-4.2658966671
  0
LINE
  5
31B
100
AcDbEntity
  8
IMPORT_IGES
100
AcDbLine
 62
253
  6
CONTINUOUS
 10
5.9500000058
 20
-4.2658966671
 11
5.75
 21
-4.2658966643
  0
LINE
  5
31C
100
AcDbEntity
  8
IMPORT_IGES
100
AcDbLine
 62
253
  6
CONTINUOUS
 10
7.05
 20
-4.2658966546
 11
7.25
 21
-4.2658966671
  0
LINE
  5
31D
100
AcDbEntity
  8
IMPORT_IGES
100
AcDbLine
 62
253
  6
CONTINUOUS
 10
7.7
 20
-4.1138204379
 11
7.4500017034
 21
-4.1138204379
  0
LINE
  5
31E
100
AcDbEntity
  8
IMPORT_IGES
100
AcDbLine
 62
253
  6
CONTINUOUS
 10
5.55
 20
-4.1138204379
 11
5.1
 21
-4.1138204379
  0
LINE
  5
31F
100
AcDbEntity
  8
IMPORT_IGES
100
AcDbLine
 62
253
  6
CONTINUOUS
 10
-5.1
 20
-4.1138204379
 11
-5.5499999462
 21
-4.1138204379
  0
LINE
  5
320
100
AcDbEntity
  8
IMPORT_IGES
100
AcDbLine
 62
253
  6
CONTINUOUS
 10
-7.45
 20
-4.1138204379
 11
-7.7
 21
-4.1138204379
  0
LWPOLYLINE
  5
321
100
AcDbEntity
  8
IMPORT_IGES
100
AcDbPolyline
 62
253
  6
CONTINUOUS
 90
13
 70
0
 10
-7.7
 20
-4.1138204379
 10
-7.7391578577
 20
-4.1134972199
 10
-7.7776457135
 20
-4.1125330963
 10
-7.8148050297
 20
-4.1109445635
 10
-7.85
 20
-4.1087588017
 10
-7.8826284287
 20
-4.1060132099
 10
-7.9121320344
 20
-4.102754766
 10
-7.9380060021
 20
-4.0990392228
 10
-7.9598076211
 20
-4.0949301544
 10
-7.9771638598
 20
-4.0904978679
 10
-7.9897777479
 20
-4.0858182011
 10
-7.9974334584
 20
-4.0809712244
 10
-8.0
 20
-4.0760398709
  0
LWPOLYLINE
  5
322
100
AcDbEntity
  8
IMPORT_IGES
100
AcDbPolyline
 62
253
  6
CONTINUOUS
 90
13
 70
0
 10
7.45
 20
-4.1138204379
 10
7.4238947616
 20
-4.1136049593
 10
7.398236191
 20
-4.1129622102
 10
7.3734633135
 20
-4.1119031883
 10
7.35
 20
-4.1104460138
 10
7.3282477142
 20
-4.1086156193
 10
7.3085786438
 20
-4.1064433233
 10
7.2913293319
 20
-4.1039662945
 10
7.2767949192
 20
-4.1012269156
 10
7.2652240935
 20
-4.0982720579
 10
7.2568148347
 20
-4.0951522801
 10
7.2517110277
 20
-4.0919209622
 10
7.25
 20
-4.0886333932
  0
LWPOLYLINE
  5
323
100
AcDbEntity
  8
IMPORT_IGES
100
AcDbPolyline
 62
253
  6
CONTINUOUS
 90
13
 70
0
 10
-7.7
 20
-3.543866215
 10
-7.7391578577
 20
-3.5428089131
 10
-7.7776457135
 20
-3.5396550982
 10
-7.8148050297
 20
-3.5344587328
 10
-7.85
 20
-3.5273087283
 10
-7.8826284287
 20
-3.5183274232
 10
-7.9121320344
 20
-3.5076684902
 10
-7.9380060021
 20
-3.4955143064
 10
-7.9598076211
 20
-3.4820728334
 10
-7.9771638598
 20
-3.4675740586
 10
-7.9897777479
 20
-3.4522660599
 10
-7.9974334584
 20
-3.4364107615
 10
-8.0
 20
-3.4202794518
  0
LWPOLYLINE
  5
324
100
AcDbEntity
  8
IMPORT_IGES
100
AcDbPolyline
 62
253
  6
CONTINUOUS
 90
10
 70
0
 10
-5.1
 20
-3.543866215
 10
-5.0826351822
 20
-3.5444920686
 10
-5.0657979857
 20
-3.546350613
 10
-5.05
 20
-3.5493853773
 10
-5.035721239
 20
-3.5535041517
 10
-5.0233955557
 20
-3.5585817894
 10
-5.0133974596
 20
-3.5644640089
 10
-5.0060307379
 20
-3.5709720819
 10
-5.0015192247
 20
-3.577908264
 10
-5.0
 20
-3.5850618028
  0
LWPOLYLINE
  5
325
100
AcDbEntity
  8
IMPORT_IGES
100
AcDbPolyline
 62
253
  6
CONTINUOUS
 90
10
 70
0
 10
7.7
 20
-9.4119126211
 10
7.7185985184
 20
-9.4226171575
 10
7.7370475877
 20
-9.431310437
 10
7.7551989596
 20
-9.4379226044
 10
7.7729067781
 20
-9.4424005273
 10
7.7900287513
 20
-9.4447082232
 10
7.8064272948
 20
-9.4448271485
 10
7.8219706376
 20
-9.4427563476
 10
7.8365338805
 20
-9.4385124605
 10
7.85
 20
-9.4321295891
  0
LWPOLYLINE
  5
326
100
AcDbEntity
  8
IMPORT_IGES
100
AcDbPolyline
 62
253
  6
CONTINUOUS
 90
10
 70
0
 10
-5.0040502491
 20
-0.4965644043
 10
-5.0090361743
 20
-0.4910567116
 10
-5.015873901
 20
-0.4858975038
 10
-5.0244242398
 20
-0.481191804
 10
-5.0345131417
 20
-0.4770354451
 10
-5.0459352236
 20
-0.4735130042
 10
-5.0584579411
 20
-0.4706960754
 10
-5.0718263522
 20
-0.4686419656
 10
-5.0857683139
 20
-0.4673925311
 10
-5.1
 20
-0.4669732074
  0
LWPOLYLINE
  5
327
100
AcDbEntity
  8
IMPORT_IGES
100
AcDbPolyline
 62
253
  6
CONTINUOUS
 90
10
 70
0
 10
-5.1
 20
0.3539325167
 10
-5.0603974205
 20
0.247956642
 10
-5.0240367211
 20
0.1463265479
 10
-4.9909179018
 20
0.0490422344
 10
-4.9610468398
 20
-0.0425721294
 10
-4.934417658
 20
-0.1298407126
 10
-4.9110127243
 20
-0.2167360225
 10
-4.8908261614
 20
-0.304582228
 10
-4.8738638467
 20
-0.3920551603
 10
-4.8601257802
 20
-0.4791548191
  0
LINE
  5
328
100
AcDbEntity
  8
IMPORT_IGES
100
AcDbLine
 62
253
  6
CONTINUOUS
 10
-3.9214927418
 20
-0.6249855001
 11
-3.9847550219
 21
-0.435254417
  0
LINE
  5
329
100
AcDbEntity
  8
0
100
AcDbLine
 62
253
  6
CONTINUOUS
 10
-3.644625439
 20
-10.6250145005
 11
-3.644625439
 21
-10.7250145005
  0
LINE
  5
32A
100
AcDbEntity
  8
IMPORT_IGES
100
AcDbLine
 62
253
  6
CONTINUOUS
 10
-3.6348166623
 20
3.7549276307
 11
-3.6348166623
 21
3.5549276307
  0
LINE
  5
32B
100
AcDbEntity
  8
0
100
AcDbLine
 62
253
  6
CONTINUOUS
 10
-3.556441145
 20
-10.6250145005
 11
-3.556441145
 21
-10.7250145005
  0
LINE
  5
32C
100
AcDbEntity
  8
0
100
AcDbLine
 62
7
  6
CONTINUOUS
 10
-3.2387188245
 20
-10.6250145005
 11
-3.2387188245
 21
-10.7250145005
  0
LINE
  5
32D
100
AcDbEntity
  8
0
100
AcDbLine
 62
7
  6
CONTINUOUS
 10
-3.203701048
 20
-10.6250145005
 11
-3.203701048
 21
-10.7250145005
  0
LINE
  5
32E
100
AcDbEntity
  8
0
100
AcDbLine
 62
7
  6
CONTINUOUS
 10
-2.9372242261
 20
-10.6250145005
 11
-2.9372242261
 21
-10.7250145005
  0
LINE
  5
32F
100
AcDbEntity
  8
IMPORT_IGES
100
AcDbLine
 62
7
  6
CONTINUOUS
 10
-2.9048535023
 20
4.201204976
 11
-2.9048535023
 21
4.2096191477
  0
LWPOLYLINE
  5
330
100
AcDbEntity
  8
IMPORT_IGES
100
AcDbPolyline
 62
253
  6
CONTINUOUS
 90
9
 70
0
 10
-5.0
 20
-10.1709433107
 10
-5.0001564534
 20
-10.171948424
 10
-5.0006257142
 20
-10.172847567
 10
-5.0014072657
 20
-10.1736410322
 10
-5.0025000946
 20
-10.1743282607
 10
-5.0039027082
 20
-10.1749103941
 10
-5.0056131514
 20
-10.1753902747
 10
-5.0076289799
 20
-10.1757690413
 10
-5.0099472483
 20
-10.1760461282
  0
LINE
  5
331
100
AcDbEntity
  8
IMPORT_IGES
100
AcDbLine
 62
253
  6
CONTINUOUS
 10
7.0999996518
 20
11.1973451182
 11
7.1689113599
 21
11.2659815877
  0
LINE
  5
332
100
AcDbEntity
  8
IMPORT_IGES
100
AcDbLine
 62
253
  6
CONTINUOUS
 10
6.9495065189
 20
11.3471113467
 11
7.047679592
 21
11.4448912043
  0
LINE
  5
333
100
AcDbEntity
  8
IMPORT_IGES
100
AcDbLine
 62
253
  6
CONTINUOUS
 10
7.1689113599
 20
11.2659815877
 11
7.2102599111
 21
11.3068039145
  0
LWPOLYLINE
  5
334
100
AcDbEntity
  8
IMPORT_IGES
100
AcDbPolyline
 62
253
  6
CONTINUOUS
 90
5
 70
0
 10
7.047679592
 20
11.4448912043
 10
7.0793041662
 20
11.4760667625
 10
7.0856977132
 20
11.4822831295
 10
7.0895867764
 20
11.4859889874
 10
7.090928132
 20
11.4871464445
  0
LWPOLYLINE
  5
335
100
AcDbEntity
  8
IMPORT_IGES
100
AcDbPolyline
 62
253
  6
CONTINUOUS
 90
5
 70
0
 10
7.2102599111
 20
11.3068039145
 10
7.2295501893
 20
11.3256166568
 10
7.2360289685
 20
11.3318255372
 10
7.2400129834
 20
11.3355293217
 10
7.2414279598
 20
11.3366615062
  0
LWPOLYLINE
  5
336
100
AcDbEntity
  8
IMPORT_IGES
100
AcDbPolyline
 62
7
  6
CONTINUOUS
 90
3
 70
0
 10
-5.2655684525
 20
0.4899002238
 10
-5.2825159359
 20
0.4801960737
 10
-5.3
 20
0.4700144999
  0
LWPOLYLINE
  5
337
100
AcDbEntity
  8
IMPORT_IGES
100
AcDbPolyline
 62
253
  6
CONTINUOUS
 90
16
 70
0
 10
7.1035898843
 20
5.1536206048
 10
7.1183725351
 20
5.1582137991
 10
7.1336204689
 20
5.1660742732
 10
7.1492295304
 20
5.1772020269
 10
7.1654764822
 20
5.19198897
 10
7.1817917961
 20
5.2100431928
 10
7.1968858581
 20
5.2301889662
 10
7.2104978018
 20
5.2525241126
 10
7.2228790907
 20
5.2769508095
 10
7.2337155886
 20
5.3019998608
 10
7.2430013596
 20
5.3272524703
 10
7.2509602001
 20
5.3531274341
 10
7.2576995049
 20
5.3794119445
 10
7.2634139672
 20
5.4058602264
 10
7.2681298197
 20
5.432718055
 10
7.2717366687
 20
5.4605099477
  0
LWPOLYLINE
  5
338
100
AcDbEntity
  8
IMPORT_IGES
100
AcDbPolyline
 62
253
  6
CONTINUOUS
 90
13
 70
0
 10
5.55
 20
-3.543866215
 10
5.5761052384
 20
-3.5431613471
 10
5.601763809
 20
-3.5410588038
 10
5.6265366865
 20
-3.5375945602
 10
5.65
 20
-3.5328278906
 10
5.6717522858
 20
-3.5268403538
 10
5.6914213562
 20
-3.5197343985
 10
5.7086706681
 20
-3.5116316093
 10
5.7232050808
 20
-3.5026706273
 10
5.7347759065
 20
-3.4930047774
 10
5.7431851653
 20
-3.4827994449
 10
5.7482889723
 20
-3.472229246
 10
5.75
 20
-3.4614750396
  0
LINE
  5
339
100
AcDbEntity
  8
IMPORT_IGES
100
AcDbLine
 62
253
  6
CONTINUOUS
 10
7.7
 20
-3.543866215
 11
7.45
 21
-3.543866215
  0
LINE
  5
33A
100
AcDbEntity
  8
IMPORT_IGES
100
AcDbLine
 62
253
  6
CONTINUOUS
 10
5.55
 20
-3.543866215
 11
5.1
 21
-3.543866215
  0
LINE
  5
33B
100
AcDbEntity
  8
IMPORT_IGES
100
AcDbLine
 62
253
  6
CONTINUOUS
 10
-5.1
 20
-3.543866215
 11
-5.55
 21
-3.543866215
  0
LINE
  5
33C
100
AcDbEntity
  8
IMPORT_IGES
100
AcDbLine
 62
253
  6
CONTINUOUS
 10
-7.45
 20
-3.543866215
 11
-7.7
 21
-3.543866215
  0
LINE
  5
33D
100
AcDbEntity
  8
IMPORT_IGES
100
AcDbLine
 62
253
  6
CONTINUOUS
 10
-5.75
 20
-3.2452200611
 11
-7.25
 21
-3.2452200611
  0
LINE
  5
33E
100
AcDbEntity
  8
IMPORT_IGES
100
AcDbLine
 62
253
  6
CONTINUOUS
 10
5.75
 20
-3.2452200611
 11
7.25
 21
-3.2452200611
  0
LINE
  5
33F
100
AcDbEntity
  8
IMPORT_IGES
100
AcDbLine
 62
253
  6
CONTINUOUS
 10
7.05
 20
-3.1695099397
 11
5.95
 21
-3.1695099397
  0
LINE
  5
340
100
AcDbEntity
  8
IMPORT_IGES
100
AcDbLine
 62
253
  6
CONTINUOUS
 10
-5.95
 20
-3.1695099397
 11
-7.05
 21
-3.1695099397
  0
LINE
  5
341
100
AcDbEntity
  8
IMPORT_IGES
100
AcDbLine
 62
7
  6
CONTINUOUS
 10
-8.25
 20
-2.9509649689
 11
-8.0
 21
-2.9509649689
  0
LINE
  5
342
100
AcDbEntity
  8
IMPORT_IGES
100
AcDbLine
 62
7
  6
CONTINUOUS
 10
8.0
 20
-2.9509649689
 11
8.25
 21
-2.9509649689
  0
LWPOLYLINE
  5
343
100
AcDbEntity
  8
IMPORT_IGES
100
AcDbPolyline
 62
253
  6
CONTINUOUS
 90
13
 70
0
 10
-5.95
 20
-3.1695099397
 10
-5.9239574789
 20
-3.1701545285
 10
-5.8983095498
 20
-3.1720822643
 10
-5.8734984747
 20
-3.1752675178
 10
-5.8499356703
 20
-3.1796672384
 10
-5.8280596107
 20
-3.1852098893
 10
-5.8083108819
 20
-3.1917864745
 10
-5.7910256201
 20
-3.1992808798
 10
-5.7764960445
 20
-3.207561643
 10
-5.7649929291
 20
-3.2164592226
 10
-5.7566868491
 20
-3.2258065566
 10
-5.7516727759
 20
-3.2354485255
 10
-5.75
 20
-3.245220061
  0
LWPOLYLINE
  5
344
100
AcDbEntity
  8
IMPORT_IGES
100
AcDbPolyline
 62
253
  6
CONTINUOUS
 90
13
 70
0
 10
7.05
 20
-3.1695099397
 10
7.0760425211
 20
-3.1701545285
 10
7.1016904503
 20
-3.1720822643
 10
7.1265015254
 20
-3.1752675178
 10
7.1500643298
 20
-3.1796672384
 10
7.1719403894
 20
-3.1852098894
 10
7.1916891182
 20
-3.1917864746
 10
7.2089743799
 20
-3.1992808798
 10
7.2235039555
 20
-3.2075616431
 10
7.235007071
 20
-3.2164592227
 10
7.243313151
 20
-3.2258065566
 10
7.2483272241
 20
-3.2354485255
 10
7.25
 20
-3.2452200611
  0
LWPOLYLINE
  5
345
100
AcDbEntity
  8
IMPORT_IGES
100
AcDbPolyline
 62
253
  6
CONTINUOUS
 90
13
 70
0
 10
-5.55
 20
-3.543866215
 10
-5.5761052384
 20
-3.5431613471
 10
-5.601763809
 20
-3.5410588038
 10
-5.6265366865
 20
-3.5375945602
 10
-5.65
 20
-3.5328278906
 10
-5.6717522858
 20
-3.5268403538
 10
-5.6914213562
 20
-3.5197343985
 10
-5.7086706681
 20
-3.5116316093
 10
-5.7232050808
 20
-3.5026706273
 10
-5.7347759065
 20
-3.4930047774
 10
-5.7431851653
 20
-3.4827994449
 10
-5.7482889723
 20
-3.472229246
 10
-5.75
 20
-3.4614750396
  0
LWPOLYLINE
  5
346
100
AcDbEntity
  8
IMPORT_IGES
100
AcDbPolyline
 62
253
  6
CONTINUOUS
 90
13
 70
0
 10
7.45
 20
-3.543866215
 10
7.4238947616
 20
-3.5431613471
 10
7.398236191
 20
-3.5410588038
 10
7.3734633135
 20
-3.5375945602
 10
7.35
 20
-3.5328278906
 10
7.3282477142
 20
-3.5268403538
 10
7.3085786438
 20
-3.5197343985
 10
7.2913293319
 20
-3.5116316093
 10
7.2767949192
 20
-3.5026706273
 10
7.2652240935
 20
-3.4930047774
 10
7.2568148347
 20
-3.4827994449
 10
7.2517110277
 20
-3.472229246
 10
7.25
 20
-3.4614750396
  0
LWPOLYLINE
  5
347
100
AcDbEntity
  8
IMPORT_IGES
100
AcDbPolyline
 62
253
  6
CONTINUOUS
 90
10
 70
0
 10
7.2472615102
 20
-7.8218163583
 10
7.2753071965
 20
-7.8379048712
 10
7.3015192842
 20
-7.8562664905
 10
7.3249906294
 20
-7.8764779662
 10
7.3456576961
 20
-7.8982532078
 10
7.3635840204
 20
-7.9218783058
 10
7.3780530665
 20
-7.9477882828
 10
7.3888259891
 20
-7.9761281461
 10
7.3961416337
 20
-8.0067528883
 10
7.4
 20
-8.0396625094
  0
LINE
  5
348
100
AcDbEntity
  8
IMPORT_IGES
100
AcDbLine
 62
7
  6
CONTINUOUS
 10
-2.8732612942
 20
-0.9255915197
 11
-2.6922246734
 21
-1.2653925348
  0
LWPOLYLINE
  5
349
100
AcDbEntity
  8
IMPORT_IGES
100
AcDbPolyline
 62
253
  6
CONTINUOUS
 90
5
 70
0
 10
-3.598529938
 20
-0.4249855001
 10
-3.5977801889
 20
-0.4266473602
 10
-3.5958253994
 20
-0.431587069
 10
-3.5926655697
 20
-0.4396960414
 10
-3.5882537461
 20
-0.4507615905
  0
LINE
  5
34A
100
AcDbEntity
  8
IMPORT_IGES
100
AcDbLine
 62
253
  6
CONTINUOUS
 10
-3.5681546629
 20
-0.500456454
 11
-3.5496684864
 21
-0.5456349724
  0
LWPOLYLINE
  5
34B
100
AcDbEntity
  8
IMPORT_IGES
100
AcDbPolyline
 62
253
  6
CONTINUOUS
 90
4
 70
0
 10
-3.5496684864
 20
-0.5456349724
 10
-3.5393951047
 20
-0.5709608751
 10
-3.5283662575
 20
-0.5975654784
 10
-3.5165819448
 20
-0.6249827934
  0
LINE
  5
34C
100
AcDbEntity
  8
IMPORT_IGES
100
AcDbLine
 62
253
  6
CONTINUOUS
 10
-3.5882537461
 20
-0.4507615905
 11
-3.5681546629
 21
-0.500456454
  0
LINE
  5
34D
100
AcDbEntity
  8
IMPORT_IGES
100
AcDbLine
 62
7
  6
CONTINUOUS
 10
-3.3578266781
 20
-0.4249855001
 11
-3.2333612006
 21
-0.789330574
  0
LINE
  5
34E
100
AcDbEntity
  8
0
100
AcDbLine
 62
7
  6
CONTINUOUS
 10
-2.6758720685
 20
-10.6250145005
 11
-2.6758720685
 21
-10.7250145005
  0
LINE
  5
34F
100
AcDbEntity
  8
0
100
AcDbLine
 62
7
  6
CONTINUOUS
 10
-2.640854292
 20
-10.6250145005
 11
-2.640854292
 21
-10.7250145005
  0
LINE
  5
350
100
AcDbEntity
  8
IMPORT_IGES
100
AcDbLine
 62
253
  6
CONTINUOUS
 10
-2.6048535023
 20
4.4446920668
 11
-2.6048535023
 21
4.1964430713
  0
LINE
  5
351
100
AcDbEntity
  8
0
100
AcDbLine
 62
253
  6
CONTINUOUS
 10
-2.2958006192
 20
-10.6250145005
 11
-2.2958006192
 21
-10.7250145005
  0
LINE
  5
352
100
AcDbEntity
  8
0
100
AcDbLine
 62
253
  6
CONTINUOUS
 10
-2.2172242017
 20
-10.6250145005
 11
-2.2172242017
 21
-10.7250145005
  0
LINE
  5
353
100
AcDbEntity
  8
0
100
AcDbLine
 62
7
  6
CONTINUOUS
 10
-2.1326690961
 20
-10.6250145005
 11
-2.1326690961
 21
-10.7250145005
  0
LINE
  5
354
100
AcDbEntity
  8
0
100
AcDbLine
 62
7
  6
CONTINUOUS
 10
-2.0891100217
 20
-10.6250145005
 11
-2.0891100217
 21
-10.7250145005
  0
LINE
  5
355
100
AcDbEntity
  8
0
100
AcDbLine
 62
253
  6
CONTINUOUS
 10
-1.9996432454
 20
-10.6250145005
 11
-1.9996432454
 21
-10.7250145005
  0
LINE
  5
356
100
AcDbEntity
  8
0
100
AcDbLine
 62
253
  6
CONTINUOUS
 10
-1.9114588071
 20
-10.6250145005
 11
-1.9114588071
 21
-10.7250145005
  0
LINE
  5
357
100
AcDbEntity
  8
IMPORT_IGES
100
AcDbLine
 62
253
  6
CONTINUOUS
 10
-3.4401327211
 20
-0.5605199947
 11
-3.5165849178
 21
-0.6249797625
  0
LINE
  5
358
100
AcDbEntity
  8
IMPORT_IGES
100
AcDbLine
 62
253
  6
CONTINUOUS
 10
-5.0470827584
 20
-1.1959332702
 11
-4.8832882475
 21
-1.0811667324
  0
LINE
  5
359
100
AcDbEntity
  8
IMPORT_IGES
100
AcDbLine
 62
7
  6
CONTINUOUS
 10
4.25
 20
-2.649868101
 11
4.4600197012
 21
-2.6498528254
  0
LINE
  5
35A
100
AcDbEntity
  8
IMPORT_IGES
100
AcDbLine
 62
7
  6
CONTINUOUS
 10
-4.25
 20
-2.6498177594
 11
-4.4600337454
 21
-2.6498179979
  0
LINE
  5
35B
100
AcDbEntity
  8
IMPORT_IGES
100
AcDbLine
 62
253
  6
CONTINUOUS
 10
4.6999999999
 20
-2.4545022895
 11
4.5
 21
-2.4545022895
  0
LINE
  5
35C
100
AcDbEntity
  8
IMPORT_IGES
100
AcDbLine
 62
253
  6
CONTINUOUS
 10
-4.5
 20
-2.4545022895
 11
-4.6999999999
 21
-2.4545022895
  0
LINE
  5
35D
100
AcDbEntity
  8
IMPORT_IGES
100
AcDbLine
 62
7
  6
CONTINUOUS
 10
-4.5
 20
-2.4498199627
 11
-4.25
 21
-2.4498199628
  0
LINE
  5
35E
100
AcDbEntity
  8
IMPORT_IGES
100
AcDbLine
 62
7
  6
CONTINUOUS
 10
4.5
 20
-2.4498199626
 11
4.25
 21
-2.4498199626
  0
LINE
  5
35F
100
AcDbEntity
  8
IMPORT_IGES
100
AcDbLine
 62
7
  6
CONTINUOUS
 10
-8.25
 20
-1.9406019978
 11
-8.0
 21
-1.9406019978
  0
LINE
  5
360
100
AcDbEntity
  8
IMPORT_IGES
100
AcDbLine
 62
7
  6
CONTINUOUS
 10
8.25
 20
-1.9406019978
 11
8.0
 21
-1.9406019978
  0
LINE
  5
361
100
AcDbEntity
  8
IMPORT_IGES
100
AcDbLine
 62
7
  6
CONTINUOUS
 10
0.3483568566
 20
-1.9956031397
 11
0.7184235115
 21
-2.1018559459
  0
LINE
  5
362
100
AcDbEntity
  8
IMPORT_IGES
100
AcDbLine
 62
7
  6
CONTINUOUS
 10
-3.2333612006
 20
-0.789330574
 11
-2.8732612942
 21
-0.9255915197
  0
LINE
  5
363
100
AcDbEntity
  8
IMPORT_IGES
100
AcDbLine
 62
7
  6
CONTINUOUS
 10
-0.3483568566
 20
-1.9956031397
 11
0.0
 21
-2.1595741383
  0
LINE
  5
364
100
AcDbEntity
  8
IMPORT_IGES
100
AcDbLine
 62
7
  6
CONTINUOUS
 10
-1.036134335
 20
-1.8843730258
 11
-0.7184235115
 21
-2.1018559459
  0
LINE
  5
365
100
AcDbEntity
  8
IMPORT_IGES
100
AcDbLine
 62
7
  6
CONTINUOUS
 10
-1.6973323464
 20
-1.664766132
 11
-1.4184176423
 21
-1.9301819864
  0
LINE
  5
366
100
AcDbEntity
  8
IMPORT_IGES
100
AcDbLine
 62
7
  6
CONTINUOUS
 10
-2.3149894889
 20
-1.3424159305
 11
-2.0820257721
 21
-1.6489561311
  0
LINE
  5
367
100
AcDbEntity
  8
IMPORT_IGES
100
AcDbLine
 62
253
  6
CONTINUOUS
 10
-1.704853018
 20
4.1964430713
 11
-1.704852833
 21
4.9373372087
  0
LINE
  5
368
100
AcDbEntity
  8
0
100
AcDbLine
 62
7
  6
CONTINUOUS
 10
-1.5937364865
 20
-10.6250145005
 11
-1.5937364865
 21
-10.7250145005
  0
LINE
  5
369
100
AcDbEntity
  8
0
100
AcDbLine
 62
7
  6
CONTINUOUS
 10
-1.55871871
 20
-10.6250145005
 11
-1.55871871
 21
-10.7250145005
  0
LINE
  5
36A
100
AcDbEntity
  8
IMPORT_IGES
100
AcDbLine
 62
7
  6
CONTINUOUS
 10
-1.4048535023
 20
4.201204976
 11
-1.4048535023
 21
5.0478165441
  0
LINE
  5
36B
100
AcDbEntity
  8
0
100
AcDbLine
 62
7
  6
CONTINUOUS
 10
-1.2922418881
 20
-10.6250145005
 11
-1.2922418881
 21
-10.7250145005
  0
LINE
  5
36C
100
AcDbEntity
  8
IMPORT_IGES
100
AcDbLine
 62
7
  6
CONTINUOUS
 10
-1.1048535023
 20
4.9622379625
 11
-1.1048535023
 21
5.1350006501
  0
LINE
  5
36D
100
AcDbEntity
  8
0
100
AcDbLine
 62
7
  6
CONTINUOUS
 10
-1.0308897305
 20
-10.6250145005
 11
-1.0308897305
 21
-10.7250145005
  0
LINE
  5
36E
100
AcDbEntity
  8
0
100
AcDbLine
 62
7
  6
CONTINUOUS
 10
-0.995871954
 20
-10.6250145005
 11
-0.995871954
 21
-10.7250145005
  0
LINE
  5
36F
100
AcDbEntity
  8
IMPORT_IGES
100
AcDbLine
 62
253
  6
CONTINUOUS
 10
-7.0783523538
 20
-9.7731661038
 11
-7.0500102672
 21
-9.7243427427
  0
LINE
  5
370
100
AcDbEntity
  8
IMPORT_IGES
100
AcDbLine
 62
253
  6
CONTINUOUS
 10
-7.0951572171
 20
-9.80180643
 11
-7.0783523538
 21
-9.7731661038
  0
LINE
  5
371
100
AcDbEntity
  8
IMPORT_IGES
100
AcDbLine
 62
253
  6
CONTINUOUS
 10
4.7630648999
 20
3.8932087047
 11
4.9478302579
 21
3.9697708527
  0
LINE
  5
372
100
AcDbEntity
  8
IMPORT_IGES
100
AcDbLine
 62
7
  6
CONTINUOUS
 10
-4.8962844117
 20
-0.7391868386
 11
-3.9847550219
 21
-0.435254417
  0
LINE
  5
373
100
AcDbEntity
  8
IMPORT_IGES
100
AcDbLine
 62
7
  6
CONTINUOUS
 10
2.3149894889
 20
-1.3424159305
 11
2.6922246734
 21
-1.2653925348
  0
LINE
  5
374
100
AcDbEntity
  8
IMPORT_IGES
100
AcDbLine
 62
7
  6
CONTINUOUS
 10
-1.4184176423
 20
-1.9301819864
 11
-1.036134335
 21
-1.8843730258
  0
LINE
  5
375
100
AcDbEntity
  8
IMPORT_IGES
100
AcDbLine
 62
7
  6
CONTINUOUS
 10
1.6973323464
 20
-1.664766132
 11
2.0820257721
 21
-1.6489561311
  0
LINE
  5
376
100
AcDbEntity
  8
IMPORT_IGES
100
AcDbLine
 62
7
  6
CONTINUOUS
 10
-2.0820257721
 20
-1.6489561311
 11
-1.6973323464
 21
-1.664766132
  0
LINE
  5
377
100
AcDbEntity
  8
IMPORT_IGES
100
AcDbLine
 62
7
  6
CONTINUOUS
 10
1.036134335
 20
-1.8843730258
 11
1.4184176423
 21
-1.9301819864
  0
LINE
  5
378
100
AcDbEntity
  8
IMPORT_IGES
100
AcDbLine
 62
7
  6
CONTINUOUS
 10
-2.6922246734
 20
-1.2653925348
 11
-2.3149894889
 21
-1.3424159305
  0
LWPOLYLINE
  5
379
100
AcDbEntity
  8
IMPORT_IGES
100
AcDbPolyline
 62
253
  6
CONTINUOUS
 90
5
 70
0
 10
7.1250009543
 20
-9.8507079833
 10
7.1241726039
 20
-9.8497316613
 10
7.1221030342
 20
-9.84659703
 10
7.1188331197
 20
-9.8413674124
 10
7.1144264427
 20
-9.8341455474
  0
LINE
  5
37A
100
AcDbEntity
  8
0
100
AcDbLine
 62
253
  6
CONTINUOUS
 10
-0.6508185674
 20
-10.6250145005
 11
-0.6508185674
 21
-10.7250145005
  0
LINE
  5
37B
100
AcDbEntity
  8
IMPORT_IGES
100
AcDbLine
 62
7
  6
CONTINUOUS
 10
-0.6
 20
4.4750144999
 11
-0.6
 21
5.2346331276
  0
LINE
  5
37C
100
AcDbEntity
  8
0
100
AcDbLine
 62
253
  6
CONTINUOUS
 10
-0.5722419243
 20
-10.6250145005
 11
-0.5722419243
 21
-10.7250145005
  0
LINE
  5
37D
100
AcDbEntity
  8
0
100
AcDbLine
 62
7
  6
CONTINUOUS
 10
-0.4876867581
 20
-10.6250145005
 11
-0.4876867581
 21
-10.7250145005
  0
LINE
  5
37E
100
AcDbEntity
  8
0
100
AcDbLine
 62
7
  6
CONTINUOUS
 10
-0.4321708966
 20
-10.6250145005
 11
-0.4321708966
 21
-10.7250145005
  0
LINE
  5
37F
100
AcDbEntity
  8
0
100
AcDbLine
 62
253
  6
CONTINUOUS
 10
-0.308327469
 20
-10.6250145005
 11
-0.308327469
 21
-10.7250145005
  0
LINE
  5
380
100
AcDbEntity
  8
0
100
AcDbLine
 62
253
  6
CONTINUOUS
 10
-0.2152312566
 20
-10.6250145005
 11
-0.2152312566
 21
-10.7250145005
  0
LINE
  5
381
100
AcDbEntity
  8
0
100
AcDbLine
 62
7
  6
CONTINUOUS
 10
-0.089679556
 20
-10.6250145005
 11
-0.089679556
 21
-10.7250145005
  0
LINE
  5
382
100
AcDbEntity
  8
IMPORT_IGES
100
AcDbLine
 62
253
  6
CONTINUOUS
 10
-6.2981434405
 20
-10.1584332575
 11
-6.3264957681
 21
-10.2072507059
  0
LINE
  5
383
100
AcDbEntity
  8
IMPORT_IGES
100
AcDbLine
 62
253
  6
CONTINUOUS
 10
-6.3264957681
 20
-10.2072507059
 11
-6.3433010107
 21
-10.2358908131
  0
LWPOLYLINE
  5
384
100
AcDbEntity
  8
IMPORT_IGES
100
AcDbPolyline
 62
253
  6
CONTINUOUS
 90
7
 70
0
 10
-6.3433010107
 20
-10.2358908131
 10
-6.3571080512
 20
-10.2591528878
 10
-6.3625912236
 20
-10.2682675709
 10
-6.3670001791
 20
-10.275492464
 10
-6.370261429
 20
-10.2807071423
 10
-6.372320615
 20
-10.2838246875
 10
-6.3731434143
 20
-10.2847931364
  0
LINE
  5
385
100
AcDbEntity
  8
IMPORT_IGES
100
AcDbLine
 62
253
  6
CONTINUOUS
 10
-4.5667598447
 20
-2.8653347109
 11
-4.4048284605
 21
-2.7479540191
  0
LINE
  5
386
100
AcDbEntity
  8
IMPORT_IGES
100
AcDbLine
 62
253
  6
CONTINUOUS
 10
3.8227803983
 20
3.1494120825
 11
3.9926786373
 21
3.2549326423
  0
LINE
  5
387
100
AcDbEntity
  8
IMPORT_IGES
100
AcDbLine
 62
253
  6
CONTINUOUS
 10
-4.8330221321
 20
-0.9289179219
 11
-3.9214927418
 21
-0.6249855001
  0
LINE
  5
388
100
AcDbEntity
  8
IMPORT_IGES
100
AcDbLine
 62
253
  6
CONTINUOUS
 10
-5.0040455186
 20
-0.4965626254
 11
-4.8601257809
 21
-0.4791548186
  0
LWPOLYLINE
  5
389
100
AcDbEntity
  8
IMPORT_IGES
100
AcDbPolyline
 62
253
  6
CONTINUOUS
 90
10
 70
0
 10
5.1
 20
-0.4669732074
 10
5.0857685204
 20
-0.4673925188
 10
5.0718267526
 20
-0.4686419172
 10
5.0584585104
 20
-0.4706959683
 10
5.0459359552
 20
-0.4735129815
 10
5.0345139833
 20
-0.4770354868
 10
5.0244250594
 20
-0.4811914143
 10
5.0158745761
 20
-0.4858960449
 10
5.0090366479
 20
-0.4910537189
 10
5.0040505098
 20
-0.4965594206
  0
LWPOLYLINE
  5
38A
100
AcDbEntity
  8
IMPORT_IGES
100
AcDbPolyline
 62
253
  6
CONTINUOUS
 90
13
 70
0
 10
-7.45
 20
-0.4669732075
 10
-7.4238947616
 20
-0.4662683395
 10
-7.398236191
 20
-0.4641657962
 10
-7.3734633135
 20
-0.4607015526
 10
-7.35
 20
-0.4559348829
 10
-7.3282477142
 20
-0.4499473462
 10
-7.3085786438
 20
-0.4428413908
 10
-7.2913293319
 20
-0.4347386017
 10
-7.2767949192
 20
-0.4257776197
 10
-7.2652240935
 20
-0.4161117698
 10
-7.2568148347
 20
-0.4059064373
 10
-7.2517110277
 20
-0.3953362384
 10
-7.25
 20
-0.3845820319
  0
LINE
  5
38B
100
AcDbEntity
  8
IMPORT_IGES
100
AcDbLine
 62
253
  6
CONTINUOUS
 10
-5.0
 20
-0.650119275
 11
-4.8500000002
 21
-0.65012109
  0
LINE
  5
38C
100
AcDbEntity
  8
IMPORT_IGES
100
AcDbLine
 62
253
  6
CONTINUOUS
 10
4.85
 20
-0.6501192749
 11
5.0
 21
-0.650119275
  0
LINE
  5
38D
100
AcDbEntity
  8
IMPORT_IGES
100
AcDbLine
 62
253
  6
CONTINUOUS
 10
3.9214927418
 20
-0.624984161
 11
3.5165848671
 21
-0.6249798227
  0
LINE
  5
38E
100
AcDbEntity
  8
IMPORT_IGES
100
AcDbLine
 62
253
  6
CONTINUOUS
 10
-3.5165849178
 20
-0.6249797625
 11
-3.9214927418
 21
-0.6249855001
  0
LINE
  5
38F
100
AcDbEntity
  8
IMPORT_IGES
100
AcDbLine
 62
253
  6
CONTINUOUS
 10
-7.7
 20
-0.4669732075
 11
-7.45
 21
-0.4669732075
  0
LINE
  5
390
100
AcDbEntity
  8
IMPORT_IGES
100
AcDbLine
 62
253
  6
CONTINUOUS
 10
-5.55
 20
-0.4669732075
 11
-5.1
 21
-0.4669732074
  0
LINE
  5
391
100
AcDbEntity
  8
IMPORT_IGES
100
AcDbLine
 62
253
  6
CONTINUOUS
 10
5.1
 20
-0.4669732074
 11
5.55
 21
-0.4669732074
  0
LINE
  5
392
100
AcDbEntity
  8
IMPORT_IGES
100
AcDbLine
 62
253
  6
CONTINUOUS
 10
7.45
 20
-0.4669732075
 11
7.7
 21
-0.4669732074
  0
LINE
  5
393
100
AcDbEntity
  8
IMPORT_IGES
100
AcDbLine
 62
7
  6
CONTINUOUS
 10
3.3578266781
 20
-0.4249855001
 11
3.9214927418
 21
-0.4249855001
  0
LINE
  5
394
100
AcDbEntity
  8
IMPORT_IGES
100
AcDbLine
 62
7
  6
CONTINUOUS
 10
-3.3578266781
 20
-0.4249855001
 11
-3.9214927418
 21
-0.4249855001
  0
LWPOLYLINE
  5
395
100
AcDbEntity
  8
IMPORT_IGES
100
AcDbPolyline
 62
253
  6
CONTINUOUS
 90
13
 70
0
 10
-7.7
 20
-0.4669732074
 10
-7.7391578577
 20
-0.4659159055
 10
-7.7776457135
 20
-0.4627620906
 10
-7.8148050297
 20
-0.4575657252
 10
-7.85
 20
-0.4504157207
 10
-7.8826284287
 20
-0.4414344156
 10
-7.9121320344
 20
-0.4307754825
 10
-7.9380060021
 20
-0.4186212988
 10
-7.9598076211
 20
-0.4051798258
 10
-7.9771638598
 20
-0.390681051
 10
-7.9897777479
 20
-0.3753730523
 10
-7.9974334584
 20
-0.3595177538
 10
-8.0
 20
-0.3433864442
  0
LWPOLYLINE
  5
396
100
AcDbEntity
  8
IMPORT_IGES
100
AcDbPolyline
 62
253
  6
CONTINUOUS
 90
13
 70
0
 10
7.45
 20
-0.4669732074
 10
7.4238947616
 20
-0.4662683395
 10
7.398236191
 20
-0.4641657962
 10
7.3734633135
 20
-0.4607015526
 10
7.35
 20
-0.4559348829
 10
7.3282477142
 20
-0.4499473462
 10
7.3085786438
 20
-0.4428413908
 10
7.2913293319
 20
-0.4347386017
 10
7.2767949192
 20
-0.4257776197
 10
7.2652240935
 20
-0.4161117698
 10
7.2568148347
 20
-0.4059064373
 10
7.2517110277
 20
-0.3953362384
 10
7.25
 20
-0.3845820319
  0
LINE
  5
397
100
AcDbEntity
  8
IMPORT_IGES
100
AcDbLine
 62
253
  6
CONTINUOUS
 10
5.0040507981
 20
-0.4965535767
 11
4.8601258458
 21
-0.4791541649
  0
LWPOLYLINE
  5
398
100
AcDbEntity
  8
IMPORT_IGES
100
AcDbPolyline
 62
253
  6
CONTINUOUS
 90
6
 70
0
 10
5.0999988827
 20
-7.7869134702
 10
5.1075069816
 20
-7.7977682585
 10
5.1148956755
 20
-7.8059701542
 10
5.1220091017
 20
-7.81133189
 10
5.1286938931
 20
-7.813663017
 10
5.1328024452
 20
-7.8134670001
  0
LWPOLYLINE
  5
399
100
AcDbEntity
  8
IMPORT_IGES
100
AcDbPolyline
 62
253
  6
CONTINUOUS
 90
5
 70
0
 10
6.3620440221
 20
-10.2673629713
 10
6.3666453935
 20
-10.2749163961
 10
6.3700784913
 20
-10.2804201008
 10
6.3722660057
 20
-10.2837469372
 10
6.3731434404
 20
-10.2847931213
  0
LINE
  5
39A
100
AcDbEntity
  8
0
100
AcDbLine
 62
7
  6
CONTINUOUS
 10
0.4005693149
 20
-10.6250145005
 11
0.4005693149
 21
-10.7250145005
  0
LINE
  5
39B
100
AcDbEntity
  8
0
100
AcDbLine
 62
253
  6
CONTINUOUS
 10
0.5517437648
 20
-10.6250145005
 11
0.5517437648
 21
-10.7250145005
  0
LINE
  5
39C
100
AcDbEntity
  8
IMPORT_IGES
100
AcDbLine
 62
7
  6
CONTINUOUS
 10
0.6
 20
5.2346331276
 11
0.6
 21
4.4750144999
  0
LINE
  5
39D
100
AcDbEntity
  8
0
100
AcDbLine
 62
253
  6
CONTINUOUS
 10
0.6405693542
 20
-10.6250145005
 11
0.6405693542
 21
-10.7250145005
  0
LINE
  5
39E
100
AcDbEntity
  8
0
100
AcDbLine
 62
7
  6
CONTINUOUS
 10
0.7430606555
 20
-10.6250145005
 11
0.7430606555
 21
-10.7250145005
  0
LINE
  5
39F
100
AcDbEntity
  8
0
100
AcDbLine
 62
7
  6
CONTINUOUS
 10
0.7868476528
 20
-10.7250145005
 11
0.7868476528
 21
-10.6250145005
  0
LINE
  5
3A0
100
AcDbEntity
  8
0
100
AcDbLine
 62
7
  6
CONTINUOUS
 10
0.8077819983
 20
-10.6250145005
 11
0.8077819983
 21
-10.7250145005
  0
LINE
  5
3A1
100
AcDbEntity
  8
0
100
AcDbLine
 62
7
  6
CONTINUOUS
 10
0.8206800276
 20
-10.6250145005
 11
0.8206800276
 21
-10.7250145005
  0
LINE
  5
3A2
100
AcDbEntity
  8
0
100
AcDbLine
 62
7
  6
CONTINUOUS
 10
0.8259075832
 20
-10.6250145005
 11
0.8259075832
 21
-10.7250145005
  0
LINE
  5
3A3
100
AcDbEntity
  8
0
100
AcDbLine
 62
253
  6
CONTINUOUS
 10
0.9497509492
 20
-10.6250145005
 11
0.9497509492
 21
-10.7250145005
  0
LINE
  5
3A4
100
AcDbEntity
  8
0
100
AcDbLine
 62
253
  6
CONTINUOUS
 10
1.0428469371
 20
-10.6250145005
 11
1.0428469371
 21
-10.7250145005
  0
LWPOLYLINE
  5
3A5
100
AcDbEntity
  8
IMPORT_IGES
100
AcDbPolyline
 62
253
  6
CONTINUOUS
 90
6
 70
0
 10
-5.1000020477
 20
-7.7869140298
 10
-5.1074754175
 20
-7.7977426703
 10
-5.1149927079
 20
-7.8060898458
 10
-5.1222790471
 20
-7.8114945083
 10
-5.1289792308
 20
-7.8136992179
 10
-5.1328780196
 20
-7.8134750558
  0
LWPOLYLINE
  5
3A6
100
AcDbEntity
  8
IMPORT_IGES
100
AcDbPolyline
 62
253
  6
CONTINUOUS
 90
7
 70
0
 10
-7.125
 20
-9.8507085343
 10
-7.1241772007
 20
-9.8497400854
 10
-7.1221180147
 20
-9.8466225401
 10
-7.1188567648
 20
-9.8414078618
 10
-7.1144478093
 20
-9.8341829688
 10
-7.1089646369
 20
-9.8250682857
 10
-7.0951572171
 20
-9.80180643
  0
LWPOLYLINE
  5
3A7
100
AcDbEntity
  8
IMPORT_IGES
100
AcDbPolyline
 62
7
  6
CONTINUOUS
 90
16
 70
0
 10
-5.0763932023
 20
0.5700144999
 10
-5.0839360695
 20
0.5696795503
 10
-5.092016948
 20
0.5686897846
 10
-5.100651324
 20
0.5670452025
 10
-5.1098651947
 20
0.564733845
 10
-5.1196585077
 20
0.5617676711
 10
-5.1300007723
 20
0.5581825589
 10
-5.1408641248
 20
0.5539831842
 10
-5.1522777296
 20
0.5491648712
 10
-5.1642929745
 20
0.5437494701
 10
-5.1769089701
 20
0.5377307441
 10
-5.1901180232
 20
0.5311149299
 10
-5.2039625066
 20
0.5239425875
 10
-5.2184236157
 20
0.5162008685
 10
-5.2334883455
 20
0.5079026212
 10
-5.2655684525
 20
0.4899002238
  0
LWPOLYLINE
  5
3A8
100
AcDbEntity
  8
IMPORT_IGES
100
AcDbPolyline
 62
253
  6
CONTINUOUS
 90
13
 70
0
 10
5.95
 20
0.6521723381
 10
5.9238947616
 20
0.6515246275
 10
5.898236191
 20
0.6495925783
 10
5.8734633135
 20
0.6464092483
 10
5.85
 20
0.6420291051
 10
5.8282477142
 20
0.6365270944
 10
5.8085786438
 20
0.629997357
 10
5.7913293319
 20
0.6225516184
 10
5.7767949192
 20
0.6143172774
 10
5.7652240935
 20
0.6054352259
 10
5.7568148347
 20
0.5960574381
 10
5.7517110277
 20
0.5863443706
 10
5.75
 20
0.5764622168
  0
LWPOLYLINE
  5
3A9
100
AcDbEntity
  8
IMPORT_IGES
100
AcDbPolyline
 62
253
  6
CONTINUOUS
 90
13
 70
0
 10
-7.05
 20
0.6521723381
 10
-7.0761052384
 20
0.6515246275
 10
-7.101763809
 20
0.6495925783
 10
-7.1265366865
 20
0.6464092483
 10
-7.15
 20
0.6420291051
 10
-7.1717522858
 20
0.6365270944
 10
-7.1914213562
 20
0.629997357
 10
-7.2086706681
 20
0.6225516184
 10
-7.2232050808
 20
0.6143172774
 10
-7.2347759065
 20
0.6054352259
 10
-7.2431851653
 20
0.5960574381
 10
-7.2482889723
 20
0.5863443706
 10
-7.25
 20
0.5764622168
  0
LWPOLYLINE
  5
3AA
100
AcDbEntity
  8
IMPORT_IGES
100
AcDbPolyline
 62
253
  6
CONTINUOUS
 90
13
 70
0
 10
5.95
 20
1.1715737501
 10
5.9242096434
 20
1.1711150982
 10
5.898930603
 20
1.1697526573
 10
5.8745761129
 20
1.1675176734
 10
5.8516489674
 20
1.1644726168
 10
5.8303833365
 20
1.1606657088
 10
5.8108284172
 20
1.1560922033
 10
5.7932776121
 20
1.1507675069
 10
5.7782518722
 20
1.1447884766
 10
5.7661577052
 20
1.1382707548
 10
5.7572850055
 20
1.1313311611
 10
5.7518420322
 20
1.1240782313
 10
5.75
 20
1.1166396853
  0
LINE
  5
3AB
100
AcDbEntity
  8
IMPORT_IGES
100
AcDbLine
 62
253
  6
CONTINUOUS
 10
-5.75
 20
0.3539325167
 11
-5.1
 21
0.3539325167
  0
LINE
  5
3AC
100
AcDbEntity
  8
IMPORT_IGES
100
AcDbLine
 62
253
  6
CONTINUOUS
 10
5.1
 20
0.3539325167
 11
5.75
 21
0.3539325167
  0
LINE
  5
3AD
100
AcDbEntity
  8
IMPORT_IGES
100
AcDbLine
 62
253
  6
CONTINUOUS
 10
7.25
 20
0.3539325167
 11
8.0
 21
0.3539325167
  0
LINE
  5
3AE
100
AcDbEntity
  8
IMPORT_IGES
100
AcDbLine
 62
253
  6
CONTINUOUS
 10
-7.25
 20
0.3539325167
 11
-8.0
 21
0.3539325167
  0
LINE
  5
3AF
100
AcDbEntity
  8
IMPORT_IGES
100
AcDbLine
 62
253
  6
CONTINUOUS
 10
4.5
 20
0.4700144999
 11
5.3
 21
0.4700144999
  0
LINE
  5
3B0
100
AcDbEntity
  8
IMPORT_IGES
100
AcDbLine
 62
253
  6
CONTINUOUS
 10
-4.5
 20
0.4700144999
 11
-5.3
 21
0.4700144999
  0
LINE
  5
3B1
100
AcDbEntity
  8
IMPORT_IGES
100
AcDbLine
 62
7
  6
CONTINUOUS
 10
-4.6
 20
0.5700144999
 11
-5.0763932022
 21
0.5700144999
  0
LINE
  5
3B2
100
AcDbEntity
  8
IMPORT_IGES
100
AcDbLine
 62
7
  6
CONTINUOUS
 10
4.6
 20
0.5700144999
 11
5.0763932023
 21
0.5700144999
  0
LINE
  5
3B3
100
AcDbEntity
  8
IMPORT_IGES
100
AcDbLine
 62
253
  6
CONTINUOUS
 10
7.05
 20
0.6521723381
 11
5.95
 21
0.6521723381
  0
LINE
  5
3B4
100
AcDbEntity
  8
IMPORT_IGES
100
AcDbLine
 62
253
  6
CONTINUOUS
 10
-5.95
 20
0.6521723381
 11
-7.05
 21
0.6521723381
  0
LWPOLYLINE
  5
3B5
100
AcDbEntity
  8
IMPORT_IGES
100
AcDbPolyline
 62
253
  6
CONTINUOUS
 90
13
 70
0
 10
-5.95
 20
0.6521723381
 10
-5.9238947616
 20
0.6515246275
 10
-5.898236191
 20
0.6495925783
 10
-5.8734633135
 20
0.6464092483
 10
-5.85
 20
0.6420291051
 10
-5.8282477142
 20
0.6365270944
 10
-5.8085786438
 20
0.629997357
 10
-5.7913293319
 20
0.6225516184
 10
-5.7767949192
 20
0.6143172774
 10
-5.7652240935
 20
0.6054352259
 10
-5.7568148347
 20
0.5960574381
 10
-5.7517110277
 20
0.5863443706
 10
-5.75
 20
0.5764622168
  0
LWPOLYLINE
  5
3B6
100
AcDbEntity
  8
IMPORT_IGES
100
AcDbPolyline
 62
253
  6
CONTINUOUS
 90
13
 70
0
 10
7.05
 20
0.6521723381
 10
7.0761052384
 20
0.6515246275
 10
7.101763809
 20
0.6495925783
 10
7.1265366865
 20
0.6464092483
 10
7.15
 20
0.6420291051
 10
7.1717522858
 20
0.6365270944
 10
7.1914213562
 20
0.629997357
 10
7.2086706681
 20
0.6225516184
 10
7.2232050808
 20
0.6143172774
 10
7.2347759065
 20
0.6054352259
 10
7.2431851653
 20
0.5960574381
 10
7.2482889723
 20
0.5863443706
 10
7.25
 20
0.5764622168
  0
LINE
  5
3B7
100
AcDbEntity
  8
IMPORT_IGES
100
AcDbLine
 62
7
  6
CONTINUOUS
 10
3.9214927418
 20
-0.4249855001
 11
3.9847550219
 21
-0.435254417
  0
LINE
  5
3B8
100
AcDbEntity
  8
IMPORT_IGES
100
AcDbLine
 62
253
  6
CONTINUOUS
 10
3.9214927418
 20
-0.624984161
 11
4.8330221321
 21
-0.9289179219
  0
LINE
  5
3B9
100
AcDbEntity
  8
IMPORT_IGES
100
AcDbLine
 62
7
  6
CONTINUOUS
 10
3.9847550218
 20
-0.435254417
 11
4.896284412
 21
-0.7391868387
  0
LINE
  5
3BA
100
AcDbEntity
  8
IMPORT_IGES
100
AcDbLine
 62
253
  6
CONTINUOUS
 10
-3.8227804122
 20
3.14941206
 11
-3.9926859638
 21
3.2549208445
  0
LINE
  5
3BB
100
AcDbEntity
  8
IMPORT_IGES
100
AcDbLine
 62
253
  6
CONTINUOUS
 10
4.5667598447
 20
-2.8653347109
 11
4.4048284605
 21
-2.7479540191
  0
LWPOLYLINE
  5
3BC
100
AcDbEntity
  8
IMPORT_IGES
100
AcDbPolyline
 62
253
  6
CONTINUOUS
 90
13
 70
0
 10
-3.6348166624
 20
3.7549276307
 10
-3.6157523964
 20
3.7380186131
 10
-3.595906648
 20
3.7220140205
 10
-3.5761761349
 20
3.7068949726
 10
-3.5578047216
 20
3.6922380171
 10
-3.5411990344
 20
3.6781736429
 10
-3.5258738494
 20
3.6656293985
 10
-3.5123240047
 20
3.6546915567
 10
-3.5011718317
 20
3.6451954851
 10
-3.4920405829
 20
3.6378686169
 10
-3.4851149136
 20
3.6328670539
 10
-3.4810532527
 20
3.6297140418
 10
-3.4801436128
 20
3.6281354867
  0
LINE
  5
3BD
100
AcDbEntity
  8
IMPORT_IGES
100
AcDbLine
 62
253
  6
CONTINUOUS
 10
7.1144264427
 20
-9.8341455474
 11
7.1025173544
 21
-9.8142451049
  0
LINE
  5
3BE
100
AcDbEntity
  8
IMPORT_IGES
100
AcDbLine
 62
253
  6
CONTINUOUS
 10
6.3498038743
 20
-10.2468875149
 11
6.3620440221
 21
-10.2673629713
  0
LINE
  5
3BF
100
AcDbEntity
  8
IMPORT_IGES
100
AcDbLine
 62
253
  6
CONTINUOUS
 10
6.3345766305
 20
-10.2210561273
 11
6.3498038743
 21
-10.2468875149
  0
LWPOLYLINE
  5
3C0
100
AcDbEntity
  8
IMPORT_IGES
100
AcDbPolyline
 62
253
  6
CONTINUOUS
 90
3
 70
0
 10
6.2981434405
 20
-10.1584332575
 10
6.3076758429
 20
-10.1749059175
 10
6.3345766305
 20
-10.2210561273
  0
LINE
  5
3C1
100
AcDbEntity
  8
IMPORT_IGES
100
AcDbLine
 62
7
  6
CONTINUOUS
 10
1.1048535023
 20
4.9622379625
 11
1.1048535023
 21
5.1350006501
  0
LINE
  5
3C2
100
AcDbEntity
  8
0
100
AcDbLine
 62
7
  6
CONTINUOUS
 10
1.1683986377
 20
-10.6250145005
 11
1.1683986377
 21
-10.7250145005
  0
LINE
  5
3C3
100
AcDbEntity
  8
IMPORT_IGES
100
AcDbLine
 62
7
  6
CONTINUOUS
 10
1.4048535023
 20
4.201204976
 11
1.4048535023
 21
5.0478165441
  0
LINE
  5
3C4
100
AcDbEntity
  8
0
100
AcDbLine
 62
7
  6
CONTINUOUS
 10
1.6586476516
 20
-10.6250145005
 11
1.6586476516
 21
-10.7250145005
  0
LINE
  5
3C5
100
AcDbEntity
  8
IMPORT_IGES
100
AcDbLine
 62
253
  6
CONTINUOUS
 10
1.704853015
 20
4.1964430713
 11
1.704853015
 21
4.9373371366
  0
LINE
  5
3C6
100
AcDbEntity
  8
0
100
AcDbLine
 62
253
  6
CONTINUOUS
 10
1.8098221015
 20
-10.6250145005
 11
1.8098221015
 21
-10.7250145005
  0
LINE
  5
3C7
100
AcDbEntity
  8
0
100
AcDbLine
 62
253
  6
CONTINUOUS
 10
1.8986476909
 20
-10.6250145005
 11
1.8986476909
 21
-10.7250145005
  0
LINE
  5
3C8
100
AcDbEntity
  8
0
100
AcDbLine
 62
7
  6
CONTINUOUS
 10
2.0011388492
 20
-10.6250145005
 11
2.0011388492
 21
-10.7250145005
  0
LWPOLYLINE
  5
3C9
100
AcDbEntity
  8
IMPORT_IGES
100
AcDbPolyline
 62
253
  6
CONTINUOUS
 90
13
 70
0
 10
3.4801436128
 20
3.6281354867
 10
3.4810608294
 20
3.6297314867
 10
3.4851566872
 20
3.6329091222
 10
3.4921268085
 20
3.637939516
 10
3.5012944735
 20
3.6452919407
 10
3.512464594
 20
3.6548037454
 10
3.526017746
 20
3.6657480952
 10
3.5413315758
 20
3.6782846258
 10
3.5579103127
 20
3.6923251382
 10
3.5762507542
 20
3.7069560862
 10
3.5959528956
 20
3.722053849
 10
3.61577303
 20
3.73803768
 10
3.6348166624
 20
3.7549276307
  0
LINE
  5
3CA
100
AcDbEntity
  8
IMPORT_IGES
100
AcDbLine
 62
7
  6
CONTINUOUS
 10
0.0
 20
-2.1595741383
 11
0.3483568566
 21
-1.9956031397
  0
LINE
  5
3CB
100
AcDbEntity
  8
IMPORT_IGES
100
AcDbLine
 62
7
  6
CONTINUOUS
 10
2.8732612942
 20
-0.9255915197
 11
3.2333612006
 21
-0.789330574
  0
LINE
  5
3CC
100
AcDbEntity
  8
IMPORT_IGES
100
AcDbLine
 62
7
  6
CONTINUOUS
 10
-0.7184235115
 20
-2.1018559459
 11
-0.3483568566
 21
-1.9956031397
  0
LWPOLYLINE
  5
3CD
100
AcDbEntity
  8
IMPORT_IGES
100
AcDbPolyline
 62
253
  6
CONTINUOUS
 90
13
 70
0
 10
-7.05
 20
1.1715737501
 10
-7.0757903566
 20
1.1711150982
 10
-7.101069397
 20
1.1697526573
 10
-7.1254238871
 20
1.1675176734
 10
-7.1483510326
 20
1.1644726168
 10
-7.1696166635
 20
1.1606657088
 10
-7.1891715828
 20
1.1560922033
 10
-7.2067223879
 20
1.1507675069
 10
-7.2217481278
 20
1.1447884766
 10
-7.2338422948
 20
1.1382707548
 10
-7.2427149945
 20
1.1313311611
 10
-7.2481579678
 20
1.1240782313
 10
-7.25
 20
1.1166396853
  0
LINE
  5
3CE
100
AcDbEntity
  8
IMPORT_IGES
100
AcDbLine
 62
253
  6
CONTINUOUS
 10
-4.9478302579
 20
3.9697708527
 11
-4.7630648999
 21
3.8932087047
  0
LINE
  5
3CF
100
AcDbEntity
  8
IMPORT_IGES
100
AcDbLine
 62
253
  6
CONTINUOUS
 10
4.8832882475
 20
-1.0811667324
 11
5.0470827584
 21
-1.1959332702
  0
LINE
  5
3D0
100
AcDbEntity
  8
IMPORT_IGES
100
AcDbLine
 62
253
  6
CONTINUOUS
 10
3.5165848671
 20
-0.6249798227
 11
3.4401326864
 21
-0.5605200358
  0
LWPOLYLINE
  5
3D1
100
AcDbEntity
  8
IMPORT_IGES
100
AcDbPolyline
 62
253
  6
CONTINUOUS
 90
10
 70
0
 10
-7.499998709
 20
10.8659380568
 10
-7.5197770254
 20
10.889484204
 10
-7.5392323
 20
10.9090288062
 10
-7.5579651697
 20
10.9245619059
 10
-7.5755122911
 20
10.9362186134
 10
-7.5916780532
 20
10.9440131173
 10
-7.6065229812
 20
10.9478074119
 10
-7.6199274451
 20
10.9476653988
 10
-7.6316048973
 20
10.9438727758
 10
-7.6414213567
 20
10.9366532198
  0
LINE
  5
3D2
100
AcDbEntity
  8
IMPORT_IGES
100
AcDbLine
 62
253
  6
CONTINUOUS
 10
7.1025173544
 20
-9.8142451049
 11
7.0871412843
 21
-9.7881774514
  0
LWPOLYLINE
  5
3D3
100
AcDbEntity
  8
IMPORT_IGES
100
AcDbPolyline
 62
253
  6
CONTINUOUS
 90
3
 70
0
 10
7.0871412843
 20
-9.7881774514
 10
7.0597218725
 20
-9.7411373229
 10
7.0500077099
 20
-9.7243442191
  0
LWPOLYLINE
  5
3D4
100
AcDbEntity
  8
IMPORT_IGES
100
AcDbPolyline
 62
253
  6
CONTINUOUS
 90
10
 70
0
 10
7.4
 20
-9.5851177018
 10
7.4091859571
 20
-9.6012734618
 10
7.4184881202
 20
-9.6153416933
 10
7.4277529091
 20
-9.6272242122
 10
7.4368145475
 20
-9.6369271313
 10
7.445520115
 20
-9.6442679918
 10
7.4537726685
 20
-9.6490146296
 10
7.461496251
 20
-9.6512128537
 10
7.4685938381
 20
-9.6510461484
 10
7.4750000001
 20
-9.64863594
  0
LWPOLYLINE
  5
3D5
100
AcDbEntity
  8
IMPORT_IGES
100
AcDbPolyline
 62
253
  6
CONTINUOUS
 90
10
 70
0
 10
4.85
 20
-10.3206155656
 10
4.8503008055
 20
-10.3215699905
 10
4.8511416661
 20
-10.3223989451
 10
4.8525225819
 20
-10.3231060102
 10
4.8544487089
 20
-10.3236947647
 10
4.856914891
 20
-10.3241686922
 10
4.8599056599
 20
-10.3245312359
 10
4.8634158596
 20
-10.3247858951
 10
4.8674506461
 20
-10.3249361686
 10
4.8720100195
 20
-10.3249855001
  0
LINE
  5
3D6
100
AcDbEntity
  8
0
100
AcDbLine
 62
7
  6
CONTINUOUS
 10
2.1360854339
 20
-10.6250145005
 11
2.1360854339
 21
-10.7250145005
  0
LINE
  5
3D7
100
AcDbEntity
  8
0
100
AcDbLine
 62
7
  6
CONTINUOUS
 10
2.1574376773
 20
-10.6250145005
 11
2.1574376773
 21
-10.7250145005
  0
LINE
  5
3D8
100
AcDbEntity
  8
0
100
AcDbLine
 62
253
  6
CONTINUOUS
 10
2.2966548022
 20
-10.6250145005
 11
2.2966548022
 21
-10.7250145005
  0
LINE
  5
3D9
100
AcDbEntity
  8
IMPORT_IGES
100
AcDbLine
 62
253
  6
CONTINUOUS
 10
2.6048535023
 20
4.1964430713
 11
2.6048535023
 21
4.4446920668
  0
LINE
  5
3DA
100
AcDbEntity
  8
0
100
AcDbLine
 62
253
  6
CONTINUOUS
 10
2.6408541393
 20
-10.6250145005
 11
2.6408541393
 21
-10.7250145005
  0
LINE
  5
3DB
100
AcDbEntity
  8
0
100
AcDbLine
 62
253
  6
CONTINUOUS
 10
2.8065480662
 20
-10.6250145005
 11
2.8065480662
 21
-10.7250145005
  0
LINE
  5
3DC
100
AcDbEntity
  8
0
100
AcDbLine
 62
7
  6
CONTINUOUS
 10
2.8680427503
 20
-10.6250145005
 11
2.8680427503
 21
-10.7250145005
  0
LINE
  5
3DD
100
AcDbEntity
  8
IMPORT_IGES
100
AcDbLine
 62
7
  6
CONTINUOUS
 10
2.9048535023
 20
4.2099825033
 11
2.9048535023
 21
4.201204976
  0
LINE
  5
3DE
100
AcDbEntity
  8
0
100
AcDbLine
 62
7
  6
CONTINUOUS
 10
2.9637011241
 20
-10.6250145005
 11
2.9637011241
 21
-10.7250145005
  0
LINE
  5
3DF
100
AcDbEntity
  8
IMPORT_IGES
100
AcDbLine
 62
7
  6
CONTINUOUS
 10
2.6922246734
 20
-1.2653925348
 11
2.8732612942
 21
-0.9255915197
  0
LINE
  5
3E0
100
AcDbEntity
  8
IMPORT_IGES
100
AcDbLine
 62
7
  6
CONTINUOUS
 10
2.0820257721
 20
-1.6489561311
 11
2.3149894889
 21
-1.3424159305
  0
LINE
  5
3E1
100
AcDbEntity
  8
IMPORT_IGES
100
AcDbLine
 62
7
  6
CONTINUOUS
 10
1.4184176423
 20
-1.9301819864
 11
1.6973323464
 21
-1.664766132
  0
LINE
  5
3E2
100
AcDbEntity
  8
IMPORT_IGES
100
AcDbLine
 62
7
  6
CONTINUOUS
 10
0.7184235115
 20
-2.1018559459
 11
1.036134335
 21
-1.8843730258
  0
LWPOLYLINE
  5
3E3
100
AcDbEntity
  8
IMPORT_IGES
100
AcDbPolyline
 62
7
  6
CONTINUOUS
 90
28
 70
0
 10
4.2833313197
 20
2.7100144999
 10
4.2708881184
 20
2.7096383594
 10
4.2589772653
 20
2.7086835277
 10
4.2475987605
 20
2.7071500049
 10
4.2367667836
 20
2.7050245481
 10
4.226467155
 20
2.7023204
 10
4.2166573356
 20
2.6990772896
 10
4.2073191647
 20
2.6953079975
 10
4.1984708029
 20
2.690999743
 10
4.190124194
 20
2.6861539128
 10
4.18226479
 20
2.6807774764
 10
4.1749071389
 20
2.6748634643
 10
4.1681068274
 20
2.6683923547
 10
4.1618467965
 20
2.6613538942
 10
4.1561441053
 20
2.6537583363
 10
4.1511055177
 20
2.6456169191
 10
4.1467304622
 20
2.6369212051
 10
4.1430195104
 20
2.6276796319
 10
4.1400811405
 20
2.6179287503
 10
4.137918931
 20
2.6076550413
 10
4.1365293035
 20
2.5968720239
 10
4.1360100005
 20
2.5856568062
 10
4.136362539
 20
2.5740139431
 10
4.137585402
 20
2.5619388797
 10
4.1397717813
 20
2.5494950593
 10
4.1429527408
 20
2.5367036298
 10
4.1470972166
 20
2.5235434433
 10
4.1522052088
 20
2.5100144999
  0
LINE
  5
3E4
100
AcDbEntity
  8
IMPORT_IGES
100
AcDbLine
 62
7
  6
CONTINUOUS
 10
-5.0
 20
2.1950144999
 11
-4.3417168337
 21
2.1950144999
  0
LINE
  5
3E5
100
AcDbEntity
  8
IMPORT_IGES
100
AcDbLine
 62
7
  6
CONTINUOUS
 10
4.3417168337
 20
2.1950144999
 11
5.0
 21
2.1950144999
  0
LINE
  5
3E6
100
AcDbEntity
  8
IMPORT_IGES
100
AcDbLine
 62
253
  6
CONTINUOUS
 10
7.2767949192
 20
2.544925371
 11
5.7232050808
 21
2.54492537
  0
LINE
  5
3E7
100
AcDbEntity
  8
IMPORT_IGES
100
AcDbLine
 62
253
  6
CONTINUOUS
 10
-5.7232050808
 20
2.544925371
 11
-7.2767949192
 21
2.54492537
  0
LINE
  5
3E8
100
AcDbEntity
  8
IMPORT_IGES
100
AcDbLine
 62
7
  6
CONTINUOUS
 10
4.2833313197
 20
2.7100144999
 11
5.0
 21
2.7100144999
  0
LINE
  5
3E9
100
AcDbEntity
  8
IMPORT_IGES
100
AcDbLine
 62
7
  6
CONTINUOUS
 10
-4.2833313197
 20
2.7100144999
 11
-5.0
 21
2.7100144999
  0
LINE
  5
3EA
100
AcDbEntity
  8
IMPORT_IGES
100
AcDbLine
 62
7
  6
CONTINUOUS
 10
8.25
 20
2.8906309975
 11
8.0
 21
2.8906309975
  0
LINE
  5
3EB
100
AcDbEntity
  8
IMPORT_IGES
100
AcDbLine
 62
7
  6
CONTINUOUS
 10
-8.0
 20
2.8906309975
 11
-8.25
 21
2.8906309975
  0
LWPOLYLINE
  5
3EC
100
AcDbEntity
  8
IMPORT_IGES
100
AcDbPolyline
 62
253
  6
CONTINUOUS
 90
8
 70
0
 10
-7.3472802206
 20
8.6709298259
 10
-7.3585786438
 20
8.680039753
 10
-7.3782477142
 20
8.6922368584
 10
-7.4
 20
8.7025142401
 10
-7.4234633135
 20
8.7106960495
 10
-7.448236191
 20
8.7166422934
 10
-7.4738947616
 20
8.7202512301
 10
-7.5
 20
8.7214611095
  0
LINE
  5
3ED
100
AcDbEntity
  8
IMPORT_IGES
100
AcDbLine
 62
253
  6
CONTINUOUS
 10
-7.2012688415
 20
11.2979638344
 11
-7.1370988246
 21
11.2343658052
  0
LINE
  5
3EE
100
AcDbEntity
  8
IMPORT_IGES
100
AcDbLine
 62
253
  6
CONTINUOUS
 10
-7.1370988246
 20
11.2343658052
 11
-7.0999995853
 21
11.1973452464
  0
LINE
  5
3EF
100
AcDbEntity
  8
IMPORT_IGES
100
AcDbLine
 62
7
  6
CONTINUOUS
 10
-4.2503656963
 20
7.370707309
 11
-4.4048535023
 21
7.5265635588
  0
LWPOLYLINE
  5
3F0
100
AcDbEntity
  8
IMPORT_IGES
100
AcDbPolyline
 62
253
  6
CONTINUOUS
 90
9
 70
0
 10
3.8002589941
 20
9.2829008346
 10
3.8010372301
 20
9.2126942521
 10
3.8023347081
 20
9.1424934115
 10
3.8041514989
 20
9.0722963817
 10
3.8064875316
 20
9.0021050938
 10
3.809342594
 20
8.9319253409
 10
3.8127166153
 20
8.8617590542
 10
3.8166096664
 20
8.7916043026
 10
3.8210217472
 20
8.7214610861
  0
LINE
  5
3F1
100
AcDbEntity
  8
0
100
AcDbLine
 62
253
  6
CONTINUOUS
 10
3.1832028715
 20
-10.6250145005
 11
3.1832028715
 21
-10.7250145005
  0
LINE
  5
3F2
100
AcDbEntity
  8
IMPORT_IGES
100
AcDbLine
 62
253
  6
CONTINUOUS
 10
3.6348166623
 20
3.7549276307
 11
3.6348166623
 21
3.5549276307
  0
LINE
  5
3F3
100
AcDbEntity
  8
0
100
AcDbLine
 62
253
  6
CONTINUOUS
 10
3.6734519761
 20
-10.6250145005
 11
3.6734519761
 21
-10.7250145005
  0
LINE
  5
3F4
100
AcDbEntity
  8
0
100
AcDbLine
 62
7
  6
CONTINUOUS
 10
3.7016370308
 20
-10.6250145005
 11
3.7016370308
 21
-10.7250145005
  0
LINE
  5
3F5
100
AcDbEntity
  8
0
100
AcDbLine
 62
7
  6
CONTINUOUS
 10
3.7340925511
 20
-10.6250145005
 11
3.7340925511
 21
-10.7250145005
  0
LINE
  5
3F6
100
AcDbEntity
  8
IMPORT_IGES
100
AcDbLine
 62
253
  6
CONTINUOUS
 10
3.8002589941
 20
9.2829008346
 11
3.8
 21
11.5750144999
  0
LINE
  5
3F7
100
AcDbEntity
  8
IMPORT_IGES
100
AcDbLine
 62
253
  6
CONTINUOUS
 10
3.9214927418
 20
-0.6249855001
 11
3.9214927418
 21
-0.4249855001
  0
LINE
  5
3F8
100
AcDbEntity
  8
IMPORT_IGES
100
AcDbLine
 62
253
  6
CONTINUOUS
 10
3.9847550219
 20
-0.435254417
 11
3.9214927418
 21
-0.6249855001
  0
LINE
  5
3F9
100
AcDbEntity
  8
IMPORT_IGES
100
AcDbLine
 62
7
  6
CONTINUOUS
 10
3.2333612006
 20
-0.789330574
 11
3.3578266781
 21
-0.4249855001
  0
LWPOLYLINE
  5
3FA
100
AcDbEntity
  8
IMPORT_IGES
100
AcDbPolyline
 62
253
  6
CONTINUOUS
 90
3
 70
0
 10
3.568042477
 20
-0.5007415249
 10
3.5592117917
 20
-0.5222211211
 10
3.539367958
 20
-0.5710227648
  0
LWPOLYLINE
  5
3FB
100
AcDbEntity
  8
IMPORT_IGES
100
AcDbPolyline
 62
253
  6
CONTINUOUS
 90
3
 70
0
 10
3.539367958
 20
-0.5710227648
 10
3.5283548096
 20
-0.5975859771
 10
3.5165819252
 20
-0.6249828218
  0
LWPOLYLINE
  5
3FC
100
AcDbEntity
  8
IMPORT_IGES
100
AcDbPolyline
 62
253
  6
CONTINUOUS
 90
6
 70
0
 10
3.5985299379
 20
-0.4249855001
 10
3.5977447667
 20
-0.4266827055
 10
3.5957598809
 20
-0.4317069717
 10
3.5925752805
 20
-0.439917237
 10
3.5881410508
 20
-0.4510602162
 10
3.568042477
 20
-0.5007415249
  0
LWPOLYLINE
  5
3FD
100
AcDbEntity
  8
IMPORT_IGES
100
AcDbPolyline
 62
253
  6
CONTINUOUS
 90
10
 70
0
 10
-7.2453942556
 20
-7.8208624892
 10
-7.2736241009
 20
-7.8368327589
 10
-7.3000332189
 20
-7.8550937251
 10
-7.3237229916
 20
-7.8752638507
 10
-7.3446515887
 20
-7.8970660072
 10
-7.3628608405
 20
-7.9207773231
 10
-7.3775776203
 20
-7.9468476465
 10
-7.388544219
 20
-7.9754269268
 10
-7.3960183455
 20
-8.0063652146
 10
-7.4
 20
-8.0396625098
  0
LINE
  5
3FE
100
AcDbEntity
  8
IMPORT_IGES
100
AcDbLine
 62
253
  6
CONTINUOUS
 10
4.3831372525
 20
3.2549259
 11
3.9926859638
 21
3.2549208445
  0
LINE
  5
3FF
100
AcDbEntity
  8
IMPORT_IGES
100
AcDbLine
 62
253
  6
CONTINUOUS
 10
-3.9926845872
 20
3.2549259
 11
-4.3831372518
 21
3.2549276307
  0
LINE
  5
400
100
AcDbEntity
  8
IMPORT_IGES
100
AcDbLine
 62
7
  6
CONTINUOUS
 10
4.670682221
 20
3.5549276307
 11
3.6348166623
 21
3.5549276307
  0
LINE
  5
401
100
AcDbEntity
  8
IMPORT_IGES
100
AcDbLine
 62
7
  6
CONTINUOUS
 10
-3.6348166623
 20
3.5549276307
 11
-4.6706822208
 21
3.5549276307
  0
LINE
  5
402
100
AcDbEntity
  8
IMPORT_IGES
100
AcDbLine
 62
253
  6
CONTINUOUS
 10
-4.670682221
 20
3.7549276307
 11
-3.6348166623
 21
3.7549276307
  0
LINE
  5
403
100
AcDbEntity
  8
IMPORT_IGES
100
AcDbLine
 62
253
  6
CONTINUOUS
 10
4.670682221
 20
3.7549276307
 11
3.6348166623
 21
3.7549276307
  0
LINE
  5
404
100
AcDbEntity
  8
IMPORT_IGES
100
AcDbLine
 62
7
  6
CONTINUOUS
 10
-8.25
 20
3.9009939686
 11
-8.0
 21
3.9009939686
  0
LINE
  5
405
100
AcDbEntity
  8
IMPORT_IGES
100
AcDbLine
 62
7
  6
CONTINUOUS
 10
8.25
 20
3.9009939686
 11
8.0
 21
3.9009939686
  0
LWPOLYLINE
  5
406
100
AcDbEntity
  8
IMPORT_IGES
100
AcDbPolyline
 62
253
  6
CONTINUOUS
 90
10
 70
0
 10
-7.2767949192
 20
5.5500144621
 10
-7.2713944162
 20
5.5486457543
 10
-7.2665441034
 20
5.5477718412
 10
-7.2622701554
 20
5.547392723
 10
-7.2585976161
 20
5.5477113089
 10
-7.2555493361
 20
5.5485246896
 10
-7.2531463334
 20
5.5492241372
 10
-7.2514086202
 20
5.5496067423
 10
-7.2503545267
 20
5.5498754143
 10
-7.25
 20
5.5500301531
  0
LWPOLYLINE
  5
407
100
AcDbEntity
  8
IMPORT_IGES
100
AcDbPolyline
 62
7
  6
CONTINUOUS
 90
19
 70
0
 10
5.3
 20
0.4700144999
 10
5.282514015
 20
0.4801971496
 10
5.2655653382
 20
0.4899019734
 10
5.2492014621
 20
0.4991289712
 10
5.2334853315
 20
0.5079043273
 10
5.2184218486
 20
0.5162018574
 10
5.2039617083
 20
0.5239430087
 10
5.190117473
 20
0.5311151849
 10
5.1769084221
 20
0.5377309822
 10
5.1642926161
 20
0.5437496366
 10
5.1522780446
 20
0.5491647803
 10
5.140865256
 20
0.553982781
 10
5.1300023511
 20
0.5581819778
 10
5.1196599139
 20
0.5617671671
 10
5.1098661326
 20
0.5647335525
 10
5.100651861
 20
0.5670450835
 10
5.0920172548
 20
0.5686897433
 10
5.0839361988
 20
0.5696795488
 10
5.0763932023
 20
0.5700144999
  0
LWPOLYLINE
  5
408
100
AcDbEntity
  8
IMPORT_IGES
100
AcDbPolyline
 62
253
  6
CONTINUOUS
 90
8
 70
0
 10
-7.339338217
 20
10.8087466151
 10
-7.3559898332
 20
10.8226566413
 10
-7.375324571
 20
10.8351018915
 10
-7.3970275954
 20
10.8457584101
 10
-7.420751517
 20
10.85436679
 10
-7.4461080153
 20
10.8607107218
 10
-7.472680621
 20
10.8646145394
 10
-7.5
 20
10.8659380569
  0
LWPOLYLINE
  5
409
100
AcDbEntity
  8
IMPORT_IGES
100
AcDbPolyline
 62
253
  6
CONTINUOUS
 90
4
 70
0
 10
-7.0793041544
 20
11.4760666699
 10
-7.0856977542
 20
11.4822831048
 10
-7.0895868225
 20
11.4859889932
 10
-7.0909281023
 20
11.4871464091
  0
LWPOLYLINE
  5
40A
100
AcDbEntity
  8
IMPORT_IGES
100
AcDbPolyline
 62
253
  6
CONTINUOUS
 90
3
 70
0
 10
-7.2308591733
 20
11.326877073
 10
-7.2131746754
 20
11.3096603869
 10
-7.2012688415
 20
11.2979638344
  0
LINE
  5
40B
100
AcDbEntity
  8
IMPORT_IGES
100
AcDbLine
 62
253
  6
CONTINUOUS
 10
-7.0476795635
 20
11.4448911109
 11
-7.0793041544
 21
11.4760666699
  0
LINE
  5
40C
100
AcDbEntity
  8
IMPORT_IGES
100
AcDbLine
 62
253
  6
CONTINUOUS
 10
-6.9495090632
 20
11.3471141117
 11
-7.0476795635
 21
11.4448911109
  0
LWPOLYLINE
  5
40D
100
AcDbEntity
  8
IMPORT_IGES
100
AcDbPolyline
 62
253
  6
CONTINUOUS
 90
13
 70
0
 10
4.0
 20
9.2116916884
 10
3.9982889722
 20
9.2301509303
 10
3.9931851652
 20
9.2482943177
 10
3.9847759065
 20
9.2658114128
 10
3.9732050808
 20
9.2824024893
 10
3.9586706681
 20
9.2977836739
 10
3.9414213562
 20
9.3116918027
 10
3.9217522858
 20
9.3238889081
 10
3.9
 20
9.3341662899
 10
3.8765366865
 20
9.3423480992
 10
3.851763809
 20
9.3482943431
 10
3.8261052384
 20
9.3519032797
 10
3.8
 20
9.353113159
  0
LINE
  5
40E
100
AcDbEntity
  8
IMPORT_IGES
100
AcDbLine
 62
253
  6
CONTINUOUS
 10
3.837546422
 20
8.3679077187
 11
3.8309803025
 21
8.4973700526
  0
LINE
  5
40F
100
AcDbEntity
  8
IMPORT_IGES
100
AcDbLine
 62
253
  6
CONTINUOUS
 10
3.8309803025
 20
8.4973700526
 11
3.8253535924
 21
8.6179534839
  0
LINE
  5
410
100
AcDbEntity
  8
IMPORT_IGES
100
AcDbLine
 62
253
  6
CONTINUOUS
 10
3.8253535924
 20
8.6179534839
 11
3.8210224345
 21
8.7214611091
  0
LINE
  5
411
100
AcDbEntity
  8
IMPORT_IGES
100
AcDbLine
 62
7
  6
CONTINUOUS
 10
4.0
 20
9.2116916887
 11
4.0
 21
11.3750144999
  0
LINE
  5
412
100
AcDbEntity
  8
IMPORT_IGES
100
AcDbLine
 62
7
  6
CONTINUOUS
 10
4.1048535023
 20
8.7750144999
 11
4.1048535023
 21
8.23515436
  0
LINE
  5
413
100
AcDbEntity
  8
IMPORT_IGES
100
AcDbLine
 62
7
  6
CONTINUOUS
 10
4.1048535023
 20
8.1543851292
 11
4.1048535023
 21
8.2225669474
  0
LINE
  5
414
100
AcDbEntity
  8
IMPORT_IGES
100
AcDbLine
 62
253
  6
CONTINUOUS
 10
4.15
 20
-3.070134121
 11
4.15
 21
-2.2135381388
  0
LINE
  5
415
100
AcDbEntity
  8
IMPORT_IGES
100
AcDbLine
 62
253
  6
CONTINUOUS
 10
4.2
 20
9.1998957074
 11
4.2
 21
11.5750144999
  0
LINE
  5
416
100
AcDbEntity
  8
IMPORT_IGES
100
AcDbLine
 62
7
  6
CONTINUOUS
 10
4.25
 20
-2.9479923439
 11
4.25
 21
-2.1187685592
  0
LINE
  5
417
100
AcDbEntity
  8
IMPORT_IGES
100
AcDbLine
 62
253
  6
CONTINUOUS
 10
4.3831372522
 20
3.5549276302
 11
4.3831372518
 21
3.2549276307
  0
LINE
  5
418
100
AcDbEntity
  8
IMPORT_IGES
100
AcDbLine
 62
7
  6
CONTINUOUS
 10
4.5
 20
0.4700144999
 11
4.5
 21
-0.6070532154
  0
LINE
  5
419
100
AcDbEntity
  8
IMPORT_IGES
100
AcDbLine
 62
7
  6
CONTINUOUS
 10
4.5
 20
-1.8697615647
 11
4.5
 21
-2.4545022896
  0
LINE
  5
41A
100
AcDbEntity
  8
IMPORT_IGES
100
AcDbLine
 62
253
  6
CONTINUOUS
 10
4.6316847105
 20
7.1950144999
 11
4.6316847108
 21
6.9950144999
  0
LINE
  5
41B
100
AcDbEntity
  8
IMPORT_IGES
100
AcDbLine
 62
253
  6
CONTINUOUS
 10
4.670682221
 20
3.5549276307
 11
4.670682221
 21
3.7549276307
  0
LINE
  5
41C
100
AcDbEntity
  8
IMPORT_IGES
100
AcDbLine
 62
253
  6
CONTINUOUS
 10
4.7
 20
-2.4545022895
 11
4.7
 21
-1.6407156
  0
LINE
  5
41D
100
AcDbEntity
  8
IMPORT_IGES
100
AcDbLine
 62
253
  6
CONTINUOUS
 10
4.7
 20
-0.6737394737
 11
4.7
 21
0.5700144999
  0
LINE
  5
41E
100
AcDbEntity
  8
IMPORT_IGES
100
AcDbLine
 62
253
  6
CONTINUOUS
 10
4.85
 20
-10.3206155656
 11
4.85
 21
-1.4569558805
  0
LINE
  5
41F
100
AcDbEntity
  8
IMPORT_IGES
100
AcDbLine
 62
253
  6
CONTINUOUS
 10
4.85
 20
-0.7237541674
 11
4.85
 21
-0.6501192749
  0
LWPOLYLINE
  5
420
100
AcDbEntity
  8
IMPORT_IGES
100
AcDbPolyline
 62
253
  6
CONTINUOUS
 90
10
 70
0
 10
4.85
 20
-0.6501192749
 10
4.8501027201
 20
-0.6313127225
 10
4.850459362
 20
-0.61245615
 10
4.8510699258
 20
-0.5935495573
 10
4.8519321852
 20
-0.5745894172
 10
4.8530483665
 20
-0.5555792571
 10
4.8544251487
 20
-0.5365296588
 10
4.8560647583
 20
-0.5174441499
 10
4.8579649688
 20
-0.498319203
 10
4.8601257804
 20
-0.479154818
  0
LWPOLYLINE
  5
421
100
AcDbEntity
  8
IMPORT_IGES
100
AcDbPolyline
 62
253
  6
CONTINUOUS
 90
10
 70
0
 10
4.8601257804
 20
-0.479154818
 10
4.8740995238
 20
-0.3910697597
 10
4.8912460867
 20
-0.3028783731
 10
4.9115654691
 20
-0.2145806583
 10
4.9350617809
 20
-0.1275282447
 10
4.9617309122
 20
-0.0403695029
 10
4.9915605328
 20
0.0509504553
 10
5.0245465326
 20
0.1477832594
 10
5.0606930217
 20
0.2487772799
 10
5.1
 20
0.3539325167
  0
LINE
  5
422
100
AcDbEntity
  8
IMPORT_IGES
100
AcDbLine
 62
253
  6
CONTINUOUS
 10
4.8330221321
 20
-0.9289179219
 11
4.896284412
 21
-0.7391868387
  0
LWPOLYLINE
  5
423
100
AcDbEntity
  8
IMPORT_IGES
100
AcDbPolyline
 62
253
  6
CONTINUOUS
 90
10
 70
0
 10
7.2767949192
 20
5.5500145278
 10
7.2713088747
 20
5.5493807649
 10
7.2664114782
 20
5.5490039241
 10
7.2621222308
 20
5.5488840053
 10
7.2584587295
 20
5.5491523186
 10
7.2554365835
 20
5.5496775539
 10
7.2530693366
 20
5.5500657811
 10
7.2513683965
 20
5.5501856902
 10
7.250342969
 20
5.5501685912
 10
7.25
 20
5.550014484
  0
LINE
  5
424
100
AcDbEntity
  8
IMPORT_IGES
100
AcDbLine
 62
7
  6
CONTINUOUS
 10
7.0767949192
 20
5.3518175465
 11
7.05
 21
5.3500144999
  0
LINE
  5
425
100
AcDbEntity
  8
IMPORT_IGES
100
AcDbLine
 62
7
  6
CONTINUOUS
 10
-2.9443170172
 20
4.1750144999
 11
-0.9
 21
4.1750144999
  0
LINE
  5
426
100
AcDbEntity
  8
IMPORT_IGES
100
AcDbLine
 62
7
  6
CONTINUOUS
 10
0.9
 20
4.1750144999
 11
2.9443170172
 21
4.1750144999
  0
LINE
  5
427
100
AcDbEntity
  8
IMPORT_IGES
100
AcDbLine
 62
7
  6
CONTINUOUS
 10
-2.6048535023
 20
4.1964430713
 11
-1.7048535023
 21
4.1964430713
  0
LINE
  5
428
100
AcDbEntity
  8
IMPORT_IGES
100
AcDbLine
 62
7
  6
CONTINUOUS
 10
1.7048535023
 20
4.1964430713
 11
2.6048535023
 21
4.1964430713
  0
LINE
  5
429
100
AcDbEntity
  8
IMPORT_IGES
100
AcDbLine
 62
7
  6
CONTINUOUS
 10
-1.4048535023
 20
4.2627345291
 11
-0.6880160053
 21
4.2627345291
  0
LINE
  5
42A
100
AcDbEntity
  8
IMPORT_IGES
100
AcDbLine
 62
7
  6
CONTINUOUS
 10
0.6880160053
 20
4.2627345291
 11
1.4048535023
 21
4.2627345291
  0
LWPOLYLINE
  5
42B
100
AcDbEntity
  8
IMPORT_IGES
100
AcDbPolyline
 62
253
  6
CONTINUOUS
 90
4
 70
0
 10
-7.2414203406
 20
11.3366516668
 10
-7.2401812254
 20
11.3356763305
 10
-7.2366644173
 20
11.332423909
 10
-7.2308591733
 20
11.326877073
  0
LINE
  5
42C
100
AcDbEntity
  8
IMPORT_IGES
100
AcDbLine
 62
7
  6
CONTINUOUS
 10
3.8227803983
 20
3.1494120825
 11
4.1522052088
 21
2.5100144999
  0
LWPOLYLINE
  5
42D
100
AcDbEntity
  8
IMPORT_IGES
100
AcDbPolyline
 62
253
  6
CONTINUOUS
 90
24
 70
0
 10
7.3273294862
 20
-7.2890822616
 10
7.3104997518
 20
-7.2442418406
 10
7.293396243
 20
-7.189864119
 10
7.2760189598
 20
-7.1259490969
 10
7.2578241803
 20
-7.0498234459
 10
7.2393556264
 20
-6.9641604943
 10
7.222244464
 20
-6.8769802274
 10
7.2070164801
 20
-6.789287002
 10
7.1931458876
 20
-6.7000764614
 10
7.1806864914
 20
-6.6143555196
 10
7.1699809021
 20
-6.5354555203
 10
7.160686509
 20
-6.4600451198
 10
7.1518292848
 20
-6.3831372017
 10
7.1431534502
 20
-6.3038036865
 10
7.1349147846
 20
-6.2229726537
 10
7.1269065984
 20
-6.1384412248
 10
7.1191205711
 20
-6.0511410353
 10
7.1115650232
 20
-5.9601404497
 10
7.1040582272
 20
-5.8604416841
 10
7.0962348389
 20
-5.7453410412
 10
7.0884602025
 20
-5.6215422183
 10
7.0816486234
 20
-5.5041585234
 10
7.0763652854
 20
-5.4041524522
 10
7.0720450045
 20
-5.3105615089
  0
LWPOLYLINE
  5
42E
100
AcDbEntity
  8
IMPORT_IGES
100
AcDbPolyline
 62
253
  6
CONTINUOUS
 90
13
 70
0
 10
4.0
 20
11.2871465342
 10
3.9982889723
 20
11.3056057253
 10
3.9931851653
 20
11.3237490746
 10
3.9847759065
 20
11.3412661442
 10
3.9732050808
 20
11.3578572123
 10
3.9586706681
 20
11.3732384011
 10
3.9414213562
 20
11.3871465342
 10
3.9217522858
 20
11.3993436396
 10
3.9
 20
11.4096210214
 10
3.8765366865
 20
11.4178028307
 10
3.851763809
 20
11.4237490745
 10
3.8261052384
 20
11.427358011
 10
3.8
 20
11.4285678902
  0
LWPOLYLINE
  5
42F
100
AcDbEntity
  8
IMPORT_IGES
100
AcDbPolyline
 62
253
  6
CONTINUOUS
 90
3
 70
0
 10
5.7455541622
 20
1.4542314448
 10
5.7487330378
 20
1.2872693083
 10
5.75
 20
1.1166396853
  0
LWPOLYLINE
  5
430
100
AcDbEntity
  8
IMPORT_IGES
100
AcDbPolyline
 62
253
  6
CONTINUOUS
 90
5
 70
0
 10
5.7232050808
 20
2.544925371
 10
5.723881433
 20
2.3926807092
 10
5.7257526824
 20
2.2395072937
 10
5.7286918309
 20
2.0854051244
 10
5.7455541622
 20
1.4542314448
  0
LINE
  5
431
100
AcDbEntity
  8
IMPORT_IGES
100
AcDbLine
 62
7
  6
CONTINUOUS
 10
4.9273029486
 20
-10.6250145005
 11
4.9273029486
 21
-11.7750144998
  0
LINE
  5
432
100
AcDbEntity
  8
IMPORT_IGES
100
AcDbLine
 62
7
  6
CONTINUOUS
 10
5.0
 20
7.3705111126
 11
5.0
 21
0.5700144999
  0
LINE
  5
433
100
AcDbEntity
  8
IMPORT_IGES
100
AcDbLine
 62
7
  6
CONTINUOUS
 10
5.0
 20
-0.650119275
 11
5.0
 21
-0.8000875865
  0
LINE
  5
434
100
AcDbEntity
  8
IMPORT_IGES
100
AcDbLine
 62
7
  6
CONTINUOUS
 10
5.0
 20
-10.1709433107
 11
5.0
 21
-1.2582911579
  0
LINE
  5
435
100
AcDbEntity
  8
IMPORT_IGES
100
AcDbLine
 62
253
  6
CONTINUOUS
 10
5.1
 20
0.3539325167
 11
5.1
 21
-1.0051951141
  0
LINE
  5
436
100
AcDbEntity
  8
IMPORT_IGES
100
AcDbLine
 62
253
  6
CONTINUOUS
 10
5.1000025733
 20
-7.786911673
 11
5.1
 21
-1.0411854405
  0
LINE
  5
437
100
AcDbEntity
  8
IMPORT_IGES
100
AcDbLine
 62
253
  6
CONTINUOUS
 10
5.1999999985
 20
-10.3249855001
 11
5.1999986545
 21
-7.7759185928
  0
LINE
  5
438
100
AcDbEntity
  8
IMPORT_IGES
100
AcDbLine
 62
253
  6
CONTINUOUS
 10
5.3
 20
7.3705111126
 11
5.3
 21
0.4700144999
  0
LINE
  5
439
100
AcDbEntity
  8
IMPORT_IGES
100
AcDbLine
 62
253
  6
CONTINUOUS
 10
5.5500000028
 20
-7.220139482
 11
5.55
 21
6.8705111126
  0
LINE
  5
43A
100
AcDbEntity
  8
IMPORT_IGES
100
AcDbLine
 62
253
  6
CONTINUOUS
 10
5.65
 20
-10.5249855001
 11
5.6500000003
 21
-10.3249855001
  0
LINE
  5
43B
100
AcDbEntity
  8
IMPORT_IGES
100
AcDbLine
 62
253
  6
CONTINUOUS
 10
5.6726712177
 20
-7.2890824646
 11
5.672670559
 21
-7.3770226472
  0
LINE
  5
43C
100
AcDbEntity
  8
IMPORT_IGES
100
AcDbLine
 62
253
  6
CONTINUOUS
 10
5.7232050808
 20
2.54492537
 11
5.7232050808
 21
5.5500144747
  0
LINE
  5
43D
100
AcDbEntity
  8
IMPORT_IGES
100
AcDbLine
 62
7
  6
CONTINUOUS
 10
5.75
 20
6.8705111126
 11
5.75
 21
5.5500223479
  0
LINE
  5
43E
100
AcDbEntity
  8
IMPORT_IGES
100
AcDbLine
 62
7
  6
CONTINUOUS
 10
5.75
 20
-4.2658966671
 11
5.75
 21
1.1166396853
  0
LINE
  5
43F
100
AcDbEntity
  8
IMPORT_IGES
100
AcDbLine
 62
7
  6
CONTINUOUS
 10
5.8
 20
5.5205144999
 11
5.8
 21
6.9205144999
  0
LINE
  5
440
100
AcDbEntity
  8
IMPORT_IGES
100
AcDbLine
 62
253
  6
CONTINUOUS
 10
5.85
 20
6.9705111126
 11
5.85
 21
7.1705111125
  0
LWPOLYLINE
  5
441
100
AcDbEntity
  8
IMPORT_IGES
100
AcDbPolyline
 62
253
  6
CONTINUOUS
 90
8
 70
0
 10
5.75
 20
-4.2658966671
 10
5.7492296328
 20
-4.5431010577
 10
5.7471269959
 20
-4.7985990117
 10
5.7439928487
 20
-5.0323813822
 10
5.7401433139
 20
-5.2426357534
 10
5.735813835
 20
-5.4311714324
 10
5.7310886143
 20
-5.6034153425
 10
5.7261317494
 20
-5.7589794212
  0
LWPOLYLINE
  5
442
100
AcDbEntity
  8
IMPORT_IGES
100
AcDbPolyline
 62
253
  6
CONTINUOUS
 90
10
 70
0
 10
5.0
 20
-0.650119275
 10
5.0000502901
 20
-0.6328019603
 10
5.0002009966
 20
-0.615545897
 10
5.000451799
 20
-0.5983523924
 10
5.000801905
 20
-0.5812234456
 10
5.0012509824
 20
-0.5641596381
 10
5.0018000798
 20
-0.5471601871
 10
5.00244995
 20
-0.5302257515
 10
5.0032001295
 20
-0.5133583762
 10
5.0040505098
 20
-0.4965594206
  0
LINE
  5
443
100
AcDbEntity
  8
IMPORT_IGES
100
AcDbLine
 62
7
  6
CONTINUOUS
 10
5.0005070146
 20
-8.1909265572
 11
4.9999999998
 21
-8.232901097
  0
LWPOLYLINE
  5
444
100
AcDbEntity
  8
IMPORT_IGES
100
AcDbPolyline
 62
7
  6
CONTINUOUS
 90
3
 70
0
 10
5.0000137711
 20
-8.2309905057
 10
5.0004316614
 20
-8.2082775894
 10
5.0019008615
 20
-8.1520376803
  0
LWPOLYLINE
  5
445
100
AcDbEntity
  8
IMPORT_IGES
100
AcDbPolyline
 62
7
  6
CONTINUOUS
 90
16
 70
0
 10
5.0013186317
 20
-8.1858007995
 10
5.0026731585
 20
-8.1635456505
 10
5.0044829011
 20
-8.141578226
 10
5.0067422996
 20
-8.1198197947
 10
5.0094615056
 20
-8.098139693
 10
5.0126388299
 20
-8.0766265228
 10
5.0162630395
 20
-8.0553650536
 10
5.0203304726
 20
-8.0343319299
 10
5.024810945
 20
-8.0136546826
 10
5.0297040659
 20
-7.9934285377
 10
5.0350378147
 20
-7.9736468972
 10
5.0407718733
 20
-7.9545378367
 10
5.0469053123
 20
-7.9361439062
 10
5.0535141852
 20
-7.9182993377
 10
5.0605827818
 20
-7.9011356677
 10
5.0680743187
 20
-7.8849085171
  0
LWPOLYLINE
  5
446
100
AcDbEntity
  8
IMPORT_IGES
100
AcDbPolyline
 62
253
  6
CONTINUOUS
 90
7
 70
0
 10
5.0040505098
 20
-0.4965594206
 10
5.0094254797
 20
-0.4110846947
 10
5.0166310808
 20
-0.3245063402
 10
5.0253315088
 20
-0.2368489342
 10
5.0349512788
 20
-0.1495916824
 10
5.0453586046
 20
-0.0611745955
 10
5.0571232485
 20
0.0329229798
  0
LINE
  5
447
100
AcDbEntity
  8
IMPORT_IGES
100
AcDbLine
 62
253
  6
CONTINUOUS
 10
5.0571232485
 20
0.0329229798
 11
5.1
 21
0.3539325167
  0
LINE
  5
448
100
AcDbEntity
  8
IMPORT_IGES
100
AcDbLine
 62
253
  6
CONTINUOUS
 10
5.8964101615
 20
5.1536205932
 11
5.9232050808
 21
5.3518175465
  0
LWPOLYLINE
  5
449
100
AcDbEntity
  8
IMPORT_IGES
100
AcDbPolyline
 62
253
  6
CONTINUOUS
 90
13
 70
0
 10
5.75
 20
-0.3845820319
 10
5.7482889723
 20
-0.3953362384
 10
5.7431851653
 20
-0.4059064373
 10
5.7347759065
 20
-0.4161117698
 10
5.7232050808
 20
-0.4257776197
 10
5.7086706681
 20
-0.4347386017
 10
5.6914213562
 20
-0.4428413908
 10
5.6717522858
 20
-0.4499473462
 10
5.65
 20
-0.4559348829
 10
5.6265366865
 20
-0.4607015526
 10
5.601763809
 20
-0.4641657962
 10
5.5761052384
 20
-0.4662683395
 10
5.55
 20
-0.4669732075
  0
LWPOLYLINE
  5
44A
100
AcDbEntity
  8
IMPORT_IGES
100
AcDbPolyline
 62
253
  6
CONTINUOUS
 90
10
 70
0
 10
5.0
 20
-3.5850618028
 10
5.0015192247
 20
-3.577908264
 10
5.0060307379
 20
-3.5709720819
 10
5.0133974596
 20
-3.5644640089
 10
5.0233955557
 20
-3.5585817894
 10
5.035721239
 20
-3.5535041517
 10
5.05
 20
-3.5493853773
 10
5.0657979857
 20
-3.546350613
 10
5.0826351822
 20
-3.5444920686
 10
5.1
 20
-3.543866215
  0
LINE
  5
44B
100
AcDbEntity
  8
IMPORT_IGES
100
AcDbLine
 62
7
  6
CONTINUOUS
 10
-5.9232050808
 20
5.3518175465
 11
-5.95
 21
5.3500144999
  0
LINE
  5
44C
100
AcDbEntity
  8
IMPORT_IGES
100
AcDbLine
 62
253
  6
CONTINUOUS
 10
-1.1048535023
 20
4.9622379625
 11
-0.6
 21
4.9622379625
  0
LINE
  5
44D
100
AcDbEntity
  8
IMPORT_IGES
100
AcDbLine
 62
253
  6
CONTINUOUS
 10
0.6
 20
4.9622379625
 11
1.1048535023
 21
4.9622379625
  0
LINE
  5
44E
100
AcDbEntity
  8
IMPORT_IGES
100
AcDbLine
 62
253
  6
CONTINUOUS
 10
7.05
 20
5.1500144999
 11
5.95
 21
5.1500144999
  0
LINE
  5
44F
100
AcDbEntity
  8
IMPORT_IGES
100
AcDbLine
 62
253
  6
CONTINUOUS
 10
-5.95
 20
5.1500144999
 11
-7.05
 21
5.1500144999
  0
LINE
  5
450
100
AcDbEntity
  8
IMPORT_IGES
100
AcDbLine
 62
7
  6
CONTINUOUS
 10
-7.05
 20
5.3500144999
 11
-5.95
 21
5.3500144999
  0
LINE
  5
451
100
AcDbEntity
  8
IMPORT_IGES
100
AcDbLine
 62
7
  6
CONTINUOUS
 10
5.95
 20
5.3500144999
 11
7.05
 21
5.3500144999
  0
LINE
  5
452
100
AcDbEntity
  8
IMPORT_IGES
100
AcDbLine
 62
7
  6
CONTINUOUS
 10
7.2
 20
5.5205144999
 11
5.8
 21
5.5205144999
  0
LINE
  5
453
100
AcDbEntity
  8
IMPORT_IGES
100
AcDbLine
 62
7
  6
CONTINUOUS
 10
-5.8
 20
5.5205144999
 11
-7.2
 21
5.5205144999
  0
LWPOLYLINE
  5
454
100
AcDbEntity
  8
IMPORT_IGES
100
AcDbPolyline
 62
253
  6
CONTINUOUS
 90
4
 70
0
 10
3.6528489134
 20
3.5416598357
 10
3.6430444984
 20
3.5490346343
 10
3.6370345557
 20
3.5534567532
 10
3.6348190853
 20
3.5549276289
  0
LWPOLYLINE
  5
455
100
AcDbEntity
  8
IMPORT_IGES
100
AcDbPolyline
 62
253
  6
CONTINUOUS
 90
3
 70
0
 10
3.7050289923
 20
3.5022685519
 10
3.6842908807
 20
3.5182245281
 10
3.6528489134
 20
3.5416598357
  0
LWPOLYLINE
  5
456
100
AcDbEntity
  8
IMPORT_IGES
100
AcDbPolyline
 62
253
  6
CONTINUOUS
 90
7
 70
0
 10
3.9177467459
 20
3.3244041524
 10
3.8824549544
 20
3.3564839884
 10
3.8484721756
 20
3.386090059
 10
3.8159408161
 20
3.4133059955
 10
3.7852880961
 20
3.4387127233
 10
3.7562426713
 20
3.4623046768
 10
3.7050289923
 20
3.5022685519
  0
LINE
  5
457
100
AcDbEntity
  8
IMPORT_IGES
100
AcDbLine
 62
253
  6
CONTINUOUS
 10
3.9926845872
 20
3.2549276307
 11
3.9177467459
 21
3.3244041524
  0
LWPOLYLINE
  5
458
100
AcDbEntity
  8
IMPORT_IGES
100
AcDbPolyline
 62
253
  6
CONTINUOUS
 90
7
 70
0
 10
4.4117635797
 20
7.246278195
 10
4.3668613558
 20
7.4570633384
 10
4.3066953892
 20
7.8042656805
 10
4.2599071912
 20
8.1523683305
 10
4.2265603588
 20
8.5007000208
 10
4.2065912951
 20
8.8498838123
 10
4.2
 20
9.1998957074
  0
LWPOLYLINE
  5
459
100
AcDbEntity
  8
IMPORT_IGES
100
AcDbPolyline
 62
253
  6
CONTINUOUS
 90
13
 70
0
 10
4.0205798568
 20
8.5933376793
 10
4.017897582
 20
8.610621418
 10
4.0120998768
 20
8.627687823
 10
4.003232958
 20
8.6441004491
 10
3.9916748854
 20
8.6592548338
 10
3.9776828433
 20
8.6730177178
 10
3.9610013359
 20
8.6856055907
 10
3.9418006416
 20
8.6967143365
 10
3.9205840562
 20
8.705965069
 10
3.8973517804
 20
8.7132751247
 10
3.8724820676
 20
8.7184035493
 10
3.8468054376
 20
8.7211374611
 10
3.8210217471
 20
8.7214610864
  0
LINE
  5
45A
100
AcDbEntity
  8
IMPORT_IGES
100
AcDbLine
 62
7
  6
CONTINUOUS
 10
4.1391667963
 20
7.6088396531
 11
4.0367559342
 21
8.3856715986
  0
LWPOLYLINE
  5
45B
100
AcDbEntity
  8
IMPORT_IGES
100
AcDbPolyline
 62
253
  6
CONTINUOUS
 90
17
 70
0
 10
5.7272110934
 20
5.4756223513
 10
5.7305788794
 20
5.4424032025
 10
5.7352117344
 20
5.4121039168
 10
5.7410625037
 20
5.3844559063
 10
5.7475739543
 20
5.3586534074
 10
5.7545015731
 20
5.3347269864
 10
5.7621284718
 20
5.312646077
 10
5.7705783296
 20
5.2915132163
 10
5.7797849669
 20
5.2710500184
 10
5.7898720329
 20
5.2515348693
 10
5.8013019639
 20
5.2329054647
 10
5.8144203944
 20
5.2146219427
 10
5.8289941106
 20
5.1972241653
 10
5.8445962189
 20
5.1822694139
 10
5.8610220765
 20
5.1702767823
 10
5.8783300742
 20
5.1607271768
 10
5.8964101395
 20
5.1536205973
  0
LWPOLYLINE
  5
45C
100
AcDbEntity
  8
IMPORT_IGES
100
AcDbPolyline
 62
253
  6
CONTINUOUS
 90
13
 70
0
 10
7.25
 20
-7.9198671838
 10
7.2512832708
 20
-7.9355034869
 10
7.2551111261
 20
-7.9508722777
 10
7.2614180701
 20
-7.96571059
 10
7.2700961895
 20
-7.9797645458
 10
7.280996999
 20
-7.9927936671
 10
7.2939339829
 20
-8.0045749911
 10
7.3086857857
 20
-8.0149069258
 10
7.3250000001
 20
-8.0236126993
 10
7.3425974852
 20
-8.0305433536
 10
7.3611771433
 20
-8.0355803031
 10
7.3804210713
 20
-8.0386373642
 10
7.4000000001
 20
-8.0396622298
  0
LWPOLYLINE
  5
45D
100
AcDbEntity
  8
IMPORT_IGES
100
AcDbPolyline
 62
253
  6
CONTINUOUS
 90
13
 70
0
 10
7.25
 20
-9.4653223752
 10
7.2512232494
 20
-9.480590283
 10
7.2548739905
 20
-9.4956120561
 10
7.2608940532
 20
-9.5101423776
 10
7.2691518323
 20
-9.5238943112
 10
7.2795327087
 20
-9.5366992672
 10
7.2920171268
 20
-9.5484714133
 10
7.3065287457
 20
-9.5590153736
 10
7.3228248907
 20
-9.5680456628
 10
7.3406276612
 20
-9.5753340193
 10
7.359636883
 20
-9.5806991408
 10
7.3795449133
 20
-9.5839986162
 10
7.4
 20
-9.5851177018
  0
LINE
  5
45E
100
AcDbEntity
  8
IMPORT_IGES
100
AcDbLine
 62
253
  6
CONTINUOUS
 10
5.7247828239
 20
5.5114927754
 11
5.7272110934
 21
5.4756223513
  0
LINE
  5
45F
100
AcDbEntity
  8
IMPORT_IGES
100
AcDbLine
 62
253
  6
CONTINUOUS
 10
5.7232050808
 20
5.5500144747
 11
5.7247828239
 21
5.5114927754
  0
LWPOLYLINE
  5
460
100
AcDbEntity
  8
IMPORT_IGES
100
AcDbPolyline
 62
253
  6
CONTINUOUS
 90
10
 70
0
 10
5.95
 20
1.1715737501
 10
5.9452961475
 20
1.3316393676
 10
5.9396648353
 20
1.4894082109
 10
5.9331060632
 20
1.6446326856
 10
5.9248000766
 20
1.795862619
 10
5.9155666301
 20
1.944110949
 10
5.9078649884
 20
2.0929029973
 10
5.9025149064
 20
2.2433428181
 10
5.8986966291
 20
2.3940629734
 10
5.8964101566
 20
2.544926252
  0
LINE
  5
461
100
AcDbEntity
  8
IMPORT_IGES
100
AcDbLine
 62
253
  6
CONTINUOUS
 10
5.8964101566
 20
2.5449266303
 11
5.8964101481
 21
5.1536205973
  0
LINE
  5
462
100
AcDbEntity
  8
IMPORT_IGES
100
AcDbLine
 62
253
  6
CONTINUOUS
 10
5.95
 20
5.3500144999
 11
5.95
 21
5.1500144999
  0
LINE
  5
463
100
AcDbEntity
  8
IMPORT_IGES
100
AcDbLine
 62
253
  6
CONTINUOUS
 10
5.95
 20
-4.2658966671
 11
5.95
 21
1.1715737501
  0
LINE
  5
464
100
AcDbEntity
  8
IMPORT_IGES
100
AcDbLine
 62
253
  6
CONTINUOUS
 10
6.15
 20
11.5750144999
 11
6.15
 21
11.7750144999
  0
LINE
  5
465
100
AcDbEntity
  8
IMPORT_IGES
100
AcDbLine
 62
253
  6
CONTINUOUS
 10
6.2231434514
 20
-10.3249855001
 11
6.2231434405
 21
-10.1785294469
  0
LINE
  5
466
100
AcDbEntity
  8
IMPORT_IGES
100
AcDbLine
 62
253
  6
CONTINUOUS
 10
6.5000000002
 20
8.8705111126
 11
6.5
 21
8.5705111126
  0
LINE
  5
467
100
AcDbEntity
  8
IMPORT_IGES
100
AcDbLine
 62
253
  6
CONTINUOUS
 10
6.6400078901
 20
8.8705111126
 11
6.6400078903
 21
8.5705111126
  0
LWPOLYLINE
  5
468
100
AcDbEntity
  8
IMPORT_IGES
100
AcDbPolyline
 62
253
  6
CONTINUOUS
 90
6
 70
0
 10
5.9318014707
 20
-5.2136445627
 10
5.9373512825
 20
-5.0655102249
 10
5.9420164289
 20
-4.8972985784
 10
5.9455622847
 20
-4.7069085833
 10
5.9482234751
 20
-4.4964412796
 10
5.95
 20
-4.2658966671
  0
LINE
  5
469
100
AcDbEntity
  8
IMPORT_IGES
100
AcDbLine
 62
253
  6
CONTINUOUS
 10
5.7261317494
 20
-5.7589794212
 11
5.7158114699
 21
-6.0278491506
  0
LWPOLYLINE
  5
46A
100
AcDbEntity
  8
IMPORT_IGES
100
AcDbPolyline
 62
253
  6
CONTINUOUS
 90
9
 70
0
 10
5.7158114699
 20
-6.0278491506
 10
5.706258929
 20
-6.2390934705
 10
5.69915616
 20
-6.3650988211
 10
5.6873601656
 20
-6.5464286706
 10
5.672099574
 20
-6.7528203298
 10
5.6569374604
 20
-6.9286898325
 10
5.6436467498
 20
-7.0555901763
 10
5.6312382161
 20
-7.1520632939
 10
5.6199137897
 20
-7.2181421823
  0
LWPOLYLINE
  5
46B
100
AcDbEntity
  8
IMPORT_IGES
100
AcDbPolyline
 62
253
  6
CONTINUOUS
 90
4
 70
0
 10
7.2717366687
 20
5.4605099477
 10
7.2742875995
 20
5.4894107436
 10
7.2759521698
 20
5.5192456036
 10
7.2767949192
 20
5.5500145278
  0
LWPOLYLINE
  5
46C
100
AcDbEntity
  8
IMPORT_IGES
100
AcDbPolyline
 62
253
  6
CONTINUOUS
 90
13
 70
0
 10
7.3
 20
10.7245211859
 10
7.3017110277
 20
10.742980377
 10
7.3068148347
 20
10.7611237263
 10
7.3152240935
 20
10.7786407959
 10
7.3267949192
 20
10.795231864
 10
7.3413293319
 20
10.8106130528
 10
7.3585786438
 20
10.8245211859
 10
7.3782477142
 20
10.8367184568
 10
7.4
 20
10.846996004
 10
7.4234633135
 20
10.8551774824
 10
7.448236191
 20
10.8611227334
 10
7.4738947616
 20
10.8647301805
 10
7.5
 20
10.8659380739
  0
LWPOLYLINE
  5
46D
100
AcDbEntity
  8
IMPORT_IGES
100
AcDbPolyline
 62
253
  6
CONTINUOUS
 90
13
 70
0
 10
5.75
 20
-3.245220061
 10
5.7516781944
 20
-3.2354327785
 10
5.7567069243
 20
-3.225777933
 10
5.7650343068
 20
-3.2164211103
 10
5.7765632333
 20
-3.2075173177
 10
5.7911200115
 20
-3.1992341091
 10
5.8084285887
 20
-3.1917417846
 10
5.8281933598
 20
-3.1851709774
 10
5.8500754549
 20
-3.1796366898
 10
5.8736290103
 20
-3.1752470811
 10
5.8984129607
 20
-3.1720718022
 10
5.9240169236
 20
-3.1701515766
 10
5.95
 20
-3.1695099397
  0
LWPOLYLINE
  5
46E
100
AcDbEntity
  8
IMPORT_IGES
100
AcDbPolyline
 62
253
  6
CONTINUOUS
 90
10
 70
0
 10
5.0
 20
-4.1264139603
 10
5.0015192247
 20
-4.1242271181
 10
5.0060307379
 20
-4.1221067219
 10
5.0133974596
 20
-4.1201171991
 10
5.0233955557
 20
-4.1183190001
 10
5.035721239
 20
-4.1167667624
 10
5.05
 20
-4.11550765
 10
5.0657979857
 20
-4.1145799202
 10
5.0826351822
 20
-4.1140117618
 10
5.1
 20
-4.1138204379
  0
LINE
  5
46F
100
AcDbEntity
  8
IMPORT_IGES
100
AcDbLine
 62
253
  6
CONTINUOUS
 10
3.9421596306
 20
7.5743697144
 11
4.1391667963
 21
7.6088396531
  0
LWPOLYLINE
  5
470
100
AcDbEntity
  8
IMPORT_IGES
100
AcDbPolyline
 62
253
  6
CONTINUOUS
 90
10
 70
0
 10
-5.7232050808
 20
5.5500145199
 10
-5.7286911274
 20
5.5493807603
 10
-5.7335885249
 20
5.5490039221
 10
-5.7378777727
 20
5.5488840051
 10
-5.7415412737
 20
5.5491523188
 10
-5.744563419
 20
5.5496775539
 10
-5.7469306651
 20
5.5500657818
 10
-5.7486316045
 20
5.5501856933
 10
-5.7496570313
 20
5.5501685977
 10
-5.75
 20
5.550014495
  0
LINE
  5
471
100
AcDbEntity
  8
IMPORT_IGES
100
AcDbLine
 62
7
  6
CONTINUOUS
 10
8.05
 20
6.3250144999
 11
8.0
 21
6.3250144999
  0
LINE
  5
472
100
AcDbEntity
  8
IMPORT_IGES
100
AcDbLine
 62
7
  6
CONTINUOUS
 10
-8.0
 20
6.3250144999
 11
-8.05
 21
6.3250144999
  0
LINE
  5
473
100
AcDbEntity
  8
IMPORT_IGES
100
AcDbLine
 62
7
  6
CONTINUOUS
 10
-7.2
 20
6.541475725
 11
-5.8
 21
6.541475725
  0
LINE
  5
474
100
AcDbEntity
  8
IMPORT_IGES
100
AcDbLine
 62
7
  6
CONTINUOUS
 10
5.8
 20
6.541475725
 11
7.2
 21
6.541475725
  0
LINE
  5
475
100
AcDbEntity
  8
IMPORT_IGES
100
AcDbLine
 62
253
  6
CONTINUOUS
 10
-4.1391667963
 20
7.6088396531
 11
-3.9421596306
 21
7.5743697144
  0
LWPOLYLINE
  5
476
100
AcDbEntity
  8
IMPORT_IGES
100
AcDbPolyline
 62
253
  6
CONTINUOUS
 90
10
 70
0
 10
5.7232050808
 20
5.5500144747
 10
5.7286055889
 20
5.5486457606
 10
5.7334559046
 20
5.5477718432
 10
5.7377298535
 20
5.5473927223
 10
5.7414023923
 20
5.5477113066
 10
5.7444506707
 20
5.5485246874
 10
5.7468536713
 20
5.5492241393
 10
5.7485913822
 20
5.5496067538
 10
5.749645474
 20
5.5498754393
 10
5.75
 20
5.5500301959
  0
LWPOLYLINE
  5
477
100
AcDbEntity
  8
IMPORT_IGES
100
AcDbPolyline
 62
253
  6
CONTINUOUS
 90
10
 70
0
 10
-7.6999980745
 20
10.6659415796
 10
-7.7284357777
 20
10.6787261778
 10
-7.7564887046
 20
10.6884689335
 10
-7.7837774833
 20
10.6950381568
 10
-7.8099330263
 20
10.6983450755
 10
-7.8346017201
 20
10.698345063
 10
-7.8574501657
 20
10.6950381568
 10
-7.8781694274
 20
10.6884690562
 10
-7.8964792533
 20
10.6787266013
 10
-7.9121320344
 20
10.6659425422
  0
LWPOLYLINE
  5
478
100
AcDbEntity
  8
IMPORT_IGES
100
AcDbPolyline
 62
253
  6
CONTINUOUS
 90
9
 70
0
 10
7.3801401223
 20
-7.2184658837
 10
7.3716524237
 20
-7.1668340039
 10
7.3628061482
 20
-7.1030987162
 10
7.3536572536
 20
-7.0272515419
 10
7.343804347
 20
-6.9338144987
 10
7.3338257071
 20
-6.8282421619
 10
7.3251008769
 20
-6.7269556869
 10
7.3181324807
 20
-6.6364975426
 10
7.3122111298
 20
-6.5503687168
  0
LWPOLYLINE
  5
479
100
AcDbEntity
  8
IMPORT_IGES
100
AcDbPolyline
 62
253
  6
CONTINUOUS
 90
19
 70
0
 10
7.3801398472
 20
-7.2184633857
 10
7.3813665857
 20
-7.2265582806
 10
7.3822409839
 20
-7.234198778
 10
7.3827571525
 20
-7.2413937444
 10
7.3829535877
 20
-7.2480809182
 10
7.3827777501
 20
-7.2543393825
 10
7.3820851817
 20
-7.2603940662
 10
7.3808604191
 20
-7.2664991398
 10
7.3790961278
 20
-7.272428293
 10
7.3766501457
 20
-7.2776873027
 10
7.3733614397
 20
-7.2821720125
 10
7.3693416285
 20
-7.2859958761
 10
7.3648610859
 20
-7.2889732446
 10
7.3600468524
 20
-7.2909762745
 10
7.3547547448
 20
-7.2920974035
 10
7.3488574743
 20
-7.2924723647
 10
7.3423048286
 20
-7.2921346125
 10
7.3351297845
 20
-7.2910119246
 10
7.3273294862
 20
-7.2890822616
  0
LINE
  5
47A
100
AcDbEntity
  8
IMPORT_IGES
100
AcDbLine
 62
253
  6
CONTINUOUS
 10
7.3122111298
 20
-6.5503687168
 11
7.3019170313
 21
-6.3847273877
  0
LINE
  5
47B
100
AcDbEntity
  8
IMPORT_IGES
100
AcDbLine
 62
253
  6
CONTINUOUS
 10
7.3019170313
 20
-6.3847273877
 11
7.2928434339
 21
-6.2148280399
  0
LINE
  5
47C
100
AcDbEntity
  8
IMPORT_IGES
100
AcDbLine
 62
253
  6
CONTINUOUS
 10
7.2928434339
 20
-6.2148280399
 11
7.2821174817
 21
-5.9770812151
  0
LINE
  5
47D
100
AcDbEntity
  8
IMPORT_IGES
100
AcDbLine
 62
253
  6
CONTINUOUS
 10
7.2821174817
 20
-5.9770812151
 11
7.274695857
 21
-5.7837668427
  0
LWPOLYLINE
  5
47E
100
AcDbEntity
  8
IMPORT_IGES
100
AcDbPolyline
 62
253
  6
CONTINUOUS
 90
7
 70
0
 10
7.0720450045
 20
-5.3105615089
 10
7.0635165444
 20
-5.0847083491
 10
7.0593083651
 20
-4.9524461326
 10
7.055800746
 20
-4.8048330387
 10
7.0531666033
 20
-4.6405384589
 10
7.0512330209
 20
-4.4608930017
 10
7.0499999987
 20
-4.2658966671
  0
LINE
  5
47F
100
AcDbEntity
  8
IMPORT_IGES
100
AcDbLine
 62
253
  6
CONTINUOUS
 10
7.274695857
 20
-5.7837668427
 11
7.2672710333
 21
-5.5468480355
  0
LINE
  5
480
100
AcDbEntity
  8
IMPORT_IGES
100
AcDbLine
 62
253
  6
CONTINUOUS
 10
7.2672710333
 20
-5.5468480355
 11
7.2618541205
 21
-5.3346017245
  0
LINE
  5
481
100
AcDbEntity
  8
IMPORT_IGES
100
AcDbLine
 62
253
  6
CONTINUOUS
 10
7.2618541205
 20
-5.3346017245
 11
7.2565738322
 21
-5.0671428549
  0
LWPOLYLINE
  5
482
100
AcDbEntity
  8
IMPORT_IGES
100
AcDbPolyline
 62
253
  6
CONTINUOUS
 90
4
 70
0
 10
7.2565738322
 20
-5.0671428549
 10
7.2520308943
 20
-4.713796357
 10
7.2505581433
 20
-4.5013032466
 10
7.25
 20
-4.2658966673
  0
LINE
  5
483
100
AcDbEntity
  8
IMPORT_IGES
100
AcDbLine
 62
253
  6
CONTINUOUS
 10
6.8787960123
 20
11.5750144999
 11
6.8787960123
 21
11.3762645192
  0
LINE
  5
484
100
AcDbEntity
  8
IMPORT_IGES
100
AcDbLine
 62
253
  6
CONTINUOUS
 10
7.05
 20
5.3500144999
 11
7.05
 21
5.1500144999
  0
LINE
  5
485
100
AcDbEntity
  8
IMPORT_IGES
100
AcDbLine
 62
253
  6
CONTINUOUS
 10
7.0499999998
 20
-7.7759185928
 11
7.0500070596
 21
-9.7243430934
  0
LINE
  5
486
100
AcDbEntity
  8
IMPORT_IGES
100
AcDbLine
 62
253
  6
CONTINUOUS
 10
7.0499999987
 20
-4.2658966671
 11
7.05
 21
1.1715737501
  0
LINE
  5
487
100
AcDbEntity
  8
IMPORT_IGES
100
AcDbLine
 62
253
  6
CONTINUOUS
 10
7.1
 20
11.1973444419
 11
7.1
 21
8.790118157
  0
LINE
  5
488
100
AcDbEntity
  8
IMPORT_IGES
100
AcDbLine
 62
253
  6
CONTINUOUS
 10
7.1035898668
 20
2.5449270087
 11
7.1035898385
 21
5.1536205932
  0
LINE
  5
489
100
AcDbEntity
  8
IMPORT_IGES
100
AcDbLine
 62
253
  6
CONTINUOUS
 10
7.15
 20
6.9705111126
 11
7.1500000002
 21
7.1705111126
  0
LINE
  5
48A
100
AcDbEntity
  8
IMPORT_IGES
100
AcDbLine
 62
7
  6
CONTINUOUS
 10
7.2
 20
5.5205144999
 11
7.2
 21
6.9205144999
  0
LINE
  5
48B
100
AcDbEntity
  8
IMPORT_IGES
100
AcDbLine
 62
7
  6
CONTINUOUS
 10
7.25
 20
6.8705111126
 11
7.25
 21
5.5500144919
  0
LINE
  5
48C
100
AcDbEntity
  8
IMPORT_IGES
100
AcDbLine
 62
7
  6
CONTINUOUS
 10
7.25
 20
1.1166396853
 11
7.25
 21
-4.2658966671
  0
LINE
  5
48D
100
AcDbEntity
  8
IMPORT_IGES
100
AcDbLine
 62
7
  6
CONTINUOUS
 10
7.25
 20
-7.9198671838
 11
7.25
 21
-9.5187321295
  0
LINE
  5
48E
100
AcDbEntity
  8
IMPORT_IGES
100
AcDbLine
 62
253
  6
CONTINUOUS
 10
7.2767949192
 20
5.5500145278
 11
7.2767949192
 21
2.544925371
  0
LINE
  5
48F
100
AcDbEntity
  8
IMPORT_IGES
100
AcDbLine
 62
7
  6
CONTINUOUS
 10
7.3
 20
10.795232982
 11
7.3
 21
8.6987201136
  0
LINE
  5
490
100
AcDbEntity
  8
IMPORT_IGES
100
AcDbLine
 62
253
  6
CONTINUOUS
 10
7.3273294862
 20
-7.2890823573
 11
7.3273383266
 21
-7.3770226472
  0
LINE
  5
491
100
AcDbEntity
  8
IMPORT_IGES
100
AcDbLine
 62
253
  6
CONTINUOUS
 10
7.4
 20
-9.5851177018
 11
7.4
 21
-8.0396625094
  0
LINE
  5
492
100
AcDbEntity
  8
IMPORT_IGES
100
AcDbLine
 62
253
  6
CONTINUOUS
 10
7.45
 20
6.8705111124
 11
7.4500034067
 21
-7.2201394818
  0
LINE
  5
493
100
AcDbEntity
  8
IMPORT_IGES
100
AcDbLine
 62
253
  6
CONTINUOUS
 10
7.5
 20
8.5632248157
 11
7.4999993569
 21
10.8659380739
  0
LINE
  5
494
100
AcDbEntity
  8
IMPORT_IGES
100
AcDbLine
 62
253
  6
CONTINUOUS
 10
7.7
 20
-9.4119126211
 11
7.6999999856
 21
7.5106934388
  0
LINE
  5
495
100
AcDbEntity
  8
IMPORT_IGES
100
AcDbLine
 62
253
  6
CONTINUOUS
 10
7.7
 20
8.3610154256
 11
7.7
 21
10.6659425424
  0
LWPOLYLINE
  5
496
100
AcDbEntity
  8
IMPORT_IGES
100
AcDbPolyline
 62
253
  6
CONTINUOUS
 90
4
 70
0
 10
7.2767949192
 20
2.544925371
 10
7.2761250839
 20
2.3932048003
 10
7.2742662771
 20
2.2405516015
 10
7.2713439306
 20
2.0869657747
  0
LWPOLYLINE
  5
497
100
AcDbEntity
  8
IMPORT_IGES
100
AcDbPolyline
 62
253
  6
CONTINUOUS
 90
10
 70
0
 10
7.1035898492
 20
2.5449270087
 10
7.1014588304
 20
2.3974748278
 10
7.0977654223
 20
2.2493955605
 10
7.092509625
 20
2.100822328
 10
7.0848827225
 20
1.9532429655
 10
7.0756934308
 20
1.8054363037
 10
7.0673678978
 20
1.6535264326
 10
7.0607148397
 20
1.49640021
 10
7.0549255405
 20
1.3356548435
 10
7.05
 20
1.1715737501
  0
LWPOLYLINE
  5
498
100
AcDbEntity
  8
IMPORT_IGES
100
AcDbPolyline
 62
253
  6
CONTINUOUS
 90
3
 70
0
 10
7.2544961704
 20
1.456801534
 10
7.2512834563
 20
1.2888105871
 10
7.25
 20
1.1166396854
  0
LINE
  5
499
100
AcDbEntity
  8
IMPORT_IGES
100
AcDbLine
 62
253
  6
CONTINUOUS
 10
7.2713439306
 20
2.0869657747
 11
7.2544961704
 21
1.456801534
  0
LWPOLYLINE
  5
49A
100
AcDbEntity
  8
IMPORT_IGES
100
AcDbPolyline
 62
253
  6
CONTINUOUS
 90
13
 70
0
 10
7.4500034067
 20
-7.2201394819
 10
7.4491247877
 20
-7.2434177316
 10
7.4463833916
 20
-7.2650769361
 10
7.4417792185
 20
-7.28511219
 10
7.4352279665
 20
-7.3037558586
 10
7.4268139375
 20
-7.3207975728
 10
7.4167900366
 20
-7.3356075456
 10
7.4050926695
 20
-7.3481100077
 10
7.3917854306
 20
-7.358493729
 10
7.377312008
 20
-7.3665575904
 10
7.3618202979
 20
-7.3722681857
 10
7.345162404
 20
-7.3757487033
 10
7.3273383266
 20
-7.3770233786
  0
LWPOLYLINE
  5
49B
100
AcDbEntity
  8
IMPORT_IGES
100
AcDbPolyline
 62
253
  6
CONTINUOUS
 90
12
 70
0
 10
4.9987167292
 20
-10.1814644674
 10
4.9948888739
 20
-10.2005735549
 10
4.9885819299
 20
-10.2190230271
 10
4.9799038106
 20
-10.2364972084
 10
4.969003001
 20
-10.2526971106
 10
4.9560660172
 20
-10.2673455489
 10
4.9413142144
 20
-10.2801918846
 10
4.925
 20
-10.2910163131
 10
4.9074025149
 20
-10.2996336257
 10
4.8888228568
 20
-10.3058963776
 10
4.8695789288
 20
-10.3096974115
 10
4.85
 20
-10.3109716905
  0
LWPOLYLINE
  5
49C
100
AcDbEntity
  8
IMPORT_IGES
100
AcDbPolyline
 62
7
  6
CONTINUOUS
 90
11
 70
0
 10
5.0356727272
 20
-7.9092350153
 10
5.0316599884
 20
-7.9248358646
 10
5.0276891032
 20
-7.941818082
 10
5.0237692157
 20
-7.960569786
 10
5.0199648555
 20
-7.9810584873
 10
5.0163104387
 20
-8.0033387015
 10
5.0128015669
 20
-8.0279397108
 10
5.0095368565
 20
-8.0547778384
 10
5.0065897852
 20
-8.0839519135
 10
5.0039958519
 20
-8.1162809637
 10
5.0019008615
 20
-8.1520376803
  0
LWPOLYLINE
  5
49D
100
AcDbEntity
  8
IMPORT_IGES
100
AcDbPolyline
 62
253
  6
CONTINUOUS
 90
13
 70
0
 10
5.75
 20
-4.0886333932
 10
5.7482889723
 20
-4.0919209622
 10
5.7431851653
 20
-4.0951522801
 10
5.7347759065
 20
-4.0982720579
 10
5.7232050808
 20
-4.1012269156
 10
5.7086706681
 20
-4.1039662945
 10
5.6914213562
 20
-4.1064433233
 10
5.6717522857
 20
-4.1086156193
 10
5.6499999998
 20
-4.1104460138
 10
5.6265366865
 20
-4.1119031883
 10
5.6017638096
 20
-4.1129622102
 10
5.57610524
 20
-4.1136049592
 10
5.5500000028
 20
-4.1138204379
  0
LINE
  5
49E
100
AcDbEntity
  8
IMPORT_IGES
100
AcDbLine
 62
253
  6
CONTINUOUS
 10
7.45
 20
6.8705111126
 11
7.25
 21
6.8705111126
  0
LINE
  5
49F
100
AcDbEntity
  8
IMPORT_IGES
100
AcDbLine
 62
253
  6
CONTINUOUS
 10
5.75
 20
6.8705111126
 11
5.55
 21
6.8705111128
  0
LINE
  5
4A0
100
AcDbEntity
  8
IMPORT_IGES
100
AcDbLine
 62
253
  6
CONTINUOUS
 10
-5.55
 20
6.8705111126
 11
-5.75
 21
6.8705111126
  0
LINE
  5
4A1
100
AcDbEntity
  8
IMPORT_IGES
100
AcDbLine
 62
253
  6
CONTINUOUS
 10
-7.25
 20
6.8705111126
 11
-7.45
 21
6.8705111128
  0
LINE
  5
4A2
100
AcDbEntity
  8
IMPORT_IGES
100
AcDbLine
 62
7
  6
CONTINUOUS
 10
7.2
 20
6.9205144999
 11
5.8
 21
6.9205144999
  0
LINE
  5
4A3
100
AcDbEntity
  8
IMPORT_IGES
100
AcDbLine
 62
7
  6
CONTINUOUS
 10
-5.8
 20
6.9205144999
 11
-7.2
 21
6.9205144999
  0
LINE
  5
4A4
100
AcDbEntity
  8
IMPORT_IGES
100
AcDbLine
 62
7
  6
CONTINUOUS
 10
7.15
 20
6.9705111126
 11
5.85
 21
6.9705111126
  0
LINE
  5
4A5
100
AcDbEntity
  8
IMPORT_IGES
100
AcDbLine
 62
7
  6
CONTINUOUS
 10
-5.85
 20
6.9705111126
 11
-7.15
 21
6.9705111126
  0
LINE
  5
4A6
100
AcDbEntity
  8
IMPORT_IGES
100
AcDbLine
 62
253
  6
CONTINUOUS
 10
-5.0
 20
6.9950145001
 11
-4.6316847109
 21
6.9950145001
  0
LINE
  5
4A7
100
AcDbEntity
  8
IMPORT_IGES
100
AcDbLine
 62
253
  6
CONTINUOUS
 10
5.0
 20
6.9950144999
 11
4.6316847105
 21
6.9950144999
  0
LINE
  5
4A8
100
AcDbEntity
  8
IMPORT_IGES
100
AcDbLine
 62
253
  6
CONTINUOUS
 10
-7.1499999998
 20
7.1705111126
 11
-5.85
 21
7.1705111126
  0
LINE
  5
4A9
100
AcDbEntity
  8
IMPORT_IGES
100
AcDbLine
 62
253
  6
CONTINUOUS
 10
5.8500000002
 20
7.1705111126
 11
7.15
 21
7.1705111126
  0
LINE
  5
4AA
100
AcDbEntity
  8
IMPORT_IGES
100
AcDbLine
 62
7
  6
CONTINUOUS
 10
-5.0
 20
7.1950144999
 11
-4.6316847109
 21
7.1950144999
  0
LINE
  5
4AB
100
AcDbEntity
  8
IMPORT_IGES
100
AcDbLine
 62
7
  6
CONTINUOUS
 10
4.631684712
 20
7.1950144999
 11
5.0
 21
7.1950144999
  0
LINE
  5
4AC
100
AcDbEntity
  8
IMPORT_IGES
100
AcDbLine
 62
253
  6
CONTINUOUS
 10
5.0
 20
7.3705111126
 11
5.3
 21
7.3705111126
  0
LINE
  5
4AD
100
AcDbEntity
  8
IMPORT_IGES
100
AcDbLine
 62
253
  6
CONTINUOUS
 10
-5.0
 20
7.3705111126
 11
-5.3
 21
7.3705111126
  0
LINE
  5
4AE
100
AcDbEntity
  8
IMPORT_IGES
100
AcDbLine
 62
253
  6
CONTINUOUS
 10
-7.7
 20
7.5105190029
 11
-8.0
 21
7.5105190025
  0
LINE
  5
4AF
100
AcDbEntity
  8
IMPORT_IGES
100
AcDbLine
 62
7
  6
CONTINUOUS
 10
4.130442872
 20
7.6750144999
 11
4.2648630836
 21
7.6750144999
  0
LINE
  5
4B0
100
AcDbEntity
  8
IMPORT_IGES
100
AcDbLine
 62
7
  6
CONTINUOUS
 10
-4.1279073836
 20
7.6750144999
 11
-4.2648630836
 21
7.6750144999
  0
LINE
  5
4B1
100
AcDbEntity
  8
IMPORT_IGES
100
AcDbLine
 62
253
  6
CONTINUOUS
 10
8.0
 20
7.5105190029
 11
7.7
 21
7.5105771482
  0
LWPOLYLINE
  5
4B2
100
AcDbEntity
  8
IMPORT_IGES
100
AcDbPolyline
 62
253
  6
CONTINUOUS
 90
13
 70
0
 10
7.25
 20
1.1166396853
 10
7.2483301852
 20
1.1237233859
 10
7.2433699383
 20
1.1306666817
 10
7.2352330067
 20
1.1373560696
 10
7.2241468174
 20
1.1436534561
 10
7.2102869217
 20
1.1494945102
 10
7.1936360363
 20
1.1548656871
 10
7.1742502372
 20
1.1596863787
 10
7.152482158
 20
1.1638135098
 10
7.1287528563
 20
1.1671354469
 10
7.1034876593
 20
1.1695725744
 10
7.0770817088
 20
1.171067684
 10
7.05
 20
1.1715737501
  0
LINE
  5
4B3
100
AcDbEntity
  8
IMPORT_IGES
100
AcDbLine
 62
253
  6
CONTINUOUS
 10
7.1035894702
 20
5.1536205446
 11
7.0767949192
 21
5.3518175465
  0
LWPOLYLINE
  5
4B4
100
AcDbEntity
  8
IMPORT_IGES
100
AcDbPolyline
 62
253
  6
CONTINUOUS
 90
13
 70
0
 10
8.0
 20
8.5093290749
 10
7.9974334584
 20
8.5370178616
 10
7.9897777479
 20
8.5642328855
 10
7.9771638598
 20
8.5905084899
 10
7.9598076211
 20
8.6153950921
 10
7.9380060021
 20
8.6384668753
 10
7.9121320344
 20
8.6593290749
 10
7.8826284287
 20
8.6776247329
 10
7.85
 20
8.6930408056
 10
7.8148050297
 20
8.7053135196
 10
7.7776457135
 20
8.7142328855
 10
7.7391578577
 20
8.7196462903
 10
7.7
 20
8.7214611093
  0
LINE
  5
4B5
100
AcDbEntity
  8
IMPORT_IGES
100
AcDbLine
 62
7
  6
CONTINUOUS
 10
8.0
 20
-9.172321968
 11
8.0
 21
10.4538105078
  0
LINE
  5
4B6
100
AcDbEntity
  8
IMPORT_IGES
100
AcDbLine
 62
7
  6
CONTINUOUS
 10
8.25
 20
-5.1749855001
 11
8.25
 21
6.1250144999
  0
LWPOLYLINE
  5
4B7
100
AcDbEntity
  8
IMPORT_IGES
100
AcDbPolyline
 62
253
  6
CONTINUOUS
 90
13
 70
0
 10
8.0
 20
-7.3168989723
 10
7.9974334584
 20
-7.3481718279
 10
7.9897777479
 20
-7.3789095963
 10
7.9771638598
 20
-7.4085863457
 10
7.9598076211
 20
-7.4366942988
 10
7.9380060021
 20
-7.4627525206
 10
7.9121320344
 20
-7.4863151477
 10
7.8826284287
 20
-7.5069790171
 10
7.85
 20
-7.5243905643
 10
7.8148050297
 20
-7.5382518728
 10
7.7776457135
 20
-7.5483257718
 10
7.7391578577
 20
-7.5544398941
 10
7.7
 20
-7.5564896254
  0
LWPOLYLINE
  5
4B8
100
AcDbEntity
  8
IMPORT_IGES
100
AcDbPolyline
 62
253
  6
CONTINUOUS
 90
13
 70
0
 10
8.0
 20
-0.3433864442
 10
7.9974334584
 20
-0.3595177538
 10
7.9897777479
 20
-0.3753730523
 10
7.9771638598
 20
-0.390681051
 10
7.9598076211
 20
-0.4051798258
 10
7.9380060021
 20
-0.4186212988
 10
7.9121320344
 20
-0.4307754825
 10
7.8826284287
 20
-0.4414344156
 10
7.85
 20
-0.4504157207
 10
7.8148050297
 20
-0.4575657252
 10
7.7776457135
 20
-0.4627620906
 10
7.7391578577
 20
-0.4659159055
 10
7.7
 20
-0.4669732074
  0
LWPOLYLINE
  5
4B9
100
AcDbEntity
  8
IMPORT_IGES
100
AcDbPolyline
 62
253
  6
CONTINUOUS
 90
19
 70
0
 10
5.6726704992
 20
-7.2890823573
 10
5.6894328714
 20
-7.2508516002
 10
5.7083033218
 20
-7.189568159
 10
5.7292818506
 20
-7.1052320336
 10
5.7542085543
 20
-6.9884354679
 10
5.7812433362
 20
-6.8485862179
 10
5.8048659069
 20
-6.7139075525
 10
5.8226143274
 20
-6.594475457
 10
5.8369505366
 20
-6.480213946
 10
5.8497400628
 20
-6.3691183316
 10
5.8612058495
 20
-6.2638639383
 10
5.8711249532
 20
-6.1617754418
 10
5.8806940705
 20
-6.0528221804
 10
5.8905743813
 20
-5.9294708418
 10
5.9001047058
 20
-5.7992547384
 10
5.9084982012
 20
-5.6747431462
 10
5.9151739065
 20
-5.5666187235
 10
5.9207127826
 20
-5.464198812
 10
5.9318014707
 20
-5.2136445627
  0
LWPOLYLINE
  5
4BA
100
AcDbEntity
  8
IMPORT_IGES
100
AcDbPolyline
 62
7
  6
CONTINUOUS
 90
7
 70
0
 10
5.0680743187
 20
-7.8849085171
 10
5.0760185738
 20
-7.8697339803
 10
5.0845876197
 20
-7.8554935344
 10
5.0936383717
 20
-7.842584018
 10
5.1027711341
 20
-7.8317246727
 10
5.1121642593
 20
-7.8232110778
 10
5.122298262
 20
-7.8170431689
  0
LINE
  5
4BB
100
AcDbEntity
  8
IMPORT_IGES
100
AcDbLine
 62
253
  6
CONTINUOUS
 10
3.8375463848
 20
8.3679077187
 11
4.0367559342
 21
8.3856715986
  0
LWPOLYLINE
  5
4BC
100
AcDbEntity
  8
IMPORT_IGES
100
AcDbPolyline
 62
253
  6
CONTINUOUS
 90
8
 70
0
 10
7.5
 20
8.7214611095
 10
7.4738947616
 20
8.7202512301
 10
7.448236191
 20
8.7166422934
 10
7.4234633135
 20
8.7106960495
 10
7.4
 20
8.7025142401
 10
7.3782477142
 20
8.6922368584
 10
7.3585786438
 20
8.680039753
 10
7.347280213
 20
8.6709298198
  0
LINE
  5
4BD
100
AcDbEntity
  8
IMPORT_IGES
100
AcDbLine
 62
7
  6
CONTINUOUS
 10
4.0618860352
 20
8.141300445
 11
4.0689717315
 21
8.141300445
  0
LINE
  5
4BE
100
AcDbEntity
  8
IMPORT_IGES
100
AcDbLine
 62
7
  6
CONTINUOUS
 10
4.1048535023
 20
8.2750144999
 11
4.0513440172
 21
8.2750144999
  0
LINE
  5
4BF
100
AcDbEntity
  8
IMPORT_IGES
100
AcDbLine
 62
253
  6
CONTINUOUS
 10
-3.8375463848
 20
8.3679077187
 11
3.8375463848
 21
8.3679077184
  0
LINE
  5
4C0
100
AcDbEntity
  8
IMPORT_IGES
100
AcDbLine
 62
253
  6
CONTINUOUS
 10
7.6947113577
 20
8.3679077184
 11
8.0
 21
8.3679077187
  0
LINE
  5
4C1
100
AcDbEntity
  8
IMPORT_IGES
100
AcDbLine
 62
253
  6
CONTINUOUS
 10
-7.6947113875
 20
8.3679077184
 11
-8.0
 21
8.3679077187
  0
LINE
  5
4C2
100
AcDbEntity
  8
IMPORT_IGES
100
AcDbLine
 62
253
  6
CONTINUOUS
 10
6.6400078903
 20
8.5705111126
 11
6.5
 21
8.5705111126
  0
LINE
  5
4C3
100
AcDbEntity
  8
IMPORT_IGES
100
AcDbLine
 62
253
  6
CONTINUOUS
 10
-6.5
 20
8.5705111126
 11
-6.6400078903
 21
8.5705111126
  0
LINE
  5
4C4
100
AcDbEntity
  8
IMPORT_IGES
100
AcDbLine
 62
253
  6
CONTINUOUS
 10
-3.8210224345
 20
8.7214611091
 11
3.8210217472
 21
8.7214610861
  0
LINE
  5
4C5
100
AcDbEntity
  8
IMPORT_IGES
100
AcDbLine
 62
253
  6
CONTINUOUS
 10
-7.4999993545
 20
8.7214611095
 11
-7.7
 21
8.7214611095
  0
LINE
  5
4C6
100
AcDbEntity
  8
IMPORT_IGES
100
AcDbLine
 62
253
  6
CONTINUOUS
 10
7.4999993569
 20
8.7214611095
 11
7.7
 21
8.7214611092
  0
LINE
  5
4C7
100
AcDbEntity
  8
IMPORT_IGES
100
AcDbLine
 62
253
  6
CONTINUOUS
 10
-4.0367559346
 20
8.3856715941
 11
-3.8375463848
 21
8.3679077187
  0
LWPOLYLINE
  5
4C8
100
AcDbEntity
  8
IMPORT_IGES
100
AcDbPolyline
 62
253
  6
CONTINUOUS
 90
6
 70
0
 10
8.0
 20
10.4538105078
 10
7.9975122731
 20
10.4810726368
 10
7.9900486772
 20
10.5079942917
 10
7.9776722093
 20
10.5341166227
 10
7.9605156927
 20
10.559004552
 10
7.938822443
 20
10.5821924394
  0
LWPOLYLINE
  5
4C9
100
AcDbEntity
  8
IMPORT_IGES
100
AcDbPolyline
 62
253
  6
CONTINUOUS
 90
13
 70
0
 10
8.0
 20
-4.0760398709
 10
7.9974334584
 20
-4.0809712244
 10
7.9897777479
 20
-4.0858182011
 10
7.9771638598
 20
-4.0904978679
 10
7.9598076211
 20
-4.0949301544
 10
7.9380060021
 20
-4.0990392228
 10
7.9121320344
 20
-4.102754766
 10
7.8826284287
 20
-4.1060132099
 10
7.85
 20
-4.1087588017
 10
7.8148050297
 20
-4.1109445635
 10
7.7776457135
 20
-4.1125330963
 10
7.7391578577
 20
-4.1134972199
 10
7.7
 20
-4.1138204379
  0
LWPOLYLINE
  5
4CA
100
AcDbEntity
  8
IMPORT_IGES
100
AcDbPolyline
 62
7
  6
CONTINUOUS
 90
9
 70
0
 10
5.0876666389
 20
-7.7977480435
 10
5.0767587322
 20
-7.8102271574
 10
5.0673378015
 20
-7.8239976907
 10
5.0595430593
 20
-7.8391700229
 10
5.0531537938
 20
-7.8550477127
 10
5.0476630393
 20
-7.870212858
 10
5.0431592166
 20
-7.883395426
 10
5.0394377215
 20
-7.8956483871
 10
5.0356727272
 20
-7.9092350153
  0
LINE
  5
4CB
100
AcDbEntity
  8
IMPORT_IGES
100
AcDbLine
 62
7
  6
CONTINUOUS
 10
5.1
 20
-7.786911673
 11
5.0876666389
 21
-7.7977480435
  0
LINE
  5
4CC
100
AcDbEntity
  8
IMPORT_IGES
100
AcDbLine
 62
7
  6
CONTINUOUS
 10
5.122298262
 20
-7.8170431689
 11
5.1328024452
 21
-7.8134670001
  0
LWPOLYLINE
  5
4CD
100
AcDbEntity
  8
IMPORT_IGES
100
AcDbPolyline
 62
253
  6
CONTINUOUS
 90
13
 70
0
 10
-7.7
 20
8.7214611095
 10
-7.7391578577
 20
8.7196462904
 10
-7.7776457135
 20
8.7142328855
 10
-7.8148050297
 20
8.7053135196
 10
-7.85
 20
8.6930408056
 10
-7.8826284287
 20
8.6776247329
 10
-7.9121320344
 20
8.6593290749
 10
-7.9380060021
 20
8.6384668753
 10
-7.9598076211
 20
8.6153950921
 10
-7.9771638598
 20
8.5905084899
 10
-7.9897777479
 20
8.5642328855
 10
-7.9974334584
 20
8.5370178616
 10
-8.0
 20
8.5093290749
  0
LWPOLYLINE
  5
4CE
100
AcDbEntity
  8
IMPORT_IGES
100
AcDbPolyline
 62
253
  6
CONTINUOUS
 90
13
 70
0
 10
-4.2
 20
9.1998957074
 10
-4.1742187622
 20
9.1999941247
 10
-4.1489455651
 20
9.2002865211
 10
-4.1245935606
 20
9.2007662574
 10
-4.1016648501
 20
9.2014200181
 10
-4.0803951386
 20
9.2022374923
 10
-4.0608366278
 20
9.20321962
 10
-4.0432835144
 20
9.2043606248
 10
-4.0282558638
 20
9.205642153
 10
-4.0161600729
 20
9.2070465964
 10
-4.0072860952
 20
9.2085512621
 10
-4.0018423125
 20
9.2101304137
 10
-4.0
 20
9.2117566049
  0
LINE
  5
4CF
100
AcDbEntity
  8
IMPORT_IGES
100
AcDbLine
 62
7
  6
CONTINUOUS
 10
-6.6400078901
 20
8.8705111126
 11
-6.5000000002
 21
8.8705111126
  0
LINE
  5
4D0
100
AcDbEntity
  8
IMPORT_IGES
100
AcDbLine
 62
7
  6
CONTINUOUS
 10
6.5000000002
 20
8.8705111126
 11
6.6400078901
 21
8.8705111126
  0
LWPOLYLINE
  5
4D1
100
AcDbEntity
  8
IMPORT_IGES
100
AcDbPolyline
 62
253
  6
CONTINUOUS
 90
13
 70
0
 10
4.2
 20
9.1998957074
 10
4.1738947616
 20
9.1999966246
 10
4.148236191
 20
9.2002976496
 10
4.1234633135
 20
9.2007936317
 10
4.1
 20
9.2014760845
 10
4.0782477142
 20
9.2023333311
 10
4.0585786438
 20
9.2033507037
 10
4.0413293319
 20
9.2045107949
 10
4.0267949192
 20
9.2057937551
 10
4.0152240935
 20
9.2071776325
 10
4.0068148347
 20
9.2086387486
 10
4.0017110277
 20
9.2101521033
 10
4.0
 20
9.2116918028
  0
LWPOLYLINE
  5
4D2
100
AcDbEntity
  8
IMPORT_IGES
100
AcDbPolyline
 62
253
  6
CONTINUOUS
 90
13
 70
0
 10
8.0
 20
-7.182358915
 10
7.9974334584
 20
-7.1872902685
 10
7.9897777479
 20
-7.1921372452
 10
7.9771638598
 20
-7.196816912
 10
7.9598076211
 20
-7.2012491985
 10
7.9380060021
 20
-7.2053582669
 10
7.9121320344
 20
-7.2090738101
 10
7.8826284287
 20
-7.212332254
 10
7.85
 20
-7.2150778458
 10
7.8148050297
 20
-7.2172636076
 10
7.7776457135
 20
-7.2188521403
 10
7.7391578577
 20
-7.2198162638
 10
7.7
 20
-7.2201394817
  0
LWPOLYLINE
  5
4D3
100
AcDbEntity
  8
IMPORT_IGES
100
AcDbPolyline
 62
253
  6
CONTINUOUS
 90
3
 70
0
 10
7.2499999999
 20
-9.5187324863
 10
7.2489480484
 20
-9.5202679524
 10
7.2458051408
 20
-9.5237898708
  0
LWPOLYLINE
  5
4D4
100
AcDbEntity
  8
IMPORT_IGES
100
AcDbPolyline
 62
253
  6
CONTINUOUS
 90
10
 70
0
 10
7.8152865441
 20
-9.3935151891
 10
7.8505229497
 20
-9.3795718707
 10
7.8831380878
 20
-9.3620889928
 10
7.9125883023
 20
-9.3413729662
 10
7.9383789602
 20
-9.3177865179
 10
7.960079821
 20
-9.2917399751
 10
7.9773353876
 20
-9.2636779213
 10
7.9898623048
 20
-9.2340800148
 10
7.9974565996
 20
-9.2034541217
 10
8.0
 20
-9.172321968
  0
LWPOLYLINE
  5
4D5
100
AcDbEntity
  8
IMPORT_IGES
100
AcDbPolyline
 62
253
  6
CONTINUOUS
 90
4
 70
0
 10
4.0000000009
 20
11.3750145566
 10
4.001713451
 20
11.3751862825
 10
4.006819579
 20
11.3753446548
 10
4.0152309324
 20
11.3754923816
  0
LWPOLYLINE
  5
4D6
100
AcDbEntity
  8
IMPORT_IGES
100
AcDbPolyline
 62
253
  6
CONTINUOUS
 90
4
 70
0
 10
-7.7
 20
10.6659425424
 10
-7.7394768418
 20
10.6640979053
 10
-7.7782469179
 20
10.6585999361
 10
-7.8156382917
 20
10.6495498568
  0
LWPOLYLINE
  5
4D7
100
AcDbEntity
  8
IMPORT_IGES
100
AcDbPolyline
 62
253
  6
CONTINUOUS
 90
12
 70
0
 10
-3.8
 20
11.4285678902
 10
-3.8261052384
 20
11.427358011
 10
-3.851763809
 20
11.4237490745
 10
-3.8765366865
 20
11.4178028307
 10
-3.9
 20
11.4096210214
 10
-3.9217522858
 20
11.3993436396
 10
-3.9414213562
 20
11.3871465342
 10
-3.9586706681
 20
11.3732384011
 10
-3.9732050808
 20
11.3578572123
 10
-3.9847759065
 20
11.3412661442
 10
-3.9931851652
 20
11.3237490747
 10
-3.9982889722
 20
11.3056057255
  0
LINE
  5
4D8
100
AcDbEntity
  8
IMPORT_IGES
100
AcDbLine
 62
253
  6
CONTINUOUS
 10
4.0152309324
 20
11.3754923816
 11
4.0413391991
 21
11.3757751881
  0
LINE
  5
4D9
100
AcDbEntity
  8
IMPORT_IGES
100
AcDbLine
 62
253
  6
CONTINUOUS
 10
4.0413391991
 20
11.3757751881
 11
4.1234736671
 21
11.3761661811
  0
LINE
  5
4DA
100
AcDbEntity
  8
IMPORT_IGES
100
AcDbLine
 62
253
  6
CONTINUOUS
 10
6.8787960123
 20
11.3762645192
 11
4.1234736671
 21
11.3761661811
  0
LINE
  5
4DB
100
AcDbEntity
  8
IMPORT_IGES
100
AcDbLine
 62
253
  6
CONTINUOUS
 10
3.8
 20
11.4285678902
 11
-3.8
 21
11.4285678902
  0
LINE
  5
4DC
100
AcDbEntity
  8
IMPORT_IGES
100
AcDbLine
 62
7
  6
CONTINUOUS
 10
-6.8787960123
 20
11.5750144999
 11
6.8787960123
 21
11.5750144999
  0
LINE
  5
4DD
100
AcDbEntity
  8
IMPORT_IGES
100
AcDbLine
 62
253
  6
CONTINUOUS
 10
-6.8787590385
 20
11.3762591203
 11
-4.078248898
 21
11.376003327
  0
LWPOLYLINE
  5
4DE
100
AcDbEntity
  8
IMPORT_IGES
100
AcDbPolyline
 62
253
  6
CONTINUOUS
 90
6
 70
0
 10
-4.078248898
 20
11.376003327
 10
-4.0267951471
 20
11.3756375684
 10
-4.015223982
 20
11.3754932798
 10
-4.0068144714
 20
11.3753454321
 10
-4.0017106594
 20
11.3751869082
 10
-4.0000000001
 20
11.3750149997
  0
LWPOLYLINE
  5
4DF
100
AcDbEntity
  8
IMPORT_IGES
100
AcDbPolyline
 62
253
  6
CONTINUOUS
 90
7
 70
0
 10
7.2678717286
 20
10.8607652684
 10
7.2817183107
 20
10.8342623198
 10
7.2886068626
 20
10.819951052
 10
7.2938316721
 20
10.8085887855
 10
7.2973014846
 20
10.8012053411
 10
7.2993363125
 20
10.7967558062
 10
7.299999999
 20
10.7952341
  0
LINE
  5
4E0
100
AcDbEntity
  8
IMPORT_IGES
100
AcDbLine
 62
253
  6
CONTINUOUS
 10
7.1
 20
11.1973444419
 11
7.2192676771
 21
10.9593435855
  0
LWPOLYLINE
  5
4E1
100
AcDbEntity
  8
IMPORT_IGES
100
AcDbPolyline
 62
253
  6
CONTINUOUS
 90
3
 70
0
 10
7.2192676771
 20
10.9593435855
 10
7.2554306375
 20
10.8866410515
 10
7.2678717286
 20
10.8607652684
  0
LINE
  5
4E2
100
AcDbEntity
  8
IMPORT_IGES
100
AcDbLine
 62
253
  6
CONTINUOUS
 10
7.2458051408
 20
-9.5237898708
 11
7.2242966428
 21
-9.5465085705
  0
LINE
  5
4E3
100
AcDbEntity
  8
IMPORT_IGES
100
AcDbLine
 62
253
  6
CONTINUOUS
 10
7.2242966428
 20
-9.5465085705
 11
7.1862242132
 21
-9.5858453332
  0
LINE
  5
4E4
100
AcDbEntity
  8
IMPORT_IGES
100
AcDbLine
 62
253
  6
CONTINUOUS
 10
7.0729583154
 20
-9.7007847997
 11
7.0500070596
 21
-9.7243430934
  0
LWPOLYLINE
  5
4E5
100
AcDbEntity
  8
IMPORT_IGES
100
AcDbPolyline
 62
253
  6
CONTINUOUS
 90
3
 70
0
 10
7.1862242132
 20
-9.5858453332
 10
7.1159897556
 20
-9.6574828654
 10
7.0729583154
 20
-9.7007847997
  0
LINE
  5
4E6
100
AcDbEntity
  8
IMPORT_IGES
100
AcDbLine
 62
253
  6
CONTINUOUS
 10
7.0500070596
 20
-9.7243430934
 11
6.2981434405
 21
-10.1584332575
  0
LINE
  5
4E7
100
AcDbEntity
  8
IMPORT_IGES
100
AcDbLine
 62
253
  6
CONTINUOUS
 10
7.7
 20
-9.4119126211
 11
7.4
 21
-9.5851177018
  0
LINE
  5
4E8
100
AcDbEntity
  8
IMPORT_IGES
100
AcDbLine
 62
7
  6
CONTINUOUS
 10
6.3731428274
 20
-10.2847934752
 11
7.85
 21
-9.4321295891
  0
LWPOLYLINE
  5
4E9
100
AcDbEntity
  8
IMPORT_IGES
100
AcDbPolyline
 62
253
  6
CONTINUOUS
 90
10
 70
0
 10
6.2981434405
 20
-10.1584332575
 10
6.2904186868
 20
-10.1625928874
 10
6.2825203231
 20
-10.1662765888
 10
6.2744483494
 20
-10.1694843619
 10
6.2661741457
 20
-10.1722238752
 10
6.257726332
 20
-10.17448746
 10
6.2491907685
 20
-10.1762521103
 10
6.2405960755
 20
-10.1775101571
 10
6.2319136329
 20
-10.1782692693
 10
6.2231434405
 20
-10.1785294469
  0
LINE
  5
4EA
100
AcDbEntity
  8
IMPORT_IGES
100
AcDbLine
 62
253
  6
CONTINUOUS
 10
-6.5
 20
11.6750144999
 11
6.5
 21
11.6750144999
  0
LINE
  5
4EB
100
AcDbEntity
  8
IMPORT_IGES
100
AcDbLine
 62
7
  6
CONTINUOUS
 10
6.3996427215
 20
11.7750144999
 11
-6.4
 21
11.7750144999
  0
LWPOLYLINE
  5
4EC
100
AcDbEntity
  8
IMPORT_IGES
100
AcDbPolyline
 62
253
  6
CONTINUOUS
 90
10
 70
0
 10
6.8787590405
 20
11.3762591141
 10
6.8875729464
 20
11.3758633956
 10
6.8961934829
 20
11.3747390111
 10
6.9046206499
 20
11.3728859608
 10
6.9129152401
 20
11.3702792158
 10
6.9210164608
 20
11.3669438067
 10
6.9287419339
 20
11.362954823
 10
6.9360308667
 20
11.3583372954
 10
6.942944052
 20
11.353066196
 10
6.9494814897
 20
11.3471415266
  0
LWPOLYLINE
  5
4ED
100
AcDbEntity
  8
IMPORT_IGES
100
AcDbPolyline
 62
253
  6
CONTINUOUS
 90
4
 70
0
 10
7.8152337198
 20
10.6496691173
 10
7.7779152871
 20
10.6586631476
 10
7.7392811881
 20
10.6641162238
 10
7.7
 20
10.6659425424
  0
LWPOLYLINE
  5
4EE
100
AcDbEntity
  8
IMPORT_IGES
100
AcDbPolyline
 62
253
  6
CONTINUOUS
 90
3
 70
0
 10
7.8834129073
 20
10.6216790657
 10
7.8506161468
 20
10.6372700079
 10
7.8152337198
 20
10.6496691173
  0
LWPOLYLINE
  5
4EF
100
AcDbEntity
  8
IMPORT_IGES
100
AcDbPolyline
 62
253
  6
CONTINUOUS
 90
10
 70
0
 10
7.6414213567
 20
10.9366532198
 10
7.6315895568
 20
10.9438798629
 10
7.6198946863
 20
10.9476693999
 10
7.6064743365
 20
10.9478011652
 10
7.5916191681
 20
10.9439924057
 10
7.5754507066
 20
10.9361836813
 10
7.5579077172
 20
10.9245183356
 10
7.5391859911
 20
10.9089861756
 10
7.5197500711
 20
10.8894550592
 10
7.4999987139
 20
10.8659380739
  0
LWPOLYLINE
  5
4F0
100
AcDbEntity
  8
IMPORT_IGES
100
AcDbPolyline
 62
253
  6
CONTINUOUS
 90
3
 70
0
 10
7.938822443
 20
10.5821924394
 10
7.9129797201
 20
10.6032086986
 10
7.8834129073
 20
10.6216790657
  0
LWPOLYLINE
  5
4F1
100
AcDbEntity
  8
IMPORT_IGES
100
AcDbPolyline
 62
253
  6
CONTINUOUS
 90
10
 70
0
 10
7.9121320369
 20
10.6659425397
 10
7.8964792547
 20
10.6787266
 10
7.878169428
 20
10.6884690557
 10
7.8574501657
 20
10.6950381568
 10
7.8346016603
 20
10.6983450674
 10
7.8099328988
 20
10.6983450673
 10
7.7837774833
 20
10.6950381568
 10
7.756489121
 20
10.6884690562
 10
7.7284368402
 20
10.6787266013
 10
7.7
 20
10.6659425422
  0
LINE
  5
4F2
100
AcDbEntity
  8
IMPORT_IGES
100
AcDbLine
 62
253
  6
CONTINUOUS
 10
6.9494814897
 20
11.3471415266
 11
7.1
 21
11.1973444419
  0
LINE
  5
4F3
100
AcDbEntity
  8
IMPORT_IGES
100
AcDbLine
 62
253
  6
CONTINUOUS
 10
7.4999993569
 20
10.8659380739
 11
7.7
 21
10.6659425424
  0
LINE
  5
4F4
100
AcDbEntity
  8
IMPORT_IGES
100
AcDbLine
 62
7
  6
CONTINUOUS
 10
7.9121320398
 20
10.6659425367
 11
7.0909280423
 21
11.4871465342
  0
ARC
  5
4F5
100
AcDbEntity
  8
IMPORT_IGES
100
AcDbCircle
 62
253
  6
CONTINUOUS
 10
-4.0
 20
-2.4545022895
 40
0.7
100
AcDbArc
 50
179.9999999965
 51
215.9375747936
  0
ARC
  5
4F6
100
AcDbEntity
  8
IMPORT_IGES
100
AcDbCircle
 62
7
  6
CONTINUOUS
 10
-4.0
 20
-2.4545022895
 40
0.5
100
AcDbArc
 50
180.0
 51
215.9375747936
  0
ARC
  5
4F7
100
AcDbEntity
  8
IMPORT_IGES
100
AcDbCircle
 62
7
  6
CONTINUOUS
 10
-4.8013909921
 20
-1.0237834635
 40
0.3
100
AcDbArc
 50
108.44
 51
215.0179256243
  0
ARC
  5
4F8
100
AcDbEntity
  8
IMPORT_IGES
100
AcDbCircle
 62
7
  6
CONTINUOUS
 10
-7.7
 20
-9.172321968
 40
0.3
100
AcDbArc
 50
180.0
 51
239.9999999385
  0
ARC
  5
4F9
100
AcDbEntity
  8
IMPORT_IGES
100
AcDbCircle
 62
7
  6
CONTINUOUS
 10
-6.2231434405
 20
-10.0249855001
 40
0.3
100
AcDbArc
 50
240.0
 51
269.9999986654
  0
ARC
  5
4FA
100
AcDbEntity
  8
IMPORT_IGES
100
AcDbCircle
 62
7
  6
CONTINUOUS
 10
-3.9214927418
 20
-0.6249855001
 40
0.2
100
AcDbArc
 50
90.004639687
 51
108.4444467357
  0
ARC
  5
4FB
100
AcDbEntity
  8
IMPORT_IGES
100
AcDbCircle
 62
7
  6
CONTINUOUS
 10
-8.05
 20
-5.1749855001
 40
0.2
100
AcDbArc
 50
180.0
 51
270.0
  0
ARC
  5
4FC
100
AcDbEntity
  8
IMPORT_IGES
100
AcDbCircle
 62
7
  6
CONTINUOUS
 10
-7.4
 20
-9.5187321295
 40
0.15
100
AcDbArc
 50
240.0000000005
 51
360.0
  0
ARC
  5
4FD
100
AcDbEntity
  8
IMPORT_IGES
100
AcDbCircle
 62
7
  6
CONTINUOUS
 10
-3.5985299398
 20
-0.5249855001
 40
0.1
100
AcDbArc
 50
38.5293547025
 51
90.0
  0
ARC
  5
4FE
100
AcDbEntity
  8
IMPORT_IGES
100
AcDbCircle
 62
253
  6
CONTINUOUS
 10
-4.8013909921
 20
-1.0237834635
 40
0.1
100
AcDbArc
 50
108.44
 51
215.017925624
  0
ARC
  5
4FF
100
AcDbEntity
  8
IMPORT_IGES
100
AcDbCircle
 62
7
  6
CONTINUOUS
 10
-4.6
 20
0.4700144999
 40
0.1
100
AcDbArc
 50
0.0
 51
90.0
  0
ARC
  5
500
100
AcDbEntity
  8
IMPORT_IGES
100
AcDbCircle
 62
7
  6
CONTINUOUS
 10
-6.1
 20
-10.4249855001
 40
0.1
100
AcDbArc
 50
0.0
 51
90.0000000002
  0
ARC
  5
501
100
AcDbEntity
  8
IMPORT_IGES
100
AcDbCircle
 62
7
  6
CONTINUOUS
 10
-5.9
 20
-10.4249855001
 40
0.1
100
AcDbArc
 50
180.0
 51
269.9999999999
  0
ARC
  5
502
100
AcDbEntity
  8
IMPORT_IGES
100
AcDbCircle
 62
253
  6
CONTINUOUS
 10
-7.15
 20
6.8705111126
 40
0.3
100
AcDbArc
 50
89.9999999702
 51
180.0
  0
ARC
  5
503
100
AcDbEntity
  8
IMPORT_IGES
100
AcDbCircle
 62
7
  6
CONTINUOUS
 10
-8.05
 20
6.1250144999
 40
0.2
100
AcDbArc
 50
90.0
 51
180.0
  0
ARC
  5
504
100
AcDbEntity
  8
IMPORT_IGES
100
AcDbCircle
 62
7
  6
CONTINUOUS
 10
-7.15
 20
6.8705111126
 40
0.1
100
AcDbArc
 50
90.0
 51
180.0
  0
ARC
  5
505
100
AcDbEntity
  8
IMPORT_IGES
100
AcDbCircle
 62
253
  6
CONTINUOUS
 10
-13.3
 20
9.2116918027
 40
9.5
100
AcDbArc
 50
350.075536608
 51
354.9043096238
  0
ARC
  5
506
100
AcDbEntity
  8
IMPORT_IGES
100
AcDbCircle
 62
7
  6
CONTINUOUS
 10
-13.3
 20
9.2116918027
 40
9.3
100
AcDbArc
 50
350.075536608
 51
0.0000995008
  0
ARC
  5
507
100
AcDbEntity
  8
IMPORT_IGES
100
AcDbCircle
 62
7
  6
CONTINUOUS
 10
-7.7
 20
10.4538105078
 40
0.3
100
AcDbArc
 50
135.0
 51
180.0
  0
ARC
  5
508
100
AcDbEntity
  8
IMPORT_IGES
100
AcDbCircle
 62
7
  6
CONTINUOUS
 10
-7.5
 20
10.795231864
 40
0.2
100
AcDbArc
 50
0.0
 51
135.0
  0
ARC
  5
509
100
AcDbEntity
  8
IMPORT_IGES
100
AcDbCircle
 62
253
  6
CONTINUOUS
 10
-4.3831372518
 20
3.7549276307
 40
0.5
100
AcDbArc
 50
194.7202486515
 51
270.0
  0
ARC
  5
50A
100
AcDbEntity
  8
IMPORT_IGES
100
AcDbCircle
 62
253
  6
CONTINUOUS
 10
-7.05
 20
5.5500144999
 40
0.4
100
AcDbArc
 50
262.3006681232
 51
270.0
  0
ARC
  5
50B
100
AcDbEntity
  8
IMPORT_IGES
100
AcDbCircle
 62
253
  6
CONTINUOUS
 10
-5.95
 20
5.5500144999
 40
0.4
100
AcDbArc
 50
270.0
 51
277.6993299464
  0
ARC
  5
50C
100
AcDbEntity
  8
IMPORT_IGES
100
AcDbCircle
 62
7
  6
CONTINUOUS
 10
-4.670682221
 20
3.8549276307
 40
0.3
100
AcDbArc
 50
157.4921045906
 51
270.0
  0
ARC
  5
50D
100
AcDbEntity
  8
IMPORT_IGES
100
AcDbCircle
 62
7
  6
CONTINUOUS
 10
-0.9
 20
4.4750144999
 40
0.3
100
AcDbArc
 50
270.0
 51
360.0
  0
ARC
  5
50E
100
AcDbEntity
  8
IMPORT_IGES
100
AcDbCircle
 62
253
  6
CONTINUOUS
 10
-5.85
 20
6.8705111126
 40
0.3
100
AcDbArc
 50
0.0
 51
90.0
  0
ARC
  5
50F
100
AcDbEntity
  8
IMPORT_IGES
100
AcDbCircle
 62
7
  6
CONTINUOUS
 10
-3.6348166623
 20
3.7549276307
 40
0.2
100
AcDbArc
 50
270.0
 51
320.6570544487
  0
ARC
  5
510
100
AcDbEntity
  8
IMPORT_IGES
100
AcDbCircle
 62
7
  6
CONTINUOUS
 10
-7.05
 20
5.5500144999
 40
0.2
100
AcDbArc
 50
180.0
 51
270.0
  0
ARC
  5
511
100
AcDbEntity
  8
IMPORT_IGES
100
AcDbCircle
 62
7
  6
CONTINUOUS
 10
-5.95
 20
5.5500144999
 40
0.2
100
AcDbArc
 50
270.0
 51
359.9999986209
  0
ARC
  5
512
100
AcDbEntity
  8
IMPORT_IGES
100
AcDbCircle
 62
7
  6
CONTINUOUS
 10
-4.3417168337
 20
2.2950144999
 40
0.1
100
AcDbArc
 50
270.0
 51
340.7087621527
  0
ARC
  5
513
100
AcDbEntity
  8
IMPORT_IGES
100
AcDbCircle
 62
253
  6
CONTINUOUS
 10
-4.670682221
 20
3.8549276307
 40
0.1
100
AcDbArc
 50
157.4921045905
 51
270.0
  0
ARC
  5
514
100
AcDbEntity
  8
IMPORT_IGES
100
AcDbCircle
 62
7
  6
CONTINUOUS
 10
-5.85
 20
6.8705111126
 40
0.1
100
AcDbArc
 50
0.0
 51
90.0
  0
ARC
  5
515
100
AcDbEntity
  8
IMPORT_IGES
100
AcDbCircle
 62
7
  6
CONTINUOUS
 10
-6.5
 20
7.3705111126
 40
1.5
100
AcDbArc
 50
0.0
 51
90.0
  0
ARC
  5
516
100
AcDbEntity
  8
IMPORT_IGES
100
AcDbCircle
 62
7
  6
CONTINUOUS
 10
-6.6400078903
 20
7.5105190029
 40
1.3599921097
100
AcDbArc
 50
90.0
 51
180.0
  0
ARC
  5
517
100
AcDbEntity
  8
IMPORT_IGES
100
AcDbCircle
 62
253
  6
CONTINUOUS
 10
-6.5
 20
7.3705111126
 40
1.2
100
AcDbArc
 50
0.0
 51
90.0
  0
ARC
  5
518
100
AcDbEntity
  8
IMPORT_IGES
100
AcDbCircle
 62
253
  6
CONTINUOUS
 10
-6.6400078903
 20
7.5105190029
 40
1.0599921097
100
AcDbArc
 50
90.0
 51
179.9997725319
  0
ARC
  5
519
100
AcDbEntity
  8
IMPORT_IGES
100
AcDbCircle
 62
253
  6
CONTINUOUS
 10
-4.6316847105
 20
7.6950144999
 40
0.7
100
AcDbArc
 50
269.9999999664
 51
350.075536608
  0
ARC
  5
51A
100
AcDbEntity
  8
IMPORT_IGES
100
AcDbCircle
 62
7
  6
CONTINUOUS
 10
-4.6316847105
 20
7.6950144999
 40
0.5
100
AcDbArc
 50
270.0
 51
350.0755366107
  0
ARC
  5
51B
100
AcDbEntity
  8
IMPORT_IGES
100
AcDbCircle
 62
7
  6
CONTINUOUS
 10
-6.8787960079
 20
11.2750144999
 40
0.3
100
AcDbArc
 50
90.0
 51
135.0
  0
ARC
  5
51C
100
AcDbEntity
  8
IMPORT_IGES
100
AcDbCircle
 62
7
  6
CONTINUOUS
 10
-3.8
 20
11.3750144999
 40
0.2
100
AcDbArc
 50
90.0
 51
179.9999999999
  0
ARC
  5
51D
100
AcDbEntity
  8
IMPORT_IGES
100
AcDbCircle
 62
7
  6
CONTINUOUS
 10
-6.4
 20
11.6750144999
 40
0.1
100
AcDbArc
 50
90.0000000001
 51
180.0
  0
ARC
  5
51E
100
AcDbEntity
  8
IMPORT_IGES
100
AcDbCircle
 62
7
  6
CONTINUOUS
 10
-6.6
 20
11.6750144999
 40
0.1
100
AcDbArc
 50
270.0000000001
 51
360.0
  0
ARC
  5
51F
100
AcDbEntity
  8
IMPORT_IGES
100
AcDbCircle
 62
253
  6
CONTINUOUS
 10
0.0
 20
0.4450144999
 40
5.6403641174
100
AcDbArc
 50
215.9375747936
 51
324.0624252064
  0
ARC
  5
520
100
AcDbEntity
  8
IMPORT_IGES
100
AcDbCircle
 62
7
  6
CONTINUOUS
 10
0.0
 20
0.4450144999
 40
5.4403641174
100
AcDbArc
 50
215.9375747936
 51
324.0624252064
  0
ARC
  5
521
100
AcDbEntity
  8
IMPORT_IGES
100
AcDbCircle
 62
253
  6
CONTINUOUS
 10
4.0
 20
-2.4545022895
 40
0.7
100
AcDbArc
 50
324.0624252064
 51
360.0
  0
ARC
  5
522
100
AcDbEntity
  8
IMPORT_IGES
100
AcDbCircle
 62
7
  6
CONTINUOUS
 10
4.0
 20
-2.4545022895
 40
0.5
100
AcDbArc
 50
324.0624252064
 51
360.0
  0
ARC
  5
523
100
AcDbEntity
  8
IMPORT_IGES
100
AcDbCircle
 62
7
  6
CONTINUOUS
 10
4.8013909921
 20
-1.0237834635
 40
0.3
100
AcDbArc
 50
324.9820743757
 51
71.5599999999
  0
ARC
  5
524
100
AcDbEntity
  8
IMPORT_IGES
100
AcDbCircle
 62
7
  6
CONTINUOUS
 10
6.2231434405
 20
-10.0249855001
 40
0.3
100
AcDbArc
 50
270.0000004639
 51
300.0
  0
ARC
  5
525
100
AcDbEntity
  8
IMPORT_IGES
100
AcDbCircle
 62
7
  6
CONTINUOUS
 10
7.7
 20
-9.172321968
 40
0.3
100
AcDbArc
 50
300.0
 51
360.0
  0
ARC
  5
526
100
AcDbEntity
  8
IMPORT_IGES
100
AcDbCircle
 62
7
  6
CONTINUOUS
 10
3.9214927418
 20
-0.6249855001
 40
0.2
100
AcDbArc
 50
71.56
 51
90.0
  0
ARC
  5
527
100
AcDbEntity
  8
IMPORT_IGES
100
AcDbCircle
 62
7
  6
CONTINUOUS
 10
8.05
 20
-5.1749855001
 40
0.2
100
AcDbArc
 50
270.0
 51
360.0
  0
ARC
  5
528
100
AcDbEntity
  8
IMPORT_IGES
100
AcDbCircle
 62
7
  6
CONTINUOUS
 10
7.4
 20
-9.5187321295
 40
0.15
100
AcDbArc
 50
180.0
 51
300.0000002121
  0
ARC
  5
529
100
AcDbEntity
  8
IMPORT_IGES
100
AcDbCircle
 62
7
  6
CONTINUOUS
 10
3.5985299398
 20
-0.5249855001
 40
0.1
100
AcDbArc
 50
90.0
 51
141.470645314
  0
ARC
  5
52A
100
AcDbEntity
  8
IMPORT_IGES
100
AcDbCircle
 62
253
  6
CONTINUOUS
 10
4.8013909921
 20
-1.0237834635
 40
0.1
100
AcDbArc
 50
324.9820743757
 51
71.5599999998
  0
ARC
  5
52B
100
AcDbEntity
  8
IMPORT_IGES
100
AcDbCircle
 62
7
  6
CONTINUOUS
 10
6.1
 20
-10.4249855001
 40
0.1
100
AcDbArc
 50
90.0
 51
180.0
  0
ARC
  5
52C
100
AcDbEntity
  8
IMPORT_IGES
100
AcDbCircle
 62
7
  6
CONTINUOUS
 10
5.9
 20
-10.4249855001
 40
0.1
100
AcDbArc
 50
270.0
 51
360.0
  0
ARC
  5
52D
100
AcDbEntity
  8
IMPORT_IGES
100
AcDbCircle
 62
7
  6
CONTINUOUS
 10
4.6
 20
0.4700144999
 40
0.1
100
AcDbArc
 50
90.0
 51
180.0
  0
ARC
  5
52E
100
AcDbEntity
  8
IMPORT_IGES
100
AcDbCircle
 62
7
  6
CONTINUOUS
 10
0.0
 20
2.3404258617
 40
6.1627007294
100
AcDbArc
 50
215.0179256243
 51
324.9820743757
  0
ARC
  5
52F
100
AcDbEntity
  8
IMPORT_IGES
100
AcDbCircle
 62
253
  6
CONTINUOUS
 10
0.0
 20
2.3404258617
 40
5.9627007294
100
AcDbArc
 50
215.0179256243
 51
324.9820743757
  0
ARC
  5
530
100
AcDbEntity
  8
IMPORT_IGES
100
AcDbCircle
 62
7
  6
CONTINUOUS
 10
0.0
 20
1.9195136136
 40
5.355798634
100
AcDbArc
 50
22.5078954094
 51
157.4921045906
  0
ARC
  5
531
100
AcDbEntity
  8
IMPORT_IGES
100
AcDbCircle
 62
253
  6
CONTINUOUS
 10
0.0
 20
1.9195136136
 40
5.155798634
100
AcDbArc
 50
22.5078954094
 51
157.4921045906
  0
ARC
  5
532
100
AcDbEntity
  8
IMPORT_IGES
100
AcDbCircle
 62
253
  6
CONTINUOUS
 10
0.0
 20
0.7753122475
 40
4.7
100
AcDbArc
 50
39.342945551
 51
140.6570544487
  0
ARC
  5
533
100
AcDbEntity
  8
IMPORT_IGES
100
AcDbCircle
 62
253
  6
CONTINUOUS
 10
0.0
 20
0.7753122475
 40
4.7
100
AcDbArc
 50
24.3078218659
 51
31.8418407932
  0
ARC
  5
534
100
AcDbEntity
  8
IMPORT_IGES
100
AcDbCircle
 62
253
  6
CONTINUOUS
 10
0.0
 20
0.7753122475
 40
4.7
100
AcDbArc
 50
148.1580979981
 51
155.6921781342
  0
ARC
  5
535
100
AcDbEntity
  8
IMPORT_IGES
100
AcDbCircle
 62
253
  6
CONTINUOUS
 10
0.0
 20
2.3404258617
 40
4.6
100
AcDbArc
 50
220.1396933072
 51
319.8603057122
  0
ARC
  5
536
100
AcDbEntity
  8
IMPORT_IGES
100
AcDbCircle
 62
7
  6
CONTINUOUS
 10
0.0
 20
2.3404258617
 40
4.5
100
AcDbArc
 50
218.529354704
 51
321.4706452959
  0
ARC
  5
537
100
AcDbEntity
  8
IMPORT_IGES
100
AcDbCircle
 62
7
  6
CONTINUOUS
 10
0.0
 20
0.7753122475
 40
4.5
100
AcDbArc
 50
19.2912378469
 51
160.7087621531
  0
ARC
  5
538
100
AcDbEntity
  8
IMPORT_IGES
100
AcDbCircle
 62
7
  6
CONTINUOUS
 10
0.9
 20
4.4750144999
 40
0.3
100
AcDbArc
 50
180.0
 51
270.0
  0
ARC
  5
539
100
AcDbEntity
  8
IMPORT_IGES
100
AcDbCircle
 62
7
  6
CONTINUOUS
 10
4.3417168337
 20
2.2950144999
 40
0.1
100
AcDbArc
 50
199.2912378469
 51
270.0
  0
ARC
  5
53A
100
AcDbEntity
  8
IMPORT_IGES
100
AcDbCircle
 62
253
  6
CONTINUOUS
 10
4.3831372518
 20
3.7549276307
 40
0.5
100
AcDbArc
 50
270.0000000802
 51
345.3357573209
  0
ARC
  5
53B
100
AcDbEntity
  8
IMPORT_IGES
100
AcDbCircle
 62
253
  6
CONTINUOUS
 10
5.95
 20
5.5500144999
 40
0.4
100
AcDbArc
 50
262.3006680647
 51
270.0
  0
ARC
  5
53C
100
AcDbEntity
  8
IMPORT_IGES
100
AcDbCircle
 62
7
  6
CONTINUOUS
 10
4.670682221
 20
3.8549276307
 40
0.3
100
AcDbArc
 50
270.0
 51
22.5078953228
  0
ARC
  5
53D
100
AcDbEntity
  8
IMPORT_IGES
100
AcDbCircle
 62
7
  6
CONTINUOUS
 10
3.6348166623
 20
3.7549276307
 40
0.2
100
AcDbArc
 50
219.3429458019
 51
270.0
  0
ARC
  5
53E
100
AcDbEntity
  8
IMPORT_IGES
100
AcDbCircle
 62
7
  6
CONTINUOUS
 10
5.95
 20
5.5500144999
 40
0.2
100
AcDbArc
 50
180.0
 51
270.0
  0
ARC
  5
53F
100
AcDbEntity
  8
IMPORT_IGES
100
AcDbCircle
 62
253
  6
CONTINUOUS
 10
4.670682221
 20
3.8549276307
 40
0.1
100
AcDbArc
 50
270.0
 51
22.5078954098
  0
ARC
  5
540
100
AcDbEntity
  8
IMPORT_IGES
100
AcDbCircle
 62
7
  6
CONTINUOUS
 10
6.5
 20
7.3705111126
 40
1.5
100
AcDbArc
 50
90.0
 51
180.0
  0
ARC
  5
541
100
AcDbEntity
  8
IMPORT_IGES
100
AcDbCircle
 62
7
  6
CONTINUOUS
 10
6.6400078903
 20
7.5105190029
 40
1.3599921097
100
AcDbArc
 50
0.0
 51
90.0
  0
ARC
  5
542
100
AcDbEntity
  8
IMPORT_IGES
100
AcDbCircle
 62
253
  6
CONTINUOUS
 10
6.5
 20
7.3705111126
 40
1.2
100
AcDbArc
 50
90.0
 51
180.0
  0
ARC
  5
543
100
AcDbEntity
  8
IMPORT_IGES
100
AcDbCircle
 62
253
  6
CONTINUOUS
 10
6.6400078903
 20
7.5105190029
 40
1.0599921097
100
AcDbArc
 50
0.00942879
 51
90.0
  0
ARC
  5
544
100
AcDbEntity
  8
IMPORT_IGES
100
AcDbCircle
 62
253
  6
CONTINUOUS
 10
4.6316847105
 20
7.6950144999
 40
0.7
100
AcDbArc
 50
189.924463392
 51
270.0
  0
ARC
  5
545
100
AcDbEntity
  8
IMPORT_IGES
100
AcDbCircle
 62
7
  6
CONTINUOUS
 10
4.6316847105
 20
7.6950144999
 40
0.5
100
AcDbArc
 50
189.924463392
 51
270.0
  0
ARC
  5
546
100
AcDbEntity
  8
IMPORT_IGES
100
AcDbCircle
 62
253
  6
CONTINUOUS
 10
5.85
 20
6.8705111126
 40
0.3
100
AcDbArc
 50
89.9999999702
 51
180.0
  0
ARC
  5
547
100
AcDbEntity
  8
IMPORT_IGES
100
AcDbCircle
 62
7
  6
CONTINUOUS
 10
3.8
 20
11.3750144999
 40
0.2
100
AcDbArc
 50
0.0000081249
 51
90.0
  0
ARC
  5
548
100
AcDbEntity
  8
IMPORT_IGES
100
AcDbCircle
 62
7
  6
CONTINUOUS
 10
6.4
 20
11.6750144999
 40
0.1
100
AcDbArc
 50
0.0
 51
89.9999999995
  0
ARC
  5
549
100
AcDbEntity
  8
IMPORT_IGES
100
AcDbCircle
 62
7
  6
CONTINUOUS
 10
6.6
 20
11.6750144999
 40
0.1
100
AcDbArc
 50
180.0
 51
270.0
  0
ARC
  5
54A
100
AcDbEntity
  8
IMPORT_IGES
100
AcDbCircle
 62
7
  6
CONTINUOUS
 10
5.85
 20
6.8705111126
 40
0.1
100
AcDbArc
 50
90.0
 51
180.0
  0
ARC
  5
54B
100
AcDbEntity
  8
IMPORT_IGES
100
AcDbCircle
 62
253
  6
CONTINUOUS
 10
7.05
 20
5.5500144999
 40
0.4
100
AcDbArc
 50
270.0
 51
277.6993299464
  0
ARC
  5
54C
100
AcDbEntity
  8
IMPORT_IGES
100
AcDbCircle
 62
7
  6
CONTINUOUS
 10
8.05
 20
6.1250144999
 40
0.2
100
AcDbArc
 50
0.0
 51
90.0
  0
ARC
  5
54D
100
AcDbEntity
  8
IMPORT_IGES
100
AcDbCircle
 62
7
  6
CONTINUOUS
 10
7.05
 20
5.5500144999
 40
0.2
100
AcDbArc
 50
270.0
 51
359.9999954613
  0
ARC
  5
54E
100
AcDbEntity
  8
IMPORT_IGES
100
AcDbCircle
 62
253
  6
CONTINUOUS
 10
13.3
 20
9.2116918027
 40
9.5
100
AcDbArc
 50
185.0956903777
 51
189.924463392
  0
ARC
  5
54F
100
AcDbEntity
  8
IMPORT_IGES
100
AcDbCircle
 62
7
  6
CONTINUOUS
 10
13.3
 20
9.2116918027
 40
9.3
100
AcDbArc
 50
180.000000701
 51
189.9244633923
  0
ARC
  5
550
100
AcDbEntity
  8
IMPORT_IGES
100
AcDbCircle
 62
7
  6
CONTINUOUS
 10
6.8787960079
 20
11.2750144999
 40
0.3
100
AcDbArc
 50
45.0
 51
89.9999090683
  0
ARC
  5
551
100
AcDbEntity
  8
IMPORT_IGES
100
AcDbCircle
 62
7
  6
CONTINUOUS
 10
7.7
 20
10.4538105078
 40
0.3
100
AcDbArc
 50
0.0
 51
44.9999994543
  0
ARC
  5
552
100
AcDbEntity
  8
IMPORT_IGES
100
AcDbCircle
 62
253
  6
CONTINUOUS
 10
7.15
 20
6.8705111126
 40
0.3
100
AcDbArc
 50
0.0
 51
90.0
  0
ARC
  5
553
100
AcDbEntity
  8
IMPORT_IGES
100
AcDbCircle
 62
7
  6
CONTINUOUS
 10
7.5
 20
10.795231864
 40
0.2
100
AcDbArc
 50
45.0
 51
179.9999990889
  0
ARC
  5
554
100
AcDbEntity
  8
IMPORT_IGES
100
AcDbCircle
 62
7
  6
CONTINUOUS
 10
7.15
 20
6.8705111126
 40
0.1
100
AcDbArc
 50
0.0
 51
90.0
  0
ELLIPSE
  5
555
100
AcDbEntity
  8
IMPORT_IGES
100
AcDbEllipse
 62
7
  6
CONTINUOUS
 10
-5.4226866561
 20
-8.6250145005
 30
0.0
 11
0.0
 21
2.0
 31
0.0
 40
0.0633224816
 41
-3.4571714601
 42
-3.1415926536
  0
ELLIPSE
  5
556
100
AcDbEntity
  8
IMPORT_IGES
100
AcDbEllipse
 62
7
  6
CONTINUOUS
 10
5.4226866561
 20
-8.6250145005
 30
0.0
 11
0.0
 21
2.0
 31
0.0
 40
0.0633224816
 41
-3.1415926536
 42
-2.8260139546
  0
ELLIPSE
  5
557
100
AcDbEntity
  8
IMPORT_IGES
100
AcDbEllipse
 62
7
  6
CONTINUOUS
 10
1.8048535023
 20
4.9622379625
 30
0.0
 11
0.032494387
 21
0.6992453896
 31
0.0
 40
1.0
 41
-4.6659517396
 42
-3.7034009917
  0
ELLIPSE
  5
558
100
AcDbEntity
  8
IMPORT_IGES
100
AcDbEllipse
 62
7
  6
CONTINUOUS
 10
-1.8048535023
 20
4.9622379625
 30
0.0
 11
0.2656593838
 21
0.6476303666
 31
0.0
 40
1.0
 41
-2.1440767772
 42
-1.1815260293
  0
ELLIPSE
  5
559
100
AcDbEntity
  8
IMPORT_IGES
100
AcDbEllipse
 62
7
  6
CONTINUOUS
 10
2.6048535023
 20
4.201204976
 30
0.0
 11
0.3
 21
0.0
 31
0.0
 40
0.0158730159
 41
-1.5707963268
 42
0.0
  0
ELLIPSE
  5
55A
100
AcDbEntity
  8
IMPORT_IGES
100
AcDbEllipse
 62
7
  6
CONTINUOUS
 10
-1.7048535023
 20
4.201204976
 30
0.0
 11
0.3
 21
-0.0
 31
0.0
 40
0.0158730159
 41
-1.5707963268
 42
0.0
  0
ELLIPSE
  5
55B
100
AcDbEntity
  8
IMPORT_IGES
100
AcDbEllipse
 62
7
  6
CONTINUOUS
 10
1.7048535023
 20
4.201204976
 30
0.0
 11
0.3
 21
-0.0
 31
0.0
 40
0.0158730159
 41
-3.1415926536
 42
-1.5707963268
  0
ELLIPSE
  5
55C
100
AcDbEntity
  8
IMPORT_IGES
100
AcDbEllipse
 62
7
  6
CONTINUOUS
 10
-2.6048535023
 20
4.201204976
 30
0.0
 11
0.3
 21
0.0
 31
0.0
 40
0.0158730159
 41
3.1415926536
 42
4.7123889804
  0
ENDSEC
  0
SECTION
  2
OBJECTS
  0
DICTIONARY
  5
C
100
AcDbDictionary
280
0
281
1
  3
ACAD_GROUP
350
D
  3
ACAD_MLINESTYLE
350
17
  3
ACAD_LAYOUT
350
1A
  3
ACAD_PLOTSETTINGS
350
19
  3
ACAD_PLOTSTYLENAME
350
E
  0
DICTIONARY
  5
D
102
{ACAD_REACTORS
330
C
102
}
100
AcDbDictionary
280
0
281
1
  0
ACDBDICTIONARYWDFLT
  5
E
102
{ACAD_REACTORS
330
C
102
}
100
AcDbDictionary
281
1
  3
Normal
350
F
100
AcDbDictionaryWithDefault
340
F
  0
DICTIONARY
  5
17
102
{ACAD_REACTORS
330
C
102
}
100
AcDbDictionary
280
0
281
1
  3
Standard
350
18
  0
DICTIONARY
  5
19
102
{ACAD_REACTORS
330
C
102
}
100
AcDbDictionary
281
1
  0
DICTIONARY
  5
1A
102
{ACAD_REACTORS
330
C
102
}
100
AcDbDictionary
281
1
  3
Model
350
55D
  3
Layout1
350
55E
  0
ACDBPLACEHOLDER
  5
F
102
{ACAD_REACTORS
330
E
102
}
  0
MLINESTYLE
  5
18
102
{ACAD_REACTORS
330
17
102
}
100
AcDbMlineStyle
  2
STANDARD
 70
0
  3

 62
256
 51
90.0
 52
90.0
 71
2
 49
0.5
 62
256
  6
BYLAYER
 49
-0.5
 62
256
  6
BYLAYER
  0
LAYOUT
  5
55D
102
{ACAD_REACTORS
330
1A
102
}
100
AcDbPlotSettings
  1

  2
none_device
  4
ISO_A4_(297.00_x_210.00_MM)
  6

 40
0.0
 41
0.0
 42
0.0
 43
0.0
 44
297.0
 45
210.0
 46
0.0
 47
0.0
 48
0.0
 49
0.0
140
0.0
141
0.0
142
1.0
143
1.0
 70
1024
 72
1
 73
0
 74
0
  7

 75
0
147
1.0
148
0.0
149
0.0
100
AcDbLayout
  1
Model
 70
0
 71
0
 10
0.0
 20
0.0
 11
297.0
 21
210.0
 12
0.0
 22
0.0
 32
0.0
 14
0.0
 24
0.0
 34
0.0
 15
0.0
 25
0.0
 35
0.0
146
0.0
 13
0.0
 23
0.0
 33
0.0
 16
1.0
 26
0.0
 36
0.0
 17
0.0
 27
1.0
 37
0.0
 76
0
330
216
345
0
346
0
  0
LAYOUT
  5
55E
102
{ACAD_REACTORS
330
1A
102
}
100
AcDbPlotSettings
  1

  2
none_device
  4
ISO_A4_(297.00_x_210.00_MM)
  6

 40
0.0
 41
0.0
 42
0.0
 43
0.0
 44
297.0
 45
210.0
 46
0.0
 47
0.0
 48
0.0
 49
0.0
140
0.0
141
0.0
142
1.0
143
1.0
 70
0
 72
1
 73
0
 74
0
  7

 75
0
147
1.0
148
0.0
149
0.0
100
AcDbLayout
  1
Layout1
 70
0
 71
1
 10
0.0
 20
0.0
 11
297.0
 21
210.0
 12
0.0
 22
0.0
 32
0.0
 14
0.0
 24
0.0
 34
0.0
 15
0.0
 25
0.0
 35
0.0
146
0.0
 13
0.0
 23
0.0
 33
0.0
 16
1.0
 26
0.0
 36
0.0
 17
0.0
 27
1.0
 37
0.0
 76
0
330
217
345
0
346
0
  0
ENDSEC
  0
EOF
