  0
SECTION
  2
HEADER
  9
$ACADVER
  1
AC1021
  9
$DWGCODEPAGE
  3
ANSI_1252
  9
$EXTMAX
 10
558.8
 20
431.8
 30
0.0
  9
$EXTMIN
 10
0.0
 20
0.0
 30
0.0
  9
$LIMMIN
 10
0.0
 20
0.0
  9
$LIMMAX
 10
558.8
 20
431.8
  9
$VIEWCTR
 10
279.4
 20
215.9
  9
$VIEWSIZE
 40
431.8
  9
$CLAYER
  8
0
  9
$LTSCALE
 40
30.734
  9
$CELTYPE
  6
BYLAYER
  9
$DIMSCALE
 40
1.0
  9
$DIMASZ
 40
3.0
  9
$DIMEXO
 40
0.5
  9
$DIMDLI
 40
21.2344
  9
$DIMEXE
 40
1.5
  9
$DIMCEN
 40
5.0292
  9
$DIMLFAC
 40
1.0
  9
$DIMBLK
  1
_FILLED
  9
$DIMALT
 70
0
  9
$DIMALTF
 40
0.0393700787
  9
$DIMTXT
 40
3.0
  9
$DIMTOL
 70
1
  9
$DIMLIM
 70
0
  9
$DIMTFAC
 40
1.0
  9
$DIMTP
 40
0.01
  9
$DIMTM
 40
0.01
  9
$DIMGAP
 40
0.625
  9
$DIMDSEP
 70
44
  9
$AUNITS
 70
0
  9
$PDMODE
 70
3
  9
$PDSIZE
 40
3.0
  9
$HANDSEED
  5
426
  9
$TILEMODE
 70
1
  9
$MEASUREMENT
 70
1
  9
$INSUNITS
 70
4
  0
ENDSEC
  0
SECTION
  2
CLASSES
  0
CLASS
  1
ACDBDICTIONARYWDFLT
  2
AcDbDictionaryWithDefault
  3
AutoCAD 2000
 90
0
 91
1
280
0
281
0
  0
CLASS
  1
ACDBPLACEHOLDER
  2
AcDbPlaceHolder
  3
AutoCAD 2000
 90
0
 91
1
280
0
281
0
  0
CLASS
  1
LAYOUT
  2
AcDbLayout
  3
AutoCAD 2000
 90
0
 91
0
280
0
281
0
  0
ENDSEC
  0
SECTION
  2
TABLES
  0
TABLE
  2
VPORT
  5
8
100
AcDbSymbolTable
 70
2
  0
VPORT
  5
1F4
100
AcDbSymbolTableRecord
100
AcDbViewportTableRecord
  2
*ACTIVE
 70
0
 10
0.0
 20
0.0
 11
1.0
 21
1.0
 12
279.4
 22
215.9
 13
0.0
 23
0.0
 14
1.0
 24
1.0
 15
0.0
 25
0.0
 16
0.0
 26
0.0
 36
1.0
 17
0.0
 27
0.0
 37
0.0
 40
431.8
 41
1.2941176471
 42
50.0
 43
0.0
 44
0.0
 50
0.0
 51
0.0
 71
0
 72
100
 73
1
 74
1
 75
0
 76
0
 77
0
 78
0
  0
ENDTAB
  0
TABLE
  2
LTYPE
  5
5
100
AcDbSymbolTable
 70
6
  0
LTYPE
  5
14
100
AcDbSymbolTableRecord
100
AcDbLinetypeTableRecord
  2
BYBLOCK
 70
0
  3

 72
65
 73
0
 40
0.0
  0
LTYPE
  5
15
100
AcDbSymbolTableRecord
100
AcDbLinetypeTableRecord
  2
BYLAYER
 70
0
  3

 72
65
 73
0
 40
0.0
  0
LTYPE
  5
16
100
AcDbSymbolTableRecord
100
AcDbLinetypeTableRecord
  2
CONTINUOUS
 70
64
  3
Solid line
 72
65
 73
0
 40
0.0
  0
LTYPE
  5
1F5
100
AcDbSymbolTableRecord
100
AcDbLinetypeTableRecord
  2
CENTER
 70
64
  3
____ _ ____ _ ____ _ ____ _ ____ _ ____ _ ____
 72
65
 73
4
 40
0.6
 49
0.375
 74
0
 49
-0.075
 74
0
 49
0.075
 74
0
 49
-0.075
 74
0
  0
LTYPE
  5
1F6
100
AcDbSymbolTableRecord
100
AcDbLinetypeTableRecord
  2
HIDDEN
 70
64
  3
- - - - - - - - - - - - - - - - - - - -
 72
65
 73
2
 40
0.2
 49
0.1
 74
0
 49
-0.1
 74
0
  0
LTYPE
  5
1F7
100
AcDbSymbolTableRecord
100
AcDbLinetypeTableRecord
  2
PHANTOM
 70
64
  3
_____ _ _ _____ _ _ _____ _ _ _____
 72
65
 73
6
 40
0.8
 49
0.45
 74
0
 49
-0.05
 74
0
 49
0.1
 74
0
 49
-0.05
 74
0
 49
0.1
 74
0
 49
-0.05
 74
0
  0
LTYPE
  5
1F8
100
AcDbSymbolTableRecord
100
AcDbLinetypeTableRecord
  2
DOT
 70
64
  3
. . . . . . . . . . . . . . . . . . . .
 72
65
 73
2
 40
0.2
 49
0.1
 74
0
 49
-0.1
 74
0
  0
LTYPE
  5
1F9
100
AcDbSymbolTableRecord
100
AcDbLinetypeTableRecord
  2
DASHED
 70
64
  3
- - - - - - - - - - - - - - - - - - - -
 72
65
 73
2
 40
0.2
 49
0.1
 74
0
 49
-0.1
 74
0
  0
ENDTAB
  0
TABLE
  2
LAYER
  5
2
100
AcDbSymbolTable
 70
36
  0
LAYER
  5
10
100
AcDbSymbolTableRecord
100
AcDbLayerTableRecord
  2
0
 70
0
 62
7
  6
CONTINUOUS
370
-3
390
F
  0
LAYER
  5
1FA
100
AcDbSymbolTableRecord
100
AcDbLayerTableRecord
  2
DEFAULT_1
 70
0
 62
7
  6
CENTER
370
-3
390
F
  0
LAYER
  5
1FB
100
AcDbSymbolTableRecord
100
AcDbLayerTableRecord
  2
DEFAULT_2
 70
0
 62
7
  6
HIDDEN
370
-3
390
F
  0
LAYER
  5
1FC
100
AcDbSymbolTableRecord
100
AcDbLayerTableRecord
  2
DEFAULT_3
 70
0
 62
7
  6
PHANTOM
370
-3
390
F
  0
LAYER
  5
1FD
100
AcDbSymbolTableRecord
100
AcDbLayerTableRecord
  2
ASSI
 70
0
 62
7
  6
CONTINUOUS
370
-3
390
F
  0
LAYER
  5
1FE
100
AcDbSymbolTableRecord
100
AcDbLayerTableRecord
  2
COLOR17
 70
0
 62
7
  6
CONTINUOUS
370
-3
390
F
  0
LAYER
  5
1FF
100
AcDbSymbolTableRecord
100
AcDbLayerTableRecord
  2
COLOR3
 70
0
 62
7
  6
CONTINUOUS
370
-3
390
F
  0
LAYER
  5
200
100
AcDbSymbolTableRecord
100
AcDbLayerTableRecord
  2
COLOR5
 70
0
 62
7
  6
CONTINUOUS
370
-3
390
F
  0
LAYER
  5
201
100
AcDbSymbolTableRecord
100
AcDbLayerTableRecord
  2
COORDINATE
 70
0
 62
7
  6
CONTINUOUS
370
-3
390
F
  0
LAYER
  5
202
100
AcDbSymbolTableRecord
100
AcDbLayerTableRecord
  2
COPY_PUBLISH
 70
0
 62
7
  6
CONTINUOUS
370
-3
390
F
  0
LAYER
  5
203
100
AcDbSymbolTableRecord
100
AcDbLayerTableRecord
  2
COSMETICI
 70
0
 62
7
  6
CONTINUOUS
370
-3
390
F
  0
LAYER
  5
204
100
AcDbSymbolTableRecord
100
AcDbLayerTableRecord
  2
CURVE
 70
0
 62
7
  6
CONTINUOUS
370
-3
390
F
  0
LAYER
  5
205
100
AcDbSymbolTableRecord
100
AcDbLayerTableRecord
  2
DRAFT
 70
0
 62
7
  6
CONTINUOUS
370
-3
390
F
  0
LAYER
  5
206
100
AcDbSymbolTableRecord
100
AcDbLayerTableRecord
  2
IMPORT_IGES
 70
0
 62
7
  6
CONTINUOUS
370
-3
390
F
  0
LAYER
  5
207
100
AcDbSymbolTableRecord
100
AcDbLayerTableRecord
  2
NOTE
 70
0
 62
7
  6
CONTINUOUS
370
-3
390
F
  0
LAYER
  5
208
100
AcDbSymbolTableRecord
100
AcDbLayerTableRecord
  2
PIANI
 70
0
 62
7
  6
CONTINUOUS
370
-3
390
F
  0
LAYER
  5
209
100
AcDbSymbolTableRecord
100
AcDbLayerTableRecord
  2
PUNTI
 70
0
 62
7
  6
CONTINUOUS
370
-3
390
F
  0
LAYER
  5
20A
100
AcDbSymbolTableRecord
100
AcDbLayerTableRecord
  2
RACCORDO
 70
0
 62
7
  6
CONTINUOUS
370
-3
390
F
  0
LAYER
  5
20B
100
AcDbSymbolTableRecord
100
AcDbLayerTableRecord
  2
SIMBOLI
 70
0
 62
7
  6
CONTINUOUS
370
-3
390
F
  0
LAYER
  5
20C
100
AcDbSymbolTableRecord
100
AcDbLayerTableRecord
  2
SMUSSO
 70
0
 62
7
  6
CONTINUOUS
370
-3
390
F
  0
LAYER
  5
20D
100
AcDbSymbolTableRecord
100
AcDbLayerTableRecord
  2
SNAPLINE
 70
0
 62
7
  6
CONTINUOUS
370
-3
390
F
  0
LAYER
  5
20E
100
AcDbSymbolTableRecord
100
AcDbLayerTableRecord
  2
SUPERFICI
 70
0
 62
7
  6
CONTINUOUS
370
-3
390
F
  0
LAYER
  5
20F
100
AcDbSymbolTableRecord
100
AcDbLayerTableRecord
  2
TRASH
 70
0
 62
7
  6
CONTINUOUS
370
-3
390
F
  0
LAYER
  5
210
100
AcDbSymbolTableRecord
100
AcDbLayerTableRecord
  2
___SHELL
 70
0
 62
7
  6
CONTINUOUS
370
-3
390
F
  0
ENDTAB
  0
TABLE
  2
STYLE
  5
3
100
AcDbSymbolTable
 70
1
  0
STYLE
  5
11
100
AcDbSymbolTableRecord
100
AcDbTextStyleTableRecord
  2
STANDARD
 70
0
 40
0.0
 41
0.8
 50
0.0
 71
0
 42
0.2
  3
txt
  4

  0
STYLE
  5
211
100
AcDbSymbolTableRecord
100
AcDbTextStyleTableRecord
  2
TEXTSTYLE_1
 70
0
 40
0.0
 41
0.8
 50
0.0
 71
0
 42
0.2
  3
gdt
  4

  0
ENDTAB
  0
TABLE
  2
VIEW
  5
6
100
AcDbSymbolTable
 70
0
  0
ENDTAB
  0
TABLE
  2
UCS
  5
7
100
AcDbSymbolTable
 70
0
  0
ENDTAB
  0
TABLE
  2
APPID
  5
9
100
AcDbSymbolTable
 70
1
  0
APPID
  5
212
100
AcDbSymbolTableRecord
100
AcDbRegAppTableRecord
  2
ACAD
 70
0
  0
ENDTAB
  0
TABLE
  2
BLOCK_RECORD
  5
1
100
AcDbSymbolTable
 70
0
  0
BLOCK_RECORD
  5
213
100
AcDbSymbolTableRecord
100
AcDbBlockTableRecord
  2
*Model_Space
  0
BLOCK_RECORD
  5
214
100
AcDbSymbolTableRecord
100
AcDbBlockTableRecord
  2
*Paper_Space
  0
ENDTAB
  0
TABLE
  2
DIMSTYLE
  5
A
100
AcDbSymbolTable
 70
1
100
AcDbDimStyleTable
 71
0
  0
DIMSTYLE
105
215
100
AcDbSymbolTableRecord
100
AcDbDimStyleTableRecord
  2
STANDARD
 70
0
  3

  4

 40
1.0
 41
3.0
 42
0.5
 43
0.38
 44
1.5
 45
0.0
 46
0.0
 47
0.01
 48
0.01
140
3.0
141
0.09
142
0.0
143
25.4
144
1.0
145
0.0
146
1.0
147
0.625
 71
1.0
 72
0.0
 73
0
 74
0
 75
0
 76
0
 77
1
 78
8
170
0
171
2
172
0
173
0
174
0
175
0
176
0
177
0
178
0
270
2
271
2
272
2
273
2
274
2
275
0
280
0
281
0
282
0
283
1
284
8
285
0
286
0
287
3
288
0
340
11
278
44
  0
ENDTAB
  0
ENDSEC
  0
SECTION
  2
BLOCKS
  0
BLOCK
  5
20
100
AcDbEntity
  8
0
100
AcDbBlockBegin
  2
*Model_Space
 70
0
 10
0.0
 20
0.0
 30
0.0
  3
*Model_Space
  1

  0
ENDBLK
  5
21
100
AcDbEntity
  8
0
100
AcDbBlockEnd
  0
BLOCK
  5
1C
100
AcDbEntity
  8
0
100
AcDbBlockBegin
  2
*Paper_Space
 70
0
 10
0.0
 20
0.0
 30
0.0
  3
*Paper_Space
  1

  0
ENDBLK
  5
1D
100
AcDbEntity
  8
0
100
AcDbBlockEnd
  0
ENDSEC
  0
SECTION
  2
ENTITIES
  0
LWPOLYLINE
  5
216
100
AcDbEntity
  8
IMPORT_IGES
100
AcDbPolyline
 62
253
  6
CONTINUOUS
 90
13
 70
0
 10
5.6287677521
 20
-37.8
 10
5.6575795804
 20
-37.7965779445
 10
5.6858984303
 20
-37.7863703305
 10
5.7132397585
 20
-37.769551813
 10
5.7391357472
 20
-37.7464101615
 10
5.7631433089
 20
-37.7173413361
 10
5.7848516676
 20
-37.6828427125
 10
5.8038893873
 20
-37.6435045716
 10
5.8199307272
 20
-37.6
 10
5.8327012156
 20
-37.5530733729
 10
5.8419823459
 20
-37.503527618
 10
5.8476153154
 20
-37.4522104769
 10
5.8495037424
 20
-37.4
  0
LINE
  5
217
100
AcDbEntity
  8
IMPORT_IGES
100
AcDbLine
 62
7
  6
CONTINUOUS
 10
-8.9750877975
 20
-37.8
 11
8.975086364
 21
-37.8
  0
LINE
  5
218
100
AcDbEntity
  8
IMPORT_IGES
100
AcDbLine
 62
7
  6
CONTINUOUS
 10
9.6
 20
-37.8
 11
11.5
 21
-37.8
  0
LINE
  5
219
100
AcDbEntity
  8
IMPORT_IGES
100
AcDbLine
 62
7
  6
CONTINUOUS
 10
-9.6
 20
-37.8
 11
-11.5
 21
-37.8
  0
LINE
  5
21A
100
AcDbEntity
  8
IMPORT_IGES
100
AcDbLine
 62
253
  6
CONTINUOUS
 10
-9.3755026739
 20
-37.4
 11
9.3755026739
 21
-37.4
  0
LINE
  5
21B
100
AcDbEntity
  8
IMPORT_IGES
100
AcDbLine
 62
253
  6
CONTINUOUS
 10
12.1
 20
-37.2
 11
9.3755026739
 21
-37.2
  0
LINE
  5
21C
100
AcDbEntity
  8
IMPORT_IGES
100
AcDbLine
 62
253
  6
CONTINUOUS
 10
-9.3755026739
 20
-37.2
 11
-12.1
 21
-37.2
  0
LINE
  5
21D
100
AcDbEntity
  8
IMPORT_IGES
100
AcDbLine
 62
253
  6
CONTINUOUS
 10
9.3755026739
 20
-36.2
 11
-9.3755026739
 21
-36.2
  0
LINE
  5
21E
100
AcDbEntity
  8
IMPORT_IGES
100
AcDbLine
 62
7
  6
CONTINUOUS
 10
8.9748745637
 20
-35.8
 11
-8.9748745637
 21
-35.8
  0
LWPOLYLINE
  5
21F
100
AcDbEntity
  8
IMPORT_IGES
100
AcDbPolyline
 62
253
  6
CONTINUOUS
 90
13
 70
0
 10
-5.6287677521
 20
-35.8
 10
-5.6575795804
 20
-35.8034220555
 10
-5.6858984303
 20
-35.8136296695
 10
-5.7132397585
 20
-35.830448187
 10
-5.7391357472
 20
-35.8535898385
 10
-5.7631433089
 20
-35.8826586639
 10
-5.7848516676
 20
-35.9171572875
 10
-5.8038893873
 20
-35.9564954284
 10
-5.8199307272
 20
-36.0
 10
-5.8327012156
 20
-36.046926627
 10
-5.8419823459
 20
-36.0964723819
 10
-5.8476153154
 20
-36.1477895231
 10
-5.8495037424
 20
-36.2
  0
LINE
  5
220
100
AcDbEntity
  8
IMPORT_IGES
100
AcDbLine
 62
253
  6
CONTINUOUS
 10
8.0
 20
-35.4
 11
-8.0
 21
-35.4
  0
LWPOLYLINE
  5
221
100
AcDbEntity
  8
IMPORT_IGES
100
AcDbPolyline
 62
253
  6
CONTINUOUS
 90
10
 70
0
 10
8.9685284077
 20
-35.8
 10
9.0202837224
 20
-35.8034220555
 10
9.0711534893
 20
-35.8136296695
 10
9.1202673126
 20
-35.830448187
 10
9.1667848411
 20
-35.8535898385
 10
9.2099101471
 20
-35.8826586639
 10
9.2489053447
 20
-35.9171572875
 10
9.2831032151
 20
-35.9564954284
 10
9.3119186233
 20
-36.0
 10
9.3348585298
 20
-36.0469266271
  0
LWPOLYLINE
  5
222
100
AcDbEntity
  8
IMPORT_IGES
100
AcDbPolyline
 62
253
  6
CONTINUOUS
 90
13
 70
0
 10
6.8888888889
 20
-35.8
 10
6.8598830684
 20
-35.7965779445
 10
6.8313735455
 20
-35.7863703305
 10
6.8038481261
 20
-35.769551813
 10
6.7777777778
 20
-35.7464101615
 10
6.7536085713
 20
-35.7173413361
 10
6.7317540486
 20
-35.6828427125
 10
6.7125881466
 20
-35.6435045716
 10
6.6964387992
 20
-35.6
 10
6.6835823261
 20
-35.5530733729
 10
6.6742387053
 20
-35.503527618
 10
6.6685678086
 20
-35.4522104769
 10
6.6666666667
 20
-35.4
  0
LWPOLYLINE
  5
223
100
AcDbEntity
  8
IMPORT_IGES
100
AcDbPolyline
 62
7
  6
CONTINUOUS
 90
13
 70
0
 10
16.0196633293
 20
-30.0999996938
 10
16.0985868439
 20
-30.094862686
 10
16.1759428773
 20
-30.0794368938
 10
16.2504095364
 20
-30.054071205
 10
16.3206707105
 20
-30.0193165628
 10
16.3856317992
 20
-29.9758226679
 10
16.4443865797
 20
-29.9242466721
 10
16.495951442
 20
-29.8654459051
 10
16.539430971
 20
-29.8004343231
 10
16.5741410478
 20
-29.7301860907
 10
16.5994525604
 20
-29.6558294475
 10
16.6148555035
 20
-29.5786619102
 10
16.6200306439
 20
-29.5000000054
  0
LINE
  5
224
100
AcDbEntity
  8
IMPORT_IGES
100
AcDbLine
 62
253
  6
CONTINUOUS
 10
9.0
 20
-30.7
 11
12.1
 21
-30.7
  0
LINE
  5
225
100
AcDbEntity
  8
IMPORT_IGES
100
AcDbLine
 62
253
  6
CONTINUOUS
 10
-9.0
 20
-30.7000000268
 11
-12.1
 21
-30.7
  0
LINE
  5
226
100
AcDbEntity
  8
IMPORT_IGES
100
AcDbLine
 62
7
  6
CONTINUOUS
 10
-16.2441078829
 20
-30.1
 11
-9.5999983631
 21
-30.1
  0
LINE
  5
227
100
AcDbEntity
  8
IMPORT_IGES
100
AcDbLine
 62
7
  6
CONTINUOUS
 10
9.6000055678
 20
-30.1
 11
16.2441110687
 21
-30.1
  0
LWPOLYLINE
  5
228
100
AcDbEntity
  8
IMPORT_IGES
100
AcDbPolyline
 62
7
  6
CONTINUOUS
 90
13
 70
0
 10
-16.0201704251
 20
-30.0999999981
 10
-16.0988357112
 20
-30.0948129444
 10
-16.1760019669
 20
-30.0793913867
 10
-16.2503525311
 20
-30.0540561923
 10
-16.3205899696
 20
-30.0193189387
 10
-16.3855868246
 20
-29.9758104451
 10
-16.4443702339
 20
-29.9242163839
 10
-16.4959417679
 20
-29.8654143334
 10
-16.5394256657
 20
-29.8004042508
 10
-16.5741382925
 20
-29.7301600792
 10
-16.5994511265
 20
-29.655809881
 10
-16.6148550153
 20
-29.5786511554
 10
-16.6200314398
 20
-29.5000000788
  0
LWPOLYLINE
  5
229
100
AcDbEntity
  8
IMPORT_IGES
100
AcDbPolyline
 62
7
  6
CONTINUOUS
 90
10
 70
0
 10
-8.8720522911
 20
-30.0682134423
 10
-8.8958148341
 20
-30.0717202435
 10
-8.9171424893
 20
-30.0752340198
 10
-8.9360352568
 20
-30.078754771
 10
-8.9524969576
 20
-30.0822834561
 10
-8.9665237707
 20
-30.0858191162
 10
-8.9781042327
 20
-30.0893588751
 10
-8.9872345224
 20
-30.0929017739
 10
-8.993918461
 20
-30.0964487714
 10
-8.9981560484
 20
-30.0999998677
  0
LWPOLYLINE
  5
22A
100
AcDbEntity
  8
IMPORT_IGES
100
AcDbPolyline
 62
7
  6
CONTINUOUS
 90
8
 70
0
 10
-8.2588324909
 20
-30.0233588347
 10
-8.3776230967
 20
-30.0296097647
 10
-8.4860160676
 20
-30.0359287629
 10
-8.584141757
 20
-30.0423169822
 10
-8.6718256732
 20
-30.0487427291
 10
-8.7490096523
 20
-30.0551954392
 10
-8.8157518583
 20
-30.061685677
 10
-8.8720522911
 20
-30.0682134424
  0
LINE
  5
22B
100
AcDbEntity
  8
IMPORT_IGES
100
AcDbLine
 62
7
  6
CONTINUOUS
 10
-8.0
 20
-30.0114933125
 11
-8.2588324909
 21
-30.0233588347
  0
LINE
  5
22C
100
AcDbEntity
  8
IMPORT_IGES
100
AcDbLine
 62
253
  6
CONTINUOUS
 10
16.8454425889
 20
-29.5000003226
 11
9.0000001883
 21
-29.5
  0
LINE
  5
22D
100
AcDbEntity
  8
IMPORT_IGES
100
AcDbLine
 62
253
  6
CONTINUOUS
 10
-9.0000001883
 20
-29.5
 11
-16.8454425889
 21
-29.5000000788
  0
LINE
  5
22E
100
AcDbEntity
  8
IMPORT_IGES
100
AcDbLine
 62
253
  6
CONTINUOUS
 10
8.0
 20
-28.8
 11
-8.0
 21
-28.7999999777
  0
LWPOLYLINE
  5
22F
100
AcDbEntity
  8
IMPORT_IGES
100
AcDbPolyline
 62
7
  6
CONTINUOUS
 90
9
 70
0
 10
8.8707325158
 20
-30.0682183197
 10
8.8150109534
 20
-30.0616876301
 10
8.7487000106
 20
-30.0551950888
 10
8.6717996874
 20
-30.0487406958
 10
8.5842026816
 20
-30.0423140709
 10
8.4860162954
 20
-30.0359255943
 10
8.3775624353
 20
-30.0296064069
 10
8.2587580475
 20
-30.0233551213
 10
8.0
 20
-30.0114934728
  0
LWPOLYLINE
  5
230
100
AcDbEntity
  8
IMPORT_IGES
100
AcDbPolyline
 62
253
  6
CONTINUOUS
 90
9
 70
0
 10
-9.3119186233
 20
-37.6
 10
-9.2831032151
 20
-37.6435045716
 10
-9.2489053447
 20
-37.6828427125
 10
-9.2099101471
 20
-37.7173413361
 10
-9.1667848411
 20
-37.7464101615
 10
-9.1202673126
 20
-37.769551813
 10
-9.0711534893
 20
-37.7863703305
 10
-9.0202837224
 20
-37.7965779445
 10
-8.9685284077
 20
-37.8
  0
LWPOLYLINE
  5
231
100
AcDbEntity
  8
IMPORT_IGES
100
AcDbPolyline
 62
253
  6
CONTINUOUS
 90
13
 70
0
 10
7.6420445732
 20
-25.5070903762
 10
7.6914367662
 20
-25.5032754745
 10
7.7407537081
 20
-25.4950349012
 10
7.7887610747
 20
-25.4824442259
 10
7.8336875421
 20
-25.4660485502
 10
7.8751326797
 20
-25.4462107058
 10
7.9137746446
 20
-25.422559512
 10
7.9487167508
 20
-25.3953385435
 10
7.9787930847
 20
-25.3652630219
 10
8.0037705785
 20
-25.3323335504
 10
8.0228946004
 20
-25.2970963974
 10
8.0354123327
 20
-25.2607402561
 10
8.0411598714
 20
-25.2242636883
  0
LWPOLYLINE
  5
232
100
AcDbEntity
  8
IMPORT_IGES
100
AcDbPolyline
 62
253
  6
CONTINUOUS
 90
13
 70
0
 10
7.6
 20
-24.2438026818
 10
7.6515689704
 20
-24.2414422693
 10
7.7021195405
 20
-24.234429894
 10
7.7508253464
 20
-24.2229253438
 10
7.7966816994
 20
-24.2072487318
 10
7.8392182662
 20
-24.1876476632
 10
7.8783327501
 20
-24.1640989368
 10
7.9134373185
 20
-24.1366828201
 10
7.9434912279
 20
-24.105897482
 10
7.9676816156
 20
-24.0723382202
 10
7.9854286244
 20
-24.0366064926
 10
7.9963155856
 20
-23.9992612665
 10
8.0
 20
-23.9609602292
  0
LINE
  5
233
100
AcDbEntity
  8
IMPORT_IGES
100
AcDbLine
 62
253
  6
CONTINUOUS
 10
-16.557865769
 20
-26.188651512
 11
-9.064167369
 21
-26.1886536506
  0
LINE
  5
234
100
AcDbEntity
  8
IMPORT_IGES
100
AcDbLine
 62
253
  6
CONTINUOUS
 10
9.064167369
 20
-26.1886532229
 11
16.557865769
 21
-26.1886510843
  0
LINE
  5
235
100
AcDbEntity
  8
IMPORT_IGES
100
AcDbLine
 62
7
  6
CONTINUOUS
 10
16.7756223292
 20
-25.8
 11
-16.7756223292
 21
-25.8
  0
LINE
  5
236
100
AcDbEntity
  8
IMPORT_IGES
100
AcDbLine
 62
253
  6
CONTINUOUS
 10
14.406
 20
-25.5071067815
 11
15.9720288036
 21
-25.5071067816
  0
LINE
  5
237
100
AcDbEntity
  8
IMPORT_IGES
100
AcDbLine
 62
253
  6
CONTINUOUS
 10
-14.4060032825
 20
-25.5071067817
 11
-15.9720288036
 21
-25.5071067816
  0
LINE
  5
238
100
AcDbEntity
  8
IMPORT_IGES
100
AcDbLine
 62
253
  6
CONTINUOUS
 10
7.6420452093
 20
-25.5071067697
 11
-7.6420448689
 21
-25.5071066754
  0
LINE
  5
239
100
AcDbEntity
  8
IMPORT_IGES
100
AcDbLine
 62
253
  6
CONTINUOUS
 10
8.0735118692
 20
-25.4
 11
14.006
 21
-25.4
  0
LINE
  5
23A
100
AcDbEntity
  8
IMPORT_IGES
100
AcDbLine
 62
253
  6
CONTINUOUS
 10
-8.0735118692
 20
-25.4
 11
-14.006
 21
-25.4
  0
LINE
  5
23B
100
AcDbEntity
  8
IMPORT_IGES
100
AcDbLine
 62
253
  6
CONTINUOUS
 10
-16.7850480642
 20
-25.2
 11
-16.5768744586
 21
-25.2
  0
LINE
  5
23C
100
AcDbEntity
  8
IMPORT_IGES
100
AcDbLine
 62
253
  6
CONTINUOUS
 10
16.5768744586
 20
-25.2
 11
16.7850480642
 21
-25.2
  0
LWPOLYLINE
  5
23D
100
AcDbEntity
  8
IMPORT_IGES
100
AcDbPolyline
 62
253
  6
CONTINUOUS
 90
18
 70
0
 10
5.0000632193
 20
-25.8000001857
 10
5.1529028058
 20
-25.8032770573
 10
5.3062496831
 20
-25.8126299498
 10
5.4594501521
 20
-25.8274825193
 10
5.6143958345
 20
-25.8478920007
 10
5.7678915388
 20
-25.8733582323
 10
5.9114975236
 20
-25.9017674921
 10
6.0385029878
 20
-25.9310010193
 10
6.1545483781
 20
-25.9611255028
 10
6.2696309059
 20
-25.9930453729
 10
6.388361426
 20
-26.0277221506
 10
6.5051443172
 20
-26.0641698715
 10
6.6147027391
 20
-26.1005306443
 10
6.7135267696
 20
-26.1349722509
 10
6.8051855905
 20
-26.168043605
 10
6.8950011739
 20
-26.2015005959
 10
6.9817630878
 20
-26.2361220651
 10
7.0662015794
 20
-26.2711839238
  0
LWPOLYLINE
  5
23E
100
AcDbEntity
  8
IMPORT_IGES
100
AcDbPolyline
 62
253
  6
CONTINUOUS
 90
13
 70
0
 10
-15.9720273697
 20
-25.5071067939
 10
-16.0497259972
 20
-25.5028558405
 10
-16.1261158069
 20
-25.4915305817
 10
-16.1999101724
 20
-25.4733218123
 10
-16.2698661493
 20
-25.4485362827
 10
-16.3348055546
 20
-25.4175914819
 10
-16.3936347721
 20
-25.3810085639
 10
-16.4453629838
 20
-25.3394036587
 10
-16.4891188968
 20
-25.2934775349
 10
-16.5241655364
 20
-25.2440037193
 10
-16.5499126174
 20
-25.1918154923
 10
-16.5659264852
 20
-25.1377918526
 10
-16.5719374207
 20
-25.0828427125
  0
LWPOLYLINE
  5
23F
100
AcDbEntity
  8
IMPORT_IGES
100
AcDbPolyline
 62
253
  6
CONTINUOUS
 90
13
 70
0
 10
-15.9769658425
 20
-25.8
 10
-16.0545819513
 20
-25.7949570608
 10
-16.130573053
 20
-25.779997962
 10
-16.2036972032
 20
-25.7554972794
 10
-16.2724272865
 20
-25.7221838157
 10
-16.3361030185
 20
-25.6806050265
 10
-16.3946592029
 20
-25.6306728457
 10
-16.4472378282
 20
-25.5725276875
 10
-16.4922524168
 20
-25.5072439551
 10
-16.5284810377
 20
-25.4360896345
 10
-16.5550564058
 20
-25.3603417602
 10
-16.5713579449
 20
-25.2811811809
 10
-16.5768744586
 20
-25.2
  0
LWPOLYLINE
  5
240
100
AcDbEntity
  8
IMPORT_IGES
100
AcDbPolyline
 62
253
  6
CONTINUOUS
 90
13
 70
0
 10
-7.8894266849
 20
-25.8
 10
-7.9408418405
 20
-25.7965779446
 10
-7.9913772685
 20
-25.7863703305
 10
-8.0401682937
 20
-25.769551813
 10
-8.0863800883
 20
-25.7464101615
 10
-8.1292219554
 20
-25.7173413361
 10
-8.1679608591
 20
-25.6828427125
 10
-8.2019339657
 20
-25.6435045716
 10
-8.2305599862
 20
-25.6
 10
-8.2533491213
 20
-25.5530733729
 10
-8.2699114426
 20
-25.503527618
 10
-8.2799635642
 20
-25.4522104769
 10
-8.2833334916
 20
-25.4
  0
LWPOLYLINE
  5
241
100
AcDbEntity
  8
IMPORT_IGES
100
AcDbPolyline
 62
253
  6
CONTINUOUS
 90
13
 70
0
 10
-7.6420434913
 20
-25.5071068273
 10
-7.6914368207
 20
-25.5032917135
 10
-7.7407548189
 20
-25.4950506508
 10
-7.7887630796
 20
-25.4824592378
 10
-7.8336901151
 20
-25.4660626799
 10
-7.8751355688
 20
-25.4462238464
 10
-7.9137778307
 20
-25.4225714185
 10
-7.9487201714
 20
-25.3953489299
 10
-7.9787965216
 20
-25.365271679
 10
-8.0037737541
 20
-25.332340244
 10
-8.0228971289
 20
-25.2971009555
 10
-8.0354137517
 20
-25.2607426582
 10
-8.0411597134
 20
-25.2242640455
  0
LWPOLYLINE
  5
242
100
AcDbEntity
  8
IMPORT_IGES
100
AcDbPolyline
 62
253
  6
CONTINUOUS
 90
10
 70
0
 10
-12.8175744394
 20
-23.5596128015
 10
-12.7838364179
 20
-23.5665677536
 10
-12.7485998905
 20
-23.5785309671
 10
-12.7136205108
 20
-23.5960060548
 10
-12.6792546868
 20
-23.6171133919
 10
-12.6452994883
 20
-23.641673116
 10
-12.6142214938
 20
-23.6705264379
 10
-12.5868028981
 20
-23.7030336211
 10
-12.5620640414
 20
-23.7383894677
 10
-12.5403004281
 20
-23.7763374453
  0
LWPOLYLINE
  5
243
100
AcDbEntity
  8
IMPORT_IGES
100
AcDbPolyline
 62
253
  6
CONTINUOUS
 90
16
 70
0
 10
-12.817576105
 20
-23.6578314405
 10
-12.8090168199
 20
-23.6598106858
 10
-12.8015392969
 20
-23.6627509171
 10
-12.7951435358
 20
-23.6666521342
 10
-12.7900330837
 20
-23.6715988513
 10
-12.7860043936
 20
-23.6775065544
 10
-12.7824468243
 20
-23.6841217012
 10
-12.7791918574
 20
-23.6913393736
 10
-12.7764080113
 20
-23.6992644898
 10
-12.7739902008
 20
-23.7079582623
 10
-12.771899325
 20
-23.717442866
 10
-12.7701744847
 20
-23.727696126
 10
-12.7688278982
 20
-23.7387127307
 10
-12.767863638
 20
-23.7504909095
 10
-12.7672776315
 20
-23.7630324329
 10
-12.7670698788
 20
-23.7763373011
  0
LWPOLYLINE
  5
244
100
AcDbEntity
  8
IMPORT_IGES
100
AcDbPolyline
 62
253
  6
CONTINUOUS
 90
10
 70
0
 10
-15.9181344398
 20
-22.4191210676
 10
-15.9728104376
 20
-22.3276736699
 10
-16.0284710333
 20
-22.2281111608
 10
-16.0837758314
 20
-22.1210125372
 10
-16.1375395635
 20
-22.0054033268
 10
-16.1880249987
 20
-21.8837769773
 10
-16.2336445422
 20
-21.7627517867
 10
-16.2738573488
 20
-21.6457859404
 10
-16.3084699874
 20
-21.5324978152
 10
-16.337367021
 20
-21.4241400862
  0
LWPOLYLINE
  5
245
100
AcDbEntity
  8
IMPORT_IGES
100
AcDbPolyline
 62
7
  6
CONTINUOUS
 90
37
 70
0
 10
-16.557865769
 20
-26.188651512
 10
-16.4762126797
 20
-26.377695261
 10
-16.373227482
 20
-26.5564248394
 10
-16.2489101758
 20
-26.7248402473
 10
-16.1009900877
 20
-26.8832287549
 10
-15.9317378912
 20
-27.0313030919
 10
-15.7479656067
 20
-27.168201448
 10
-15.5499241432
 20
-27.2936985505
 10
-15.3373625918
 20
-27.4080196719
 10
-15.1163402454
 20
-27.5109788199
 10
-14.8925588729
 20
-27.6016961964
 10
-14.6603167053
 20
-27.6810515994
 10
-14.4085677288
 20
-27.7514984304
 10
-14.1277309475
 20
-27.8155050754
 10
-13.8273873572
 20
-27.8706031485
 10
-13.5252339319
 20
-27.9118408933
 10
-13.2258027451
 20
-27.9373472977
 10
-12.9245617232
 20
-27.9489933739
 10
-12.6256116196
 20
-27.9474404019
 10
-12.3278238642
 20
-27.9323506633
 10
-12.032327027
 20
-27.9040618764
 10
-11.7466075711
 20
-27.8642484764
 10
-11.4709577148
 20
-27.8121611285
 10
-11.2050852399
 20
-27.7485491675
 10
-10.955599954
 20
-27.6773350329
 10
-10.726901062
 20
-27.6003612498
 10
-10.5145893591
 20
-27.5157852932
 10
-10.312077039
 20
-27.4220020276
 10
-10.115735205
 20
-27.3182106965
 10
-9.9291927538
 20
-27.2052120565
 10
-9.7567485689
 20
-27.0838032418
 10
-9.5984495914
 20
-26.9539417159
 10
-9.4542488802
 20
-26.8156700153
 10
-9.3283044963
 20
-26.669912884
 10
-9.2220024599
 20
-26.5169785702
 10
-9.1339567508
 20
-26.3565588257
 10
-9.064167369
 20
-26.1886536506
  0
LWPOLYLINE
  5
246
100
AcDbEntity
  8
IMPORT_IGES
100
AcDbPolyline
 62
253
  6
CONTINUOUS
 90
13
 70
0
 10
-12.8996535497
 20
-24.3999999997
 10
-12.8523742979
 20
-24.3965447584
 10
-12.806113329
 20
-24.3862306822
 10
-12.7615478709
 20
-24.3692300936
 10
-12.7191816664
 20
-24.3458070405
 10
-12.6797954747
 20
-24.3163749145
 10
-12.6444114556
 20
-24.2815426128
 10
-12.6136291751
 20
-24.2419785205
 10
-12.5877642532
 20
-24.1983729151
 10
-12.5672771809
 20
-24.1515327836
 10
-12.5524593412
 20
-24.102293466
 10
-12.5434400847
 20
-24.0514947863
 10
-12.540300602
 20
-24.0
  0
LWPOLYLINE
  5
247
100
AcDbEntity
  8
IMPORT_IGES
100
AcDbPolyline
 62
7
  6
CONTINUOUS
 90
19
 70
0
 10
-8.8365642653
 20
-24.4
 10
-8.8009432638
 20
-24.3988706963
 10
-8.7648175288
 20
-24.3952411851
 10
-8.7283356096
 20
-24.3891114665
 10
-8.6916874231
 20
-24.3805152299
 10
-8.6550231503
 20
-24.3694187858
 10
-8.6184623739
 20
-24.3557210661
 10
-8.5822244385
 20
-24.3393923323
 10
-8.5465451984
 20
-24.3204623229
 10
-8.5116132531
 20
-24.2989191846
 10
-8.4776694171
 20
-24.2746628426
 10
-8.4450622982
 20
-24.2477933717
 10
-8.4141654193
 20
-24.2185991427
 10
-8.3853129743
 20
-24.1869981529
 10
-8.3588166984
 20
-24.153072405
 10
-8.3350197715
 20
-24.1173562779
 10
-8.3142711452
 20
-24.0800278978
 10
-8.296923768
 20
-24.0409091385
 10
-8.2833334916
 20
-24.0
  0
LINE
  5
248
100
AcDbEntity
  8
IMPORT_IGES
100
AcDbLine
 62
7
  6
CONTINUOUS
 10
13.606000002
 20
-24.4
 11
8.8365642653
 21
-24.4
  0
LINE
  5
249
100
AcDbEntity
  8
IMPORT_IGES
100
AcDbLine
 62
7
  6
CONTINUOUS
 10
-8.8365642652
 20
-24.4
 11
-13.606
 21
-24.4
  0
LINE
  5
24A
100
AcDbEntity
  8
IMPORT_IGES
100
AcDbLine
 62
253
  6
CONTINUOUS
 10
-13.606
 20
-24.1
 11
-12.8996367256
 21
-24.1
  0
LINE
  5
24B
100
AcDbEntity
  8
IMPORT_IGES
100
AcDbLine
 62
253
  6
CONTINUOUS
 10
12.8996367256
 20
-24.1
 11
13.606
 21
-24.1
  0
LINE
  5
24C
100
AcDbEntity
  8
IMPORT_IGES
100
AcDbLine
 62
253
  6
CONTINUOUS
 10
-14.006
 20
-24.0
 11
-13.706
 21
-24.0
  0
LINE
  5
24D
100
AcDbEntity
  8
IMPORT_IGES
100
AcDbLine
 62
253
  6
CONTINUOUS
 10
-12.767069947
 20
-24.0
 11
-8.2833334914
 21
-24.0
  0
LINE
  5
24E
100
AcDbEntity
  8
IMPORT_IGES
100
AcDbLine
 62
253
  6
CONTINUOUS
 10
8.2833334916
 20
-24.0
 11
12.767069947
 21
-24.0
  0
LINE
  5
24F
100
AcDbEntity
  8
IMPORT_IGES
100
AcDbLine
 62
253
  6
CONTINUOUS
 10
13.706
 20
-24.0
 11
14.006
 21
-24.0000000001
  0
LINE
  5
250
100
AcDbEntity
  8
IMPORT_IGES
100
AcDbLine
 62
253
  6
CONTINUOUS
 10
14.006
 20
-23.9867933118
 11
13.706
 21
-23.9867933118
  0
LINE
  5
251
100
AcDbEntity
  8
IMPORT_IGES
100
AcDbLine
 62
253
  6
CONTINUOUS
 10
-13.706
 20
-23.9867933118
 11
-14.006
 21
-23.9867912135
  0
LINE
  5
252
100
AcDbEntity
  8
IMPORT_IGES
100
AcDbLine
 62
253
  6
CONTINUOUS
 10
-12.5403005891
 20
-23.7763373294
 11
-12.767069947
 21
-23.7763373011
  0
LINE
  5
253
100
AcDbEntity
  8
IMPORT_IGES
100
AcDbLine
 62
253
  6
CONTINUOUS
 10
12.767069947
 20
-23.7763374667
 11
12.5403005958
 21
-23.7763367387
  0
LINE
  5
254
100
AcDbEntity
  8
IMPORT_IGES
100
AcDbLine
 62
253
  6
CONTINUOUS
 10
-12.817576105
 20
-23.6578314405
 11
-13.606
 21
-23.6578311561
  0
LINE
  5
255
100
AcDbEntity
  8
IMPORT_IGES
100
AcDbLine
 62
253
  6
CONTINUOUS
 10
13.606
 20
-23.6578311402
 11
12.8175764214
 21
-23.6578311242
  0
LINE
  5
256
100
AcDbEntity
  8
IMPORT_IGES
100
AcDbLine
 62
253
  6
CONTINUOUS
 10
13.6060351169
 20
-23.5596381337
 11
12.8175761313
 21
-23.5596381337
  0
LINE
  5
257
100
AcDbEntity
  8
IMPORT_IGES
100
AcDbLine
 62
253
  6
CONTINUOUS
 10
-12.8177121531
 20
-23.5596303162
 11
-13.6060000194
 21
-23.5596303162
  0
LWPOLYLINE
  5
258
100
AcDbEntity
  8
IMPORT_IGES
100
AcDbPolyline
 62
253
  6
CONTINUOUS
 90
16
 70
0
 10
13.606
 20
-23.5596382614
 10
13.6394088381
 20
-23.5604442987
 10
13.6745374294
 20
-23.5652435282
 10
13.7110420981
 20
-23.5741849781
 10
13.7490404446
 20
-23.5875052259
 10
13.7873787132
 20
-23.6052498331
 10
13.8238797245
 20
-23.6270856572
 10
13.857504126
 20
-23.6526813408
 10
13.8885478522
 20
-23.6820997585
 10
13.9169740885
 20
-23.7154420874
 10
13.9423727415
 20
-23.7527524028
 10
13.9641462216
 20
-23.793696636
 10
13.9818500981
 20
-23.8378121016
 10
13.9950172126
 20
-23.8848045667
 10
14.0031968679
 20
-23.9345436148
 10
14.006
 20
-23.9867900135
  0
LWPOLYLINE
  5
259
100
AcDbEntity
  8
IMPORT_IGES
100
AcDbPolyline
 62
7
  6
CONTINUOUS
 90
19
 70
0
 10
8.8365642653
 20
-24.4
 10
8.8009350443
 20
-24.3988693744
 10
8.7648037981
 20
-24.3952387522
 10
8.7283189577
 20
-24.3891081333
 10
8.6916713522
 20
-24.3805113941
 10
8.6550098382
 20
-24.3694146581
 10
8.618450789
 20
-24.3557162966
 10
8.5822124583
 20
-24.3393863356
 10
8.5465321185
 20
-24.320454749
 10
8.511599167
 20
-24.2989098292
 10
8.4776545808
 20
-24.2746514496
 10
8.4450468943
 20
-24.2477797369
 10
8.4141499162
 20
-24.2185833637
 10
8.3852972018
 20
-24.1869794653
 10
8.3588012459
 20
-24.1530509064
 10
8.335006825
 20
-24.1173349537
 10
8.3142625292
 20
-24.0800106962
 10
8.2969197902
 20
-24.040899045
 10
8.2833334915
 20
-24.0
  0
LWPOLYLINE
  5
25A
100
AcDbEntity
  8
IMPORT_IGES
100
AcDbPolyline
 62
253
  6
CONTINUOUS
 90
13
 70
0
 10
-15.9181276935
 20
-22.4191142558
 10
-15.9951534598
 20
-22.4149309146
 10
-16.0705908197
 20
-22.4038556749
 10
-16.1432253342
 20
-22.3861561153
 10
-16.2115618481
 20
-22.362345497
 10
-16.2749523189
 20
-22.3328054759
 10
-16.3333339002
 20
-22.2974759865
 10
-16.3858693124
 20
-22.2564599272
 10
-16.4310042435
 20
-22.2105076001
 10
-16.4675380312
 20
-22.1604991651
 10
-16.4946144905
 20
-22.1073185652
 10
-16.5116179538
 20
-22.0517819229
 10
-16.5180363118
 20
-21.9948502539
  0
LWPOLYLINE
  5
25B
100
AcDbEntity
  8
IMPORT_IGES
100
AcDbPolyline
 62
7
  6
CONTINUOUS
 90
10
 70
0
 10
-16.557865769
 20
-26.1886525813
 10
-16.568923905
 20
-26.1544469053
 10
-16.5789540395
 20
-26.1218947435
 10
-16.5879561726
 20
-26.0909901209
 10
-16.5959432413
 20
-26.0617352283
 10
-16.6029023085
 20
-26.0341112326
 10
-16.6087945635
 20
-26.0080832142
 10
-16.6136070693
 20
-25.9836369413
 10
-16.6173527629
 20
-25.9607740069
 10
-16.6200316442
 20
-25.9394860556
  0
LWPOLYLINE
  5
25C
100
AcDbEntity
  8
IMPORT_IGES
100
AcDbPolyline
 62
253
  6
CONTINUOUS
 90
13
 70
0
 10
9.7297029535
 20
-19.1206636715
 10
9.6840861723
 20
-19.1262641024
 10
9.6384949565
 20
-19.137995741
 10
9.5940683395
 20
-19.1557602046
 10
9.5524389668
 20
-19.1788073783
 10
9.5139977217
 20
-19.206631649
 10
9.4781378539
 20
-19.2397364441
 10
9.4456753575
 20
-19.2777851789
 10
9.4176817291
 20
-19.3197867914
 10
9.394370977
 20
-19.3657387704
 10
9.3764332072
 20
-19.4148993426
 10
9.3645693483
 20
-19.4656429199
 10
9.3589494457
 20
-19.5166001176
  0
LWPOLYLINE
  5
25D
100
AcDbEntity
  8
IMPORT_IGES
100
AcDbPolyline
 62
253
  6
CONTINUOUS
 90
13
 70
0
 10
-14.4060032824
 20
-20.906944581
 10
-14.3537913311
 20
-20.9045436782
 10
-14.3024730865
 20
-20.8973397859
 10
-14.2529266271
 20
-20.8854565084
 10
-14.2059997894
 20
-20.8690959183
 10
-14.1624953319
 20
-20.8485396311
 10
-14.1231572875
 20
-20.8241439154
 10
-14.0886586639
 20
-20.7963276492
 10
-14.0595898385
 20
-20.7655652716
 10
-14.036448187
 20
-20.7323831354
 10
-14.0196296695
 20
-20.6973489961
 10
-14.0094220555
 20
-20.6610622976
 10
-14.006
 20
-20.6241439154
  0
LINE
  5
25E
100
AcDbEntity
  8
IMPORT_IGES
100
AcDbLine
 62
253
  6
CONTINUOUS
 10
-16.337367032
 20
-21.4241400862
 11
-16.5130115666
 21
-21.4241400837
  0
LINE
  5
25F
100
AcDbEntity
  8
IMPORT_IGES
100
AcDbLine
 62
253
  6
CONTINUOUS
 10
7.6
 20
-20.0928932187
 11
-7.6
 21
-20.0928932183
  0
LINE
  5
260
100
AcDbEntity
  8
IMPORT_IGES
100
AcDbLine
 62
253
  6
CONTINUOUS
 10
14.6888427135
 20
-19.7756157789
 11
14.006
 21
-19.775615778
  0
LINE
  5
261
100
AcDbEntity
  8
IMPORT_IGES
100
AcDbLine
 62
253
  6
CONTINUOUS
 10
-8.0
 20
-19.3857864376
 11
8.0
 21
-19.3857864376
  0
LINE
  5
262
100
AcDbEntity
  8
IMPORT_IGES
100
AcDbLine
 62
253
  6
CONTINUOUS
 10
13.606
 20
-19.1206620196
 11
9.7297030429
 21
-19.120657986
  0
LINE
  5
263
100
AcDbEntity
  8
IMPORT_IGES
100
AcDbLine
 62
253
  6
CONTINUOUS
 10
-13.606
 20
-19.1206620196
 11
-9.729698366
 21
-19.1206570741
  0
LINE
  5
264
100
AcDbEntity
  8
IMPORT_IGES
100
AcDbLine
 62
253
  6
CONTINUOUS
 10
16.5130115666
 20
-21.4241400837
 11
16.337367045
 21
-21.4241131644
  0
LINE
  5
265
100
AcDbEntity
  8
IMPORT_IGES
100
AcDbLine
 62
253
  6
CONTINUOUS
 10
-14.6888427179
 20
-19.7755839006
 11
-14.006
 21
-19.775615778
  0
LWPOLYLINE
  5
266
100
AcDbEntity
  8
IMPORT_IGES
100
AcDbPolyline
 62
253
  6
CONTINUOUS
 90
13
 70
0
 10
14.406
 20
-20.9069866781
 10
14.355121651
 20
-20.9046893217
 10
14.3049815318
 20
-20.8978182876
 10
14.2564036853
 20
-20.8864614666
 10
14.2103418805
 20
-20.8708400339
 10
14.1673982113
 20
-20.8511562851
 10
14.127928246
 20
-20.8274615738
 10
14.0925539116
 20
-20.7998590062
 10
14.0623085822
 20
-20.7688440201
 10
14.0380844029
 20
-20.7351352118
 10
14.0204194667
 20
-20.6994023505
 10
14.0096343404
 20
-20.6621851253
 10
14.006
 20
-20.6241439154
  0
LWPOLYLINE
  5
267
100
AcDbEntity
  8
IMPORT_IGES
100
AcDbPolyline
 62
253
  6
CONTINUOUS
 90
13
 70
0
 10
-9.7297242286
 20
-19.1206650327
 10
-9.6840440474
 20
-19.1262747939
 10
-9.6384153749
 20
-19.1380246817
 10
-9.5939743512
 20
-19.1558079748
 10
-9.5523510768
 20
-19.1788665899
 10
-9.5139234786
 20
-19.2066958904
 10
-9.4780736897
 20
-19.2398069112
 10
-9.4456205579
 20
-19.2778618491
 10
-9.4176369623
 20
-19.3198679957
 10
-9.3943369411
 20
-19.3658224647
 10
-9.3764124868
 20
-19.4149755996
 10
-9.3645624854
 20
-19.4656929681
 10
-9.3589508594
 20
-19.516599986
  0
LWPOLYLINE
  5
268
100
AcDbEntity
  8
IMPORT_IGES
100
AcDbPolyline
 62
253
  6
CONTINUOUS
 90
28
 70
0
 10
13.606
 20
-23.6578311402
 10
13.6144499854
 20
-23.659120746
 10
13.6226033558
 20
-23.6622212517
 10
13.6304601111
 20
-23.6671326573
 10
13.6383476718
 20
-23.6746945414
 10
13.6459386175
 20
-23.6840673254
 10
13.6522506869
 20
-23.6927322737
 10
13.6565297918
 20
-23.6993835473
 10
13.6595300204
 20
-23.7053269853
 10
13.6625313755
 20
-23.7119613685
 10
13.6659718707
 20
-23.7197015248
 10
13.6694134924
 20
-23.7281326265
 10
13.6728222035
 20
-23.7374089713
 10
13.6762055743
 20
-23.7475267798
 10
13.6795560344
 20
-23.7584898316
 10
13.6828168349
 20
-23.7704637626
 10
13.6860035664
 20
-23.7835078711
 10
13.6891006383
 20
-23.7975628589
 10
13.69200453
 20
-23.8126164674
 10
13.6947123996
 20
-23.8287139295
 10
13.6972270891
 20
-23.8458100124
 10
13.6994536036
 20
-23.8637567588
 10
13.7013814275
 20
-23.8825867734
 10
13.7030210765
 20
-23.9022674514
 10
13.704309103
 20
-23.9225530215
 10
13.7052243578
 20
-23.9433615596
 10
13.7057879902
 20
-23.9647749897
 10
13.706
 20
-23.9867933118
  0
LWPOLYLINE
  5
269
100
AcDbEntity
  8
IMPORT_IGES
100
AcDbPolyline
 62
253
  6
CONTINUOUS
 90
19
 70
0
 10
7.0662015794
 20
-26.2711839238
 10
7.2523236033
 20
-26.3468069253
 10
7.350882435
 20
-26.389643865
 10
7.4443092131
 20
-26.4321786581
 10
7.53241613
 20
-26.4730316606
 10
7.6142416698
 20
-26.5136061145
 10
7.6845511105
 20
-26.5518031261
 10
7.7416471588
 20
-26.5834916172
 10
7.7899977403
 20
-26.6091943041
 10
7.8338862856
 20
-26.6338653297
 10
7.8751261317
 20
-26.6597704527
 10
7.9108186151
 20
-26.6850193603
 10
7.9384838297
 20
-26.7087088219
 10
7.9581818765
 20
-26.7278402094
 10
7.9727803233
 20
-26.7425337561
 10
7.9843332974
 20
-26.7565693637
 10
7.9930008962
 20
-26.7716258568
 10
7.9982417906
 20
-26.7861285443
 10
7.9999999483
 20
-26.7999997181
  0
LWPOLYLINE
  5
26A
100
AcDbEntity
  8
IMPORT_IGES
100
AcDbPolyline
 62
7
  6
CONTINUOUS
 90
13
 70
0
 10
-16.8454425889
 20
-29.5000006249
 10
-16.8402886924
 20
-29.5784659835
 10
-16.8249229404
 20
-29.6555592057
 10
-16.7996186888
 20
-29.7299589162
 10
-16.7648152234
 20
-29.8003985588
 10
-16.7211201401
 20
-29.8656674558
 10
-16.6693068051
 20
-29.9246367368
 10
-16.6103318521
 20
-29.976266433
 10
-16.5451704713
 20
-30.0197457677
 10
-16.4747687025
 20
-30.0544218777
 10
-16.4002450315
 20
-30.0796683121
 10
-16.3229170553
 20
-30.0949667768
 10
-16.2441078856
 20
-30.0999987122
  0
LWPOLYLINE
  5
26B
100
AcDbEntity
  8
IMPORT_IGES
100
AcDbPolyline
 62
7
  6
CONTINUOUS
 90
10
 70
0
 10
-16.6200315385
 20
-25.9394867042
 10
-16.6217420893
 20
-25.9103495218
 10
-16.6234649045
 20
-25.884608561
 10
-16.6251999842
 20
-25.8622638218
 10
-16.626949356
 20
-25.8432973799
 10
-16.6287109924
 20
-25.8277271597
 10
-16.6304788101
 20
-25.8156069343
 10
-16.6322507816
 20
-25.806954628
 10
-16.6340289345
 20
-25.8017523166
 10
-16.6358132689
 20
-25.8
  0
LINE
  5
26C
100
AcDbEntity
  8
IMPORT_IGES
100
AcDbLine
 62
7
  6
CONTINUOUS
 10
-16.8457916902
 20
-21.72
 11
-16.7756223292
 21
-25.8
  0
LINE
  5
26D
100
AcDbEntity
  8
IMPORT_IGES
100
AcDbLine
 62
253
  6
CONTINUOUS
 10
-16.7260997675
 20
10.2
 11
-16.7261627949
 21
10.2058211114
  0
LINE
  5
26E
100
AcDbEntity
  8
IMPORT_IGES
100
AcDbLine
 62
253
  6
CONTINUOUS
 10
-16.5422141458
 20
10.2
 11
-16.5144315667
 21
7.654063118
  0
LINE
  5
26F
100
AcDbEntity
  8
IMPORT_IGES
100
AcDbLine
 62
253
  6
CONTINUOUS
 10
-16.5144315667
 20
7.654063118
 11
-16.5131056468
 21
7.3575376435
  0
LINE
  5
270
100
AcDbEntity
  8
IMPORT_IGES
100
AcDbLine
 62
7
  6
CONTINUOUS
 10
-16.7603183383
 20
6.8119541238
 11
-16.7603116947
 21
6.8
  0
LINE
  5
271
100
AcDbEntity
  8
IMPORT_IGES
100
AcDbLine
 62
7
  6
CONTINUOUS
 10
-16.8457916902
 20
6.8
 11
-16.8457916902
 21
-21.72
  0
LINE
  5
272
100
AcDbEntity
  8
IMPORT_IGES
100
AcDbLine
 62
7
  6
CONTINUOUS
 10
-16.8454425889
 20
-29.5000000788
 11
-16.8454425889
 21
-21.7400000001
  0
LINE
  5
273
100
AcDbEntity
  8
IMPORT_IGES
100
AcDbLine
 62
7
  6
CONTINUOUS
 10
-16.6200314398
 20
-29.5000000788
 11
-16.6200315385
 21
-25.9394867042
  0
LINE
  5
274
100
AcDbEntity
  8
IMPORT_IGES
100
AcDbLine
 62
7
  6
CONTINUOUS
 10
-16.5
 20
10.6687221082
 11
-16.5
 21
17.5
  0
LINE
  5
275
100
AcDbEntity
  8
IMPORT_IGES
100
AcDbLine
 62
253
  6
CONTINUOUS
 10
-16.337367021
 20
-21.4241400862
 11
-16.337367032
 21
7.283281229
  0
LINE
  5
276
100
AcDbEntity
  8
IMPORT_IGES
100
AcDbLine
 62
253
  6
CONTINUOUS
 10
-16.5131056468
 20
7.3575376435
 11
-16.5130706667
 21
-21.4823460903
  0
LINE
  5
277
100
AcDbEntity
  8
IMPORT_IGES
100
AcDbLine
 62
253
  6
CONTINUOUS
 10
-16.5130706667
 20
-21.4823460903
 11
-16.5140974017
 21
-21.6753321458
  0
LINE
  5
278
100
AcDbEntity
  8
IMPORT_IGES
100
AcDbLine
 62
253
  6
CONTINUOUS
 10
-16.7261627949
 20
10.2058211114
 11
-16.7261607775
 21
10.2060370933
  0
LINE
  5
279
100
AcDbEntity
  8
IMPORT_IGES
100
AcDbLine
 62
7
  6
CONTINUOUS
 10
-16.7261607775
 20
10.2060370933
 11
-16.7603118324
 21
6.8120866261
  0
LINE
  5
27A
100
AcDbEntity
  8
IMPORT_IGES
100
AcDbLine
 62
253
  6
CONTINUOUS
 10
-16.7603116947
 20
6.8
 11
-16.7601900874
 21
6.8120854011
  0
LWPOLYLINE
  5
27B
100
AcDbEntity
  8
IMPORT_IGES
100
AcDbPolyline
 62
253
  6
CONTINUOUS
 90
3
 70
0
 10
-16.5140974017
 20
-21.6753321458
 10
-16.5162244781
 20
-21.8776325282
 10
-16.5170885772
 20
-21.9377503425
  0
LINE
  5
27C
100
AcDbEntity
  8
IMPORT_IGES
100
AcDbLine
 62
253
  6
CONTINUOUS
 10
-16.7261657659
 20
10.2055111159
 11
-16.7260997675
 21
10.2
  0
LWPOLYLINE
  5
27D
100
AcDbEntity
  8
IMPORT_IGES
100
AcDbPolyline
 62
253
  6
CONTINUOUS
 90
13
 70
0
 10
-16.5422141458
 20
10.2
 10
-16.5370874663
 20
10.2782729946
 10
-16.5217890821
 20
10.3552304731
 10
-16.4965717924
 20
10.4295545864
 10
-16.4618542865
 20
10.4999780758
 10
-16.4182252599
 20
10.5652826299
 10
-16.3664430485
 20
10.6243260006
 10
-16.3073933988
 20
10.6760989778
 10
-16.2420905427
 20
10.7197129626
 10
-16.1716857372
 20
10.7544084137
 10
-16.0974015993
 20
10.7796014837
 10
-16.0205027865
 20
10.7948809342
 10
-15.9423055287
 20
10.8
  0
LWPOLYLINE
  5
27E
100
AcDbEntity
  8
IMPORT_IGES
100
AcDbPolyline
 62
253
  6
CONTINUOUS
 90
13
 70
0
 10
-16.5
 20
15.2297953329
 10
-16.4965800278
 20
15.2621538407
 10
-16.4863765068
 20
15.2939638489
 10
-16.4695608859
 20
15.324680863
 10
-16.4464164374
 20
15.3537802571
 10
-16.4173372786
 20
15.3807612957
 10
-16.3828249547
 20
15.4051570335
 10
-16.3434699615
 20
15.4265501963
 10
-16.2999468548
 20
15.4445742129
 10
-16.2530114662
 20
15.4589179467
 10
-16.2034727816
 20
15.4693379397
 10
-16.1521763365
 20
15.4756599138
 10
-16.1
 20
15.4777786599
  0
LWPOLYLINE
  5
27F
100
AcDbEntity
  8
IMPORT_IGES
100
AcDbPolyline
 62
253
  6
CONTINUOUS
 90
13
 70
0
 10
-15.9172094832
 20
8.270755226
 10
-15.9590455881
 20
8.190585693
 10
-16.0007258091
 20
8.1085390624
 10
-16.0418071709
 20
8.0249168028
 10
-16.0820393165
 20
7.9392406539
 10
-16.1208298165
 20
7.8525848922
 10
-16.1573860181
 20
7.7677371526
 10
-16.1906149727
 20
7.6873778986
 10
-16.2214696798
 20
7.6097254661
 10
-16.2519866317
 20
7.5307452019
 10
-16.2822527983
 20
7.4491302736
 10
-16.3109244989
 20
7.3665469512
 10
-16.3373670434
 20
7.283281229
  0
LWPOLYLINE
  5
280
100
AcDbEntity
  8
IMPORT_IGES
100
AcDbPolyline
 62
253
  6
CONTINUOUS
 90
13
 70
0
 10
8.3999999972
 20
-17.8844117017
 10
8.2914580811
 20
-17.8927650536
 10
8.1886219623
 20
-17.9134001244
 10
8.0914916406
 20
-17.946316914
 10
7.9988312252
 20
-17.9924715752
 10
7.911876607
 20
-18.0509079552
 10
7.834335459
 20
-18.1187575956
 10
7.7664876631
 20
-18.1963002559
 10
7.7080533373
 20
-18.2832561765
 10
7.6619005091
 20
-18.3759176206
 10
7.6289851878
 20
-18.4730486758
 10
7.6083513641
 20
-18.5758852545
 10
7.5999990381
 20
-18.6844273567
  0
LWPOLYLINE
  5
281
100
AcDbEntity
  8
IMPORT_IGES
100
AcDbPolyline
 62
253
  6
CONTINUOUS
 90
10
 70
0
 10
8.4
 20
-18.4264420637
 10
8.3477895231
 20
-18.4298581617
 10
8.296472382
 20
-18.4400480056
 10
8.2469266271
 20
-18.4568372443
 10
8.2
 20
-18.4799386093
 10
8.1564954284
 20
-18.5089568299
 10
8.1171572875
 20
-18.5433953961
 10
8.0826586639
 20
-18.5826650547
 10
8.0535898385
 20
-18.6260938907
 10
8.030448187
 20
-18.6729388249
  0
LWPOLYLINE
  5
282
100
AcDbEntity
  8
IMPORT_IGES
100
AcDbPolyline
 62
253
  6
CONTINUOUS
 90
13
 70
0
 10
-13.606
 20
-19.1206620196
 10
-13.6582104769
 20
-19.1240493251
 10
-13.709527618
 20
-19.1341532838
 10
-13.7590733729
 20
-19.1508010141
 10
-13.806
 20
-19.1737076688
 10
-13.8495045716
 20
-19.2024813087
 10
-13.8888427125
 20
-19.2366296088
 10
-13.9233413361
 20
-19.2755682823
 10
-13.9524101615
 20
-19.3186310775
 10
-13.975551813
 20
-19.3650811783
 10
-13.9923703305
 20
-19.4141238104
 10
-14.0025779445
 20
-19.4649198408
 10
-14.006
 20
-19.5166001354
  0
LWPOLYLINE
  5
283
100
AcDbEntity
  8
IMPORT_IGES
100
AcDbPolyline
 62
253
  6
CONTINUOUS
 90
10
 70
0
 10
-13.6060000001
 20
-17.8844117015
 10
-13.6229576301
 20
-17.8845908851
 10
-13.6398925308
 20
-17.8851284308
 10
-13.6568047022
 20
-17.8860243385
 10
-13.6737017638
 20
-17.8872793368
 10
-13.6905760961
 20
-17.8888926971
 10
-13.7074048405
 20
-17.8908622338
 10
-13.7241803774
 20
-17.8931872186
 10
-13.7409103263
 20
-17.8958683798
 10
-13.7575946873
 20
-17.8989057176
  0
LINE
  5
284
100
AcDbEntity
  8
IMPORT_IGES
100
AcDbLine
 62
253
  6
CONTINUOUS
 10
14.0257942641
 20
-18.6899287464
 11
14.006
 21
-18.6899760488
  0
LINE
  5
285
100
AcDbEntity
  8
IMPORT_IGES
100
AcDbLine
 62
253
  6
CONTINUOUS
 10
-14.6888427131
 20
-18.6899309911
 11
-14.006
 21
-18.6899310063
  0
LINE
  5
286
100
AcDbEntity
  8
IMPORT_IGES
100
AcDbLine
 62
253
  6
CONTINUOUS
 10
7.6000000001
 20
-18.6844273567
 11
8.0
 21
-18.6843834372
  0
LINE
  5
287
100
AcDbEntity
  8
IMPORT_IGES
100
AcDbLine
 62
253
  6
CONTINUOUS
 10
-8.0
 20
-18.6844273589
 11
-7.6000000005
 21
-18.6844272476
  0
LINE
  5
288
100
AcDbEntity
  8
IMPORT_IGES
100
AcDbLine
 62
7
  6
CONTINUOUS
 10
-13.6060000001
 20
-18.2844039486
 11
-8.3999999993
 21
-18.2844039486
  0
LINE
  5
289
100
AcDbEntity
  8
IMPORT_IGES
100
AcDbLine
 62
7
  6
CONTINUOUS
 10
13.6060511497
 20
-18.2844039486
 11
8.3999999994
 21
-18.2844039486
  0
LINE
  5
28A
100
AcDbEntity
  8
IMPORT_IGES
100
AcDbLine
 62
253
  6
CONTINUOUS
 10
13.606000003
 20
-17.8844117017
 11
8.3999999972
 21
-17.8844117017
  0
LINE
  5
28B
100
AcDbEntity
  8
IMPORT_IGES
100
AcDbLine
 62
253
  6
CONTINUOUS
 10
-13.6060000001
 20
-17.8844117015
 11
-8.3999999982
 21
-17.8844092161
  0
LINE
  5
28C
100
AcDbEntity
  8
IMPORT_IGES
100
AcDbLine
 62
253
  6
CONTINUOUS
 10
14.6888427133
 20
-18.6899388562
 11
14.0257942641
 21
-18.6899287464
  0
LWPOLYLINE
  5
28D
100
AcDbEntity
  8
IMPORT_IGES
100
AcDbPolyline
 62
253
  6
CONTINUOUS
 90
10
 70
0
 10
-8.4
 20
-18.4264420637
 10
-8.348431083
 20
-18.4297743728
 10
-8.2978805496
 20
-18.4396740881
 10
-8.249174763
 20
-18.4559156347
 10
-8.2033184101
 20
-18.4780470996
 10
-8.1607818292
 20
-18.5057189304
 10
-8.1216673261
 20
-18.5389638802
 10
-8.0865627355
 20
-18.5776690185
 10
-8.0565088037
 20
-18.6211306696
 10
-8.0323184
 20
-18.668507257
  0
LWPOLYLINE
  5
28E
100
AcDbEntity
  8
IMPORT_IGES
100
AcDbPolyline
 62
253
  6
CONTINUOUS
 90
13
 70
0
 10
13.606
 20
-19.1206620196
 10
13.6582104769
 20
-19.1240493251
 10
13.709527618
 20
-19.1341532837
 10
13.7590733729
 20
-19.1508010141
 10
13.806
 20
-19.1737076688
 10
13.8495045716
 20
-19.2024813087
 10
13.8888427125
 20
-19.2366296088
 10
13.9233413361
 20
-19.2755682823
 10
13.9524101615
 20
-19.3186310775
 10
13.975551813
 20
-19.3650811783
 10
13.9923703305
 20
-19.4141238104
 10
14.0025779445
 20
-19.4649198408
 10
14.006
 20
-19.5166001354
  0
LWPOLYLINE
  5
28F
100
AcDbEntity
  8
IMPORT_IGES
100
AcDbPolyline
 62
253
  6
CONTINUOUS
 90
10
 70
0
 10
-8.3999999992
 20
-18.2844039566
 10
-8.3477917022
 20
-18.2878259504
 10
-8.2964762258
 20
-18.2980334027
 10
-8.2469315641
 20
-18.3148518459
 10
-8.2000054003
 20
-18.3379937673
 10
-8.1565007523
 20
-18.3670633409
 10
-8.1171621909
 20
-18.401563133
 10
-8.0826629775
 20
-18.4409028439
 10
-8.0535933317
 20
-18.4844095709
 10
-8.0387514107
 20
-18.5126632168
  0
LWPOLYLINE
  5
290
100
AcDbEntity
  8
IMPORT_IGES
100
AcDbPolyline
 62
253
  6
CONTINUOUS
 90
13
 70
0
 10
-8.3999999982
 20
-17.8844092161
 10
-8.2928195704
 20
-17.8921926298
 10
-8.1907984788
 20
-17.912487103
 10
-8.0939367233
 20
-17.9452926359
 10
-8.0007622473
 20
-17.991588864
 10
-7.9127471075
 20
-18.0503961517
 10
-7.834307474
 20
-18.1187755924
 10
-7.7659371682
 20
-18.1972202276
 10
-7.7071423687
 20
-18.2852370157
 10
-7.6608577815
 20
-18.3784079256
 10
-7.628061642
 20
-18.4752602804
 10
-7.6077757149
 20
-18.577266757
 10
-7.6000000001
 20
-18.6844273555
  0
LWPOLYLINE
  5
291
100
AcDbEntity
  8
IMPORT_IGES
100
AcDbPolyline
 62
253
  6
CONTINUOUS
 90
10
 70
0
 10
8.0735118692
 20
-25.4
 10
8.0689959996
 20
-25.3976770126
 10
8.0647072362
 20
-25.3909195663
 10
8.0606373839
 20
-25.379727661
 10
8.0567441918
 20
-25.3639230941
 10
8.0530562469
 20
-25.3436840682
 10
8.0496617385
 20
-25.3195451919
 10
8.0465745773
 20
-25.291684668
 10
8.0437456323
 20
-25.2599242936
 10
8.0411597138
 20
-25.2242640687
  0
LWPOLYLINE
  5
292
100
AcDbEntity
  8
IMPORT_IGES
100
AcDbPolyline
 62
7
  6
CONTINUOUS
 90
10
 70
0
 10
8.9981021733
 20
-30.0999996222
 10
8.9938882756
 20
-30.0964485417
 10
8.9872221163
 20
-30.0929015648
 10
8.9781036954
 20
-30.0893586914
 10
8.9665272123
 20
-30.0858189654
 10
8.9524984676
 20
-30.0822833429
 10
8.936034863
 20
-30.0787546926
 10
8.917142199
 20
-30.0752339704
 10
8.895814675
 20
-30.0717202204
 10
8.8720522911
 20
-30.0682134423
  0
LWPOLYLINE
  5
293
100
AcDbEntity
  8
IMPORT_IGES
100
AcDbPolyline
 62
253
  6
CONTINUOUS
 90
4
 70
0
 10
-9.361649052
 20
-37.4522104769
 10
-9.3515304263
 20
-37.503527618
 10
-9.3348585298
 20
-37.5530733729
 10
-9.3119186233
 20
-37.6
  0
LINE
  5
294
100
AcDbEntity
  8
IMPORT_IGES
100
AcDbLine
 62
253
  6
CONTINUOUS
 10
-13.7575946873
 20
-17.8989057176
 11
-13.6818373805
 21
-18.2916592987
  0
LWPOLYLINE
  5
295
100
AcDbEntity
  8
IMPORT_IGES
100
AcDbPolyline
 62
253
  6
CONTINUOUS
 90
10
 70
0
 10
-14.6888427135
 20
-19.7756157805
 10
-14.6694573243
 20
-19.8987556266
 10
-14.6457206488
 20
-20.0250176972
 10
-14.6183430155
 20
-20.1532286115
 10
-14.588893638
 20
-20.2817677115
 10
-14.5576169553
 20
-20.4100540609
 10
-14.523013194
 20
-20.5381726525
 10
-14.4850578072
 20
-20.6649596694
 10
-14.4456199472
 20
-20.7884167673
 10
-14.4060065647
 20
-20.9069445805
  0
LINE
  5
296
100
AcDbEntity
  8
IMPORT_IGES
100
AcDbLine
 62
253
  6
CONTINUOUS
 10
-15.9171481104
 20
8.2707830801
 11
-15.9423055288
 21
10.5232168782
  0
LINE
  5
297
100
AcDbEntity
  8
IMPORT_IGES
100
AcDbLine
 62
253
  6
CONTINUOUS
 10
-16.1
 20
10.9
 11
-16.1
 21
17.9
  0
LINE
  5
298
100
AcDbEntity
  8
IMPORT_IGES
100
AcDbLine
 62
253
  6
CONTINUOUS
 10
-15.9423055287
 20
10.5232168774
 11
-15.9423055287
 21
10.8
  0
LINE
  5
299
100
AcDbEntity
  8
IMPORT_IGES
100
AcDbLine
 62
253
  6
CONTINUOUS
 10
-14.6888427131
 20
-19.7756157805
 11
-14.6888427128
 21
-18.6899309911
  0
LINE
  5
29A
100
AcDbEntity
  8
IMPORT_IGES
100
AcDbLine
 62
253
  6
CONTINUOUS
 10
-14.4060032825
 20
-20.906944581
 11
-14.406
 21
-25.8
  0
LINE
  5
29B
100
AcDbEntity
  8
IMPORT_IGES
100
AcDbLine
 62
253
  6
CONTINUOUS
 10
-14.1818566106
 20
2.9977850011
 11
-14.1818566106
 21
-17.9403871486
  0
LINE
  5
29C
100
AcDbEntity
  8
IMPORT_IGES
100
AcDbLine
 62
7
  6
CONTINUOUS
 10
-14.006
 20
-25.4
 11
-14.006
 21
-18.6899310063
  0
LINE
  5
29D
100
AcDbEntity
  8
IMPORT_IGES
100
AcDbLine
 62
253
  6
CONTINUOUS
 10
-13.7575933516
 20
2.5877344947
 11
-13.7575946873
 21
-17.8989057176
  0
LINE
  5
29E
100
AcDbEntity
  8
IMPORT_IGES
100
AcDbLine
 62
253
  6
CONTINUOUS
 10
-13.706
 20
-23.9867933118
 11
-13.706
 21
-24.0
  0
LINE
  5
29F
100
AcDbEntity
  8
IMPORT_IGES
100
AcDbLine
 62
253
  6
CONTINUOUS
 10
-13.606000004
 20
-24.4
 11
-13.606
 21
-24.1
  0
LINE
  5
2A0
100
AcDbEntity
  8
IMPORT_IGES
100
AcDbLine
 62
253
  6
CONTINUOUS
 10
-13.6060000144
 20
-17.8844117014
 11
-13.606
 21
-23.6578311561
  0
LINE
  5
2A1
100
AcDbEntity
  8
IMPORT_IGES
100
AcDbLine
 62
7
  6
CONTINUOUS
 10
-13.8965364347
 20
6.3912006872
 11
-13.8972860101
 21
5.8543251947
  0
LINE
  5
2A2
100
AcDbEntity
  8
IMPORT_IGES
100
AcDbLine
 62
7
  6
CONTINUOUS
 10
-13.8949987692
 20
6.8316907426
 11
-13.8943078153
 21
7.326552328
  0
LINE
  5
2A3
100
AcDbEntity
  8
IMPORT_IGES
100
AcDbLine
 62
253
  6
CONTINUOUS
 10
-13.8986442235
 20
5.8543251946
 11
-13.9000001227
 21
3.9877344947
  0
LINE
  5
2A4
100
AcDbEntity
  8
IMPORT_IGES
100
AcDbLine
 62
253
  6
CONTINUOUS
 10
-13.8965363874
 20
6.3912006892
 11
-13.8957675783
 21
6.8316955082
  0
LINE
  5
2A5
100
AcDbEntity
  8
IMPORT_IGES
100
AcDbLine
 62
7
  6
CONTINUOUS
 10
-14.6
 20
10.8
 11
-14.6013501205
 21
3.9862019663
  0
LINE
  5
2A6
100
AcDbEntity
  8
IMPORT_IGES
100
AcDbLine
 62
7
  6
CONTINUOUS
 10
-14.5
 20
3.9877344947
 11
-14.3889892979
 21
37.2020943908
  0
LINE
  5
2A7
100
AcDbEntity
  8
IMPORT_IGES
100
AcDbLine
 62
253
  6
CONTINUOUS
 10
-13.8943078198
 20
7.326552329
 11
-13.7889929533
 21
37.8
  0
LWPOLYLINE
  5
2A8
100
AcDbEntity
  8
IMPORT_IGES
100
AcDbPolyline
 62
253
  6
CONTINUOUS
 90
28
 70
0
 10
-13.706
 20
-23.9867933118
 10
-13.7058203953
 20
-23.9659834588
 10
-13.7053118797
 20
-23.9456174496
 10
-13.704474453
 20
-23.9256952843
 10
-13.7032926287
 20
-23.9061231574
 10
-13.7017818935
 20
-23.8869948743
 10
-13.6999887073
 20
-23.8685918512
 10
-13.6979005454
 20
-23.8509435986
 10
-13.6955299325
 20
-23.8340206059
 10
-13.6929609032
 20
-23.8180157579
 10
-13.6901859854
 20
-23.8029689639
 10
-13.6872126512
 20
-23.7888403146
 10
-13.6841473513
 20
-23.7757029668
 10
-13.6809880961
 20
-23.763592371
 10
-13.6777368751
 20
-23.7524730767
 10
-13.6745061082
 20
-23.7423118882
 10
-13.6714322314
 20
-23.7333670555
 10
-13.6683788086
 20
-23.7253803287
 10
-13.665048952
 20
-23.717543763
 10
-13.6615675756
 20
-23.7097056459
 10
-13.6578097654
 20
-23.7020176898
 10
-13.6531038911
 20
-23.6941270873
 10
-13.6471377813
 20
-23.6853233149
 10
-13.6402236074
 20
-23.6763168961
 10
-13.6326262539
 20
-23.6688865944
 10
-13.6244340156
 20
-23.6636253311
 10
-13.6155585976
 20
-23.659940185
 10
-13.606
 20
-23.6578311561
  0
LINE
  5
2A9
100
AcDbEntity
  8
IMPORT_IGES
100
AcDbLine
 62
7
  6
CONTINUOUS
 10
-15.9734743177
 20
-25.6660250239
 11
-15.9720285208
 21
-25.5071067824
  0
LINE
  5
2AA
100
AcDbEntity
  8
IMPORT_IGES
100
AcDbLine
 62
253
  6
CONTINUOUS
 10
-15.9720288036
 20
-25.5071067816
 11
-15.9181250264
 21
-22.4191257743
  0
LWPOLYLINE
  5
2AB
100
AcDbEntity
  8
IMPORT_IGES
100
AcDbPolyline
 62
253
  6
CONTINUOUS
 90
10
 70
0
 10
-16.5170885772
 20
-21.9377503425
 10
-16.5723929528
 20
-25.1066527782
 10
-16.5728749471
 20
-25.1278407556
 10
-16.5733834033
 20
-25.1464066448
 10
-16.5739225952
 20
-25.1624518578
 10
-16.5744882491
 20
-25.1758749825
 10
-16.5750675444
 20
-25.1863717828
 10
-16.5756562077
 20
-25.1938408464
 10
-16.5762585124
 20
-25.1983835855
 10
-16.5768744586
 20
-25.2
  0
LWPOLYLINE
  5
2AC
100
AcDbEntity
  8
IMPORT_IGES
100
AcDbPolyline
 62
253
  6
CONTINUOUS
 90
13
 70
0
 10
-14.6888427128
 20
-18.6899309911
 10
-14.6845461006
 20
-18.6103947467
 10
-14.6731920104
 20
-18.5332529946
 10
-14.6547804423
 20
-18.4585057346
 10
-14.6292271935
 20
-18.3857996362
 10
-14.5966164669
 20
-18.3154880301
 10
-14.5572008707
 20
-18.2486309079
 10
-14.5109332614
 20
-18.1849062363
 10
-14.4578607826
 20
-18.1246360486
 10
-14.3983774742
 20
-18.0698464369
 10
-14.3326146827
 20
-18.0212127649
 10
-14.2604410615
 20
-17.9780596688
 10
-14.1818566106
 20
-17.9403871486
  0
LWPOLYLINE
  5
2AD
100
AcDbEntity
  8
IMPORT_IGES
100
AcDbPolyline
 62
253
  6
CONTINUOUS
 90
13
 70
0
 10
-13.7535993186
 20
-18.313002958
 10
-13.7935064539
 20
-18.3232469172
 10
-13.8368047601
 20
-18.3247267217
 10
-13.8819800293
 20
-18.3169626564
 10
-13.9266605753
 20
-18.3005124655
 10
-13.9697967641
 20
-18.2762916679
 10
-14.0118180772
 20
-18.2441828947
 10
-14.0513149672
 20
-18.2050971006
 10
-14.0869470652
 20
-18.1605029922
 10
-14.118889833
 20
-18.1100877104
 10
-14.1461316206
 20
-18.0548559687
 10
-14.1672669511
 20
-17.9975639189
 10
-14.1818564631
 20
-17.9403870486
  0
LWPOLYLINE
  5
2AE
100
AcDbEntity
  8
IMPORT_IGES
100
AcDbPolyline
 62
253
  6
CONTINUOUS
 90
10
 70
0
 10
-13.681837381
 20
-18.2916592962
 10
-13.6734970353
 20
-18.2901402187
 10
-13.6651263728
 20
-18.288798247
 10
-13.6567291533
 20
-18.2876339839
 10
-13.6483091482
 20
-18.2866479519
 10
-13.6398701401
 20
-18.2858405941
 10
-13.6314159212
 20
-18.2852122731
 10
-13.6229502895
 20
-18.284763271
 10
-13.6144770471
 20
-18.2844937893
 10
-13.606
 20
-18.2844039486
  0
LWPOLYLINE
  5
2AF
100
AcDbEntity
  8
IMPORT_IGES
100
AcDbPolyline
 62
253
  6
CONTINUOUS
 90
10
 70
0
 10
-14.1818566106
 20
-17.9403871486
 10
-14.1431717516
 20
-17.9352193922
 10
-14.101565233
 20
-17.9301404143
 10
-14.0573599376
 20
-17.9251502149
 10
-14.0108998578
 20
-17.9201809293
 10
-13.9625407141
 20
-17.9153004222
 10
-13.9126463199
 20
-17.9107122881
 10
-13.8615953523
 20
-17.9064843916
 10
-13.8097792635
 20
-17.9025488681
 10
-13.7575920159
 20
-17.8989057176
  0
LINE
  5
2B0
100
AcDbEntity
  8
IMPORT_IGES
100
AcDbLine
 62
253
  6
CONTINUOUS
 10
12.3000010612
 20
-15.1000001698
 11
-12.3000010612
 21
-15.1000001698
  0
LINE
  5
2B1
100
AcDbEntity
  8
IMPORT_IGES
100
AcDbLine
 62
7
  6
CONTINUOUS
 10
12.3
 20
-14.9
 11
-12.3000015196
 21
-14.9
  0
LINE
  5
2B2
100
AcDbEntity
  8
IMPORT_IGES
100
AcDbLine
 62
253
  6
CONTINUOUS
 10
12.3
 20
-14.699994892
 11
-12.3000008463
 21
-14.6999994167
  0
LINE
  5
2B3
100
AcDbEntity
  8
IMPORT_IGES
100
AcDbLine
 62
253
  6
CONTINUOUS
 10
12.3000008463
 20
-13.7000005833
 11
-12.3000008463
 21
-13.7000005833
  0
LINE
  5
2B4
100
AcDbEntity
  8
IMPORT_IGES
100
AcDbLine
 62
7
  6
CONTINUOUS
 10
12.3000027181
 20
-13.5
 11
-12.300001517
 21
-13.5
  0
LWPOLYLINE
  5
2B5
100
AcDbEntity
  8
IMPORT_IGES
100
AcDbPolyline
 62
253
  6
CONTINUOUS
 90
10
 70
0
 10
14.1818564399
 20
-17.94039931
 10
14.1431653632
 20
-17.935227981
 10
14.1015526864
 20
-17.9301459009
 10
14.0573416025
 20
-17.9251530698
 10
14.0108751948
 20
-17.9201814806
 10
13.9625105212
 20
-17.9152991403
 10
13.9126154107
 20
-17.9107100703
 10
13.8615702282
 20
-17.9064822777
 10
13.8097653396
 20
-17.9025477554
 10
13.75759462
 20
-17.8989065034
  0
LWPOLYLINE
  5
2B6
100
AcDbEntity
  8
IMPORT_IGES
100
AcDbPolyline
 62
253
  6
CONTINUOUS
 90
10
 70
0
 10
13.757593318
 20
-17.8989065034
 10
13.7409096193
 20
-17.8958685441
 10
13.7241801647
 20
-17.8931868944
 10
13.7074049543
 20
-17.8908615544
 10
13.6905763145
 20
-17.8888917949
 10
13.6737019188
 20
-17.887278345
 10
13.6568047878
 20
-17.886023392
 10
13.6398925949
 20
-17.885127665
 10
13.6229576666
 20
-17.8845904349
 10
13.606000003
 20
-17.8844117017
  0
LWPOLYLINE
  5
2B7
100
AcDbEntity
  8
IMPORT_IGES
100
AcDbPolyline
 62
253
  6
CONTINUOUS
 90
10
 70
0
 10
13.6818563971
 20
-18.2916629713
 10
13.6734882808
 20
-18.2901386595
 10
13.6651010812
 20
-18.2887943753
 10
13.6566986969
 20
-18.287629998
 10
13.6482916823
 20
-18.2866460532
 10
13.6398772487
 20
-18.2858412401
 10
13.6314391279
 20
-18.2852138452
 10
13.6229743494
 20
-18.284764386
 10
13.6144933738
 20
-18.2844941982
 10
13.606
 20
-18.2844039487
  0
LWPOLYLINE
  5
2B8
100
AcDbEntity
  8
IMPORT_IGES
100
AcDbPolyline
 62
253
  6
CONTINUOUS
 90
3
 70
0
 10
13.6818563971
 20
-18.2916629713
 10
13.6917878864
 20
-18.2937210865
 10
13.7010813986
 20
-18.2958949107
  0
LWPOLYLINE
  5
2B9
100
AcDbEntity
  8
IMPORT_IGES
100
AcDbPolyline
 62
253
  6
CONTINUOUS
 90
8
 70
0
 10
13.7010813986
 20
-18.2958949107
 10
13.7097413231
 20
-18.2981415052
 10
13.7176163463
 20
-18.3003747985
 10
13.7248718252
 20
-18.3025980359
 10
13.7319804758
 20
-18.304933784
 10
13.7390958587
 20
-18.3074306962
 10
13.7460613774
 20
-18.3100334857
 10
13.7528767232
 20
-18.3127361207
  0
LWPOLYLINE
  5
2BA
100
AcDbEntity
  8
IMPORT_IGES
100
AcDbPolyline
 62
253
  6
CONTINUOUS
 90
10
 70
0
 10
9.3589482591
 20
-19.5166001354
 10
9.0758198698
 20
-19.4145925753
 10
8.8248863641
 20
-19.3186463671
 10
8.6065983408
 20
-19.2287615109
 10
8.4212213405
 20
-19.1446046917
 10
8.2692596062
 20
-19.0665092245
 10
8.1512072454
 20
-18.9954750542
 10
8.0670953088
 20
-18.9318354959
 10
8.0167411213
 20
-18.8752572345
 10
8.0000000001
 20
-18.82574027
  0
LWPOLYLINE
  5
2BB
100
AcDbEntity
  8
IMPORT_IGES
100
AcDbPolyline
 62
253
  6
CONTINUOUS
 90
10
 70
0
 10
9.7297030429
 20
-19.120657986
 10
9.4518203648
 20
-19.0184194809
 10
9.2062897841
 20
-18.9218697244
 10
8.9931113008
 20
-18.8312198662
 10
8.8120417462
 20
-18.746471612
 10
8.6633242889
 20
-18.6680885504
 10
8.547688435
 20
-18.596809891
 10
8.4653773533
 20
-18.5328400331
 10
8.4161478749
 20
-18.4760347656
 10
8.4
 20
-18.4264420637
  0
LWPOLYLINE
  5
2BC
100
AcDbEntity
  8
IMPORT_IGES
100
AcDbPolyline
 62
253
  6
CONTINUOUS
 90
19
 70
0
 10
9.3589482591
 20
-19.5166001354
 10
9.5636457859
 20
-19.6133476804
 10
9.7668328182
 20
-19.7254792174
 10
9.9657938686
 20
-19.8529947464
 10
10.1555749983
 20
-19.9974600791
 10
10.3362135154
 20
-20.1573094037
 10
10.5136873522
 20
-20.3278452855
 10
10.6872720645
 20
-20.5052793563
 10
10.8556591119
 20
-20.6933999842
 10
11.0255393268
 20
-20.8988748393
 10
11.1985292557
 20
-21.1199955736
 10
11.3725176668
 20
-21.3584705351
 10
11.5493848758
 20
-21.6260924385
 10
11.7340702039
 20
-21.9301684232
 10
11.9215893824
 20
-22.2633913498
 10
12.098244222
 20
-22.615632515
 10
12.2585410508
 20
-22.9835156843
 10
12.4061264636
 20
-23.3704170923
 10
12.5403005958
 20
-23.7763367387
  0
LWPOLYLINE
  5
2BD
100
AcDbEntity
  8
IMPORT_IGES
100
AcDbPolyline
 62
7
  6
CONTINUOUS
 90
5
 70
0
 10
-8.0387514107
 20
-18.5126632168
 10
-8.0304505846
 20
-18.5313391852
 10
-8.0136309114
 20
-18.5808889184
 10
-8.0034224092
 20
-18.632211006
 10
-8.0
 20
-18.6844273589
  0
LWPOLYLINE
  5
2BE
100
AcDbEntity
  8
IMPORT_IGES
100
AcDbPolyline
 62
253
  6
CONTINUOUS
 90
3
 70
0
 10
-8.0323184
 20
-18.668507257
 10
-8.0145713818
 20
-18.7189492842
 10
-8.0036844158
 20
-18.7716680176
  0
LINE
  5
2BF
100
AcDbEntity
  8
IMPORT_IGES
100
AcDbLine
 62
253
  6
CONTINUOUS
 10
-9.3650412745
 20
-37.4
 11
-9.361649052
 21
-37.4522104769
  0
LINE
  5
2C0
100
AcDbEntity
  8
IMPORT_IGES
100
AcDbLine
 62
253
  6
CONTINUOUS
 10
-12.8177121531
 20
-23.5596303161
 11
-12.817576105
 21
-23.6578311561
  0
LINE
  5
2C1
100
AcDbEntity
  8
IMPORT_IGES
100
AcDbLine
 62
253
  6
CONTINUOUS
 10
-13.0059999997
 20
-24.4
 11
-13.0059999997
 21
-25.8
  0
LINE
  5
2C2
100
AcDbEntity
  8
IMPORT_IGES
100
AcDbLine
 62
253
  6
CONTINUOUS
 10
-12.8996367256
 20
-24.4
 11
-12.8996367256
 21
-24.1
  0
LINE
  5
2C3
100
AcDbEntity
  8
IMPORT_IGES
100
AcDbLine
 62
253
  6
CONTINUOUS
 10
-12.7670698788
 20
-23.7763373011
 11
-12.7670699129
 21
-24.0
  0
LINE
  5
2C4
100
AcDbEntity
  8
IMPORT_IGES
100
AcDbLine
 62
253
  6
CONTINUOUS
 10
-12.5403005891
 20
-23.7763373294
 11
-12.5403006217
 21
-23.9999999938
  0
LINE
  5
2C5
100
AcDbEntity
  8
IMPORT_IGES
100
AcDbLine
 62
253
  6
CONTINUOUS
 10
-12.3000010607
 20
0.1000001708
 11
-12.3000008463
 21
-0.3000005833
  0
LINE
  5
2C6
100
AcDbEntity
  8
IMPORT_IGES
100
AcDbLine
 62
253
  6
CONTINUOUS
 10
-12.3000008463
 20
-1.2999994167
 11
-12.3000010612
 21
-1.7000001698
  0
LINE
  5
2C7
100
AcDbEntity
  8
IMPORT_IGES
100
AcDbLine
 62
253
  6
CONTINUOUS
 10
-12.3000010607
 20
-13.2999998294
 11
-12.3000008463
 21
-13.7000005833
  0
LINE
  5
2C8
100
AcDbEntity
  8
IMPORT_IGES
100
AcDbLine
 62
253
  6
CONTINUOUS
 10
-12.3000008463
 20
-14.6999994167
 11
-12.3000010613
 21
-15.1000001698
  0
LINE
  5
2C9
100
AcDbEntity
  8
IMPORT_IGES
100
AcDbLine
 62
7
  6
CONTINUOUS
 10
-12.1
 20
-37.2
 11
-12.1
 21
-30.7
  0
LWPOLYLINE
  5
2CA
100
AcDbEntity
  8
IMPORT_IGES
100
AcDbPolyline
 62
253
  6
CONTINUOUS
 90
13
 70
0
 10
-14.006
 20
-25.2242640687
 10
-14.0094220555
 20
-25.261182451
 10
-14.0196296695
 20
-25.2974691495
 10
-14.036448187
 20
-25.3325032887
 10
-14.0595898385
 20
-25.3656854249
 10
-14.0886586639
 20
-25.3964478025
 10
-14.1231572875
 20
-25.4242640687
 10
-14.1624954284
 20
-25.4486582794
 10
-14.206
 20
-25.469213043
 10
-14.2529266271
 20
-25.4855766617
 10
-14.302472382
 20
-25.4974691495
 10
-14.3537895231
 20
-25.5046870226
 10
-14.406
 20
-25.5071067812
  0
LWPOLYLINE
  5
2CB
100
AcDbEntity
  8
IMPORT_IGES
100
AcDbPolyline
 62
7
  6
CONTINUOUS
 90
6
 70
0
 10
-15.9769658415
 20
-25.8
 10
-15.9763497471
 20
-25.7961946381
 10
-15.9757473222
 20
-25.784807553
 10
-15.9751585668
 20
-25.7659254663
 10
-15.9745792058
 20
-25.7396921641
 10
-15.9734743177
 20
-25.6660250239
  0
LINE
  5
2CC
100
AcDbEntity
  8
IMPORT_IGES
100
AcDbLine
 62
253
  6
CONTINUOUS
 10
-12.3000010607
 20
-13.2999998294
 11
12.3
 21
-13.3000100859
  0
LWPOLYLINE
  5
2CD
100
AcDbEntity
  8
IMPORT_IGES
100
AcDbPolyline
 62
253
  6
CONTINUOUS
 90
13
 70
0
 10
13.7528767232
 20
-18.3127361207
 10
13.7850110531
 20
-18.327558031
 10
13.8148280819
 20
-18.3445867484
 10
13.8422461087
 20
-18.3634476487
 10
13.8672150856
 20
-18.383769343
 10
13.8897534267
 20
-18.4052223133
 10
13.9099335074
 20
-18.427532226
 10
13.9274295738
 20
-18.449888573
 10
13.9427813616
 20
-18.4725047934
 10
13.9570509387
 20
-18.49692062
 10
13.9701481465
 20
-18.5234630028
 10
13.9816184506
 20
-18.5517610333
 10
13.9853585757
 20
-18.5625389815
  0
LWPOLYLINE
  5
2CE
100
AcDbEntity
  8
IMPORT_IGES
100
AcDbPolyline
 62
7
  6
CONTINUOUS
 90
22
 70
0
 10
-14.1818560846
 20
2.9977850011
 10
-14.1655640924
 20
2.9612050698
 10
-14.1487719937
 20
2.92620576
 10
-14.1314797887
 20
2.8927870716
 10
-14.1136828522
 20
2.8609391146
 10
-14.0953858093
 20
2.8306717789
 10
-14.0766025351
 20
2.8020147347
 10
-14.0573212146
 20
2.7749388765
 10
-14.0375536629
 20
2.7494733096
 10
-14.0173492
 20
2.7257350203
 10
-13.996689792
 20
2.7037119652
 10
-13.9755934728
 20
2.6834161875
 10
-13.9541636645
 20
2.6650008035
 10
-13.9323633415
 20
2.6484723453
 10
-13.9102295292
 20
2.6338242806
 10
-13.887976726
 20
2.6211901286
 10
-13.8654837672
 20
2.6106221706
 10
-13.8428718174
 20
2.6020681253
 10
-13.8207188682
 20
2.5955046675
 10
-13.7992175835
 20
2.5909240223
 10
-13.7781752994
 20
2.5883339647
 10
-13.7575920159
 20
2.5877344947
  0
LWPOLYLINE
  5
2CF
100
AcDbEntity
  8
IMPORT_IGES
100
AcDbPolyline
 62
7
  6
CONTINUOUS
 90
3
 70
0
 10
-14.6013501205
 20
3.9862019663
 10
-14.5551752804
 20
3.8766644246
 10
-14.1818566106
 20
2.9977850011
  0
LWPOLYLINE
  5
2D0
100
AcDbEntity
  8
IMPORT_IGES
100
AcDbPolyline
 62
7
  6
CONTINUOUS
 90
4
 70
0
 10
-14.5390983373
 20
8.6938404862
 10
-14.5727369475
 20
8.7929309054
 10
-14.5931540132
 20
8.8955647982
 10
-14.5999999999
 20
8.9999861095
  0
LINE
  5
2D1
100
AcDbEntity
  8
IMPORT_IGES
100
AcDbLine
 62
7
  6
CONTINUOUS
 10
-9.4818
 20
-10.473718
 11
-11.383688
 21
-4.47444
  0
LINE
  5
2D2
100
AcDbEntity
  8
IMPORT_IGES
100
AcDbLine
 62
7
  6
CONTINUOUS
 10
-10.02332
 20
-4.47444
 11
-8.87975
 21
-8.60393
  0
LWPOLYLINE
  5
2D3
100
AcDbEntity
  8
IMPORT_IGES
100
AcDbPolyline
 62
253
  6
CONTINUOUS
 90
13
 70
0
 10
-8.0
 20
-19.8100505063
 10
-7.9965779445
 20
-19.8469688886
 10
-7.9863703305
 20
-19.8832555871
 10
-7.969551813
 20
-19.9182897264
 10
-7.9464101615
 20
-19.9514718626
 10
-7.9173413361
 20
-19.9822342402
 10
-7.8828427125
 20
-20.0100505063
 10
-7.8435045716
 20
-20.0344447171
 10
-7.8
 20
-20.0549994806
 10
-7.7530733729
 20
-20.0713630993
 10
-7.703527618
 20
-20.0832555871
 10
-7.6522104769
 20
-20.0904734602
 10
-7.6
 20
-20.0928932188
  0
LWPOLYLINE
  5
2D4
100
AcDbEntity
  8
IMPORT_IGES
100
AcDbPolyline
 62
253
  6
CONTINUOUS
 90
13
 70
0
 10
-8.0
 20
-23.9609602293
 10
-7.9966618727
 20
-23.9974248828
 10
-7.9867448761
 20
-24.0331694475
 10
-7.9704749849
 20
-24.0676095956
 10
-7.9483049072
 20
-24.1000349147
 10
-7.9205848097
 20
-24.1301128192
 10
-7.8872818811
 20
-24.1577709456
 10
-7.8485096505
 20
-24.1825936238
 10
-7.8049726215
 20
-24.2038449466
 10
-7.7575126314
 20
-24.2209501335
 10
-7.7069802562
 20
-24.2334991635
 10
-7.654166009
 20
-24.2411974074
 10
-7.6
 20
-24.2438026818
  0
LWPOLYLINE
  5
2D5
100
AcDbEntity
  8
IMPORT_IGES
100
AcDbPolyline
 62
253
  6
CONTINUOUS
 90
13
 70
0
 10
-8.0735118692
 20
-25.4
 10
-8.0701033426
 20
-25.4522104769
 10
-8.0599360747
 20
-25.5035276181
 10
-8.0431840302
 20
-25.553073373
 10
-8.020133841
 20
-25.6
 10
-7.9911799026
 20
-25.6435045716
 10
-7.9568176259
 20
-25.6828427125
 10
-7.9176349592
 20
-25.7173413361
 10
-7.8743023286
 20
-25.7464101615
 10
-7.8275611674
 20
-25.769551813
 10
-7.7782112298
 20
-25.7863703305
 10
-7.7270969069
 20
-25.7965779445
 10
-7.675092779
 20
-25.8
  0
LINE
  5
2D6
100
AcDbEntity
  8
IMPORT_IGES
100
AcDbLine
 62
7
  6
CONTINUOUS
 10
-10.2
 20
3.9877344947
 11
-10.2
 21
4.3
  0
LINE
  5
2D7
100
AcDbEntity
  8
IMPORT_IGES
100
AcDbLine
 62
253
  6
CONTINUOUS
 10
-10.1
 20
-30.1
 11
-10.1
 21
-37.8
  0
LINE
  5
2D8
100
AcDbEntity
  8
IMPORT_IGES
100
AcDbLine
 62
7
  6
CONTINUOUS
 10
-10.0
 20
4.4
 11
-10.0
 21
3.9877344947
  0
LINE
  5
2D9
100
AcDbEntity
  8
IMPORT_IGES
100
AcDbLine
 62
253
  6
CONTINUOUS
 10
-9.5999843125
 20
-30.1
 11
-9.6
 21
-37.8
  0
LINE
  5
2DA
100
AcDbEntity
  8
IMPORT_IGES
100
AcDbLine
 62
7
  6
CONTINUOUS
 10
-9.3755026739
 20
-37.4
 11
-9.3755026739
 21
-36.2
  0
LINE
  5
2DB
100
AcDbEntity
  8
IMPORT_IGES
100
AcDbLine
 62
253
  6
CONTINUOUS
 10
-9.3650412746
 20
-37.4
 11
-9.3650412746
 21
-36.2
  0
LINE
  5
2DC
100
AcDbEntity
  8
IMPORT_IGES
100
AcDbLine
 62
253
  6
CONTINUOUS
 10
-9.2681005081
 20
-24.4
 11
-9.2681005081
 21
-25.8
  0
LINE
  5
2DD
100
AcDbEntity
  8
IMPORT_IGES
100
AcDbLine
 62
7
  6
CONTINUOUS
 10
-9.0
 20
-25.8
 11
-9.0
 21
-35.8
  0
LINE
  5
2DE
100
AcDbEntity
  8
IMPORT_IGES
100
AcDbLine
 62
253
  6
CONTINUOUS
 10
-8.4
 20
-18.4264420637
 11
-8.3999999984
 21
-17.8844117015
  0
LINE
  5
2DF
100
AcDbEntity
  8
IMPORT_IGES
100
AcDbLine
 62
253
  6
CONTINUOUS
 10
-8.2833334916
 20
-24.0
 11
-8.2833334916
 21
-25.4
  0
LINE
  5
2E0
100
AcDbEntity
  8
IMPORT_IGES
100
AcDbLine
 62
7
  6
CONTINUOUS
 10
-8.1
 20
26.7317406817
 11
-8.1
 21
22.4
  0
LINE
  5
2E1
100
AcDbEntity
  8
IMPORT_IGES
100
AcDbLine
 62
7
  6
CONTINUOUS
 10
-8.0
 20
-18.6844273589
 11
-8.0
 21
-23.9609602307
  0
LINE
  5
2E2
100
AcDbEntity
  8
IMPORT_IGES
100
AcDbLine
 62
7
  6
CONTINUOUS
 10
-8.0
 20
-26.7999995578
 11
-8.0
 21
-35.4
  0
LWPOLYLINE
  5
2E3
100
AcDbEntity
  8
IMPORT_IGES
100
AcDbPolyline
 62
253
  6
CONTINUOUS
 90
10
 70
0
 10
-8.0000000001
 20
-23.9609602307
 10
-8.0005084104
 20
-24.1014791552
 10
-8.0020340342
 20
-24.2419629516
 10
-8.0045764116
 20
-24.3824116201
 10
-8.0081348637
 20
-24.5228289319
 10
-8.0127089018
 20
-24.6632111156
 10
-8.0182986363
 20
-24.8035468572
 10
-8.0249040401
 20
-24.9438323853
 10
-8.0325245396
 20
-25.0840714712
 10
-8.0411597106
 20
-25.224264115
  0
LWPOLYLINE
  5
2E4
100
AcDbEntity
  8
IMPORT_IGES
100
AcDbPolyline
 62
253
  6
CONTINUOUS
 90
10
 70
0
 10
-12.7670699129
 20
-24.0
 10
-12.7698756851
 20
-24.0185670533
 10
-12.7759893969
 20
-24.0354855379
 10
-12.7854110482
 20
-24.0507554538
 10
-12.7985766006
 20
-24.0646640236
 10
-12.8150500925
 20
-24.0769240247
 10
-12.8335236394
 20
-24.0866737896
 10
-12.8535612798
 20
-24.0936260959
 10
-12.8755989752
 20
-24.098068166
 10
-12.8996367256
 20
-24.1
  0
LWPOLYLINE
  5
2E5
100
AcDbEntity
  8
IMPORT_IGES
100
AcDbPolyline
 62
253
  6
CONTINUOUS
 90
17
 70
0
 10
-13.9983999245
 20
-23.9016704771
 10
-13.9891452719
 20
-23.8615004973
 10
-13.9765514933
 20
-23.8230730014
 10
-13.9608207876
 20
-23.786541645
 10
-13.942022387
 20
-23.7521196805
 10
-13.9197968882
 20
-23.7194308512
 10
-13.8947739152
 20
-23.6891219457
 10
-13.8689552516
 20
-23.662834819
 10
-13.8443837045
 20
-23.6417151657
 10
-13.820371548
 20
-23.6244721357
 10
-13.794825003
 20
-23.6090934984
 10
-13.7670923292
 20
-23.5949312162
 10
-13.737976472
 20
-23.5828050032
 10
-13.7071967534
 20
-23.5730825412
 10
-13.6747477697
 20
-23.5659658498
 10
-13.6409433491
 20
-23.5614542271
 10
-13.6060000194
 20
-23.5596376825
  0
LINE
  5
2E6
100
AcDbEntity
  8
IMPORT_IGES
100
AcDbLine
 62
7
  6
CONTINUOUS
 10
-9.4818
 20
-10.473718
 11
-8.378224
 21
-10.473718
  0
LINE
  5
2E7
100
AcDbEntity
  8
IMPORT_IGES
100
AcDbLine
 62
7
  6
CONTINUOUS
 10
-5.98509
 20
-10.473718
 11
-4.732806
 21
-10.473718
  0
LINE
  5
2E8
100
AcDbEntity
  8
IMPORT_IGES
100
AcDbLine
 62
7
  6
CONTINUOUS
 10
-4.05866
 20
-10.473718
 11
-2.860632
 21
-10.473718
  0
LINE
  5
2E9
100
AcDbEntity
  8
IMPORT_IGES
100
AcDbLine
 62
7
  6
CONTINUOUS
 10
-1.121308
 20
-10.473718
 11
-0.945674
 21
-10.473718
  0
LINE
  5
2EA
100
AcDbEntity
  8
IMPORT_IGES
100
AcDbLine
 62
7
  6
CONTINUOUS
 10
0.800578
 20
-10.473718
 11
2.025644
 21
-10.473718
  0
LINE
  5
2EB
100
AcDbEntity
  8
IMPORT_IGES
100
AcDbLine
 62
7
  6
CONTINUOUS
 10
2.222286
 20
-10.473718
 11
3.460984
 21
-10.473718
  0
LINE
  5
2EC
100
AcDbEntity
  8
IMPORT_IGES
100
AcDbLine
 62
7
  6
CONTINUOUS
 10
5.836348
 20
-10.473718
 11
7.156204
 21
-10.473718
  0
LINE
  5
2ED
100
AcDbEntity
  8
IMPORT_IGES
100
AcDbLine
 62
7
  6
CONTINUOUS
 10
7.5239364472
 20
-10.4737189066
 11
8.7711823486
 21
-10.4737189066
  0
LINE
  5
2EE
100
AcDbEntity
  8
IMPORT_IGES
100
AcDbLine
 62
7
  6
CONTINUOUS
 10
10.6888970247
 20
-10.4737189066
 11
11.8934074727
 21
-10.4737189066
  0
LINE
  5
2EF
100
AcDbEntity
  8
IMPORT_IGES
100
AcDbLine
 62
7
  6
CONTINUOUS
 10
3.806538
 20
-9.27605
 11
5.51194
 21
-9.27605
  0
LINE
  5
2F0
100
AcDbEntity
  8
IMPORT_IGES
100
AcDbLine
 62
7
  6
CONTINUOUS
 10
4.062698
 20
-8.349298
 11
5.261672
 21
-8.349298
  0
LINE
  5
2F1
100
AcDbEntity
  8
IMPORT_IGES
100
AcDbLine
 62
7
  6
CONTINUOUS
 10
8.7711823486
 20
-8.1259328058
 11
9.4421963727
 21
-8.1259328058
  0
LINE
  5
2F2
100
AcDbEntity
  8
IMPORT_IGES
100
AcDbLine
 62
253
  6
CONTINUOUS
 10
-16.337367032
 20
7.283281229
 11
-14.6
 21
4.5660961977
  0
LINE
  5
2F3
100
AcDbEntity
  8
IMPORT_IGES
100
AcDbLine
 62
253
  6
CONTINUOUS
 10
-14.6
 20
6.2106828035
 11
-15.9171481104
 21
8.2707830801
  0
LWPOLYLINE
  5
2F4
100
AcDbEntity
  8
IMPORT_IGES
100
AcDbPolyline
 62
253
  6
CONTINUOUS
 90
13
 70
0
 10
-5.8495037423
 20
-37.4
 10
-5.8476153154
 20
-37.4522104769
 10
-5.8419823459
 20
-37.503527618
 10
-5.8327012156
 20
-37.5530733729
 10
-5.8199307272
 20
-37.6
 10
-5.8038893873
 20
-37.6435045716
 10
-5.7848516676
 20
-37.6828427125
 10
-5.7631433089
 20
-37.7173413361
 10
-5.7391357472
 20
-37.7464101615
 10
-5.7132397585
 20
-37.769551813
 10
-5.6858984303
 20
-37.7863703305
 10
-5.6575795804
 20
-37.7965779445
 10
-5.6287677521
 20
-37.8
  0
LWPOLYLINE
  5
2F5
100
AcDbEntity
  8
IMPORT_IGES
100
AcDbPolyline
 62
253
  6
CONTINUOUS
 90
25
 70
0
 10
-6.6666665305
 20
-28.8
 10
-6.6676243206
 20
-28.6729301285
 10
-6.6575863038
 20
-28.53226014
 10
-6.6375140745
 20
-28.3784338854
 10
-6.608017751
 20
-28.2079036777
 10
-6.5705243598
 20
-28.0259239167
 10
-6.5259311459
 20
-27.8459988756
 10
-6.4711818097
 20
-27.670925076
 10
-6.4078884746
 20
-27.4993216072
 10
-6.3424131507
 20
-27.3374195723
 10
-6.2764797938
 20
-27.1909382446
 10
-6.2063583899
 20
-27.0539498542
 10
-6.1306439334
 20
-26.9158545426
 10
-6.0463205438
 20
-26.7729283045
 10
-5.955427474
 20
-26.6323161892
 10
-5.8646824016
 20
-26.50025889
 10
-5.7761206041
 20
-26.3805029454
 10
-5.6866709844
 20
-26.2702296143
 10
-5.5955947481
 20
-26.1661680223
 10
-5.5008972004
 20
-26.0701819295
 10
-5.4030349424
 20
-25.9849201716
 10
-5.3048168185
 20
-25.9111221807
 10
-5.2064310153
 20
-25.852425079
 10
-5.1053527613
 20
-25.8138768332
 10
-5.0000946377
 20
-25.8000000006
  0
LINE
  5
2F6
100
AcDbEntity
  8
IMPORT_IGES
100
AcDbLine
 62
253
  6
CONTINUOUS
 10
-6.6666666667
 20
-28.8
 11
-6.6666666667
 21
-35.4
  0
LINE
  5
2F7
100
AcDbEntity
  8
IMPORT_IGES
100
AcDbLine
 62
7
  6
CONTINUOUS
 10
-6.5
 20
23.0
 11
-6.5
 21
26.7317406817
  0
LINE
  5
2F8
100
AcDbEntity
  8
IMPORT_IGES
100
AcDbLine
 62
7
  6
CONTINUOUS
 10
-6.0
 20
3.9877344947
 11
-6.0
 21
4.4
  0
LINE
  5
2F9
100
AcDbEntity
  8
IMPORT_IGES
100
AcDbLine
 62
7
  6
CONTINUOUS
 10
-5.98509
 20
-4.47408
 11
-5.98509
 21
-10.473718
  0
LINE
  5
2FA
100
AcDbEntity
  8
IMPORT_IGES
100
AcDbLine
 62
253
  6
CONTINUOUS
 10
-5.8495037424
 20
-36.2
 11
-5.8495037423
 21
-37.4
  0
LINE
  5
2FB
100
AcDbEntity
  8
IMPORT_IGES
100
AcDbLine
 62
7
  6
CONTINUOUS
 10
-5.8
 20
4.3
 11
-5.8
 21
3.9877344947
  0
LWPOLYLINE
  5
2FC
100
AcDbEntity
  8
IMPORT_IGES
100
AcDbPolyline
 62
253
  6
CONTINUOUS
 90
13
 70
0
 10
-6.6666666667
 20
-35.4
 10
-6.6685678086
 20
-35.4522104769
 10
-6.6742387053
 20
-35.503527618
 10
-6.6835823261
 20
-35.5530733729
 10
-6.6964387992
 20
-35.6
 10
-6.7125881466
 20
-35.6435045716
 10
-6.7317540486
 20
-35.6828427125
 10
-6.7536085713
 20
-35.7173413361
 10
-6.7777777778
 20
-35.7464101615
 10
-6.8038481261
 20
-35.769551813
 10
-6.8313735455
 20
-35.7863703305
 10
-6.8598830684
 20
-35.7965779445
 10
-6.8888888889
 20
-35.8
  0
LWPOLYLINE
  5
2FD
100
AcDbEntity
  8
IMPORT_IGES
100
AcDbPolyline
 62
253
  6
CONTINUOUS
 90
10
 70
0
 10
-7.6420960317
 20
-25.5071058039
 10
-7.6446729517
 20
-25.5660134188
 10
-7.6475434192
 20
-25.6191040084
 10
-7.6507074343
 20
-25.6659714889
 10
-7.6541932657
 20
-25.7062566567
 10
-7.6579726446
 20
-25.7396506425
 10
-7.6619607651
 20
-25.7658969272
 10
-7.6661293584
 20
-25.7847925984
 10
-7.6705066932
 20
-25.7961903357
 10
-7.6750927696
 20
-25.8
  0
LWPOLYLINE
  5
2FE
100
AcDbEntity
  8
IMPORT_IGES
100
AcDbPolyline
 62
7
  6
CONTINUOUS
 90
10
 70
0
 10
-9.0
 20
-25.9057596453
 10
-9.0010166883
 20
-25.9281352127
 10
-9.0035774983
 20
-25.9527355355
 10
-9.0076824297
 20
-25.9795745895
 10
-9.0133526384
 20
-26.0086503898
 10
-9.0205669687
 20
-26.0399849206
 10
-9.0292619535
 20
-26.0736337919
 10
-9.0394164374
 20
-26.1096281821
 10
-9.0510515759
 20
-26.1479650108
 10
-9.064167369
 20
-26.1886536506
  0
LWPOLYLINE
  5
2FF
100
AcDbEntity
  8
IMPORT_IGES
100
AcDbPolyline
 62
253
  6
CONTINUOUS
 90
10
 70
0
 10
-7.6420448689
 20
-25.5071066754
 10
-7.6332200978
 20
-25.3668203099
 10
-7.6254335386
 20
-25.2265108573
 10
-7.6186851912
 20
-25.0861783177
 10
-7.6129749782
 20
-24.9458188233
 10
-7.6083029771
 20
-24.8054362419
 10
-7.6046694203
 20
-24.6650421767
 10
-7.6020743855
 20
-24.5246404955
 10
-7.6005177951
 20
-24.3842273305
 10
-7.6000000001
 20
-18.6844273555
  0
LINE
  5
300
100
AcDbEntity
  8
IMPORT_IGES
100
AcDbLine
 62
253
  6
CONTINUOUS
 10
-9.3650412746
 20
-36.2
 11
-9.361649052
 21
-36.1477895231
  0
LWPOLYLINE
  5
301
100
AcDbEntity
  8
IMPORT_IGES
100
AcDbPolyline
 62
253
  6
CONTINUOUS
 90
10
 70
0
 10
-8.0411597106
 20
-25.224264115
 10
-8.043745685
 20
-25.2599248612
 10
-8.0465746762
 20
-25.2916855824
 10
-8.0496618732
 20
-25.3195462787
 10
-8.0530564073
 20
-25.3436850956
 10
-8.0567443651
 20
-25.3639238875
 10
-8.0606375503
 20
-25.3797282176
 10
-8.0647073719
 20
-25.3909199402
 10
-8.0689960805
 20
-25.397677201
 10
-8.0735118692
 20
-25.4
  0
LINE
  5
302
100
AcDbEntity
  8
IMPORT_IGES
100
AcDbLine
 62
7
  6
CONTINUOUS
 10
-8.87975
 20
-8.60393
 11
-7.701246
 21
-4.47444
  0
LWPOLYLINE
  5
303
100
AcDbEntity
  8
IMPORT_IGES
100
AcDbPolyline
 62
7
  6
CONTINUOUS
 90
7
 70
0
 10
-13.9735234908
 20
-18.5311779865
 10
-13.9785884427
 20
-18.5436601797
 10
-13.9880539706
 20
-18.5709672182
 10
-13.9957158127
 20
-18.5995205327
 10
-14.0013119627
 20
-18.628725134
 10
-14.0047993005
 20
-18.6589137613
 10
-14.006
 20
-18.6899309846
  0
LWPOLYLINE
  5
304
100
AcDbEntity
  8
IMPORT_IGES
100
AcDbPolyline
 62
7
  6
CONTINUOUS
 90
10
 70
0
 10
7.5239368196
 20
-4.5445424004
 10
7.9138098964
 20
-4.4897705727
 10
8.2932438828
 20
-4.4486803745
 10
8.6622387787
 20
-4.4212718059
 10
9.0223755698
 20
-4.4051934137
 10
9.3720732704
 20
-4.4027966511
 10
9.7065889236
 20
-4.4211358774
 10
10.0243415437
 20
-4.462562546
 10
10.3269121164
 20
-4.5247252035
 10
10.6143006417
 20
-4.6076238499
  0
LWPOLYLINE
  5
305
100
AcDbEntity
  8
IMPORT_IGES
100
AcDbPolyline
 62
7
  6
CONTINUOUS
 90
16
 70
0
 10
9.4453267662
 20
-7.1433959969
 10
9.5653698148
 20
-7.1371267283
 10
9.6788404246
 20
-7.1225086412
 10
9.7857385956
 20
-7.0995417358
 10
9.8866847626
 20
-7.068503034
 10
9.9810584909
 20
-7.0291155137
 10
10.0669984762
 20
-6.980548109
 10
10.144411575
 20
-6.9217303233
 10
10.2133909309
 20
-6.8537326532
 10
10.2723546703
 20
-6.7789355222
 10
10.3205734551
 20
-6.6974291692
 10
10.3587766234
 20
-6.6091233555
 10
10.387570316
 20
-6.5161277884
 10
10.40715658
 20
-6.4191457039
 10
10.4173333683
 20
-6.317473866
 10
10.418100681
 20
-6.2111122748
  0
LINE
  5
306
100
AcDbEntity
  8
IMPORT_IGES
100
AcDbLine
 62
7
  6
CONTINUOUS
 10
9.4453267662
 20
-7.1433959969
 11
8.7296584716
 21
-7.1433959969
  0
LWPOLYLINE
  5
307
100
AcDbEntity
  8
IMPORT_IGES
100
AcDbPolyline
 62
7
  6
CONTINUOUS
 90
3
 70
0
 10
-14.4888505905
 20
8.5940575786
 10
-14.4928140128
 20
8.5999890704
 10
-14.5390983373
 20
8.6938404862
  0
LINE
  5
308
100
AcDbEntity
  8
IMPORT_IGES
100
AcDbLine
 62
7
  6
CONTINUOUS
 10
-4.732806
 20
-10.473718
 11
-4.732806
 21
-4.47408
  0
LINE
  5
309
100
AcDbEntity
  8
IMPORT_IGES
100
AcDbLine
 62
7
  6
CONTINUOUS
 10
-4.05866
 20
-10.473718
 11
-3.516962
 21
-4.47444
  0
LWPOLYLINE
  5
30A
100
AcDbEntity
  8
IMPORT_IGES
100
AcDbPolyline
 62
253
  6
CONTINUOUS
 90
18
 70
0
 10
-7.9999999483
 20
-26.7999997181
 10
-7.9981954345
 20
-26.7859564859
 10
-7.9928170266
 20
-26.7712544176
 10
-7.9839234925
 20
-26.7559747657
 10
-7.9720631474
 20
-26.7416972989
 10
-7.9570778207
 20
-26.7267412722
 10
-7.9369006364
 20
-26.7073302775
 10
-7.9086482773
 20
-26.6833672833
 10
-7.8722713899
 20
-26.6578474368
 10
-7.8302757417
 20
-26.6316447337
 10
-7.7855358399
 20
-26.6065670695
 10
-7.7362686838
 20
-26.5804454108
 10
-7.6783472872
 20
-26.5485176146
 10
-7.6074869048
 20
-26.5102653046
 10
-7.5253616718
 20
-26.469673733
 10
-7.4370285657
 20
-26.4288137461
 10
-7.3433460751
 20
-26.3863012531
 10
-7.2445847288
 20
-26.3435020028
  0
LWPOLYLINE
  5
30B
100
AcDbEntity
  8
IMPORT_IGES
100
AcDbPolyline
 62
253
  6
CONTINUOUS
 90
19
 70
0
 10
-12.5403006217
 20
-23.7763371137
 10
-12.4229669073
 20
-23.4075756144
 10
-12.2869435719
 20
-23.0456199002
 10
-12.1330671636
 20
-22.690469971
 10
-11.9588269927
 20
-22.336813836
 10
-11.7689795218
 20
-21.989963486
 10
-11.5748126085
 20
-21.6658548938
 10
-11.3769285472
 20
-21.3684237114
 10
-11.1760995528
 20
-21.0937342868
 10
-10.9824547409
 20
-20.845915637
 10
-10.8016116653
 20
-20.6304117877
 10
-10.6274736933
 20
-20.4417787133
 10
-10.4524851182
 20
-20.2678133536
 10
-10.2773574351
 20
-20.1041160571
 10
-10.1027004021
 20
-19.9550864753
 10
-9.9223747709
 20
-19.8217205028
 10
-9.7358718561
 20
-19.7043501044
 10
-9.5474038496
 20
-19.6026433153
 10
-9.3589482591
 20
-19.5166001355
  0
LINE
  5
30C
100
AcDbEntity
  8
IMPORT_IGES
100
AcDbLine
 62
7
  6
CONTINUOUS
 10
-6.449816
 20
-4.47444
 11
-8.378224
 21
-10.473718
  0
LINE
  5
30D
100
AcDbEntity
  8
IMPORT_IGES
100
AcDbLine
 62
7
  6
CONTINUOUS
 10
5.315478
 20
-4.47444
 11
4.104042
 21
-4.47444
  0
LINE
  5
30E
100
AcDbEntity
  8
IMPORT_IGES
100
AcDbLine
 62
7
  6
CONTINUOUS
 10
1.464644
 20
-4.47444
 11
0.225632
 21
-4.47444
  0
LINE
  5
30F
100
AcDbEntity
  8
IMPORT_IGES
100
AcDbLine
 62
7
  6
CONTINUOUS
 10
-2.265712
 20
-4.47444
 11
-3.516962
 21
-4.47444
  0
LINE
  5
310
100
AcDbEntity
  8
IMPORT_IGES
100
AcDbLine
 62
7
  6
CONTINUOUS
 10
-6.449816
 20
-4.47444
 11
-7.701246
 21
-4.47444
  0
LINE
  5
311
100
AcDbEntity
  8
IMPORT_IGES
100
AcDbLine
 62
7
  6
CONTINUOUS
 10
-10.02332
 20
-4.47444
 11
-11.383688
 21
-4.47444
  0
LINE
  5
312
100
AcDbEntity
  8
IMPORT_IGES
100
AcDbLine
 62
7
  6
CONTINUOUS
 10
-4.732806
 20
-4.47408
 11
-5.98509
 21
-4.47408
  0
LWPOLYLINE
  5
313
100
AcDbEntity
  8
IMPORT_IGES
100
AcDbPolyline
 62
7
  6
CONTINUOUS
 90
10
 70
0
 10
9.7108295815
 20
-5.4612151542
 10
9.6089299119
 20
-5.4514319781
 10
9.5051562817
 20
-5.4450906213
 10
9.399508691
 20
-5.4421910836
 10
9.2918612861
 20
-5.442751066
 10
9.1823399206
 20
-5.4467528675
 10
9.0713221554
 20
-5.4541433858
 10
8.958933844
 20
-5.4649049198
 10
8.8450491329
 20
-5.4790551706
 10
8.7296680219
 20
-5.496594138
  0
LINE
  5
314
100
AcDbEntity
  8
IMPORT_IGES
100
AcDbLine
 62
253
  6
CONTINUOUS
 10
14.406
 20
-20.9069866288
 11
15.9181250396
 21
-22.4191257176
  0
LINE
  5
315
100
AcDbEntity
  8
IMPORT_IGES
100
AcDbLine
 62
253
  6
CONTINUOUS
 10
16.3373684379
 20
-21.4241094778
 11
14.688842713
 21
-19.7756157789
  0
LINE
  5
316
100
AcDbEntity
  8
IMPORT_IGES
100
AcDbLine
 62
7
  6
CONTINUOUS
 10
-1.121308
 20
-10.473718
 11
-2.59039
 21
-6.556304
  0
LINE
  5
317
100
AcDbEntity
  8
IMPORT_IGES
100
AcDbLine
 62
7
  6
CONTINUOUS
 10
-2.265712
 20
-4.47444
 11
-1.026654
 21
-7.805258
  0
LWPOLYLINE
  5
318
100
AcDbEntity
  8
IMPORT_IGES
100
AcDbPolyline
 62
253
  6
CONTINUOUS
 90
4
 70
0
 10
9.3348585298
 20
-36.0469266271
 10
9.3515304263
 20
-36.096472382
 10
9.361649052
 20
-36.1477895231
 10
9.3650412746
 20
-36.2
  0
LINE
  5
319
100
AcDbEntity
  8
IMPORT_IGES
100
AcDbLine
 62
7
  6
CONTINUOUS
 10
0.800578
 20
-10.473718
 11
0.543292
 21
-6.572634
  0
LINE
  5
31A
100
AcDbEntity
  8
IMPORT_IGES
100
AcDbLine
 62
7
  6
CONTINUOUS
 10
-2.59039
 20
-6.556304
 11
-2.860632
 21
-10.473718
  0
LWPOLYLINE
  5
31B
100
AcDbEntity
  8
IMPORT_IGES
100
AcDbPolyline
 62
253
  6
CONTINUOUS
 90
3
 70
0
 10
-9.361649052
 20
-36.1477895231
 10
-9.3515304263
 20
-36.096472382
 10
-9.3348585298
 20
-36.0469266271
  0
LWPOLYLINE
  5
31C
100
AcDbEntity
  8
IMPORT_IGES
100
AcDbPolyline
 62
253
  6
CONTINUOUS
 90
10
 70
0
 10
-8.4
 20
-18.4264420637
 10
-8.4161496971
 20
-18.4760360691
 10
-8.4653809876
 20
-18.5328426211
 10
-8.5476938715
 20
-18.5968136069
 10
-8.6633322848
 20
-18.6680932385
 10
-8.8120522916
 20
-18.746476869
 10
-8.9931220839
 20
-18.8312246602
 10
-9.2062977257
 20
-18.9218725972
 10
-9.4518231531
 20
-19.0184188825
 10
-9.729698366
 20
-19.1206521286
  0
LWPOLYLINE
  5
31D
100
AcDbEntity
  8
IMPORT_IGES
100
AcDbPolyline
 62
253
  6
CONTINUOUS
 90
10
 70
0
 10
-8.0000000002
 20
-18.8257402166
 10
-8.0167407845
 20
-18.8752585878
 10
-8.0670970484
 20
-18.9318379843
 10
-8.1512122647
 20
-18.9954784058
 10
-8.2692676045
 20
-19.0665132722
 10
-8.4212309507
 20
-19.1446091636
 10
-8.6066082957
 20
-19.2287658216
 10
-8.8248953615
 20
-19.3186498264
 10
-9.0758257187
 20
-19.4145945977
 10
-9.3589482591
 20
-19.5166001355
  0
LINE
  5
31E
100
AcDbEntity
  8
IMPORT_IGES
100
AcDbLine
 62
253
  6
CONTINUOUS
 10
12.3000010612
 20
-1.7000001698
 11
-12.3000010613
 21
-1.7000001698
  0
LINE
  5
31F
100
AcDbEntity
  8
IMPORT_IGES
100
AcDbLine
 62
7
  6
CONTINUOUS
 10
12.3
 20
-1.5
 11
-12.3000015196
 21
-1.5
  0
LINE
  5
320
100
AcDbEntity
  8
IMPORT_IGES
100
AcDbLine
 62
253
  6
CONTINUOUS
 10
12.3
 20
-1.299994892
 11
-12.3000008463
 21
-1.2999994167
  0
LINE
  5
321
100
AcDbEntity
  8
IMPORT_IGES
100
AcDbLine
 62
253
  6
CONTINUOUS
 10
12.3000008463
 20
-0.3000005833
 11
-12.3000008463
 21
-0.3000005833
  0
LINE
  5
322
100
AcDbEntity
  8
IMPORT_IGES
100
AcDbLine
 62
7
  6
CONTINUOUS
 10
12.3
 20
-0.1
 11
-12.300001517
 21
-0.1
  0
LINE
  5
323
100
AcDbEntity
  8
IMPORT_IGES
100
AcDbLine
 62
253
  6
CONTINUOUS
 10
-12.3000010607
 20
0.1000001708
 11
12.3
 21
0.0999899141
  0
LWPOLYLINE
  5
324
100
AcDbEntity
  8
IMPORT_IGES
100
AcDbPolyline
 62
7
  6
CONTINUOUS
 90
37
 70
0
 10
10.6143006417
 20
-4.6076238499
 10
10.7284317686
 20
-4.6571476795
 10
10.8396207688
 20
-4.7197628386
 10
10.9478676426
 20
-4.7954693274
 10
11.0559919268
 20
-4.8868067029
 10
11.1611740845
 20
-4.991235408
 10
11.2549555044
 20
-5.1011367712
 10
11.3345025752
 20
-5.2159681004
 10
11.402648908
 20
-5.3362720877
 10
11.4594367255
 20
-5.4560581378
 10
11.5037454653
 20
-5.5741666739
 10
11.5366956897
 20
-5.6917572727
 10
11.5616913077
 20
-5.8063180689
 10
11.5789800435
 20
-5.9172447097
 10
11.5883141728
 20
-6.0251415478
 10
11.5923544323
 20
-6.1293097763
 10
11.5915772617
 20
-6.2295390231
 10
11.5855062212
 20
-6.3260396603
 10
11.575372728
 20
-6.4187439968
 10
11.5612757807
 20
-6.5075321915
 10
11.5431163808
 20
-6.5925240856
 10
11.5218289499
 20
-6.6740115121
 10
11.4974149082
 20
-6.7520958971
 10
11.4698728355
 20
-6.8266758146
 10
11.4401328928
 20
-6.8977388187
 10
11.4082455124
 20
-6.9652910723
 10
11.3741602621
 20
-7.0293264127
 10
11.3386560056
 20
-7.0898139057
 10
11.3017366163
 20
-7.1466790153
 10
11.2633982208
 20
-7.1999962776
 10
11.2244080639
 20
-7.2499583665
 10
11.1848281985
 20
-7.2962642684
 10
11.1445965715
 20
-7.339214997
 10
11.1042942687
 20
-7.3799062671
 10
11.0639871962
 20
-7.4184879311
 10
11.0236094477
 20
-7.4548101367
 10
10.9441786389
 20
-7.5238421441
  0
LWPOLYLINE
  5
325
100
AcDbEntity
  8
IMPORT_IGES
100
AcDbPolyline
 62
7
  6
CONTINUOUS
 90
13
 70
0
 10
10.7434946314
 20
-7.6733581026
 10
10.8328322814
 20
-7.7182900962
 10
10.916926657
 20
-7.7750170298
 10
10.9957777583
 20
-7.8435389035
 10
11.0696952628
 20
-7.9253198849
 10
11.138369493
 20
-8.0188958064
 10
11.2008714156
 20
-8.119874165
 10
11.2561188051
 20
-8.2276212956
 10
11.3051938871
 20
-8.3427708633
 10
11.3504143048
 20
-8.4628313616
 10
11.3925526059
 20
-8.5869722881
 10
11.4308362427
 20
-8.7160241452
 10
11.4652652152
 20
-8.8499869327
  0
LWPOLYLINE
  5
326
100
AcDbEntity
  8
IMPORT_IGES
100
AcDbPolyline
 62
7
  6
CONTINUOUS
 90
37
 70
0
 10
9.064167369
 20
-26.1886532229
 10
9.1458224585
 20
-26.377700321
 10
9.2488101661
 20
-26.556432741
 10
9.3731304918
 20
-26.7248504831
 10
9.5210542558
 20
-26.8832407873
 10
9.6903106378
 20
-27.0313164136
 10
9.874087177
 20
-27.168215641
 10
10.0721326123
 20
-27.2937131212
 10
10.2846982049
 20
-27.4080342025
 10
10.5057252766
 20
-27.5109932091
 10
10.729512841
 20
-27.6017106478
 10
10.9617618846
 20
-27.6810660118
 10
11.2135166893
 20
-27.7515121054
 10
11.4943574673
 20
-27.8155169389
 10
11.7947040065
 20
-27.8706125021
 10
12.0968599522
 20
-27.9118475675
 10
12.3962936042
 20
-27.9373512532
 10
12.6975366627
 20
-27.9489944412
 10
12.9964878737
 20
-27.9474385503
 10
13.2942758132
 20
-27.9323457487
 10
13.5897719053
 20
-27.9040538682
 10
13.8754891683
 20
-27.8642378226
 10
14.1511345492
 20
-27.8121485287
 10
14.417001101
 20
-27.7485350697
 10
14.666481001
 20
-27.6773196083
 10
14.8951759819
 20
-27.6003445088
 10
15.107484311
 20
-27.5157674068
 10
15.3099929673
 20
-27.4219833719
 10
15.5063304905
 20
-27.3181916542
 10
15.6928683409
 20
-27.2051930035
 10
15.8653078788
 20
-27.0837847394
 10
16.0236020573
 20
-26.9539243696
 10
16.1677979232
 20
-26.8156543864
 10
16.2937379773
 20
-26.6698995866
 10
16.4000363864
 20
-26.5169682358
 10
16.4880789837
 20
-26.3565520683
 10
16.557865769
 20
-26.1886510843
  0
LINE
  5
327
100
AcDbEntity
  8
IMPORT_IGES
100
AcDbLine
 62
7
  6
CONTINUOUS
 10
1.464644
 20
-4.47444
 11
2.025644
 21
-10.473718
  0
LINE
  5
328
100
AcDbEntity
  8
IMPORT_IGES
100
AcDbLine
 62
7
  6
CONTINUOUS
 10
-1.026654
 20
-7.805258
 11
0.225632
 21
-4.47444
  0
LINE
  5
329
100
AcDbEntity
  8
IMPORT_IGES
100
AcDbLine
 62
7
  6
CONTINUOUS
 10
0.543292
 20
-6.572634
 11
-0.945674
 21
-10.473718
  0
LINE
  5
32A
100
AcDbEntity
  8
IMPORT_IGES
100
AcDbLine
 62
7
  6
CONTINUOUS
 10
13.7575920159
 20
2.5877344947
 11
-13.7575920159
 21
2.5877344947
  0
LWPOLYLINE
  5
32B
100
AcDbEntity
  8
IMPORT_IGES
100
AcDbPolyline
 62
7
  6
CONTINUOUS
 90
10
 70
0
 10
9.064167369
 20
-26.1886521536
 10
9.0510509329
 20
-26.1479547809
 10
9.0394152296
 20
-26.1096120728
 10
9.029260259
 20
-26.0736143409
 10
9.0205647548
 20
-26.0399641692
 10
9.0133499834
 20
-26.0086302492
 10
9.0076797443
 20
-25.9795570952
 10
9.0035753038
 20
-25.952722426
 10
9.0010153957
 20
-25.9281276228
 10
9.0000000197
 20
-25.9057582668
  0
LINE
  5
32C
100
AcDbEntity
  8
IMPORT_IGES
100
AcDbLine
 62
7
  6
CONTINUOUS
 10
5.836348
 20
-10.473718
 11
5.51194
 21
-9.27605
  0
LINE
  5
32D
100
AcDbEntity
  8
IMPORT_IGES
100
AcDbLine
 62
7
  6
CONTINUOUS
 10
5.261672
 20
-8.349298
 11
4.686232
 21
-6.12289
  0
LWPOLYLINE
  5
32E
100
AcDbEntity
  8
IMPORT_IGES
100
AcDbPolyline
 62
253
  6
CONTINUOUS
 90
13
 70
0
 10
5.8495037424
 20
-36.2
 10
5.8476153154
 20
-36.1477895231
 10
5.8419823459
 20
-36.096472382
 10
5.8327012156
 20
-36.0469266271
 10
5.8199307272
 20
-36.0
 10
5.8038893873
 20
-35.9564954284
 10
5.7848516677
 20
-35.9171572875
 10
5.763143309
 20
-35.8826586639
 10
5.7391357472
 20
-35.8535898385
 10
5.7132397585
 20
-35.830448187
 10
5.6858984303
 20
-35.8136296695
 10
5.6575795804
 20
-35.8034220555
 10
5.6287677521
 20
-35.8
  0
LINE
  5
32F
100
AcDbEntity
  8
IMPORT_IGES
100
AcDbLine
 62
7
  6
CONTINUOUS
 10
5.8
 20
3.9877344947
 11
5.8
 21
4.3
  0
LINE
  5
330
100
AcDbEntity
  8
IMPORT_IGES
100
AcDbLine
 62
253
  6
CONTINUOUS
 10
5.8495037423
 20
-37.4
 11
5.8495037424
 21
-36.2
  0
LINE
  5
331
100
AcDbEntity
  8
IMPORT_IGES
100
AcDbLine
 62
7
  6
CONTINUOUS
 10
2.222286
 20
-10.473718
 11
4.104042
 21
-4.47444
  0
LINE
  5
332
100
AcDbEntity
  8
IMPORT_IGES
100
AcDbLine
 62
253
  6
CONTINUOUS
 10
-14.6888427131
 20
-19.7756157805
 11
-16.337367021
 21
-21.4241400862
  0
LINE
  5
333
100
AcDbEntity
  8
IMPORT_IGES
100
AcDbLine
 62
253
  6
CONTINUOUS
 10
-15.9181250264
 20
-22.4191257743
 11
-14.4060032825
 21
-20.906944581
  0
LWPOLYLINE
  5
334
100
AcDbEntity
  8
IMPORT_IGES
100
AcDbPolyline
 62
253
  6
CONTINUOUS
 90
13
 70
0
 10
13.8972872285
 20
5.8543251978
 10
13.9756949562
 20
5.8572824491
 10
14.0527580359
 20
5.8657137177
 10
14.1271547564
 20
5.8794744276
 10
14.1976091654
 20
5.8983286087
 10
14.26291283
 20
5.9219529112
 10
14.3219455962
 20
5.9499421246
 10
14.3736949603
 20
5.981816184
 10
14.4172734011
 20
6.01702843
 10
14.4519335017
 20
6.054974935
 10
14.4770808042
 20
6.0950048757
 10
14.4922840056
 20
6.1364316959
 10
14.4972823547
 20
6.1785448812
  0
LINE
  5
335
100
AcDbEntity
  8
IMPORT_IGES
100
AcDbLine
 62
7
  6
CONTINUOUS
 10
-14.6019352219
 20
3.985478518
 11
14.6019352219
 21
3.985478518
  0
LINE
  5
336
100
AcDbEntity
  8
IMPORT_IGES
100
AcDbLine
 62
7
  6
CONTINUOUS
 10
-10.0
 20
4.4
 11
-6.0
 21
4.4
  0
LINE
  5
337
100
AcDbEntity
  8
IMPORT_IGES
100
AcDbLine
 62
7
  6
CONTINUOUS
 10
6.0
 20
4.4
 11
10.0
 21
4.4
  0
LINE
  5
338
100
AcDbEntity
  8
IMPORT_IGES
100
AcDbLine
 62
7
  6
CONTINUOUS
 10
-10.0
 20
4.5
 11
-6.0
 21
4.5
  0
LINE
  5
339
100
AcDbEntity
  8
IMPORT_IGES
100
AcDbLine
 62
7
  6
CONTINUOUS
 10
6.0
 20
4.5
 11
10.0
 21
4.5
  0
LINE
  5
33A
100
AcDbEntity
  8
IMPORT_IGES
100
AcDbLine
 62
253
  6
CONTINUOUS
 10
13.8972860101
 20
5.8543251947
 11
-13.8986442235
 21
5.8543251946
  0
LWPOLYLINE
  5
33B
100
AcDbEntity
  8
IMPORT_IGES
100
AcDbPolyline
 62
7
  6
CONTINUOUS
 90
13
 70
0
 10
-13.9000024369
 20
5.0761293779
 10
-13.9784052499
 20
5.0789060596
 10
-14.0554519303
 20
5.0872045171
 10
-14.1298225649
 20
5.1008778188
 10
-14.2002345981
 20
5.1197061615
 10
-14.2654946351
 20
5.1433450234
 10
-14.3245110841
 20
5.1713371521
 10
-14.3762874523
 20
5.2031803537
 10
-14.4199034897
 20
5.2383603592
 10
-14.4545788479
 20
5.2763000505
 10
-14.4797288658
 20
5.3163528436
 10
-14.494950274
 20
5.3578224393
 10
-14.4999997366
 20
5.3999999992
  0
LWPOLYLINE
  5
33C
100
AcDbEntity
  8
IMPORT_IGES
100
AcDbPolyline
 62
253
  6
CONTINUOUS
 90
13
 70
0
 10
-13.8972860099
 20
5.8543252438
 10
-13.9750047442
 20
5.8572321575
 10
-14.0510924913
 20
5.8654711066
 10
-14.1243028795
 20
5.8788369513
 10
-14.1931036744
 20
5.8969328252
 10
-14.2568325986
 20
5.9194618469
 10
-14.3154240404
 20
5.9464712825
 10
-14.368016689
 20
5.9778831356
 10
-14.4130189738
 20
6.0131139302
 10
-14.4492056027
 20
6.0514767132
 10
-14.4757075466
 20
6.0922806158
 10
-14.4919034735
 20
6.1348873007
 10
-14.4972823547
 20
6.1785448812
  0
LWPOLYLINE
  5
33D
100
AcDbEntity
  8
IMPORT_IGES
100
AcDbPolyline
 62
7
  6
CONTINUOUS
 90
13
 70
0
 10
10.1412519581
 20
-8.6543463416
 10
10.1048768704
 20
-8.5703128105
 10
10.0638366495
 20
-8.4934492143
 10
10.0181312956
 20
-8.4237555529
 10
9.9673358367
 20
-8.3610809012
 10
9.9118752448
 20
-8.3055761844
 10
9.8530244352
 20
-8.2576941778
 10
9.7908038786
 20
-8.2177851396
 10
9.7251931043
 20
-8.1854988115
 10
9.6574056163
 20
-8.1602371939
 10
9.5878459156
 20
-8.1418009534
 10
9.516109501
 20
-8.1303894233
 10
9.4421963727
 20
-8.1260026036
  0
LINE
  5
33E
100
AcDbEntity
  8
IMPORT_IGES
100
AcDbLine
 62
7
  6
CONTINUOUS
 10
5.315478
 20
-4.47444
 11
7.156204
 21
-10.473718
  0
LWPOLYLINE
  5
33F
100
AcDbEntity
  8
IMPORT_IGES
100
AcDbPolyline
 62
253
  6
CONTINUOUS
 90
19
 70
0
 10
12.8175761313
 20
-23.5596381337
 10
12.7084976872
 20
-23.2028820441
 10
12.5812201271
 20
-22.8409600623
 10
12.4357434511
 20
-22.4762189127
 10
12.2678939281
 20
-22.106019463
 10
12.0818452892
 20
-21.7390675168
 10
11.8901187273
 20
-21.3930301351
 10
11.692906699
 20
-21.0705656499
 10
11.4900167477
 20
-20.7706900328
 10
11.2933926973
 20
-20.5015590165
 10
11.1079562118
 20
-20.2669482257
 10
10.9287856271
 20
-20.0595762327
 10
10.7530597743
 20
-19.8710441144
 10
10.581160436
 20
-19.7020754241
 10
10.4127058297
 20
-19.5524333037
 10
10.2437294389
 20
-19.4167632223
 10
10.0729090914
 20
-19.2964425317
 10
9.9015669594
 20
-19.1966844201
 10
9.7297030429
 20
-19.1206539528
  0
LWPOLYLINE
  5
340
100
AcDbEntity
  8
IMPORT_IGES
100
AcDbPolyline
 62
253
  6
CONTINUOUS
 90
10
 70
0
 10
8.0411597138
 20
-25.2242640687
 10
8.0325245435
 20
-25.0840715248
 10
8.0249040443
 20
-24.9438325133
 10
8.0182986406
 20
-24.8035470341
 10
8.0127088436
 20
-24.6632113134
 10
8.0081347676
 20
-24.522829125
 10
8.0045764145
 20
-24.3824117904
 10
8.0020341857
 20
-24.2419630834
 10
8.0005085984
 20
-24.1014792301
 10
8.0
 20
-23.9609602306
  0
LWPOLYLINE
  5
341
100
AcDbEntity
  8
IMPORT_IGES
100
AcDbPolyline
 62
253
  6
CONTINUOUS
 90
10
 70
0
 10
7.642044594
 20
-25.5071067871
 10
7.6446201435
 20
-25.5660202654
 10
7.6474896785
 20
-25.6191141016
 10
7.650653199
 20
-25.6659826024
 10
7.6541390792
 20
-25.7062670077
 10
7.657918945
 20
-25.7396590019
 10
7.6619076737
 20
-25.7659026781
 10
7.6660768909
 20
-25.7847957026
 10
7.670454971
 20
-25.7961913259
 10
7.6750419138
 20
-25.8
  0
LWPOLYLINE
  5
342
100
AcDbEntity
  8
IMPORT_IGES
100
AcDbPolyline
 62
253
  6
CONTINUOUS
 90
9
 70
0
 10
7.6005179875
 20
-24.384227341
 10
7.6020734308
 20
-24.5246405144
 10
7.6046677008
 20
-24.6650422019
 10
7.6083009262
 20
-24.8054362685
 10
7.6129729784
 20
-24.9458188492
 10
7.6186834713
 20
-25.0861783492
 10
7.6254322765
 20
-25.2265109035
 10
7.6332195225
 20
-25.366820377
 10
7.6420452093
 20
-25.5071067697
  0
LINE
  5
343
100
AcDbEntity
  8
IMPORT_IGES
100
AcDbLine
 62
7
  6
CONTINUOUS
 10
6.0
 20
4.4
 11
6.0
 21
3.9877344947
  0
LINE
  5
344
100
AcDbEntity
  8
IMPORT_IGES
100
AcDbLine
 62
7
  6
CONTINUOUS
 10
6.5
 20
26.7317406817
 11
6.5
 21
23.0
  0
LINE
  5
345
100
AcDbEntity
  8
IMPORT_IGES
100
AcDbLine
 62
7
  6
CONTINUOUS
 10
7.5239364472
 20
-4.5445450605
 11
7.5239364472
 21
-10.4737189066
  0
LINE
  5
346
100
AcDbEntity
  8
IMPORT_IGES
100
AcDbLine
 62
253
  6
CONTINUOUS
 10
7.6005179875
 20
-24.384227341
 11
7.5999990381
 21
-18.6844273567
  0
LINE
  5
347
100
AcDbEntity
  8
IMPORT_IGES
100
AcDbLine
 62
7
  6
CONTINUOUS
 10
8.0
 20
-23.9609602306
 11
8.0
 21
-18.6843834372
  0
LINE
  5
348
100
AcDbEntity
  8
IMPORT_IGES
100
AcDbLine
 62
7
  6
CONTINUOUS
 10
8.0
 20
-26.7999995578
 11
8.0
 21
-35.4
  0
LINE
  5
349
100
AcDbEntity
  8
IMPORT_IGES
100
AcDbLine
 62
7
  6
CONTINUOUS
 10
8.1
 20
22.4
 11
8.1
 21
26.7317406817
  0
LINE
  5
34A
100
AcDbEntity
  8
IMPORT_IGES
100
AcDbLine
 62
253
  6
CONTINUOUS
 10
8.2833334916
 20
-24.0
 11
8.2833334914
 21
-25.4
  0
LINE
  5
34B
100
AcDbEntity
  8
IMPORT_IGES
100
AcDbLine
 62
253
  6
CONTINUOUS
 10
8.4
 20
-18.4264420637
 11
8.3999998904
 21
-17.8844117019
  0
LWPOLYLINE
  5
34C
100
AcDbEntity
  8
IMPORT_IGES
100
AcDbPolyline
 62
253
  6
CONTINUOUS
 90
25
 70
0
 10
6.6666666667
 20
-35.4
 10
6.6668078966
 20
-28.6608740595
 10
6.6551953351
 20
-28.5089349402
 10
6.6327808966
 20
-28.3447225643
 10
6.5992097137
 20
-28.1636379741
 10
6.556796568
 20
-27.9722828362
 10
6.5088207097
 20
-27.7876367469
 10
6.4528590639
 20
-27.6149770531
 10
6.3890079818
 20
-27.4498184143
 10
6.3229256635
 20
-27.2934953431
 10
6.2562978137
 20
-27.1500281998
 10
6.1856906905
 20
-27.0153610806
 10
6.1097718121
 20
-26.8797086948
 10
6.0253897633
 20
-26.7392444393
 10
5.9347232624
 20
-26.6012448381
 10
5.8449257859
 20
-26.472835779
 10
5.7586182358
 20
-26.3581704767
 10
5.6722918125
 20
-26.2533770161
 10
5.5840733999
 20
-26.1539330202
 10
5.4915063546
 20
-26.0613130813
 10
5.3955134784
 20
-25.9787551389
 10
5.2991008601
 20
-25.907343722
 10
5.2025659875
 20
-25.8506351486
 10
5.1033730624
 20
-25.8134016791
 10
5.0000946377
 20
-25.8000000006
  0
LINE
  5
34D
100
AcDbEntity
  8
IMPORT_IGES
100
AcDbLine
 62
7
  6
CONTINUOUS
 10
4.686232
 20
-6.12289
 11
4.062698
 21
-8.349298
  0
LINE
  5
34E
100
AcDbEntity
  8
IMPORT_IGES
100
AcDbLine
 62
7
  6
CONTINUOUS
 10
3.806538
 20
-9.27605
 11
3.460984
 21
-10.473718
  0
LWPOLYLINE
  5
34F
100
AcDbEntity
  8
IMPORT_IGES
100
AcDbPolyline
 62
253
  6
CONTINUOUS
 90
10
 70
0
 10
-9.3348585298
 20
-36.0469266271
 10
-9.3119186233
 20
-36.0
 10
-9.2831032151
 20
-35.9564954284
 10
-9.2489053447
 20
-35.9171572875
 10
-9.2099101471
 20
-35.8826586639
 10
-9.1667848411
 20
-35.8535898385
 10
-9.1202673126
 20
-35.830448187
 10
-9.0711534893
 20
-35.8136296695
 10
-9.0202837224
 20
-35.8034220555
 10
-8.9685284077
 20
-35.8
  0
LWPOLYLINE
  5
350
100
AcDbEntity
  8
IMPORT_IGES
100
AcDbPolyline
 62
253
  6
CONTINUOUS
 90
13
 70
0
 10
-13.8940505399
 20
7.3265516226
 10
-13.9723958298
 20
7.3242323275
 10
-14.0493764459
 20
7.3168725112
 10
-14.1236774206
 20
7.3046035142
 10
-14.1940237118
 20
7.2876427096
 10
-14.2592278634
 20
7.2662835314
 10
-14.3182033487
 20
7.2408850979
 10
-14.3699493485
 20
7.211877164
 10
-14.413574854
 20
7.1797578601
 10
-14.448335059
 20
7.1450755501
 10
-14.4736365123
 20
7.1084223553
 10
-14.4890472493
 20
7.0704240455
 10
-14.4943041669
 20
7.0317293552
  0
LINE
  5
351
100
AcDbEntity
  8
IMPORT_IGES
100
AcDbLine
 62
253
  6
CONTINUOUS
 10
14.496532732
 20
6.393295078
 11
-13.8965363874
 21
6.3912006892
  0
LINE
  5
352
100
AcDbEntity
  8
IMPORT_IGES
100
AcDbLine
 62
253
  6
CONTINUOUS
 10
16.8457916902
 20
6.8
 11
16.7603116947
 21
6.8
  0
LINE
  5
353
100
AcDbEntity
  8
IMPORT_IGES
100
AcDbLine
 62
253
  6
CONTINUOUS
 10
-16.7603116947
 20
6.8
 11
-16.8457916902
 21
6.8
  0
LINE
  5
354
100
AcDbEntity
  8
IMPORT_IGES
100
AcDbLine
 62
253
  6
CONTINUOUS
 10
-13.8957675783
 20
6.8316955082
 11
14.4949951254
 21
6.8337851335
  0
LINE
  5
355
100
AcDbEntity
  8
IMPORT_IGES
100
AcDbLine
 62
253
  6
CONTINUOUS
 10
16.3373684379
 20
7.2832812259
 11
16.5130115666
 21
7.2832812223
  0
LINE
  5
356
100
AcDbEntity
  8
IMPORT_IGES
100
AcDbLine
 62
253
  6
CONTINUOUS
 10
-16.3373670683
 20
7.2832843859
 11
-16.5130115666
 21
7.2832812223
  0
LINE
  5
357
100
AcDbEntity
  8
IMPORT_IGES
100
AcDbLine
 62
253
  6
CONTINUOUS
 10
-13.8943078198
 20
7.326552329
 11
13.8943078198
 21
7.3265523299
  0
LINE
  5
358
100
AcDbEntity
  8
IMPORT_IGES
100
AcDbLine
 62
253
  6
CONTINUOUS
 10
-13.8965363899
 20
6.3912006886
 11
-14.496532732
 21
6.393295078
  0
LINE
  5
359
100
AcDbEntity
  8
IMPORT_IGES
100
AcDbLine
 62
253
  6
CONTINUOUS
 10
-13.8949987808
 20
6.8316907423
 11
-14.4949951254
 21
6.8337851335
  0
LWPOLYLINE
  5
35A
100
AcDbEntity
  8
IMPORT_IGES
100
AcDbPolyline
 62
253
  6
CONTINUOUS
 90
13
 70
0
 10
13.8943078223
 20
7.3265512961
 10
13.9718478933
 20
7.3242657753
 10
14.0477690866
 20
7.3170796699
 10
14.1208332302
 20
7.3051740845
 10
14.1895176135
 20
7.2889039085
 10
14.2531632606
 20
7.2685370555
 10
14.3117046859
 20
7.2440299648
 10
14.3642865103
 20
7.2154494482
 10
14.4093263935
 20
7.1833206762
 10
14.4456048223
 20
7.1482654184
 10
14.4722558258
 20
7.1109108231
 10
14.4886594307
 20
7.0718371885
 10
14.4943041669
 20
7.0317293552
  0
LWPOLYLINE
  5
35B
100
AcDbEntity
  8
IMPORT_IGES
100
AcDbPolyline
 62
253
  6
CONTINUOUS
 90
8
 70
0
 10
16.5768744586
 20
-25.2
 10
16.5762585124
 20
-25.1983835855
 10
16.5756562077
 20
-25.1938408464
 10
16.5750675444
 20
-25.1863717828
 10
16.5744882491
 20
-25.1758749826
 10
16.5739225952
 20
-25.1624518578
 10
16.5733834033
 20
-25.1464066448
 10
16.5728749471
 20
-25.1278407556
  0
LWPOLYLINE
  5
35C
100
AcDbEntity
  8
IMPORT_IGES
100
AcDbPolyline
 62
7
  6
CONTINUOUS
 90
5
 70
0
 10
13.9853585757
 20
-18.5625389815
 10
13.9914369566
 20
-18.5825754722
 10
13.9991727358
 20
-18.6161274357
 10
14.004205313
 20
-18.6520023615
 10
14.0059999975
 20
-18.689976049
  0
LINE
  5
35D
100
AcDbEntity
  8
IMPORT_IGES
100
AcDbLine
 62
7
  6
CONTINUOUS
 10
10.6888941066
 20
-10.4737200658
 11
10.50648058
 21
-9.846858162
  0
LWPOLYLINE
  5
35E
100
AcDbEntity
  8
IMPORT_IGES
100
AcDbPolyline
 62
7
  6
CONTINUOUS
 90
6
 70
0
 10
10.50648058
 20
-9.846858162
 10
10.3903887445
 20
-9.4383117802
 10
10.3311223287
 20
-9.2378622551
 10
10.2694446629
 20
-9.0405258402
 10
10.2061545394
 20
-8.8460205357
 10
10.1412519581
 20
-8.6543463416
  0
LWPOLYLINE
  5
35F
100
AcDbEntity
  8
IMPORT_IGES
100
AcDbPolyline
 62
7
  6
CONTINUOUS
 90
13
 70
0
 10
10.418100681
 20
-6.2111122748
 10
10.4091663972
 20
-6.1142485704
 10
10.3900734387
 20
-6.022174609
 10
10.3608218055
 20
-5.9348903905
 10
10.3208560585
 20
-5.8513363472
 10
10.2707316368
 20
-5.7725720469
 10
10.2121148576
 20
-5.7017761926
 10
10.1446195944
 20
-5.6396187479
 10
10.0686319737
 20
-5.5854297492
 10
9.9869766924
 20
-5.5403780092
 10
9.9005953161
 20
-5.5048531322
 10
9.8085462791
 20
-5.4784655138
 10
9.7108295815
 20
-5.4612151542
  0
LWPOLYLINE
  5
360
100
AcDbEntity
  8
IMPORT_IGES
100
AcDbPolyline
 62
253
  6
CONTINUOUS
 90
13
 70
0
 10
12.5403006194
 20
-24.0000000462
 10
12.5434187517
 20
-24.0518902432
 10
12.5524883827
 20
-24.1028947809
 10
12.5673755829
 20
-24.1521526528
 10
12.5878968683
 20
-24.1987901137
 10
12.613709412
 20
-24.2420706907
 10
12.6443574218
 20
-24.2813728831
 10
12.6795010911
 20
-24.316015498
 10
12.7185885506
 20
-24.3453414251
 10
12.7607894869
 20
-24.3688226887
 10
12.8054169858
 20
-24.3859915587
 10
12.8519255951
 20
-24.3964697991
 10
12.8996367258
 20
-24.4
  0
LINE
  5
361
100
AcDbEntity
  8
IMPORT_IGES
100
AcDbLine
 62
7
  6
CONTINUOUS
 10
8.7296584716
 20
-7.1433959969
 11
8.7296584716
 21
-5.496594138
  0
LINE
  5
362
100
AcDbEntity
  8
IMPORT_IGES
100
AcDbLine
 62
7
  6
CONTINUOUS
 10
8.7711823486
 20
-10.4737189066
 11
8.7711823486
 21
-8.1259328058
  0
LINE
  5
363
100
AcDbEntity
  8
IMPORT_IGES
100
AcDbLine
 62
7
  6
CONTINUOUS
 10
9.0
 20
-25.8
 11
9.0
 21
-35.8
  0
LINE
  5
364
100
AcDbEntity
  8
IMPORT_IGES
100
AcDbLine
 62
253
  6
CONTINUOUS
 10
9.2681005087
 20
-24.4
 11
9.2681005087
 21
-25.8
  0
LINE
  5
365
100
AcDbEntity
  8
IMPORT_IGES
100
AcDbLine
 62
253
  6
CONTINUOUS
 10
9.3650412746
 20
-36.2
 11
9.3650412745
 21
-37.4
  0
LINE
  5
366
100
AcDbEntity
  8
IMPORT_IGES
100
AcDbLine
 62
7
  6
CONTINUOUS
 10
9.3755026739
 20
-36.2
 11
9.3755026739
 21
-37.4
  0
LINE
  5
367
100
AcDbEntity
  8
IMPORT_IGES
100
AcDbLine
 62
253
  6
CONTINUOUS
 10
9.6
 20
-30.1
 11
9.6
 21
-37.8
  0
LINE
  5
368
100
AcDbEntity
  8
IMPORT_IGES
100
AcDbLine
 62
7
  6
CONTINUOUS
 10
10.0
 20
3.9877344947
 11
10.0
 21
4.4
  0
LINE
  5
369
100
AcDbEntity
  8
IMPORT_IGES
100
AcDbLine
 62
253
  6
CONTINUOUS
 10
10.1
 20
-30.1
 11
10.1
 21
-37.8
  0
LINE
  5
36A
100
AcDbEntity
  8
IMPORT_IGES
100
AcDbLine
 62
7
  6
CONTINUOUS
 10
10.2
 20
4.3
 11
10.2
 21
3.9877344947
  0
LINE
  5
36B
100
AcDbEntity
  8
IMPORT_IGES
100
AcDbLine
 62
7
  6
CONTINUOUS
 10
10.7434990261
 20
-7.6733717324
 11
10.7434990261
 21
-7.6378585457
  0
LWPOLYLINE
  5
36C
100
AcDbEntity
  8
IMPORT_IGES
100
AcDbPolyline
 62
253
  6
CONTINUOUS
 90
13
 70
0
 10
8.0735118692
 20
-25.4
 10
8.0701872745
 20
-25.4515663496
 10
8.0603103656
 20
-25.5021148546
 10
8.0441060278
 20
-25.5508192234
 10
8.0220249995
 20
-25.5966747475
 10
7.9944158609
 20
-25.6392111193
 10
7.9612456664
 20
-25.6783260931
 10
7.9226272344
 20
-25.7134317585
 10
7.8792621733
 20
-25.7434871039
 10
7.831988998
 20
-25.7676789813
 10
7.781654933
 20
-25.7854273094
 10
7.729047353
 20
-25.7963152218
 10
7.6750927696
 20
-25.8
  0
LWPOLYLINE
  5
36D
100
AcDbEntity
  8
IMPORT_IGES
100
AcDbPolyline
 62
253
  6
CONTINUOUS
 90
13
 70
0
 10
8.2833334916
 20
-25.4
 10
8.2799635642
 20
-25.4522104768
 10
8.2699114427
 20
-25.5035276178
 10
8.2533491215
 20
-25.5530733726
 10
8.2305599865
 20
-25.5999999995
 10
8.2019339661
 20
-25.6435045711
 10
8.1679608596
 20
-25.6828427119
 10
8.1292219562
 20
-25.7173413355
 10
8.0863800892
 20
-25.746410161
 10
8.0401682948
 20
-25.7695518125
 10
7.9913772698
 20
-25.7863703302
 10
7.940841842
 20
-25.7965779444
 10
7.8894266865
 20
-25.8
  0
LWPOLYLINE
  5
36E
100
AcDbEntity
  8
IMPORT_IGES
100
AcDbPolyline
 62
7
  6
CONTINUOUS
 90
5
 70
0
 10
8.0000000024
 20
-18.6843834456
 10
8.0034276176
 20
-18.6321714499
 10
8.0136402382
 20
-18.5808541062
 10
8.030462958
 20
-18.5313093054
 10
8.0386212349
 20
-18.5129372872
  0
LWPOLYLINE
  5
36F
100
AcDbEntity
  8
IMPORT_IGES
100
AcDbPolyline
 62
253
  6
CONTINUOUS
 90
13
 70
0
 10
8.0
 20
-19.8100505063
 10
7.9965779445
 20
-19.8469688886
 10
7.9863703305
 20
-19.8832555871
 10
7.969551813
 20
-19.9182897264
 10
7.9464101615
 20
-19.9514718626
 10
7.9173413361
 20
-19.9822342402
 10
7.8828427125
 20
-20.0100505063
 10
7.8435045716
 20
-20.0344447171
 10
7.8
 20
-20.0549994806
 10
7.7530733729
 20
-20.0713630993
 10
7.703527618
 20
-20.083255587
 10
7.6522104769
 20
-20.09047346
 10
7.6
 20
-20.0928932185
  0
LINE
  5
370
100
AcDbEntity
  8
IMPORT_IGES
100
AcDbLine
 62
253
  6
CONTINUOUS
 10
14.6013501205
 20
4.5660961977
 11
16.3373670309
 21
7.2832812259
  0
LINE
  5
371
100
AcDbEntity
  8
IMPORT_IGES
100
AcDbLine
 62
253
  6
CONTINUOUS
 10
15.9171931553
 20
8.2705341391
 11
14.6
 21
6.2106828035
  0
LWPOLYLINE
  5
372
100
AcDbEntity
  8
IMPORT_IGES
100
AcDbPolyline
 62
253
  6
CONTINUOUS
 90
14
 70
0
 10
-13.7535319844
 20
-18.312981232
 10
-13.7802070372
 20
-18.3251073758
 10
-13.805354508
 20
-18.3388038335
 10
-13.8289163867
 20
-18.3538655155
 10
-13.8508858848
 20
-18.3701151275
 10
-13.8712115018
 20
-18.3873414352
 10
-13.889811364
 20
-18.405281728
 10
-13.9066657015
 20
-18.4236893747
 10
-13.9218768961
 20
-18.4424395468
 10
-13.9355669409
 20
-18.4614678894
 10
-13.9473183489
 20
-18.4798610609
 10
-13.9577437472
 20
-18.4982205552
 10
-13.9681154012
 20
-18.5190103557
 10
-13.9735234908
 20
-18.5311779865
  0
LWPOLYLINE
  5
373
100
AcDbEntity
  8
IMPORT_IGES
100
AcDbPolyline
 62
253
  6
CONTINUOUS
 90
13
 70
0
 10
-15.9171573805
 20
8.2707830067
 10
-15.9947443726
 20
8.2674121726
 10
-16.0710276666
 20
8.2586800906
 10
-16.1447262915
 20
8.2447330709
 10
-16.2146025075
 20
8.2258088289
 10
-16.2794834058
 20
8.2022215957
 10
-16.3382803575
 20
8.1743565753
 10
-16.3900062318
 20
8.1426780126
 10
-16.43379222
 20
8.107721534
 10
-16.4689030728
 20
8.0700741245
 10
-16.4947492127
 20
8.0303679552
 10
-16.5108966344
 20
7.9892697676
 10
-16.5170741921
 20
7.9474696776
  0
LWPOLYLINE
  5
374
100
AcDbEntity
  8
IMPORT_IGES
100
AcDbPolyline
 62
253
  6
CONTINUOUS
 90
13
 70
0
 10
-15.9423055288
 20
10.5232168774
 10
-16.0197712828
 20
10.5198977355
 10
-16.0959775977
 20
10.5112176076
 10
-16.1696445629
 20
10.4973140753
 10
-16.2395414405
 20
10.4784096981
 10
-16.3044768976
 20
10.4548164246
 10
-16.3633270604
 20
10.4269371283
 10
-16.4150993299
 20
10.3952410203
 10
-16.458923935
 20
10.3602594379
 10
-16.4940524
 20
10.3225925515
 10
-16.519898842
 20
10.2828796578
 10
-16.5360405875
 20
10.2417852371
 10
-16.5422141458
 20
10.2
  0
LINE
  5
375
100
AcDbEntity
  8
IMPORT_IGES
100
AcDbLine
 62
253
  6
CONTINUOUS
 10
-16.7260997675
 20
10.2
 11
-16.5422141458
 21
10.2
  0
LINE
  5
376
100
AcDbEntity
  8
IMPORT_IGES
100
AcDbLine
 62
253
  6
CONTINUOUS
 10
16.7260997675
 20
10.2
 11
16.5422141458
 21
10.2
  0
LINE
  5
377
100
AcDbEntity
  8
IMPORT_IGES
100
AcDbLine
 62
253
  6
CONTINUOUS
 10
-15.9423055288
 20
10.5232168782
 11
-14.6
 21
10.5232168778
  0
LINE
  5
378
100
AcDbEntity
  8
IMPORT_IGES
100
AcDbLine
 62
253
  6
CONTINUOUS
 10
14.6
 20
10.5232168774
 11
15.9423055288
 21
10.5232168778
  0
LINE
  5
379
100
AcDbEntity
  8
IMPORT_IGES
100
AcDbLine
 62
7
  6
CONTINUOUS
 10
14.6
 20
10.8
 11
16.1261911504
 21
10.8
  0
LINE
  5
37A
100
AcDbEntity
  8
IMPORT_IGES
100
AcDbLine
 62
7
  6
CONTINUOUS
 10
-14.6
 20
10.8
 11
-16.1261911504
 21
10.8
  0
LINE
  5
37B
100
AcDbEntity
  8
IMPORT_IGES
100
AcDbLine
 62
7
  6
CONTINUOUS
 10
-14.4808013003
 20
10.9
 11
-16.5
 21
10.9
  0
LINE
  5
37C
100
AcDbEntity
  8
IMPORT_IGES
100
AcDbLine
 62
7
  6
CONTINUOUS
 10
14.4808013003
 20
10.9
 11
16.5
 21
10.9
  0
LINE
  5
37D
100
AcDbEntity
  8
IMPORT_IGES
100
AcDbLine
 62
7
  6
CONTINUOUS
 10
11.7508323435
 20
-9.937837914
 11
11.8934074727
 21
-10.4737226642
  0
LINE
  5
37E
100
AcDbEntity
  8
IMPORT_IGES
100
AcDbLine
 62
7
  6
CONTINUOUS
 10
11.4652652152
 20
-8.8499869327
 11
11.6101146031
 21
-9.3960584805
  0
LINE
  5
37F
100
AcDbEntity
  8
IMPORT_IGES
100
AcDbLine
 62
7
  6
CONTINUOUS
 10
11.6101146031
 20
-9.3960584805
 11
11.7508323435
 21
-9.937837914
  0
LWPOLYLINE
  5
380
100
AcDbEntity
  8
IMPORT_IGES
100
AcDbPolyline
 62
253
  6
CONTINUOUS
 90
10
 70
0
 10
12.767069947
 20
-24.0
 10
12.769743626
 20
-24.0183594297
 10
12.7757545284
 20
-24.0351435703
 10
12.7851026543
 20
-24.0503524219
 10
12.7982189805
 20
-24.0643017054
 10
12.8146725301
 20
-24.0766756998
 10
12.8331703725
 20
-24.0865272427
 10
12.8532815308
 20
-24.0935406133
 10
12.8754369818
 20
-24.0980315324
 10
12.8996367256
 20
-24.1
  0
LWPOLYLINE
  5
381
100
AcDbEntity
  8
IMPORT_IGES
100
AcDbPolyline
 62
253
  6
CONTINUOUS
 90
13
 70
0
 10
14.006
 20
-25.2242640687
 10
14.0094220555
 20
-25.261182451
 10
14.0196296695
 20
-25.2974691495
 10
14.036448187
 20
-25.3325032887
 10
14.0595898385
 20
-25.3656854249
 10
14.0886586639
 20
-25.3964478025
 10
14.1231572875
 20
-25.4242640687
 10
14.1624954284
 20
-25.4486582794
 10
14.206
 20
-25.469213043
 10
14.2529266271
 20
-25.4855766617
 10
14.302472382
 20
-25.4974691495
 10
14.3537895231
 20
-25.5046870227
 10
14.406
 20
-25.5071067815
  0
LWPOLYLINE
  5
382
100
AcDbEntity
  8
IMPORT_IGES
100
AcDbPolyline
 62
253
  6
CONTINUOUS
 90
13
 70
0
 10
14.6888427135
 20
-18.6899310102
 10
14.6847653624
 20
-18.6110389254
 10
14.6734744124
 20
-18.5341789388
 10
14.6549698636
 20
-18.4593510504
 10
14.629046821
 20
-18.3859451491
 10
14.5959101795
 20
-18.3145713461
 10
14.5561746237
 20
-18.2470599746
 10
14.5099916046
 20
-18.1835161147
 10
14.4572096711
 20
-18.1238346863
 10
14.3979891547
 20
-18.0695307824
 10
14.3323834993
 20
-18.0211094338
 10
14.260339261
 20
-17.9780656097
 10
14.1818564399
 20
-17.94039931
  0
LINE
  5
383
100
AcDbEntity
  8
IMPORT_IGES
100
AcDbLine
 62
7
  6
CONTINUOUS
 10
13.8943078198
 20
7.3265523299
 11
13.8949987737
 21
6.8316955135
  0
LINE
  5
384
100
AcDbEntity
  8
IMPORT_IGES
100
AcDbLine
 62
7
  6
CONTINUOUS
 10
13.8965363874
 20
6.3912006872
 11
13.8972859628
 21
5.8543251948
  0
LINE
  5
385
100
AcDbEntity
  8
IMPORT_IGES
100
AcDbLine
 62
253
  6
CONTINUOUS
 10
13.8972860101
 20
5.8543251947
 11
13.8998988937
 21
3.9877344947
  0
LINE
  5
386
100
AcDbEntity
  8
IMPORT_IGES
100
AcDbLine
 62
7
  6
CONTINUOUS
 10
12.1
 20
-30.7
 11
12.1
 21
-37.2
  0
LINE
  5
387
100
AcDbEntity
  8
IMPORT_IGES
100
AcDbLine
 62
253
  6
CONTINUOUS
 10
12.3
 20
-0.3
 11
12.3000010607
 21
0.1000001708
  0
LINE
  5
388
100
AcDbEntity
  8
IMPORT_IGES
100
AcDbLine
 62
253
  6
CONTINUOUS
 10
12.3
 20
-1.6999999975
 11
12.3000008463
 21
-1.2999994167
  0
LINE
  5
389
100
AcDbEntity
  8
IMPORT_IGES
100
AcDbLine
 62
253
  6
CONTINUOUS
 10
12.3
 20
-13.7
 11
12.3000010607
 21
-13.2999998294
  0
LINE
  5
38A
100
AcDbEntity
  8
IMPORT_IGES
100
AcDbLine
 62
253
  6
CONTINUOUS
 10
12.3
 20
-15.0999999975
 11
12.3000008463
 21
-14.6999994167
  0
LINE
  5
38B
100
AcDbEntity
  8
IMPORT_IGES
100
AcDbLine
 62
253
  6
CONTINUOUS
 10
12.5403006019
 20
-24.0
 11
12.5403005958
 21
-23.7763367387
  0
LINE
  5
38C
100
AcDbEntity
  8
IMPORT_IGES
100
AcDbLine
 62
253
  6
CONTINUOUS
 10
12.7670699079
 20
-23.7763374667
 11
12.767069947
 21
-24.0
  0
LINE
  5
38D
100
AcDbEntity
  8
IMPORT_IGES
100
AcDbLine
 62
253
  6
CONTINUOUS
 10
12.8175764214
 20
-23.6578311561
 11
12.8175764535
 21
-23.5596378886
  0
LINE
  5
38E
100
AcDbEntity
  8
IMPORT_IGES
100
AcDbLine
 62
253
  6
CONTINUOUS
 10
12.8996367258
 20
-24.4
 11
12.8996367256
 21
-24.1
  0
LINE
  5
38F
100
AcDbEntity
  8
IMPORT_IGES
100
AcDbLine
 62
253
  6
CONTINUOUS
 10
13.006
 20
-24.4
 11
13.006
 21
-25.8
  0
LINE
  5
390
100
AcDbEntity
  8
IMPORT_IGES
100
AcDbLine
 62
253
  6
CONTINUOUS
 10
13.606
 20
-24.1
 11
13.606
 21
-24.4
  0
LINE
  5
391
100
AcDbEntity
  8
IMPORT_IGES
100
AcDbLine
 62
253
  6
CONTINUOUS
 10
13.706
 20
-23.9867933118
 11
13.706
 21
-24.0
  0
LINE
  5
392
100
AcDbEntity
  8
IMPORT_IGES
100
AcDbLine
 62
253
  6
CONTINUOUS
 10
13.757593318
 20
-17.8989065034
 11
13.757593318
 21
2.5877344947
  0
LINE
  5
393
100
AcDbEntity
  8
IMPORT_IGES
100
AcDbLine
 62
253
  6
CONTINUOUS
 10
13.8943078198
 20
7.3265523299
 11
13.7889929533
 21
37.8
  0
LINE
  5
394
100
AcDbEntity
  8
IMPORT_IGES
100
AcDbLine
 62
253
  6
CONTINUOUS
 10
13.8957675783
 20
6.8316955135
 11
13.8957675783
 21
6.3912006899
  0
LINE
  5
395
100
AcDbEntity
  8
IMPORT_IGES
100
AcDbLine
 62
7
  6
CONTINUOUS
 10
14.006
 20
-18.6899310002
 11
14.006
 21
-25.4
  0
LINE
  5
396
100
AcDbEntity
  8
IMPORT_IGES
100
AcDbLine
 62
253
  6
CONTINUOUS
 10
13.606000003
 20
-17.8844117017
 11
13.606
 21
-23.6578311561
  0
LWPOLYLINE
  5
397
100
AcDbEntity
  8
IMPORT_IGES
100
AcDbPolyline
 62
253
  6
CONTINUOUS
 90
16
 70
0
 10
12.7670699079
 20
-23.7763374667
 10
12.7675176416
 20
-23.7603285947
 10
12.7683154779
 20
-23.745906326
 10
12.7694634168
 20
-23.7330706605
 10
12.7710054786
 20
-23.7220214504
 10
12.7728976429
 20
-23.7125588435
 10
12.7750078489
 20
-23.7040832836
 10
12.7771708323
 20
-23.6966248593
 10
12.7795518574
 20
-23.690153482
 10
12.7825146558
 20
-23.6839793296
 10
12.7860197207
 20
-23.6776489566
 10
12.790106559
 20
-23.6716158086
 10
12.795257423
 20
-23.6665503999
 10
12.8016330634
 20
-23.6626762354
 10
12.8090727296
 20
-23.6597698101
 10
12.8175764214
 20
-23.6578311242
  0
LINE
  5
398
100
AcDbEntity
  8
IMPORT_IGES
100
AcDbLine
 62
253
  6
CONTINUOUS
 10
9.3650412746
 20
-37.4
 11
9.361649052
 21
-37.4522104769
  0
LWPOLYLINE
  5
399
100
AcDbEntity
  8
IMPORT_IGES
100
AcDbPolyline
 62
7
  6
CONTINUOUS
 90
13
 70
0
 10
14.4999997366
 20
5.3999999992
 10
14.494914998
 20
5.3580093699
 10
14.4796126543
 20
5.3167129684
 10
14.4543708182
 20
5.2768210491
 10
14.4196457718
 20
5.2390082052
 10
14.3760420406
 20
5.2039287342
 10
14.3242831728
 20
5.1722122007
 10
14.2652263192
 20
5.1444352581
 10
14.1999008939
 20
5.1210513043
 10
14.1294684498
 20
5.1024045421
 10
14.0551569575
 20
5.0887885313
 10
13.9782283507
 20
5.0804502505
 10
13.9
 20
5.0775256385
  0
LWPOLYLINE
  5
39A
100
AcDbEntity
  8
IMPORT_IGES
100
AcDbPolyline
 62
253
  6
CONTINUOUS
 90
3
 70
0
 10
8.030448187
 20
-18.6729388249
 10
8.0136296695
 20
-18.7223983274
 10
8.0034220555
 20
-18.7736261325
  0
LINE
  5
39B
100
AcDbEntity
  8
IMPORT_IGES
100
AcDbLine
 62
7
  6
CONTINUOUS
 10
14.1818564399
 20
2.9977850011
 11
14.6027002411
 21
3.9862019663
  0
LWPOLYLINE
  5
39C
100
AcDbEntity
  8
IMPORT_IGES
100
AcDbPolyline
 62
7
  6
CONTINUOUS
 90
6
 70
0
 10
10.9441786389
 20
-7.5238421441
 10
10.9051255786
 20
-7.5565519458
 10
10.8656087346
 20
-7.5846121197
 10
10.8253692821
 20
-7.6070105563
 10
10.7846660459
 20
-7.6247593649
 10
10.7434990261
 20
-7.6378585457
  0
LWPOLYLINE
  5
39D
100
AcDbEntity
  8
IMPORT_IGES
100
AcDbPolyline
 62
253
  6
CONTINUOUS
 90
19
 70
0
 10
-9.729698366
 20
-19.1206570741
 10
-9.9218992566
 20
-19.2067671873
 10
-10.1110531563
 20
-19.3207698011
 10
-10.2971600654
 20
-19.4576444137
 10
-10.4812775891
 20
-19.6120390193
 10
-10.662348122
 20
-19.7799029387
 10
-10.8371988477
 20
-19.9592881376
 10
-11.002660823
 20
-20.1440854743
 10
-11.1619029909
 20
-20.3337620569
 10
-11.3212593648
 20
-20.5382900068
 10
-11.4809020382
 20
-20.7567633378
 10
-11.6406589176
 20
-20.98945664
 10
-11.8063477356
 20
-21.2531333688
 10
-11.9843142054
 20
-21.5578824947
 10
-12.1682126139
 20
-21.8983252627
 10
-12.3448235536
 20
-22.2693796623
 10
-12.5097405555
 20
-22.6690439474
 10
-12.6673700887
 20
-23.0993180812
 10
-12.8177121531
 20
-23.5596303162
  0
LWPOLYLINE
  5
39E
100
AcDbEntity
  8
IMPORT_IGES
100
AcDbPolyline
 62
253
  6
CONTINUOUS
 90
10
 70
0
 10
-13.7535319844
 20
-18.312981232
 10
-13.7469993853
 20
-18.3103828362
 10
-13.7402514475
 20
-18.3078457842
 10
-13.733286963
 20
-18.3053797787
 10
-13.7262881814
 20
-18.3030520994
 10
-13.7190734173
 20
-18.300808918
 10
-13.7110863893
 20
-18.2985103193
 10
-13.7021312758
 20
-18.2961567736
 10
-13.6923838863
 20
-18.2938541721
 10
-13.681837381
 20
-18.2916592962
  0
LWPOLYLINE
  5
39F
100
AcDbEntity
  8
IMPORT_IGES
100
AcDbPolyline
 62
253
  6
CONTINUOUS
 90
12
 70
0
 10
-16.2043581552
 20
10.7948849113
 10
-16.281235603
 20
10.7796152979
 10
-16.3555078198
 20
10.754434706
 10
-16.4259110678
 20
10.7197505182
 10
-16.4912203419
 20
10.6761439823
 10
-16.5502797321
 20
10.6243749262
 10
-16.6020735626
 20
10.5653312618
 10
-16.645714984
 20
10.5000212523
 10
-16.6804429853
 20
10.4295894324
 10
-16.70566802
 20
10.3552554291
 10
-16.7209713578
 20
10.278286145
 10
-16.7216953797
 20
10.2733023831
  0
LWPOLYLINE
  5
3A0
100
AcDbEntity
  8
IMPORT_IGES
100
AcDbPolyline
 62
7
  6
CONTINUOUS
 90
13
 70
0
 10
-16.1261911504
 20
10.8
 10
-16.2069920337
 20
10.794533929
 10
-16.2848061627
 20
10.7786543751
 10
-16.3589791075
 20
10.7530006935
 10
-16.4289761321
 20
10.7179973445
 10
-16.4939829023
 20
10.6740560538
 10
-16.5527155865
 20
10.621991594
 10
-16.6039686124
 20
10.5629444285
 10
-16.6471664632
 20
10.497631751
 10
-16.6816997769
 20
10.4267380997
 10
-16.7067678388
 20
10.3514258443
 10
-16.7216953797
 20
10.2733023831
 10
-16.7261657659
 20
10.2055111159
  0
LWPOLYLINE
  5
3A1
100
AcDbEntity
  8
IMPORT_IGES
100
AcDbPolyline
 62
253
  6
CONTINUOUS
 90
13
 70
0
 10
15.9423055287
 20
10.8
 10
16.0204990433
 20
10.7948814263
 10
16.0973916287
 20
10.7796041525
 10
16.1716675911
 20
10.7544159234
 10
16.2420612318
 20
10.7197298741
 10
16.3073530803
 20
10.676129902
 10
16.3663976346
 20
10.6243714033
 10
16.4181801771
 20
10.5653413779
 10
16.4618141295
 20
10.5000476363
 10
16.4965424538
 20
10.429625434
 10
16.5217732926
 20
10.355289422
 10
16.5370828393
 20
10.2783081576
 10
16.5422141458
 20
10.2
  0
LWPOLYLINE
  5
3A2
100
AcDbEntity
  8
IMPORT_IGES
100
AcDbPolyline
 62
7
  6
CONTINUOUS
 90
13
 70
0
 10
16.1261911504
 20
10.8
 10
16.2069920337
 20
10.794533929
 10
16.2848061627
 20
10.7786543751
 10
16.3589791075
 20
10.7530006935
 10
16.4289761321
 20
10.7179973445
 10
16.4939829023
 20
10.6740560538
 10
16.5527155865
 20
10.621991594
 10
16.6039686124
 20
10.5629444285
 10
16.6471664632
 20
10.497631751
 10
16.6816997769
 20
10.4267380997
 10
16.7067678388
 20
10.3514258443
 10
16.7216953797
 20
10.2733023831
 10
16.7261657638
 20
10.2055113425
  0
LWPOLYLINE
  5
3A3
100
AcDbEntity
  8
IMPORT_IGES
100
AcDbPolyline
 62
7
  6
CONTINUOUS
 90
5
 70
0
 10
15.9745795175
 20
-25.7396921648
 10
15.9751588781
 20
-25.7659254667
 10
15.9757476306
 20
-25.7848075532
 10
15.9763500503
 20
-25.7961946382
 10
15.9769661371
 20
-25.8
  0
LINE
  5
3A4
100
AcDbEntity
  8
IMPORT_IGES
100
AcDbLine
 62
253
  6
CONTINUOUS
 10
16.5728749471
 20
-25.1278407556
 11
16.5719374207
 21
-25.0828427125
  0
LINE
  5
3A5
100
AcDbEntity
  8
IMPORT_IGES
100
AcDbLine
 62
253
  6
CONTINUOUS
 10
15.9181250396
 20
-22.4191257176
 11
15.9720288036
 21
-25.5071067816
  0
LINE
  5
3A6
100
AcDbEntity
  8
IMPORT_IGES
100
AcDbLine
 62
253
  6
CONTINUOUS
 10
16.5719374207
 20
-25.0828427125
 11
16.5162263947
 21
-21.8777847633
  0
LINE
  5
3A7
100
AcDbEntity
  8
IMPORT_IGES
100
AcDbLine
 62
7
  6
CONTINUOUS
 10
15.9734746234
 20
-25.6660250249
 11
15.9745795175
 21
-25.7396921648
  0
LINE
  5
3A8
100
AcDbEntity
  8
IMPORT_IGES
100
AcDbLine
 62
253
  6
CONTINUOUS
 10
16.7603118324
 20
6.812086626
 11
16.7603116947
 21
6.8
  0
LINE
  5
3A9
100
AcDbEntity
  8
IMPORT_IGES
100
AcDbLine
 62
7
  6
CONTINUOUS
 10
16.7603118324
 20
6.812086626
 11
16.7261607775
 21
10.2060370936
  0
LINE
  5
3AA
100
AcDbEntity
  8
IMPORT_IGES
100
AcDbLine
 62
253
  6
CONTINUOUS
 10
16.7261607775
 20
10.2060370936
 11
16.7261627948
 21
10.2058211288
  0
LINE
  5
3AB
100
AcDbEntity
  8
IMPORT_IGES
100
AcDbLine
 62
253
  6
CONTINUOUS
 10
16.5162263947
 20
-21.8777847633
 11
16.5140992466
 21
-21.6755742838
  0
LINE
  5
3AC
100
AcDbEntity
  8
IMPORT_IGES
100
AcDbLine
 62
7
  6
CONTINUOUS
 10
15.9720288036
 20
-25.5071067816
 11
15.9734746234
 21
-25.6660250249
  0
LINE
  5
3AD
100
AcDbEntity
  8
IMPORT_IGES
100
AcDbLine
 62
7
  6
CONTINUOUS
 10
14.5
 20
5.4
 11
14.3889892979
 21
37.2020943908
  0
LINE
  5
3AE
100
AcDbEntity
  8
IMPORT_IGES
100
AcDbLine
 62
253
  6
CONTINUOUS
 10
16.5140992466
 20
-21.6755742838
 11
16.5130711715
 21
-21.482449382
  0
LINE
  5
3AF
100
AcDbEntity
  8
IMPORT_IGES
100
AcDbLine
 62
253
  6
CONTINUOUS
 10
14.1818564399
 20
-17.94039931
 11
14.1818564399
 21
2.9977850011
  0
LINE
  5
3B0
100
AcDbEntity
  8
IMPORT_IGES
100
AcDbLine
 62
253
  6
CONTINUOUS
 10
14.406
 20
-20.9069866288
 11
14.406
 21
-25.8
  0
LINE
  5
3B1
100
AcDbEntity
  8
IMPORT_IGES
100
AcDbLine
 62
7
  6
CONTINUOUS
 10
14.5
 20
3.9877344947
 11
14.5
 21
5.4
  0
LINE
  5
3B2
100
AcDbEntity
  8
IMPORT_IGES
100
AcDbLine
 62
7
  6
CONTINUOUS
 10
14.6027002411
 20
3.9862019663
 11
14.6
 21
10.8
  0
LINE
  5
3B3
100
AcDbEntity
  8
IMPORT_IGES
100
AcDbLine
 62
253
  6
CONTINUOUS
 10
14.688842713
 20
-19.7756157789
 11
14.6888427135
 21
-18.6899310102
  0
LINE
  5
3B4
100
AcDbEntity
  8
IMPORT_IGES
100
AcDbLine
 62
253
  6
CONTINUOUS
 10
15.9423055287
 20
10.8
 11
15.9423055287
 21
10.5232168774
  0
LINE
  5
3B5
100
AcDbEntity
  8
IMPORT_IGES
100
AcDbLine
 62
253
  6
CONTINUOUS
 10
16.1
 20
10.9
 11
16.1
 21
17.9
  0
LINE
  5
3B6
100
AcDbEntity
  8
IMPORT_IGES
100
AcDbLine
 62
253
  6
CONTINUOUS
 10
16.3373684379
 20
-21.4241094778
 11
16.3373670309
 21
7.2832812259
  0
LINE
  5
3B7
100
AcDbEntity
  8
IMPORT_IGES
100
AcDbLine
 62
7
  6
CONTINUOUS
 10
16.5
 20
10.6687221082
 11
16.5
 21
17.5
  0
LINE
  5
3B8
100
AcDbEntity
  8
IMPORT_IGES
100
AcDbLine
 62
7
  6
CONTINUOUS
 10
16.6200314089
 20
-25.9394837071
 11
16.6200312952
 21
-29.5000003226
  0
LINE
  5
3B9
100
AcDbEntity
  8
IMPORT_IGES
100
AcDbLine
 62
7
  6
CONTINUOUS
 10
16.7603105601
 20
6.8122116133
 11
16.7603116947
 21
6.8
  0
LINE
  5
3BA
100
AcDbEntity
  8
IMPORT_IGES
100
AcDbLine
 62
7
  6
CONTINUOUS
 10
16.8454425889
 20
-21.7400000001
 11
16.8454425889
 21
-29.5000003226
  0
LINE
  5
3BB
100
AcDbEntity
  8
IMPORT_IGES
100
AcDbLine
 62
7
  6
CONTINUOUS
 10
16.8457916902
 20
-21.72
 11
16.8457916902
 21
6.8
  0
LINE
  5
3BC
100
AcDbEntity
  8
IMPORT_IGES
100
AcDbLine
 62
253
  6
CONTINUOUS
 10
16.5130711715
 20
-21.482449382
 11
16.5131076588
 21
7.3580361122
  0
LINE
  5
3BD
100
AcDbEntity
  8
IMPORT_IGES
100
AcDbLine
 62
253
  6
CONTINUOUS
 10
16.5131076588
 20
7.3580361122
 11
16.5144385057
 21
7.6550822044
  0
LINE
  5
3BE
100
AcDbEntity
  8
IMPORT_IGES
100
AcDbLine
 62
253
  6
CONTINUOUS
 10
16.7261627948
 20
10.2058211288
 11
16.7260997675
 21
10.2
  0
LINE
  5
3BF
100
AcDbEntity
  8
IMPORT_IGES
100
AcDbLine
 62
253
  6
CONTINUOUS
 10
15.9423055288
 20
10.5232168778
 11
15.9171931553
 21
8.2705341391
  0
LINE
  5
3C0
100
AcDbEntity
  8
IMPORT_IGES
100
AcDbLine
 62
253
  6
CONTINUOUS
 10
16.5144385057
 20
7.6550822044
 11
16.5422141458
 21
10.2
  0
LINE
  5
3C1
100
AcDbEntity
  8
IMPORT_IGES
100
AcDbLine
 62
253
  6
CONTINUOUS
 10
13.7575911738
 20
-17.8989058383
 11
13.6817951908
 21
-18.2916533461
  0
LWPOLYLINE
  5
3C2
100
AcDbEntity
  8
IMPORT_IGES
100
AcDbPolyline
 62
253
  6
CONTINUOUS
 90
4
 70
0
 10
9.361649052
 20
-37.4522104769
 10
9.3515304263
 20
-37.503527618
 10
9.3348585298
 20
-37.5530733729
 10
9.3119186233
 20
-37.6
  0
LWPOLYLINE
  5
3C3
100
AcDbEntity
  8
IMPORT_IGES
100
AcDbPolyline
 62
253
  6
CONTINUOUS
 90
10
 70
0
 10
8.0386212349
 20
-18.5129372872
 10
8.0536077557
 20
-18.4843845783
 10
8.0826785142
 20
-18.4408825857
 10
8.1171778765
 20
-18.4015474362
 10
8.1565156922
 20
-18.3670518659
 10
8.2000187952
 20
-18.3379860228
 10
8.2469425758
 20
-18.3148472741
 10
8.2964840788
 20
-18.2980312885
 10
8.347795824
 20
-18.2878253986
 10
8.4
 20
-18.2844039485
  0
LWPOLYLINE
  5
3C4
100
AcDbEntity
  8
IMPORT_IGES
100
AcDbPolyline
 62
7
  6
CONTINUOUS
 90
13
 70
0
 10
-13.8690162417
 20
14.3509095299
 10
-13.9458211568
 20
14.3497241527
 10
-14.0216254741
 20
14.3460550154
 10
-14.0951538213
 20
14.3398981719
 10
-14.1651464698
 20
14.3310827667
 10
-14.2303841932
 20
14.3197737564
 10
-14.2897091487
 20
14.3064719611
 10
-14.3420379929
 20
14.2910719491
 10
-14.3864010352
 20
14.2736780142
 10
-14.4219535028
 20
14.2551067793
 10
-14.4479736826
 20
14.2356317836
 10
-14.4638901536
 20
14.2149835398
 10
-14.4693059378
 20
14.1931653986
  0
LINE
  5
3C5
100
AcDbEntity
  8
IMPORT_IGES
100
AcDbLine
 62
7
  6
CONTINUOUS
 10
-13.8692735203
 20
14.3509104282
 11
13.8692735203
 21
14.3509104282
  0
LINE
  5
3C6
100
AcDbEntity
  8
IMPORT_IGES
100
AcDbLine
 62
253
  6
CONTINUOUS
 10
16.5
 20
15.2297953329
 11
14.465687402
 21
15.2297953329
  0
LINE
  5
3C7
100
AcDbEntity
  8
IMPORT_IGES
100
AcDbLine
 62
253
  6
CONTINUOUS
 10
-14.465687402
 20
15.2297953329
 11
-16.5
 21
15.2297953329
  0
LINE
  5
3C8
100
AcDbEntity
  8
IMPORT_IGES
100
AcDbLine
 62
253
  6
CONTINUOUS
 10
-16.1
 20
15.4777786599
 11
-14.4648217733
 21
15.4777786599
  0
LINE
  5
3C9
100
AcDbEntity
  8
IMPORT_IGES
100
AcDbLine
 62
253
  6
CONTINUOUS
 10
16.1
 20
15.4777786599
 11
14.4648217733
 21
15.4777786599
  0
LWPOLYLINE
  5
3CA
100
AcDbEntity
  8
IMPORT_IGES
100
AcDbPolyline
 62
7
  6
CONTINUOUS
 90
13
 70
0
 10
13.8695308003
 20
14.350911079
 10
13.9461210079
 20
14.3499660909
 10
14.0217712261
 20
14.3462776962
 10
14.0952089258
 20
14.3399016526
 10
14.1651873907
 20
14.331113199
 10
14.2304588497
 20
14.3199948389
 10
14.2898100599
 20
14.3064448381
 10
14.3421483812
 20
14.2909588788
 10
14.3865095752
 20
14.27389138
 10
14.4220390658
 20
14.255044256
 10
14.4480240105
 20
14.2347595931
 10
14.4639080511
 20
14.2139101008
 10
14.4693059378
 20
14.1931653986
  0
LWPOLYLINE
  5
3CB
100
AcDbEntity
  8
IMPORT_IGES
100
AcDbPolyline
 62
253
  6
CONTINUOUS
 90
13
 70
0
 10
16.1
 20
15.4777786599
 10
16.1521789231
 20
15.4756597028
 10
16.2034764155
 20
15.4693373363
 10
16.2530146626
 20
15.4589171263
 10
16.299947809
 20
15.4445738715
 10
16.3434678099
 20
15.4265512196
 10
16.3828205832
 20
15.4051597432
 10
16.4173316119
 20
15.3807658737
 10
16.446410392
 20
15.3537867489
 10
16.4695560142
 20
15.3246881554
 10
16.486373756
 20
15.2939702146
 10
16.4965791944
 20
15.2621577661
 10
16.5
 20
15.2297953329
  0
LWPOLYLINE
  5
3CC
100
AcDbEntity
  8
IMPORT_IGES
100
AcDbPolyline
 62
7
  6
CONTINUOUS
 90
4
 70
0
 10
14.5
 20
4.9854397961
 10
14.5390983373
 20
4.9061595138
 10
14.5727369475
 20
4.8070690946
 10
14.5931540132
 20
4.7044352018
  0
LWPOLYLINE
  5
3CD
100
AcDbEntity
  8
IMPORT_IGES
100
AcDbPolyline
 62
253
  6
CONTINUOUS
 90
13
 70
0
 10
16.5
 20
17.5
 10
16.4965819559
 20
17.5323494243
 10
16.4863823394
 20
17.5641550162
 10
16.4695697982
 20
17.5948721876
 10
16.446423721
 20
17.6239771022
 10
16.4173365659
 20
17.6509665385
 10
16.3828132624
 20
17.6753689481
 10
16.3434443766
 20
17.6967670306
 10
16.2999056435
 20
17.7147936237
 10
16.2529625141
 20
17.7291351762
 10
16.2034290649
 20
17.7395498631
 10
16.1521489758
 20
17.745866812
 10
16.1
 20
17.7479833271
  0
LINE
  5
3CE
100
AcDbEntity
  8
IMPORT_IGES
100
AcDbLine
 62
253
  6
CONTINUOUS
 10
16.7260997675
 20
10.2
 11
16.7261657638
 21
10.2055113425
  0
LWPOLYLINE
  5
3CF
100
AcDbEntity
  8
IMPORT_IGES
100
AcDbPolyline
 62
253
  6
CONTINUOUS
 90
12
 70
0
 10
16.7210946595
 20
10.2764462596
 10
16.7209770126
 20
10.2782431572
 10
16.7056873029
 20
10.3551834176
 10
16.6804787789
 20
10.4295029778
 10
16.6457638796
 20
10.4999365418
 10
16.6021282788
 20
10.5652599554
 10
16.5503346359
 20
10.6243200355
 10
16.4912688049
 20
10.6761068137
 10
16.4259458886
 20
10.7197304307
 10
16.355528951
 20
10.7544259629
 10
16.281246907
 20
10.7796122731
 10
16.2056794673
 20
10.7946227223
  0
LINE
  5
3D0
100
AcDbEntity
  8
IMPORT_IGES
100
AcDbLine
 62
7
  6
CONTINUOUS
 10
16.8457916902
 20
-21.72
 11
16.7756223292
 21
-25.8000000589
  0
LWPOLYLINE
  5
3D1
100
AcDbEntity
  8
IMPORT_IGES
100
AcDbPolyline
 62
253
  6
CONTINUOUS
 90
13
 70
0
 10
16.5768744586
 20
-25.2
 10
16.5718330181
 20
-25.277622331
 10
16.5568781372
 20
-25.3536205265
 10
16.5323839369
 20
-25.4267526165
 10
16.4990787651
 20
-25.4954911824
 10
16.4575095659
 20
-25.559175962
 10
16.4075876379
 20
-25.61774199
 10
16.349452773
 20
-25.6703309608
 10
16.2841789535
 20
-25.7153555552
 10
16.2130338671
 20
-25.7515930639
 10
16.1372943133
 20
-25.778175535
 10
16.0581409497
 20
-25.7944817862
 10
15.9769658415
 20
-25.8
  0
LWPOLYLINE
  5
3D2
100
AcDbEntity
  8
IMPORT_IGES
100
AcDbPolyline
 62
7
  6
CONTINUOUS
 90
13
 70
0
 10
16.8454425889
 20
-29.5000003226
 10
16.8402888164
 20
-29.5784651374
 10
16.8249233543
 20
-29.6555577406
 10
16.7996195922
 20
-29.7299567982
 10
16.7648168833
 20
-29.8003957282
 10
16.7211228136
 20
-29.8656639995
 10
16.669310565
 20
-29.9246329952
 10
16.6103181055
 20
-29.9762769757
 10
16.5451357354
 20
-30.0197658101
 10
16.4747751089
 20
-30.0544192305
 10
16.4003871413
 20
-30.0796303217
 10
16.3232711241
 20
-30.0949205102
 10
16.2447447543
 20
-30.0999996938
  0
LWPOLYLINE
  5
3D3
100
AcDbEntity
  8
IMPORT_IGES
100
AcDbPolyline
 62
253
  6
CONTINUOUS
 90
13
 70
0
 10
16.5180363118
 20
-21.9948502539
 10
16.5121207169
 20
-22.0493257779
 10
16.49645945
 20
-22.1026776164
 10
16.4714310376
 20
-22.1540468473
 10
16.4377613673
 20
-22.2023761061
 10
16.3959902919
 20
-22.2472070312
 10
16.3460332047
 20
-22.2884950657
 10
16.2880359391
 20
-22.3256476733
 10
16.2230595
 20
-22.3575662833
 10
16.1523483367
 20
-22.3834032781
 10
16.0771522883
 20
-22.4025537177
 10
15.9986253958
 20
-22.4145818732
 10
15.9181264664
 20
-22.4191257051
  0
LWPOLYLINE
  5
3D4
100
AcDbEntity
  8
IMPORT_IGES
100
AcDbPolyline
 62
253
  6
CONTINUOUS
 90
13
 70
0
 10
16.5719374207
 20
-25.0828427125
 10
16.5659264846
 20
-25.1377918212
 10
16.5499126164
 20
-25.1918154375
 10
16.5241655352
 20
-25.2440036488
 10
16.4891188955
 20
-25.2934774592
 10
16.4453629826
 20
-25.3394035857
 10
16.3936347709
 20
-25.3810084935
 10
16.3348055111
 20
-25.4175914345
 10
16.2698660559
 20
-25.4485362503
 10
16.1999101712
 20
-25.4733217418
 10
16.1261161136
 20
-25.4915304506
 10
16.0497267859
 20
-25.50285569
 10
15.9720288024
 20
-25.5071067107
  0
LWPOLYLINE
  5
3D5
100
AcDbEntity
  8
IMPORT_IGES
100
AcDbPolyline
 62
253
  6
CONTINUOUS
 90
13
 70
0
 10
14.181852947
 20
-17.9403987606
 10
14.1671828378
 20
-17.9978353311
 10
14.1459054244
 20
-18.0553863713
 10
14.1184666732
 20
-18.1108460744
 10
14.0862952595
 20
-18.1614222238
 10
14.0504190448
 20
-18.2061005075
 10
14.0106593978
 20
-18.2451978883
 10
13.9683232877
 20
-18.277265943
 10
13.9248956132
 20
-18.301332325
 10
13.880111753
 20
-18.3174669903
 10
13.8350686356
 20
-18.3248450298
 10
13.7920559305
 20
-18.3230352175
 10
13.7525293188
 20
-18.3125943346
  0
LWPOLYLINE
  5
3D6
100
AcDbEntity
  8
IMPORT_IGES
100
AcDbPolyline
 62
253
  6
CONTINUOUS
 90
13
 70
0
 10
-16.1
 20
17.7479833271
 10
-16.1521501206
 20
17.7458667187
 10
-16.20342923
 20
17.7395498357
 10
-16.2529597872
 20
17.7291358759
 10
-16.2998975101
 20
17.714796533
 10
-16.3434301198
 20
17.6967738098
 10
-16.3827954783
 20
17.6753799705
 10
-16.4173177362
 20
17.6509817501
 10
-16.4464060652
 20
17.6239960621
 10
-16.4695564963
 20
17.5948921009
 10
-16.4863750665
 20
17.5641718491
 10
-16.4965798005
 20
17.5323595786
 10
-16.5
 20
17.5
  0
LINE
  5
3D7
100
AcDbEntity
  8
IMPORT_IGES
100
AcDbLine
 62
253
  6
CONTINUOUS
 10
-16.1
 20
17.7479833271
 11
-14.4568972319
 21
17.7479833271
  0
LINE
  5
3D8
100
AcDbEntity
  8
IMPORT_IGES
100
AcDbLine
 62
253
  6
CONTINUOUS
 10
14.4568972319
 20
17.7479833271
 11
16.1
 21
17.7479833271
  0
LINE
  5
3D9
100
AcDbEntity
  8
IMPORT_IGES
100
AcDbLine
 62
7
  6
CONTINUOUS
 10
-16.1
 20
17.9
 11
-14.4563665915
 21
17.9
  0
LINE
  5
3DA
100
AcDbEntity
  8
IMPORT_IGES
100
AcDbLine
 62
7
  6
CONTINUOUS
 10
16.1
 20
17.9
 11
14.4563665915
 21
17.9
  0
LWPOLYLINE
  5
3DB
100
AcDbEntity
  8
IMPORT_IGES
100
AcDbPolyline
 62
253
  6
CONTINUOUS
 90
13
 70
0
 10
16.3373670309
 20
7.2832812259
 10
16.3105427302
 20
7.3678427681
 10
16.2814853158
 20
7.4514094508
 10
16.2508883569
 20
7.5336905709
 10
16.2201844686
 20
7.6129648883
 10
16.1892910259
 20
7.6906099653
 10
16.1560708264
 20
7.7708426412
 10
16.1195279558
 20
7.8555401505
 10
16.0808105734
 20
7.9419363043
 10
16.0407399225
 20
8.0271522828
 10
15.999920507
 20
8.1101013159
 10
15.9585932439
 20
8.1913202008
 10
15.9171931553
 20
8.2705341358
  0
LWPOLYLINE
  5
3DC
100
AcDbEntity
  8
IMPORT_IGES
100
AcDbPolyline
 62
253
  6
CONTINUOUS
 90
13
 70
0
 10
16.5170741921
 20
7.9474696776
 10
16.5108966343
 20
7.9892697658
 10
16.4947492127
 20
8.0303679522
 10
16.4689030728
 20
8.0700741206
 10
16.43379222
 20
8.1077215298
 10
16.3900062318
 20
8.1426780086
 10
16.3382803574
 20
8.1743565714
 10
16.2794831719
 20
8.2022252752
 10
16.2146019908
 20
8.2258161522
 10
16.1447262915
 20
8.244733067
 10
16.0710294186
 20
8.2586583689
 10
15.9947488818
 20
8.267358226
 10
15.9171655749
 20
8.2706865511
  0
LWPOLYLINE
  5
3DD
100
AcDbEntity
  8
IMPORT_IGES
100
AcDbPolyline
 62
253
  6
CONTINUOUS
 90
13
 70
0
 10
16.5422141458
 20
10.2
 10
16.5360456207
 20
10.2417665375
 10
16.5199150617
 20
10.2828484348
 10
16.4940818024
 20
10.3225552298
 10
16.4589633239
 20
10.3602231876
 10
16.4151424423
 20
10.3952109466
 10
16.3633693058
 20
10.426914375
 10
16.3045125547
 20
10.4548015967
 10
16.2395647696
 20
10.4784023452
 10
16.1696575884
 20
10.4973110989
 10
16.0959864672
 20
10.5112162713
 10
16.0197805681
 20
10.5198970109
 10
15.9423201682
 20
10.5232167617
  0
LWPOLYLINE
  5
3DE
100
AcDbEntity
  8
IMPORT_IGES
100
AcDbPolyline
 62
7
  6
CONTINUOUS
 90
10
 70
0
 10
16.6200334979
 20
-25.9394860562
 10
16.6173525423
 20
-25.960780225
 10
16.6136050117
 20
-25.9836485046
 10
16.6087909061
 20
-26.0080989281
 10
16.6028969821
 20
-26.0341295601
 10
16.5959364832
 20
-26.0617543336
 10
16.5879491393
 20
-26.0910079241
 10
16.5789481941
 20
-26.1219088878
 10
16.568920404
 20
-26.1544547139
 10
16.557865769
 20
-26.1886510843
  0
LWPOLYLINE
  5
3DF
100
AcDbEntity
  8
IMPORT_IGES
100
AcDbPolyline
 62
253
  6
CONTINUOUS
 90
10
 70
0
 10
16.3373642727
 20
-21.4241206223
 10
16.3094070969
 20
-21.5284923564
 10
16.2759200585
 20
-21.638842355
 10
16.2367778676
 20
-21.7539672224
 10
16.1918944744
 20
-21.8741861023
 10
16.1416613011
 20
-21.99603237
 10
16.0876712673
 20
-22.1129161292
 10
16.031631898
 20
-22.222197228
 10
15.9746566727
 20
-22.3245507043
 10
15.9181344064
 20
-22.4191210342
  0
LWPOLYLINE
  5
3E0
100
AcDbEntity
  8
IMPORT_IGES
100
AcDbPolyline
 62
253
  6
CONTINUOUS
 90
10
 70
0
 10
14.4060000007
 20
-20.9069866285
 10
14.4457255101
 20
-20.7881155824
 10
14.4852463492
 20
-20.6643512305
 10
14.5232508278
 20
-20.5373188097
 10
14.5578835716
 20
-20.4090339562
 10
14.5891628658
 20
-20.2806802793
 10
14.6185659624
 20
-20.1522006346
 10
14.6458591184
 20
-20.0241921985
 10
14.6695113654
 20
-19.8982740949
 10
14.688842713
 20
-19.7756157789
  0
LWPOLYLINE
  5
3E1
100
AcDbEntity
  8
IMPORT_IGES
100
AcDbPolyline
 62
253
  6
CONTINUOUS
 90
13
 70
0
 10
12.540299453
 20
-23.7763378057
 10
12.558017185
 20
-23.7440286855
 10
12.577465794
 20
-23.7145391395
 10
12.5981706089
 20
-23.6880106777
 10
12.6195648537
 20
-23.6650782137
 10
12.6412542157
 20
-23.6453627923
 10
12.6634939619
 20
-23.6274094777
 10
12.6868491463
 20
-23.6114799053
 10
12.7108964009
 20
-23.5979568252
 10
12.7356367151
 20
-23.5853865688
 10
12.7619331096
 20
-23.5739755033
 10
12.7895325361
 20
-23.565172793
 10
12.817576447
 20
-23.5596443399
  0
LWPOLYLINE
  5
3E2
100
AcDbEntity
  8
IMPORT_IGES
100
AcDbPolyline
 62
253
  6
CONTINUOUS
 90
19
 70
0
 10
-7.2445847288
 20
-26.3435020028
 10
-7.0582491662
 20
-26.2679762344
 10
-6.9737728498
 20
-26.2329914898
 10
-6.8869955646
 20
-26.1984599214
 10
-6.7971666989
 20
-26.1650862444
 10
-6.7055135879
 20
-26.132113535
 10
-6.6067711811
 20
-26.0978232669
 10
-6.4974170777
 20
-26.0616766905
 10
-6.3809297892
 20
-26.0254719567
 10
-6.2625248213
 20
-25.9910375109
 10
-6.147704942
 20
-25.9593331618
 10
-6.031938765
 20
-25.9294307143
 10
-5.9054291461
 20
-25.900471786
 10
-5.7626583982
 20
-25.8723964517
 10
-5.6102059244
 20
-25.8472593144
 10
-5.456335055
 20
-25.827116829
 10
-5.3041736444
 20
-25.8124583439
 10
-5.1518695826
 20
-25.8032314392
 10
-5.0000632193
 20
-25.8000001857
  0
LINE
  5
3E3
100
AcDbEntity
  8
IMPORT_IGES
100
AcDbLine
 62
7
  6
CONTINUOUS
 10
7.1
 20
21.4
 11
-7.1
 21
21.4
  0
LINE
  5
3E4
100
AcDbEntity
  8
IMPORT_IGES
100
AcDbLine
 62
7
  6
CONTINUOUS
 10
-8.016515139
 20
22.0
 11
8.016515139
 21
22.0
  0
LINE
  5
3E5
100
AcDbEntity
  8
IMPORT_IGES
100
AcDbLine
 62
7
  6
CONTINUOUS
 10
6.5
 20
23.0
 11
-6.5
 21
23.0
  0
LINE
  5
3E6
100
AcDbEntity
  8
IMPORT_IGES
100
AcDbLine
 62
7
  6
CONTINUOUS
 10
-8.1
 20
26.7317406817
 11
-6.5
 21
26.7317406817
  0
LINE
  5
3E7
100
AcDbEntity
  8
IMPORT_IGES
100
AcDbLine
 62
7
  6
CONTINUOUS
 10
6.5
 20
26.7317406817
 11
8.1
 21
26.7317406817
  0
LWPOLYLINE
  5
3E8
100
AcDbEntity
  8
IMPORT_IGES
100
AcDbPolyline
 62
253
  6
CONTINUOUS
 90
9
 70
0
 10
9.3119186233
 20
-37.6
 10
9.2831032151
 20
-37.6435045716
 10
9.2489053447
 20
-37.6828427125
 10
9.2099101471
 20
-37.7173413361
 10
9.1667848411
 20
-37.7464101615
 10
9.1202673126
 20
-37.769551813
 10
9.0711534893
 20
-37.7863703305
 10
9.0202837224
 20
-37.7965779445
 10
8.9685284077
 20
-37.8
  0
LWPOLYLINE
  5
3E9
100
AcDbEntity
  8
IMPORT_IGES
100
AcDbPolyline
 62
7
  6
CONTINUOUS
 90
10
 70
0
 10
16.6358132689
 20
-25.8000018924
 10
16.6340289348
 20
-25.8017533678
 10
16.6322507821
 20
-25.8069550485
 10
16.6304788107
 20
-25.8156069347
 10
16.6287109977
 20
-25.8277271322
 10
16.6269493661
 20
-25.8432975352
 10
16.6251999844
 20
-25.8622638259
 10
16.6234648758
 20
-25.8846078985
 10
16.6217420173
 20
-25.910347859
 10
16.6200314089
 20
-25.9394837071
  0
LWPOLYLINE
  5
3EA
100
AcDbEntity
  8
IMPORT_IGES
100
AcDbPolyline
 62
253
  6
CONTINUOUS
 90
3
 70
0
 10
-14.3683810635
 20
37.202566628
 10
-14.3838119144
 20
37.2023508387
 10
-14.3889892979
 20
37.2020943908
  0
LINE
  5
3EB
100
AcDbEntity
  8
IMPORT_IGES
100
AcDbLine
 62
253
  6
CONTINUOUS
 10
-14.3080477368
 20
37.2028623859
 11
-14.3683810635
 21
37.202566628
  0
LINE
  5
3EC
100
AcDbEntity
  8
IMPORT_IGES
100
AcDbLine
 62
253
  6
CONTINUOUS
 10
-13.7889929533
 20
37.2020943908
 11
14.214250008
 21
37.2029618897
  0
LINE
  5
3ED
100
AcDbEntity
  8
IMPORT_IGES
100
AcDbLine
 62
7
  6
CONTINUOUS
 10
-13.7889929533
 20
37.8
 11
13.7889929533
 21
37.8
  0
LINE
  5
3EE
100
AcDbEntity
  8
IMPORT_IGES
100
AcDbLine
 62
253
  6
CONTINUOUS
 10
-13.9433187614
 20
37.2025626198
 11
-14.3080477368
 21
37.2028623859
  0
LINE
  5
3EF
100
AcDbEntity
  8
IMPORT_IGES
100
AcDbLine
 62
253
  6
CONTINUOUS
 10
-13.7889929533
 20
37.2020943908
 11
-13.9433187614
 21
37.2025626198
  0
LWPOLYLINE
  5
3F0
100
AcDbEntity
  8
IMPORT_IGES
100
AcDbPolyline
 62
253
  6
CONTINUOUS
 90
5
 70
0
 10
14.388989298
 20
37.2020943908
 10
14.3839287838
 20
37.2023481436
 10
14.3688006611
 20
37.2025626198
 10
14.3438108539
 20
37.2027339807
 10
14.214250008
 20
37.2029618897
  0
ARC
  5
3F1
100
AcDbEntity
  8
IMPORT_IGES
100
AcDbCircle
 62
7
  6
CONTINUOUS
 10
-9.0
 20
-26.8
 40
1.0
100
AcDbArc
 50
0.0000253351
 51
90.0000000001
  0
ARC
  5
3F2
100
AcDbEntity
  8
IMPORT_IGES
100
AcDbCircle
 62
253
  6
CONTINUOUS
 10
-12.3
 20
-0.8
 40
0.8999899141
100
AcDbArc
 50
90.0000675272
 51
269.9999324387
  0
ARC
  5
3F3
100
AcDbEntity
  8
IMPORT_IGES
100
AcDbCircle
 62
253
  6
CONTINUOUS
 10
-12.3
 20
-14.2
 40
0.8999899141
100
AcDbArc
 50
90.0000675272
 51
269.9999324387
  0
ARC
  5
3F4
100
AcDbEntity
  8
IMPORT_IGES
100
AcDbCircle
 62
7
  6
CONTINUOUS
 10
-12.3
 20
-0.8
 40
0.7
100
AcDbArc
 50
90.0002909499
 51
270.0
  0
ARC
  5
3F5
100
AcDbEntity
  8
IMPORT_IGES
100
AcDbCircle
 62
7
  6
CONTINUOUS
 10
-12.3
 20
-14.2
 40
0.7
100
AcDbArc
 50
90.0002025814
 51
270.0
  0
ARC
  5
3F6
100
AcDbEntity
  8
IMPORT_IGES
100
AcDbCircle
 62
7
  6
CONTINUOUS
 10
-9.6
 20
-37.2
 40
0.6
100
AcDbArc
 50
270.0000000002
 51
305.4523349622
  0
ARC
  5
3F7
100
AcDbEntity
  8
IMPORT_IGES
100
AcDbCircle
 62
7
  6
CONTINUOUS
 10
-12.7
 20
-30.7
 40
0.6
100
AcDbArc
 50
0.0
 51
89.9999999914
  0
ARC
  5
3F8
100
AcDbEntity
  8
IMPORT_IGES
100
AcDbCircle
 62
7
  6
CONTINUOUS
 10
-11.5
 20
-37.2
 40
0.6
100
AcDbArc
 50
179.9999999998
 51
269.9999999996
  0
ARC
  5
3F9
100
AcDbEntity
  8
IMPORT_IGES
100
AcDbCircle
 62
7
  6
CONTINUOUS
 10
-9.6
 20
-29.5
 40
0.6
100
AcDbArc
 50
270.000156309
 51
359.9999974053
  0
ARC
  5
3FA
100
AcDbEntity
  8
IMPORT_IGES
100
AcDbCircle
 62
253
  6
CONTINUOUS
 10
-12.3
 20
-0.8
 40
0.499994892
100
AcDbArc
 50
90.0000969827
 51
269.9999030173
  0
ARC
  5
3FB
100
AcDbEntity
  8
IMPORT_IGES
100
AcDbCircle
 62
253
  6
CONTINUOUS
 10
-12.3
 20
-14.2
 40
0.499994892
100
AcDbArc
 50
90.0000969827
 51
269.9999030173
  0
ARC
  5
3FC
100
AcDbEntity
  8
IMPORT_IGES
100
AcDbCircle
 62
7
  6
CONTINUOUS
 10
-8.9755026739
 20
-37.4
 40
0.4
100
AcDbArc
 50
180.0
 51
270.0000000007
  0
ARC
  5
3FD
100
AcDbEntity
  8
IMPORT_IGES
100
AcDbCircle
 62
7
  6
CONTINUOUS
 10
-8.9755026739
 20
-36.2
 40
0.4
100
AcDbArc
 50
89.9999999986
 51
180.0000000003
  0
ARC
  5
3FE
100
AcDbEntity
  8
IMPORT_IGES
100
AcDbCircle
 62
7
  6
CONTINUOUS
 10
-13.606
 20
-24.0
 40
0.4
100
AcDbArc
 50
180.0
 51
270.0
  0
ARC
  5
3FF
100
AcDbEntity
  8
IMPORT_IGES
100
AcDbCircle
 62
7
  6
CONTINUOUS
 10
-14.406
 20
-25.4
 40
0.4
100
AcDbArc
 50
270.0000000556
 51
360.0
  0
ARC
  5
400
100
AcDbEntity
  8
IMPORT_IGES
100
AcDbCircle
 62
7
  6
CONTINUOUS
 10
-8.4
 20
-35.4
 40
0.4
100
AcDbArc
 50
269.9999999988
 51
360.0
  0
ARC
  5
401
100
AcDbEntity
  8
IMPORT_IGES
100
AcDbCircle
 62
253
  6
CONTINUOUS
 10
-13.606
 20
-24.0
 40
0.1
100
AcDbArc
 50
180.0
 51
270.0
  0
ARC
  5
402
100
AcDbEntity
  8
IMPORT_IGES
100
AcDbCircle
 62
7
  6
CONTINUOUS
 10
-7.1
 20
22.4
 40
1.0
100
AcDbArc
 50
180.0
 51
270.0
  0
ARC
  5
403
100
AcDbEntity
  8
IMPORT_IGES
100
AcDbCircle
 62
7
  6
CONTINUOUS
 10
-13.8
 20
4.6
 40
0.8
100
AcDbArc
 50
151.1635105503
 51
172.4989707564
  0
ARC
  5
404
100
AcDbEntity
  8
IMPORT_IGES
100
AcDbCircle
 62
7
  6
CONTINUOUS
 10
-13.7889929533
 20
37.2
 40
0.6
100
AcDbArc
 50
90.0
 51
179.8
  0
ARC
  5
405
100
AcDbEntity
  8
IMPORT_IGES
100
AcDbCircle
 62
7
  6
CONTINUOUS
 10
-16.1
 20
17.5
 40
0.4
100
AcDbArc
 50
90.0
 51
180.0
  0
ARC
  5
406
100
AcDbEntity
  8
IMPORT_IGES
100
AcDbCircle
 62
7
  6
CONTINUOUS
 10
-6.0
 20
4.3
 40
0.2
100
AcDbArc
 50
0.0
 51
90.0
  0
ARC
  5
407
100
AcDbEntity
  8
IMPORT_IGES
100
AcDbCircle
 62
7
  6
CONTINUOUS
 10
-10.0
 20
4.3
 40
0.2
100
AcDbArc
 50
90.0
 51
180.0
  0
ARC
  5
408
100
AcDbEntity
  8
IMPORT_IGES
100
AcDbCircle
 62
7
  6
CONTINUOUS
 10
9.0
 20
-26.8
 40
1.0
100
AcDbArc
 50
90.0000022303
 51
179.9999746649
  0
ARC
  5
409
100
AcDbEntity
  8
IMPORT_IGES
100
AcDbCircle
 62
253
  6
CONTINUOUS
 10
12.3
 20
-0.8
 40
0.8999899141
100
AcDbArc
 50
270.0000675613
 51
90.0
  0
ARC
  5
40A
100
AcDbEntity
  8
IMPORT_IGES
100
AcDbCircle
 62
253
  6
CONTINUOUS
 10
12.3
 20
-14.2
 40
0.8999899141
100
AcDbArc
 50
270.0000675613
 51
90.0
  0
ARC
  5
40B
100
AcDbEntity
  8
IMPORT_IGES
100
AcDbCircle
 62
7
  6
CONTINUOUS
 10
12.3
 20
-0.8
 40
0.7
100
AcDbArc
 50
270.0002909496
 51
90.0
  0
ARC
  5
40C
100
AcDbEntity
  8
IMPORT_IGES
100
AcDbCircle
 62
7
  6
CONTINUOUS
 10
12.3
 20
-14.2
 40
0.7
100
AcDbArc
 50
270.0002046449
 51
90.0
  0
ARC
  5
40D
100
AcDbEntity
  8
IMPORT_IGES
100
AcDbCircle
 62
7
  6
CONTINUOUS
 10
11.5
 20
-37.2
 40
0.6
100
AcDbArc
 50
270.0000000003
 51
360.0
  0
ARC
  5
40E
100
AcDbEntity
  8
IMPORT_IGES
100
AcDbCircle
 62
7
  6
CONTINUOUS
 10
9.6
 20
-29.5
 40
0.6
100
AcDbArc
 50
179.9999999994
 51
269.9997486638
  0
ARC
  5
40F
100
AcDbEntity
  8
IMPORT_IGES
100
AcDbCircle
 62
7
  6
CONTINUOUS
 10
12.7
 20
-30.7
 40
0.6
100
AcDbArc
 50
90.0000000002
 51
180.0000000003
  0
ARC
  5
410
100
AcDbEntity
  8
IMPORT_IGES
100
AcDbCircle
 62
7
  6
CONTINUOUS
 10
9.6
 20
-37.2
 40
0.6
100
AcDbArc
 50
234.5436382874
 51
269.9999999998
  0
ARC
  5
411
100
AcDbEntity
  8
IMPORT_IGES
100
AcDbCircle
 62
253
  6
CONTINUOUS
 10
12.3
 20
-0.8
 40
0.499994892
100
AcDbArc
 50
270.0000000001
 51
89.9999030173
  0
ARC
  5
412
100
AcDbEntity
  8
IMPORT_IGES
100
AcDbCircle
 62
253
  6
CONTINUOUS
 10
12.3
 20
-14.2
 40
0.499994892
100
AcDbArc
 50
270.0000000001
 51
89.9999030173
  0
ARC
  5
413
100
AcDbEntity
  8
IMPORT_IGES
100
AcDbCircle
 62
7
  6
CONTINUOUS
 10
8.9755026739
 20
-36.2
 40
0.4
100
AcDbArc
 50
0.0
 51
90.0000000014
  0
ARC
  5
414
100
AcDbEntity
  8
IMPORT_IGES
100
AcDbCircle
 62
7
  6
CONTINUOUS
 10
8.9755026739
 20
-37.4
 40
0.4
100
AcDbArc
 50
269.9999999993
 51
360.0
  0
ARC
  5
415
100
AcDbEntity
  8
IMPORT_IGES
100
AcDbCircle
 62
7
  6
CONTINUOUS
 10
13.606
 20
-24.0
 40
0.4
100
AcDbArc
 50
270.0
 51
359.9999999964
  0
ARC
  5
416
100
AcDbEntity
  8
IMPORT_IGES
100
AcDbCircle
 62
7
  6
CONTINUOUS
 10
8.4
 20
-35.4
 40
0.4
100
AcDbArc
 50
179.9999999974
 51
270.0012032773
  0
ARC
  5
417
100
AcDbEntity
  8
IMPORT_IGES
100
AcDbCircle
 62
7
  6
CONTINUOUS
 10
14.406
 20
-25.4
 40
0.4
100
AcDbArc
 50
179.9999999999
 51
270.0
  0
ARC
  5
418
100
AcDbEntity
  8
IMPORT_IGES
100
AcDbCircle
 62
253
  6
CONTINUOUS
 10
13.606
 20
-24.0
 40
0.1
100
AcDbArc
 50
270.0
 51
360.0
  0
ARC
  5
419
100
AcDbEntity
  8
IMPORT_IGES
100
AcDbCircle
 62
7
  6
CONTINUOUS
 10
7.1
 20
22.4
 40
1.0
100
AcDbArc
 50
270.0
 51
360.0
  0
ARC
  5
41A
100
AcDbEntity
  8
IMPORT_IGES
100
AcDbCircle
 62
7
  6
CONTINUOUS
 10
13.8
 20
9.0
 40
0.8
100
AcDbArc
 50
329.4878086097
 51
359.999005168
  0
ARC
  5
41B
100
AcDbEntity
  8
IMPORT_IGES
100
AcDbCircle
 62
7
  6
CONTINUOUS
 10
13.7889929533
 20
37.2
 40
0.6
100
AcDbArc
 50
0.2
 51
90.0
  0
ARC
  5
41C
100
AcDbEntity
  8
IMPORT_IGES
100
AcDbCircle
 62
7
  6
CONTINUOUS
 10
16.1
 20
17.5
 40
0.4
100
AcDbArc
 50
0.0
 51
90.0
  0
ARC
  5
41D
100
AcDbEntity
  8
IMPORT_IGES
100
AcDbCircle
 62
7
  6
CONTINUOUS
 10
6.0
 20
4.3
 40
0.2
100
AcDbArc
 50
90.0
 51
180.0
  0
ARC
  5
41E
100
AcDbEntity
  8
IMPORT_IGES
100
AcDbCircle
 62
7
  6
CONTINUOUS
 10
10.0
 20
4.3
 40
0.2
100
AcDbArc
 50
0.0
 51
90.0
  0
ELLIPSE
  5
41F
100
AcDbEntity
  8
IMPORT_IGES
100
AcDbEllipse
 62
7
  6
CONTINUOUS
 10
-16.2457002934
 20
6.8
 30
0.0
 11
-0.6000913968
 21
0.0
 31
0.0
 40
0.9998476952
 41
5.735537618
 42
6.2831853072
  0
ELLIPSE
  5
420
100
AcDbEntity
  8
IMPORT_IGES
100
AcDbEllipse
 62
7
  6
CONTINUOUS
 10
-16.1849566674
 20
-25.2
 30
0.0
 11
-0.4317342529
 21
0.4242640687
 31
0.0
 40
0.9826972631
 41
0.7853981634
 42
2.3561944902
  0
ELLIPSE
  5
421
100
AcDbEntity
  8
IMPORT_IGES
100
AcDbEllipse
 62
7
  6
CONTINUOUS
 10
16.1849566674
 20
-25.2
 30
0.0
 11
0.4317342529
 21
0.4242640687
 31
0.0
 40
0.9826972631
 41
3.926990817
 42
5.4977871438
  0
ELLIPSE
  5
422
100
AcDbEntity
  8
IMPORT_IGES
100
AcDbEllipse
 62
7
  6
CONTINUOUS
 10
16.2457002934
 20
6.8
 30
0.0
 11
0.6000913968
 21
-0.0
 31
0.0
 40
0.9998476952
 41
-0.0
 42
0.5471197178
  0
ELLIPSE
  5
423
100
AcDbEntity
  8
IMPORT_IGES
100
AcDbEllipse
 62
7
  6
CONTINUOUS
 10
13.7575920159
 20
3.9877344947
 30
0.0
 11
0.0
 21
1.4
 31
0.0
 40
0.4285714286
 41
-3.1415926536
 42
-2.3561944902
  0
ENDSEC
  0
SECTION
  2
OBJECTS
  0
DICTIONARY
  5
C
100
AcDbDictionary
280
0
281
1
  3
ACAD_GROUP
350
D
  3
ACAD_MLINESTYLE
350
17
  3
ACAD_LAYOUT
350
1A
  3
ACAD_PLOTSETTINGS
350
19
  3
ACAD_PLOTSTYLENAME
350
E
  0
DICTIONARY
  5
D
102
{ACAD_REACTORS
330
C
102
}
100
AcDbDictionary
280
0
281
1
  0
ACDBDICTIONARYWDFLT
  5
E
102
{ACAD_REACTORS
330
C
102
}
100
AcDbDictionary
281
1
  3
Normal
350
F
100
AcDbDictionaryWithDefault
340
F
  0
DICTIONARY
  5
17
102
{ACAD_REACTORS
330
C
102
}
100
AcDbDictionary
280
0
281
1
  3
Standard
350
18
  0
DICTIONARY
  5
19
102
{ACAD_REACTORS
330
C
102
}
100
AcDbDictionary
281
1
  0
DICTIONARY
  5
1A
102
{ACAD_REACTORS
330
C
102
}
100
AcDbDictionary
281
1
  3
Model
350
424
  3
Layout1
350
425
  0
ACDBPLACEHOLDER
  5
F
102
{ACAD_REACTORS
330
E
102
}
  0
MLINESTYLE
  5
18
102
{ACAD_REACTORS
330
17
102
}
100
AcDbMlineStyle
  2
STANDARD
 70
0
  3

 62
256
 51
90.0
 52
90.0
 71
2
 49
0.5
 62
256
  6
BYLAYER
 49
-0.5
 62
256
  6
BYLAYER
  0
LAYOUT
  5
424
102
{ACAD_REACTORS
330
1A
102
}
100
AcDbPlotSettings
  1

  2
none_device
  4
ANSI_C_(22.00_x_17.00_Inches)
  6

 40
0.0
 41
0.0
 42
0.0
 43
0.0
 44
558.8
 45
431.8
 46
0.0
 47
0.0
 48
0.0
 49
0.0
140
0.0
141
0.0
142
1.0
143
1.0
 70
1024
 72
1
 73
0
 74
0
  7

 75
0
147
1.0
148
0.0
149
0.0
100
AcDbLayout
  1
Model
 70
0
 71
0
 10
0.0
 20
0.0
 11
558.8
 21
431.8
 12
0.0
 22
0.0
 32
0.0
 14
0.0
 24
0.0
 34
0.0
 15
0.0
 25
0.0
 35
0.0
146
0.0
 13
0.0
 23
0.0
 33
0.0
 16
1.0
 26
0.0
 36
0.0
 17
0.0
 27
1.0
 37
0.0
 76
0
330
213
345
0
346
0
  0
LAYOUT
  5
425
102
{ACAD_REACTORS
330
1A
102
}
100
AcDbPlotSettings
  1

  2
none_device
  4
ANSI_C_(22.00_x_17.00_Inches)
  6

 40
0.0
 41
0.0
 42
0.0
 43
0.0
 44
558.8
 45
431.8
 46
0.0
 47
0.0
 48
0.0
 49
0.0
140
0.0
141
0.0
142
1.0
143
1.0
 70
0
 72
1
 73
0
 74
0
  7

 75
0
147
1.0
148
0.0
149
0.0
100
AcDbLayout
  1
Layout1
 70
0
 71
1
 10
0.0
 20
0.0
 11
558.8
 21
431.8
 12
0.0
 22
0.0
 32
0.0
 14
0.0
 24
0.0
 34
0.0
 15
0.0
 25
0.0
 35
0.0
146
0.0
 13
0.0
 23
0.0
 33
0.0
 16
1.0
 26
0.0
 36
0.0
 17
0.0
 27
1.0
 37
0.0
 76
0
330
214
345
0
346
0
  0
ENDSEC
  0
EOF
