  0
SECTION
  2
HEADER
  9
$ACADVER
  1
AC1015
  9
$DWGCODEPAGE
  3
ANSI_1252
  9
$EXTMAX
 10
594.0
 20
420.0
 30
0.0
  9
$EXTMIN
 10
0.0
 20
0.0
 30
0.0
  9
$LIMMIN
 10
0.0
 20
0.0
  9
$LIMMAX
 10
594.0
 20
420.0
  9
$VIEWCTR
 10
297.0
 20
210.0
  9
$VIEWSIZE
 40
420.0
  9
$CLAYER
  8
0
  9
$LTSCALE
 40
32.67
  9
$CELTYPE
  6
BYLAYER
  9
$DIMSCALE
 40
1.0
  9
$DIMASZ
 40
3.0
  9
$DIMEXO
 40
3.7125
  9
$DIMDLI
 40
22.572
  9
$DIMEXE
 40
10.692
  9
$DIMCEN
 40
5.346
  9
$DIMLFAC
 40
1.0
  9
$DIMBLK
  1
_FILLED
  9
$DIMTXT
 40
3.0
  9
$DIMTOL
 70
1
  9
$DIMLIM
 70
0
  9
$DIMTFAC
 40
1.0
  9
$DIMTP
 40
0.01
  9
$DIMTM
 40
0.01
  9
$PDMODE
 70
3
  9
$PDSIZE
 40
3.0
  9
$HANDSEED
  5
499
  9
$TILEMODE
 70
1
  9
$MEASUREMENT
 70
1
  9
$INSUNITS
 70
4
  0
ENDSEC
  0
SECTION
  2
CLASSES
  0
CLASS
  1
ACDBDICTIONARYWDFLT
  2
AcDbDictionaryWithDefault
  3
AutoCAD 2000
 90
0
280
0
281
0
  0
CLASS
  1
ACDBPLACEHOLDER
  2
AcDbPlaceHolder
  3
AutoCAD 2000
 90
0
280
0
281
0
  0
CLASS
  1
LAYOUT
  2
AcDbLayout
  3
AutoCAD 2000
 90
0
280
0
281
0
  0
ENDSEC
  0
SECTION
  2
TABLES
  0
TABLE
  2
VPORT
  5
8
100
AcDbSymbolTable
 70
2
  0
VPORT
  5
1F4
100
AcDbSymbolTableRecord
100
AcDbViewportTableRecord
  2
*ACTIVE
 70
0
 10
0.0
 20
0.0
 11
1.0
 21
1.0
 12
297.0
 22
210.0
 13
0.0
 23
0.0
 14
1.0
 24
1.0
 15
0.0
 25
0.0
 16
0.0
 26
0.0
 36
1.0
 17
0.0
 27
0.0
 37
0.0
 40
420.0
 41
1.4142857143
 42
50.0
 43
0.0
 44
0.0
 50
0.0
 51
0.0
 71
0
 72
100
 73
1
 74
1
 75
0
 76
0
 77
0
 78
0
  0
ENDTAB
  0
TABLE
  2
LTYPE
  5
5
100
AcDbSymbolTable
 70
6
  0
LTYPE
  5
14
100
AcDbSymbolTableRecord
100
AcDbLinetypeTableRecord
  2
BYBLOCK
 70
0
  3

 72
65
 73
0
 40
0.0
  0
LTYPE
  5
15
100
AcDbSymbolTableRecord
100
AcDbLinetypeTableRecord
  2
BYLAYER
 70
0
  3

 72
65
 73
0
 40
0.0
  0
LTYPE
  5
16
100
AcDbSymbolTableRecord
100
AcDbLinetypeTableRecord
  2
CONTINUOUS
 70
64
  3
Solid line
 72
65
 73
0
 40
0.0
  0
LTYPE
  5
1F5
100
AcDbSymbolTableRecord
100
AcDbLinetypeTableRecord
  2
CENTER
 70
64
  3
____ _ ____ _ ____ _ ____ _ ____ _ ____ _ ____
 72
65
 73
4
 40
0.6
 49
0.375
 74
0
 49
-0.075
 74
0
 49
0.075
 74
0
 49
-0.075
 74
0
  0
LTYPE
  5
1F6
100
AcDbSymbolTableRecord
100
AcDbLinetypeTableRecord
  2
HIDDEN
 70
64
  3
- - - - - - - - - - - - - - - - - - - -
 72
65
 73
2
 40
0.2
 49
0.1
 74
0
 49
-0.1
 74
0
  0
LTYPE
  5
1F7
100
AcDbSymbolTableRecord
100
AcDbLinetypeTableRecord
  2
PHANTOM
 70
64
  3
_____ _ _ _____ _ _ _____ _ _ _____
 72
65
 73
6
 40
0.8
 49
0.45
 74
0
 49
-0.05
 74
0
 49
0.1
 74
0
 49
-0.05
 74
0
 49
0.1
 74
0
 49
-0.05
 74
0
  0
LTYPE
  5
1F8
100
AcDbSymbolTableRecord
100
AcDbLinetypeTableRecord
  2
DOT
 70
64
  3
. . . . . . . . . . . . . . . . . . . .
 72
65
 73
2
 40
0.2
 49
0.1
 74
0
 49
-0.1
 74
0
  0
LTYPE
  5
1F9
100
AcDbSymbolTableRecord
100
AcDbLinetypeTableRecord
  2
DASHED
 70
64
  3
- - - - - - - - - - - - - - - - - - - -
 72
65
 73
2
 40
0.2
 49
0.1
 74
0
 49
-0.1
 74
0
  0
ENDTAB
  0
TABLE
  2
LAYER
  5
2
100
AcDbSymbolTable
 70
36
  0
LAYER
  5
10
100
AcDbSymbolTableRecord
100
AcDbLayerTableRecord
  2
0
 70
0
 62
7
  6
CONTINUOUS
370
-3
390
F
  0
LAYER
  5
1FA
100
AcDbSymbolTableRecord
100
AcDbLayerTableRecord
  2
DEFAULT_1
 70
0
 62
7
  6
CENTER
370
-3
390
F
  0
LAYER
  5
1FB
100
AcDbSymbolTableRecord
100
AcDbLayerTableRecord
  2
DEFAULT_2
 70
0
 62
7
  6
HIDDEN
370
-3
390
F
  0
LAYER
  5
1FC
100
AcDbSymbolTableRecord
100
AcDbLayerTableRecord
  2
DEFAULT_3
 70
0
 62
7
  6
PHANTOM
370
-3
390
F
  0
LAYER
  5
1FD
100
AcDbSymbolTableRecord
100
AcDbLayerTableRecord
  2
ASSI
 70
0
 62
7
  6
CONTINUOUS
370
-3
390
F
  0
LAYER
  5
1FE
100
AcDbSymbolTableRecord
100
AcDbLayerTableRecord
  2
COORDINATE
 70
0
 62
7
  6
CONTINUOUS
370
-3
390
F
  0
LAYER
  5
1FF
100
AcDbSymbolTableRecord
100
AcDbLayerTableRecord
  2
COPY_PUBLISH
 70
0
 62
7
  6
CONTINUOUS
370
-3
390
F
  0
LAYER
  5
200
100
AcDbSymbolTableRecord
100
AcDbLayerTableRecord
  2
COSMETICI
 70
0
 62
7
  6
CONTINUOUS
370
-3
390
F
  0
LAYER
  5
201
100
AcDbSymbolTableRecord
100
AcDbLayerTableRecord
  2
CURVE
 70
0
 62
7
  6
CONTINUOUS
370
-3
390
F
  0
LAYER
  5
202
100
AcDbSymbolTableRecord
100
AcDbLayerTableRecord
  2
DRAFT
 70
0
 62
7
  6
CONTINUOUS
370
-3
390
F
  0
LAYER
  5
203
100
AcDbSymbolTableRecord
100
AcDbLayerTableRecord
  2
IMPORT_IGES
 70
0
 62
7
  6
CONTINUOUS
370
-3
390
F
  0
LAYER
  5
204
100
AcDbSymbolTableRecord
100
AcDbLayerTableRecord
  2
NOTE
 70
0
 62
7
  6
CONTINUOUS
370
-3
390
F
  0
LAYER
  5
205
100
AcDbSymbolTableRecord
100
AcDbLayerTableRecord
  2
PIANI
 70
0
 62
7
  6
CONTINUOUS
370
-3
390
F
  0
LAYER
  5
206
100
AcDbSymbolTableRecord
100
AcDbLayerTableRecord
  2
PUNTI
 70
0
 62
7
  6
CONTINUOUS
370
-3
390
F
  0
LAYER
  5
207
100
AcDbSymbolTableRecord
100
AcDbLayerTableRecord
  2
RACCORDO
 70
0
 62
7
  6
CONTINUOUS
370
-3
390
F
  0
LAYER
  5
208
100
AcDbSymbolTableRecord
100
AcDbLayerTableRecord
  2
SIMBOLI
 70
0
 62
7
  6
CONTINUOUS
370
-3
390
F
  0
LAYER
  5
209
100
AcDbSymbolTableRecord
100
AcDbLayerTableRecord
  2
SMUSSO
 70
0
 62
7
  6
CONTINUOUS
370
-3
390
F
  0
LAYER
  5
20A
100
AcDbSymbolTableRecord
100
AcDbLayerTableRecord
  2
SNAPLINE
 70
0
 62
7
  6
CONTINUOUS
370
-3
390
F
  0
LAYER
  5
20B
100
AcDbSymbolTableRecord
100
AcDbLayerTableRecord
  2
SUPERFICI
 70
0
 62
7
  6
CONTINUOUS
370
-3
390
F
  0
LAYER
  5
20C
100
AcDbSymbolTableRecord
100
AcDbLayerTableRecord
  2
TRASH
 70
0
 62
7
  6
CONTINUOUS
370
-3
390
F
  0
ENDTAB
  0
TABLE
  2
STYLE
  5
3
100
AcDbSymbolTable
 70
1
  0
STYLE
  5
11
100
AcDbSymbolTableRecord
100
AcDbTextStyleTableRecord
  2
STANDARD
 70
0
 40
0.0
 41
0.8
 50
0.0
 71
0
 42
0.2
  3
txt
  4

  0
STYLE
  5
20D
100
AcDbSymbolTableRecord
100
AcDbTextStyleTableRecord
  2
TEXTSTYLE_1
 70
0
 40
0.0
 41
0.8
 50
0.0
 71
0
 42
0.2
  3
gdt
  4

  0
ENDTAB
  0
TABLE
  2
VIEW
  5
6
100
AcDbSymbolTable
 70
0
  0
ENDTAB
  0
TABLE
  2
UCS
  5
7
100
AcDbSymbolTable
 70
0
  0
ENDTAB
  0
TABLE
  2
APPID
  5
9
100
AcDbSymbolTable
 70
1
  0
APPID
  5
20E
100
AcDbSymbolTableRecord
100
AcDbRegAppTableRecord
  2
ACAD
 70
0
  0
ENDTAB
  0
TABLE
  2
BLOCK_RECORD
  5
1
100
AcDbSymbolTable
 70
0
  0
BLOCK_RECORD
  5
20F
100
AcDbSymbolTableRecord
100
AcDbBlockTableRecord
  2
*Model_Space
  0
BLOCK_RECORD
  5
210
100
AcDbSymbolTableRecord
100
AcDbBlockTableRecord
  2
*Paper_Space
  0
ENDTAB
  0
TABLE
  2
DIMSTYLE
  5
A
100
AcDbSymbolTable
 70
1
100
AcDbDimStyleTable
 71
0
  0
DIMSTYLE
105
211
100
AcDbSymbolTableRecord
100
AcDbDimStyleTableRecord
  2
STANDARD
 70
0
  3

  4

 40
1.0
 41
3.0
 42
0.0625
 43
0.38
 44
0.18
 45
0.0
 46
0.0
 47
0.01
 48
0.01
140
3.0
141
0.09
142
0.0
143
25.4
144
1.0
145
0.0
146
1.0
147
0.09
 71
1.0
 72
0.0
 73
0
 74
0
 75
0
 76
0
 77
1
 78
8
170
0
171
2
172
0
173
0
174
0
175
0
176
0
177
0
178
0
270
2
271
2
272
2
273
2
274
2
275
0
280
0
281
0
282
0
283
1
284
8
285
0
286
0
287
3
288
0
340
11
  0
ENDTAB
  0
ENDSEC
  0
SECTION
  2
BLOCKS
  0
BLOCK
  5
20
100
AcDbEntity
  8
0
100
AcDbBlockBegin
  2
*Model_Space
 70
0
 10
0.0
 20
0.0
 30
0.0
  3
*Model_Space
  1

  0
ENDBLK
  5
21
100
AcDbEntity
  8
0
100
AcDbBlockEnd
  0
BLOCK
  5
1C
100
AcDbEntity
  8
0
100
AcDbBlockBegin
  2
*Paper_Space
 70
0
 10
0.0
 20
0.0
 30
0.0
  3
*Paper_Space
  1

  0
ENDBLK
  5
1D
100
AcDbEntity
  8
0
100
AcDbBlockEnd
  0
ENDSEC
  0
SECTION
  2
ENTITIES
  0
LINE
  5
212
100
AcDbEntity
  8
RACCORDO
100
AcDbLine
 62
7
  6
CONTINUOUS
 10
-248.4905263158
 20
-18.1936842105
 11
-248.4905263158
 21
21.8063157895
  0
LWPOLYLINE
  5
213
100
AcDbEntity
  8
ASSI
100
AcDbPolyline
 62
7
  6
CONTINUOUS
 90
40
 70
0
 10
-219.1905263158
 20
-7.8843753865
 10
-219.1929685045
 20
-7.8437688274
 10
-219.2002714439
 20
-7.8031622683
 10
-219.2123996935
 20
-7.7627527683
 10
-219.229376708
 20
-7.7225412852
 10
-219.2511790327
 20
-7.6825268611
 10
-219.2777008635
 20
-7.6429036817
 10
-219.3089651406
 20
-7.6036736486
 10
-219.3449489238
 20
-7.56483486
 10
-219.3854775877
 20
-7.5265757963
 10
-219.430573224
 20
-7.4888992754
 10
-219.4802137409
 20
-7.4518024793
 10
-219.5341582388
 20
-7.4154654347
 10
-219.5924276382
 20
-7.3798918344
 10
-219.6550010185
 20
-7.3450779856
 10
-219.7215747181
 20
-7.311192836
 10
-219.7921681816
 20
-7.2782408996
 10
-219.8667619644
 20
-7.2462176625
 10
-219.9449940713
 20
-7.2152785296
 10
-220.0268821872
 20
-7.1854287706
 10
-220.1124086272
 20
-7.1566631159
 10
-220.2011583411
 20
-7.129121162
 10
-220.2931469963
 20
-7.1028088571
 10
-220.3883589254
 20
-7.0777202529
 10
-220.4863320756
 20
-7.0539771018
 10
-220.5870798684
 20
-7.0315859435
 10
-220.6905888823
 20
-7.0105402382
 10
-220.7963567997
 20
-6.9909421184
 10
-220.9043946004
 20
-6.9727986203
 10
-221.0146913046
 20
-6.9561027077
 10
-221.1267116547
 20
-6.9409354039
 10
-221.2404640289
 20
-6.9273041391
 10
-221.355940049
 20
-6.9152014831
 10
-221.4725793229
 20
-6.9046861688
 10
-221.5903875049
 20
-6.8957659118
 10
-221.7093589406
 20
-6.8884329965
 10
-221.828916275
 20
-6.8827230086
 10
-221.9488670565
 20
-6.8786478101
 10
-222.0694037368
 20
-6.8761955391
 10
-222.1905263158
 20
-6.8753661955
  0
LWPOLYLINE
  5
214
100
AcDbEntity
  8
RACCORDO
100
AcDbPolyline
 62
253
  6
CONTINUOUS
 90
46
 70
0
 10
-217.1905263158
 20
-14.9474397235
 10
-217.1935721807
 20
-14.8887498687
 10
-217.2027060645
 20
-14.8301315182
 10
-217.217916839
 20
-14.7716560898
 10
-217.2391859721
 20
-14.7133948267
 10
-217.2664875508
 20
-14.6554187112
 10
-217.2997883123
 20
-14.5977983783
 10
-217.3390476846
 20
-14.5406040296
 10
-217.3842178364
 20
-14.4839053474
 10
-217.4352437347
 20
-14.4277714106
 10
-217.4920632124
 20
-14.3722706095
 10
-217.5546070436
 20
-14.3174705634
 10
-217.6227990283
 20
-14.2634380376
 10
-217.6965560852
 20
-14.2102388626
 10
-217.7757883525
 20
-14.1579378532
 10
-217.860399298
 20
-14.1065987303
 10
-217.9502858364
 20
-14.0562840426
 10
-218.0453384546
 20
-14.0070550908
 10
-218.1454413457
 20
-13.9589718528
 10
-218.2504725498
 20
-13.9120929107
 10
-218.3603041025
 20
-13.8664753792
 10
-218.4748021909
 20
-13.8221748362
 10
-218.5938273167
 20
-13.7792452552
 10
-218.7172344662
 20
-13.7377389393
 10
-218.8448732868
 20
-13.6977064574
 10
-218.9765882703
 20
-13.659196583
 10
-219.1122189422
 20
-13.6222562343
 10
-219.2516000577
 20
-13.5869304177
 10
-219.3945618023
 20
-13.5532621719
 10
-219.5409299992
 20
-13.5212925168
 10
-219.6905263209
 20
-13.4910604024
 10
-219.8431685074
 20
-13.4626026619
 10
-219.9986705877
 20
-13.4359539666
 10
-220.1568431062
 20
-13.411146784
 10
-220.3174933538
 20
-13.3882113378
 10
-220.4804256031
 20
-13.3671755712
 10
-220.6454413477
 20
-13.3480651129
 10
-220.8123395424
 20
-13.330903246
 10
-220.9809168464
 20
-13.3157108798
 10
-221.150967872
 20
-13.3025065239
 10
-221.3222854369
 20
-13.291306266
 10
-221.4946608184
 20
-13.2821237516
 10
-221.6678840047
 20
-13.2749701682
 10
-221.8417439506
 20
-13.2698542312
 10
-222.016028834
 20
-13.2667821737
 10
-222.1905263158
 20
-13.2657577385
  0
LWPOLYLINE
  5
215
100
AcDbEntity
  8
RACCORDO
100
AcDbPolyline
 62
7
  6
CONTINUOUS
 90
46
 70
0
 10
-227.1905263158
 20
-14.9474397235
 10
-227.188146816
 20
-15.0167118445
 10
-227.1809108073
 20
-15.0865581308
 10
-227.1686817526
 20
-15.1567787854
 10
-227.1514006586
 20
-15.2269485039
 10
-227.1289282496
 20
-15.2970958607
 10
-227.1008722676
 20
-15.3677105023
 10
-227.0669326074
 20
-15.4387068911
 10
-227.0268981416
 20
-15.5098019717
 10
-226.9802351878
 20
-15.5812313105
 10
-226.926277525
 20
-15.6532033196
 10
-226.8648330402
 20
-15.7252218789
 10
-226.7960447472
 20
-15.7965938192
 10
-226.7191277499
 20
-15.867665107
 10
-226.6340527762
 20
-15.9380066114
 10
-226.5426531128
 20
-16.0059890814
 10
-226.4453795189
 20
-16.0714442107
 10
-226.3418791912
 20
-16.1347428736
 10
-226.2335255912
 20
-16.1952194846
 10
-226.1210651401
 20
-16.2527369141
 10
-226.0043011598
 20
-16.30764297
 10
-225.8835342531
 20
-16.3599896729
 10
-225.759189828
 20
-16.4097762204
 10
-225.6313929633
 20
-16.4571191071
 10
-225.50005249
 20
-16.5021828354
 10
-225.3654063978
 20
-16.5449917709
 10
-225.2276964179
 20
-16.5855667966
 10
-225.0868277036
 20
-16.6240156931
 10
-224.9429919738
 20
-16.6603491787
 10
-224.7964338537
 20
-16.6945641998
 10
-224.6471278056
 20
-16.7267158099
 10
-224.4952629164
 20
-16.7568024139
 10
-224.341066529
 20
-16.7848156649
 10
-224.1845662145
 20
-16.8107812589
 10
-224.0259502361
 20
-16.8346923308
 10
-223.8654386237
 20
-16.8565386115
 10
-223.7031059672
 20
-16.8763290777
 10
-223.5391411906
 20
-16.8940556597
 10
-223.3737624904
 20
-16.9097087644
 10
-223.2070900294
 20
-16.9232887401
 10
-223.0393256749
 20
-16.9347883674
 10
-222.8706769945
 20
-16.9442019383
 10
-222.7012746266
 20
-16.951528654
 10
-222.5312994403
 20
-16.9567647142
 10
-222.3609815732
 20
-16.9599064817
 10
-222.1905263156
 20
-16.96095351
  0
LWPOLYLINE
  5
216
100
AcDbEntity
  8
RACCORDO
100
AcDbPolyline
 62
7
  6
CONTINUOUS
 90
46
 70
0
 10
-217.1905263158
 20
-11.1804720771
 10
-217.1929058156
 20
-11.111199956
 10
-217.2001418243
 20
-11.0413536698
 10
-217.212370879
 20
-10.9711330152
 10
-217.229651973
 20
-10.9009632967
 10
-217.252124382
 20
-10.8308159399
 10
-217.280180364
 20
-10.7602012982
 10
-217.3141200241
 20
-10.6892049095
 10
-217.35415449
 20
-10.6181098289
 10
-217.4008174438
 20
-10.5466804901
 10
-217.4547751066
 20
-10.474708481
 10
-217.5162195913
 20
-10.4026899217
 10
-217.5850078843
 20
-10.3313179814
 10
-217.6619248816
 20
-10.2602466936
 10
-217.7469998554
 20
-10.1899051892
 10
-217.8383995188
 20
-10.1219227192
 10
-217.9356731127
 20
-10.0564675899
 10
-218.0391734404
 20
-9.993168927
 10
-218.1475270403
 20
-9.932692316
 10
-218.2599874914
 20
-9.8751748865
 10
-218.3767514717
 20
-9.8202688306
 10
-218.4975183783
 20
-9.7679221277
 10
-218.6218628035
 20
-9.7181355802
 10
-218.7496596682
 20
-9.6707926935
 10
-218.8810001414
 20
-9.6257289652
 10
-219.0156462337
 20
-9.5829200297
 10
-219.1533562135
 20
-9.542345004
 10
-219.2942249279
 20
-9.5038961075
 10
-219.4380606576
 20
-9.4675626219
 10
-219.5846187778
 20
-9.4333476008
 10
-219.7339248258
 20
-9.4011959907
 10
-219.885789715
 20
-9.3711093867
 10
-220.0399861024
 20
-9.3430961357
 10
-220.1964864169
 20
-9.3171305417
 10
-220.3551023953
 20
-9.2932194698
 10
-220.5156140077
 20
-9.2713731891
 10
-220.6779466642
 20
-9.2515827229
 10
-220.8419114408
 20
-9.2338561409
 10
-221.0072901409
 20
-9.2182030362
 10
-221.1739626019
 20
-9.2046230605
 10
-221.3417269565
 20
-9.1931234332
 10
-221.5103756368
 20
-9.1837098623
 10
-221.6797780047
 20
-9.1763831466
 10
-221.849753191
 20
-9.1711470864
 10
-222.0200710582
 20
-9.1680053188
 10
-222.1905263156
 20
-9.1669582906
  0
LINE
  5
217
100
AcDbEntity
  8
RACCORDO
100
AcDbLine
 62
7
  6
CONTINUOUS
 10
-228.1905263158
 20
-18.1936842105
 11
-228.1905263158
 21
21.8063157895
  0
LINE
  5
218
100
AcDbEntity
  8
ASSI
100
AcDbLine
 62
7
  6
CONTINUOUS
 10
-227.1905263158
 20
-11.1804720771
 11
-227.1905263158
 21
-14.9474397235
  0
LINE
  5
219
100
AcDbEntity
  8
RACCORDO
100
AcDbLine
 62
7
  6
CONTINUOUS
 10
-227.1905263158
 20
8.8063157895
 11
-227.1905263158
 21
11.3516613775
  0
LINE
  5
21A
100
AcDbEntity
  8
RACCORDO
100
AcDbLine
 62
253
  6
CONTINUOUS
 10
-226.1905263158
 20
-20.1936842105
 11
-226.1905263158
 21
-16.217211285
  0
LINE
  5
21B
100
AcDbEntity
  8
RACCORDO
100
AcDbLine
 62
253
  6
CONTINUOUS
 10
-226.1905263158
 20
-9.9107320593
 11
-226.1905263158
 21
8.8063157895
  0
LINE
  5
21C
100
AcDbEntity
  8
RACCORDO
100
AcDbLine
 62
253
  6
CONTINUOUS
 10
-226.1905263158
 20
11.9342131055
 11
-226.1905263158
 21
23.8063157895
  0
LINE
  5
21D
100
AcDbEntity
  8
ASSI
100
AcDbLine
 62
7
  6
CONTINUOUS
 10
-225.1905263158
 20
-7.8843753865
 11
-225.1905263158
 21
-9.5322433823
  0
LINE
  5
21E
100
AcDbEntity
  8
RACCORDO
100
AcDbLine
 62
253
  6
CONTINUOUS
 10
-225.1905263158
 20
10.8243341715
 11
-225.1905263158
 21
12.0243341715
  0
LINE
  5
21F
100
AcDbEntity
  8
0
100
AcDbLine
 62
7
  6
CONTINUOUS
 10
-224.6905263158
 20
23.8063157895
 11
-224.6905263158
 21
12.0243341715
  0
LINE
  5
220
100
AcDbEntity
  8
ASSI
100
AcDbLine
 62
7
  6
CONTINUOUS
 10
-219.1905263158
 20
-7.8843753865
 11
-219.1905263158
 21
-9.5321997462
  0
LINE
  5
221
100
AcDbEntity
  8
ASSI
100
AcDbLine
 62
7
  6
CONTINUOUS
 10
-217.4905263158
 20
12.0243341715
 11
-217.4905263158
 21
16.0063157895
  0
LINE
  5
222
100
AcDbEntity
  8
ASSI
100
AcDbLine
 62
7
  6
CONTINUOUS
 10
-217.1905263158
 20
-11.1804720771
 11
-217.1905263158
 21
-14.9474397235
  0
LINE
  5
223
100
AcDbEntity
  8
ASSI
100
AcDbLine
 62
7
  6
CONTINUOUS
 10
-215.6905263158
 20
12.0243341715
 11
-215.6905263158
 21
16.0063157895
  0
LWPOLYLINE
  5
224
100
AcDbEntity
  8
RACCORDO
100
AcDbPolyline
 62
253
  6
CONTINUOUS
 90
46
 70
0
 10
-227.1905263158
 20
-11.1804720771
 10
-227.1874804509
 20
-11.121782222
 10
-227.178346567
 20
-11.0631638716
 10
-227.1631357925
 20
-11.0046884432
 10
-227.1418666593
 20
-10.9464271801
 10
-227.1145650806
 20
-10.8884510646
 10
-227.0812643192
 20
-10.8308307317
 10
-227.0420049468
 20
-10.7736363829
 10
-226.996834795
 20
-10.7169377008
 10
-226.9458088966
 20
-10.6608037639
 10
-226.888989419
 20
-10.6053029629
 10
-226.8264455877
 20
-10.5505029167
 10
-226.758253603
 20
-10.496470391
 10
-226.6844965461
 20
-10.443271216
 10
-226.6052642787
 20
-10.3909702066
 10
-226.5206533332
 20
-10.3396310837
 10
-226.4307667948
 20
-10.289316396
 10
-226.3357141766
 20
-10.2400874442
 10
-226.2356112854
 20
-10.1920042062
 10
-226.1305800813
 20
-10.1451252641
 10
-226.0207485286
 20
-10.0995077326
 10
-225.9062504402
 20
-10.0552071897
 10
-225.7872253144
 20
-10.0122776087
 10
-225.6638181649
 20
-9.9707712927
 10
-225.5361793443
 20
-9.9307388108
 10
-225.4044643607
 20
-9.8922289364
 10
-225.2688336887
 20
-9.8552885878
 10
-225.1294525733
 20
-9.8199627711
 10
-224.9864908286
 20
-9.7862945254
 10
-224.8401226317
 20
-9.7543248703
 10
-224.69052631
 20
-9.7240927559
 10
-224.5378841235
 20
-9.6956350154
 10
-224.3823820433
 20
-9.6689863202
 10
-224.2242095247
 20
-9.6441791375
 10
-224.0635592772
 20
-9.6212436913
 10
-223.9006270278
 20
-9.6002079247
 10
-223.7356112832
 20
-9.5810974664
 10
-223.5687130884
 20
-9.5639355996
 10
-223.4001357843
 20
-9.5487432333
 10
-223.2300847587
 20
-9.5355388775
 10
-223.0587671938
 20
-9.5243386196
 10
-222.8863918126
 20
-9.5151561052
 10
-222.7131686264
 20
-9.5080025218
 10
-222.5393086807
 20
-9.5028865848
 10
-222.3650237974
 20
-9.4998145273
 10
-222.1905263158
 20
-9.4987900921
  0
LWPOLYLINE
  5
225
100
AcDbEntity
  8
RACCORDO
100
AcDbPolyline
 62
7
  6
CONTINUOUS
 90
37
 70
0
 10
-227.1905263158
 20
11.3516613775
 10
-227.1885926448
 20
11.3810954399
 10
-227.1828892191
 20
11.4103625794
 10
-227.1734160385
 20
11.4394627959
 10
-227.1601407597
 20
11.4684507784
 10
-227.1430957261
 20
11.4972718379
 10
-227.1223779684
 20
11.5257619077
 10
-227.0979665394
 20
11.5539190998
 10
-227.0698823862
 20
11.5817453021
 10
-227.0382853808
 20
11.6090821111
 10
-227.0031554879
 20
11.6359267355
 10
-226.9645127428
 20
11.6622819666
 10
-226.9225771234
 20
11.6879977745
 10
-226.8773298488
 20
11.7130705122
 10
-226.8287896999
 20
11.7375038267
 10
-226.7772329964
 20
11.7611586288
 10
-226.7226425336
 20
11.7840304783
 10
-226.6650355162
 20
11.8061238155
 10
-226.6047398782
 20
11.8273128716
 10
-226.5417402851
 20
11.8475924893
 10
-226.4760520713
 20
11.8669678259
 10
-226.4080491738
 20
11.8853285855
 10
-226.3377183909
 20
11.9026689814
 10
-226.2650729243
 20
11.9189948002
 10
-226.1905263158
 20
11.9342131055
 10
-226.1140677223
 20
11.9483175807
 10
-226.0357079869
 20
11.9613145423
 10
-225.9558931805
 20
11.9731300039
 10
-225.8746150042
 20
11.9837572269
 10
-225.7918817568
 20
11.9932029497
 10
-225.708164406
 20
12.0014134018
 10
-225.6234573389
 20
12.0083815378
 10
-225.5377661684
 20
12.014114403
 10
-225.4515787002
 20
12.0185793625
 10
-225.3650575364
 20
12.0217655379
 10
-225.2780400749
 20
12.0236838075
 10
-225.1905263158
 20
12.0243341715
  0
LWPOLYLINE
  5
226
100
AcDbEntity
  8
RACCORDO
100
AcDbPolyline
 62
7
  6
CONTINUOUS
 90
28
 70
0
 10
-214.1905263158
 20
12.001511561
 10
-214.1896566571
 20
11.9916789393
 10
-214.187124616
 20
11.9819449056
 10
-214.1829301923
 20
11.9723094597
 10
-214.1770480009
 20
11.9627407377
 10
-214.169503427
 20
11.9532706035
 10
-214.1603726262
 20
11.9439946496
 10
-214.1496395329
 20
11.9349148426
 10
-214.1373202126
 20
11.9260292159
 10
-214.1235390177
 20
11.9174274617
 10
-214.108281142
 20
11.9091124552
 10
-214.0915613917
 20
11.9010813211
 10
-214.0735485373
 20
11.8934151266
 10
-214.0542294822
 20
11.8861175678
 10
-214.033617323
 20
11.8791849484
 10
-214.0119201206
 20
11.872687247
 10
-213.9891268857
 20
11.8666288685
 10
-213.9652486076
 20
11.8610054079
 10
-213.9405263158
 20
11.8558736289
 10
-213.914951462
 20
11.8512385115
 10
-213.8885325944
 20
11.8470950757
 10
-213.8615363875
 20
11.8434851458
 10
-213.8339569937
 20
11.8404141251
 10
-213.8058002606
 20
11.8378766103
 10
-213.7773504046
 20
11.8358982153
 10
-213.7487021646
 20
11.8344874779
 10
-213.7197608016
 20
11.8336358603
 10
-213.6905263158
 20
11.8333433625
  0
LWPOLYLINE
  5
227
100
AcDbEntity
  8
RACCORDO
100
AcDbPolyline
 62
7
  6
CONTINUOUS
 90
28
 70
0
 10
-206.1905263158
 20
12.674184355
 10
-206.1913959744
 20
12.6840169766
 10
-206.1939280156
 20
12.6937510103
 10
-206.1981224393
 20
12.7033864562
 10
-206.2040046307
 20
12.7129551782
 10
-206.2115492046
 20
12.7224253124
 10
-206.2206800054
 20
12.7317012663
 10
-206.2314130987
 20
12.7407810733
 10
-206.243732419
 20
12.7496667
 10
-206.2575136139
 20
12.7582684542
 10
-206.2727714896
 20
12.7665834608
 10
-206.2894912399
 20
12.7746145948
 10
-206.3075040942
 20
12.7822807893
 10
-206.3268231494
 20
12.7895783481
 10
-206.3474353086
 20
12.7965109675
 10
-206.3691325109
 20
12.8030086689
 10
-206.3919257459
 20
12.8090670475
 10
-206.415804024
 20
12.814690508
 10
-206.4405263158
 20
12.819822287
 10
-206.4661011696
 20
12.8244574044
 10
-206.4925200372
 20
12.8286008402
 10
-206.5195162441
 20
12.8322107701
 10
-206.5470956378
 20
12.8352817908
 10
-206.575252371
 20
12.8378193056
 10
-206.603702227
 20
12.8397977006
 10
-206.632350467
 20
12.841208438
 10
-206.66129183
 20
12.8420600556
 10
-206.6905263158
 20
12.8423525535
  0
LINE
  5
228
100
AcDbEntity
  8
RACCORDO
100
AcDbLine
 62
7
  6
CONTINUOUS
 10
-214.1905263158
 20
12.001511561
 11
-214.1905263158
 21
13.874184355
  0
LINE
  5
229
100
AcDbEntity
  8
RACCORDO
100
AcDbLine
 62
253
  6
CONTINUOUS
 10
-213.6905263158
 20
12.8423525535
 11
-213.6905263158
 21
14.0423525535
  0
LINE
  5
22A
100
AcDbEntity
  8
0
100
AcDbLine
 62
7
  6
CONTINUOUS
 10
-212.1905263158
 20
11.8333433625
 11
-212.1905263158
 21
10.8243341715
  0
LINE
  5
22B
100
AcDbEntity
  8
0
100
AcDbLine
 62
7
  6
CONTINUOUS
 10
-208.1905263158
 20
10.8243341715
 11
-208.1905263158
 21
11.8333433625
  0
LINE
  5
22C
100
AcDbEntity
  8
RACCORDO
100
AcDbLine
 62
253
  6
CONTINUOUS
 10
-206.6905263158
 20
12.8423525535
 11
-206.6905263158
 21
14.0423525535
  0
LINE
  5
22D
100
AcDbEntity
  8
RACCORDO
100
AcDbLine
 62
7
  6
CONTINUOUS
 10
-206.1905263158
 20
12.001511561
 11
-206.1905263158
 21
13.874184355
  0
LINE
  5
22E
100
AcDbEntity
  8
ASSI
100
AcDbLine
 62
7
  6
CONTINUOUS
 10
-205.4405263158
 20
12.0243341715
 11
-205.4405263158
 21
16.0063157895
  0
LINE
  5
22F
100
AcDbEntity
  8
ASSI
100
AcDbLine
 62
7
  6
CONTINUOUS
 10
-202.9405263158
 20
12.0243341715
 11
-202.9405263158
 21
16.0063157895
  0
LINE
  5
230
100
AcDbEntity
  8
RACCORDO
100
AcDbLine
 62
7
  6
CONTINUOUS
 10
-200.1905263158
 20
12.001511561
 11
-200.1905263158
 21
13.874184355
  0
LINE
  5
231
100
AcDbEntity
  8
RACCORDO
100
AcDbLine
 62
253
  6
CONTINUOUS
 10
-199.6905263158
 20
12.8423525535
 11
-199.6905263158
 21
14.0423525535
  0
LWPOLYLINE
  5
232
100
AcDbEntity
  8
RACCORDO
100
AcDbPolyline
 62
7
  6
CONTINUOUS
 90
28
 70
0
 10
-214.1905263158
 20
13.874184355
 10
-214.1896566571
 20
13.8840169766
 10
-214.187124616
 20
13.8937510103
 10
-214.1829301923
 20
13.9033864562
 10
-214.1770480009
 20
13.9129551782
 10
-214.169503427
 20
13.9224253124
 10
-214.1603726262
 20
13.9317012663
 10
-214.1496395329
 20
13.9407810733
 10
-214.1373202126
 20
13.9496667
 10
-214.1235390177
 20
13.9582684542
 10
-214.108281142
 20
13.9665834608
 10
-214.0915613917
 20
13.9746145948
 10
-214.0735485373
 20
13.9822807893
 10
-214.0542294822
 20
13.9895783481
 10
-214.033617323
 20
13.9965109675
 10
-214.0119201206
 20
14.0030086689
 10
-213.9891268857
 20
14.0090670475
 10
-213.9652486076
 20
14.014690508
 10
-213.9405263158
 20
14.019822287
 10
-213.914951462
 20
14.0244574044
 10
-213.8885325944
 20
14.0286008402
 10
-213.8615363875
 20
14.0322107701
 10
-213.8339569937
 20
14.0352817908
 10
-213.8058002606
 20
14.0378193056
 10
-213.7773504046
 20
14.0397977006
 10
-213.7487021646
 20
14.041208438
 10
-213.7197608016
 20
14.0420600556
 10
-213.6905263158
 20
14.0423525535
  0
LWPOLYLINE
  5
233
100
AcDbEntity
  8
RACCORDO
100
AcDbPolyline
 62
7
  6
CONTINUOUS
 90
28
 70
0
 10
-200.1905263158
 20
13.874184355
 10
-200.1896566571
 20
13.8840169766
 10
-200.187124616
 20
13.8937510103
 10
-200.1829301923
 20
13.9033864562
 10
-200.1770480009
 20
13.9129551782
 10
-200.169503427
 20
13.9224253124
 10
-200.1603726262
 20
13.9317012663
 10
-200.1496395329
 20
13.9407810733
 10
-200.1373202126
 20
13.9496667
 10
-200.1235390177
 20
13.9582684542
 10
-200.108281142
 20
13.9665834608
 10
-200.0915613917
 20
13.9746145948
 10
-200.0735485373
 20
13.9822807893
 10
-200.0542294822
 20
13.9895783481
 10
-200.033617323
 20
13.9965109675
 10
-200.0119201206
 20
14.0030086689
 10
-199.9891268857
 20
14.0090670475
 10
-199.9652486076
 20
14.014690508
 10
-199.9405263158
 20
14.019822287
 10
-199.914951462
 20
14.0244574044
 10
-199.8885325944
 20
14.0286008402
 10
-199.8615363875
 20
14.0322107701
 10
-199.8339569937
 20
14.0352817908
 10
-199.8058002606
 20
14.0378193056
 10
-199.7773504046
 20
14.0397977006
 10
-199.7487021646
 20
14.041208438
 10
-199.7197608016
 20
14.0420600556
 10
-199.6905263158
 20
14.0423525535
  0
LWPOLYLINE
  5
234
100
AcDbEntity
  8
RACCORDO
100
AcDbPolyline
 62
7
  6
CONTINUOUS
 90
28
 70
0
 10
-200.1905263158
 20
12.001511561
 10
-200.1896566571
 20
11.9916789393
 10
-200.187124616
 20
11.9819449056
 10
-200.1829301923
 20
11.9723094597
 10
-200.1770480009
 20
11.9627407377
 10
-200.169503427
 20
11.9532706035
 10
-200.1603726262
 20
11.9439946496
 10
-200.1496395329
 20
11.9349148426
 10
-200.1373202126
 20
11.9260292159
 10
-200.1235390177
 20
11.9174274617
 10
-200.108281142
 20
11.9091124552
 10
-200.0915613917
 20
11.9010813211
 10
-200.0735485373
 20
11.8934151266
 10
-200.0542294822
 20
11.8861175678
 10
-200.033617323
 20
11.8791849484
 10
-200.0119201206
 20
11.872687247
 10
-199.9891268857
 20
11.8666288685
 10
-199.9652486076
 20
11.8610054079
 10
-199.9405263158
 20
11.8558736289
 10
-199.914951462
 20
11.8512385115
 10
-199.8885325944
 20
11.8470950757
 10
-199.8615363875
 20
11.8434851458
 10
-199.8339569937
 20
11.8404141251
 10
-199.8058002606
 20
11.8378766103
 10
-199.7773504046
 20
11.8358982153
 10
-199.7487021646
 20
11.8344874779
 10
-199.7197608016
 20
11.8336358603
 10
-199.6905263158
 20
11.8333433625
  0
LWPOLYLINE
  5
235
100
AcDbEntity
  8
RACCORDO
100
AcDbPolyline
 62
7
  6
CONTINUOUS
 90
28
 70
0
 10
-192.1905263158
 20
12.674184355
 10
-192.1913959744
 20
12.6840169766
 10
-192.1939280156
 20
12.6937510103
 10
-192.1981224393
 20
12.7033864562
 10
-192.2040046307
 20
12.7129551782
 10
-192.2115492046
 20
12.7224253124
 10
-192.2206800054
 20
12.7317012663
 10
-192.2314130987
 20
12.7407810733
 10
-192.243732419
 20
12.7496667
 10
-192.2575136139
 20
12.7582684542
 10
-192.2727714896
 20
12.7665834608
 10
-192.2894912399
 20
12.7746145948
 10
-192.3075040942
 20
12.7822807893
 10
-192.3268231494
 20
12.7895783481
 10
-192.3474353086
 20
12.7965109675
 10
-192.3691325109
 20
12.8030086689
 10
-192.3919257459
 20
12.8090670475
 10
-192.415804024
 20
12.814690508
 10
-192.4405263158
 20
12.819822287
 10
-192.4661011696
 20
12.8244574044
 10
-192.4925200372
 20
12.8286008402
 10
-192.5195162441
 20
12.8322107701
 10
-192.5470956378
 20
12.8352817908
 10
-192.575252371
 20
12.8378193056
 10
-192.603702227
 20
12.8397977006
 10
-192.632350467
 20
12.841208438
 10
-192.66129183
 20
12.8420600556
 10
-192.6905263158
 20
12.8423525535
  0
LINE
  5
236
100
AcDbEntity
  8
0
100
AcDbLine
 62
7
  6
CONTINUOUS
 10
-198.1905263158
 20
11.8333433625
 11
-198.1905263158
 21
10.8243341715
  0
LINE
  5
237
100
AcDbEntity
  8
0
100
AcDbLine
 62
7
  6
CONTINUOUS
 10
-194.1905263158
 20
10.8243341715
 11
-194.1905263158
 21
11.8333433625
  0
LINE
  5
238
100
AcDbEntity
  8
RACCORDO
100
AcDbLine
 62
253
  6
CONTINUOUS
 10
-192.6905263158
 20
12.8423525535
 11
-192.6905263158
 21
14.0423525535
  0
LINE
  5
239
100
AcDbEntity
  8
ASSI
100
AcDbLine
 62
7
  6
CONTINUOUS
 10
-192.6905263158
 20
14.0423525535
 11
-192.6905263158
 21
16.0063157895
  0
LINE
  5
23A
100
AcDbEntity
  8
RACCORDO
100
AcDbLine
 62
7
  6
CONTINUOUS
 10
-192.1905263158
 20
12.001511561
 11
-192.1905263158
 21
13.874184355
  0
LINE
  5
23B
100
AcDbEntity
  8
ASSI
100
AcDbLine
 62
7
  6
CONTINUOUS
 10
-190.8905263158
 20
12.0243341715
 11
-190.8905263158
 21
16.0063157895
  0
LWPOLYLINE
  5
23C
100
AcDbEntity
  8
RACCORDO
100
AcDbPolyline
 62
7
  6
CONTINUOUS
 90
28
 70
0
 10
-179.1905263158
 20
12.001511561
 10
-179.1896566571
 20
11.9916789393
 10
-179.187124616
 20
11.9819449056
 10
-179.1829301923
 20
11.9723094597
 10
-179.1770480009
 20
11.9627407377
 10
-179.169503427
 20
11.9532706035
 10
-179.1603726262
 20
11.9439946496
 10
-179.1496395329
 20
11.9349148426
 10
-179.1373202126
 20
11.9260292159
 10
-179.1235390177
 20
11.9174274617
 10
-179.108281142
 20
11.9091124552
 10
-179.0915613917
 20
11.9010813211
 10
-179.0735485373
 20
11.8934151266
 10
-179.0542294822
 20
11.8861175678
 10
-179.033617323
 20
11.8791849484
 10
-179.0119201206
 20
11.872687247
 10
-178.9891268857
 20
11.8666288685
 10
-178.9652486076
 20
11.8610054079
 10
-178.9405263158
 20
11.8558736289
 10
-178.914951462
 20
11.8512385115
 10
-178.8885325944
 20
11.8470950757
 10
-178.8615363875
 20
11.8434851458
 10
-178.8339569937
 20
11.8404141251
 10
-178.8058002606
 20
11.8378766103
 10
-178.7773504046
 20
11.8358982153
 10
-178.7487021646
 20
11.8344874779
 10
-178.7197608016
 20
11.8336358603
 10
-178.6905263158
 20
11.8333433625
  0
LWPOLYLINE
  5
23D
100
AcDbEntity
  8
RACCORDO
100
AcDbPolyline
 62
7
  6
CONTINUOUS
 90
28
 70
0
 10
-171.1905263158
 20
12.674184355
 10
-171.1913959744
 20
12.6840169766
 10
-171.1939280156
 20
12.6937510103
 10
-171.1981224393
 20
12.7033864562
 10
-171.2040046307
 20
12.7129551782
 10
-171.2115492046
 20
12.7224253124
 10
-171.2206800054
 20
12.7317012663
 10
-171.2314130987
 20
12.7407810733
 10
-171.243732419
 20
12.7496667
 10
-171.2575136139
 20
12.7582684542
 10
-171.2727714896
 20
12.7665834608
 10
-171.2894912399
 20
12.7746145948
 10
-171.3075040942
 20
12.7822807893
 10
-171.3268231494
 20
12.7895783481
 10
-171.3474353086
 20
12.7965109675
 10
-171.3691325109
 20
12.8030086689
 10
-171.3919257459
 20
12.8090670475
 10
-171.415804024
 20
12.814690508
 10
-171.4405263158
 20
12.819822287
 10
-171.4661011696
 20
12.8244574044
 10
-171.4925200372
 20
12.8286008402
 10
-171.5195162441
 20
12.8322107701
 10
-171.5470956378
 20
12.8352817908
 10
-171.575252371
 20
12.8378193056
 10
-171.603702227
 20
12.8397977006
 10
-171.632350467
 20
12.841208438
 10
-171.66129183
 20
12.8420600556
 10
-171.6905263158
 20
12.8423525535
  0
LINE
  5
23E
100
AcDbEntity
  8
ASSI
100
AcDbLine
 62
7
  6
CONTINUOUS
 10
-182.4905263158
 20
12.0243341715
 11
-182.4905263158
 21
16.0063157895
  0
LINE
  5
23F
100
AcDbEntity
  8
ASSI
100
AcDbLine
 62
7
  6
CONTINUOUS
 10
-180.6905263158
 20
12.0243341715
 11
-180.6905263158
 21
16.0063157895
  0
LINE
  5
240
100
AcDbEntity
  8
RACCORDO
100
AcDbLine
 62
7
  6
CONTINUOUS
 10
-179.1905263158
 20
12.001511561
 11
-179.1905263158
 21
13.874184355
  0
LINE
  5
241
100
AcDbEntity
  8
RACCORDO
100
AcDbLine
 62
253
  6
CONTINUOUS
 10
-178.6905263158
 20
12.8423525535
 11
-178.6905263158
 21
14.0423525535
  0
LINE
  5
242
100
AcDbEntity
  8
0
100
AcDbLine
 62
7
  6
CONTINUOUS
 10
-177.1905263158
 20
11.8333433625
 11
-177.1905263158
 21
10.8243341715
  0
LINE
  5
243
100
AcDbEntity
  8
0
100
AcDbLine
 62
7
  6
CONTINUOUS
 10
-173.1905263158
 20
10.8243341715
 11
-173.1905263158
 21
11.8333433625
  0
LINE
  5
244
100
AcDbEntity
  8
RACCORDO
100
AcDbLine
 62
253
  6
CONTINUOUS
 10
-171.6905263158
 20
12.8423525535
 11
-171.6905263158
 21
14.0423525535
  0
LINE
  5
245
100
AcDbEntity
  8
RACCORDO
100
AcDbLine
 62
7
  6
CONTINUOUS
 10
-171.1905263158
 20
12.001511561
 11
-171.1905263158
 21
13.874184355
  0
LINE
  5
246
100
AcDbEntity
  8
ASSI
100
AcDbLine
 62
7
  6
CONTINUOUS
 10
-170.4405263158
 20
12.0243341715
 11
-170.4405263158
 21
16.0063157895
  0
LINE
  5
247
100
AcDbEntity
  8
ASSI
100
AcDbLine
 62
7
  6
CONTINUOUS
 10
-167.9405263158
 20
12.0243341715
 11
-167.9405263158
 21
16.0063157895
  0
LWPOLYLINE
  5
248
100
AcDbEntity
  8
RACCORDO
100
AcDbPolyline
 62
7
  6
CONTINUOUS
 90
28
 70
0
 10
-179.1905263158
 20
13.874184355
 10
-179.1896566571
 20
13.8840169766
 10
-179.187124616
 20
13.8937510103
 10
-179.1829301923
 20
13.9033864562
 10
-179.1770480009
 20
13.9129551782
 10
-179.169503427
 20
13.9224253124
 10
-179.1603726262
 20
13.9317012663
 10
-179.1496395329
 20
13.9407810733
 10
-179.1373202126
 20
13.9496667
 10
-179.1235390177
 20
13.9582684542
 10
-179.108281142
 20
13.9665834608
 10
-179.0915613917
 20
13.9746145948
 10
-179.0735485373
 20
13.9822807893
 10
-179.0542294822
 20
13.9895783481
 10
-179.033617323
 20
13.9965109675
 10
-179.0119201206
 20
14.0030086689
 10
-178.9891268857
 20
14.0090670475
 10
-178.9652486076
 20
14.014690508
 10
-178.9405263158
 20
14.019822287
 10
-178.914951462
 20
14.0244574044
 10
-178.8885325944
 20
14.0286008402
 10
-178.8615363875
 20
14.0322107701
 10
-178.8339569937
 20
14.0352817908
 10
-178.8058002606
 20
14.0378193056
 10
-178.7773504046
 20
14.0397977006
 10
-178.7487021646
 20
14.041208438
 10
-178.7197608016
 20
14.0420600556
 10
-178.6905263158
 20
14.0423525535
  0
LWPOLYLINE
  5
249
100
AcDbEntity
  8
RACCORDO
100
AcDbPolyline
 62
7
  6
CONTINUOUS
 90
28
 70
0
 10
-165.1905263158
 20
12.001511561
 10
-165.1896566571
 20
11.9916789393
 10
-165.187124616
 20
11.9819449056
 10
-165.1829301923
 20
11.9723094597
 10
-165.1770480009
 20
11.9627407377
 10
-165.169503427
 20
11.9532706035
 10
-165.1603726262
 20
11.9439946496
 10
-165.1496395329
 20
11.9349148426
 10
-165.1373202126
 20
11.9260292159
 10
-165.1235390177
 20
11.9174274617
 10
-165.108281142
 20
11.9091124552
 10
-165.0915613917
 20
11.9010813211
 10
-165.0735485373
 20
11.8934151266
 10
-165.0542294822
 20
11.8861175678
 10
-165.033617323
 20
11.8791849484
 10
-165.0119201206
 20
11.872687247
 10
-164.9891268857
 20
11.8666288685
 10
-164.9652486076
 20
11.8610054079
 10
-164.9405263158
 20
11.8558736289
 10
-164.914951462
 20
11.8512385115
 10
-164.8885325944
 20
11.8470950757
 10
-164.8615363875
 20
11.8434851458
 10
-164.8339569937
 20
11.8404141251
 10
-164.8058002606
 20
11.8378766103
 10
-164.7773504046
 20
11.8358982153
 10
-164.7487021646
 20
11.8344874779
 10
-164.7197608016
 20
11.8336358603
 10
-164.6905263158
 20
11.8333433625
  0
LWPOLYLINE
  5
24A
100
AcDbEntity
  8
RACCORDO
100
AcDbPolyline
 62
7
  6
CONTINUOUS
 90
28
 70
0
 10
-157.1905263158
 20
12.674184355
 10
-157.1913959744
 20
12.6840169766
 10
-157.1939280156
 20
12.6937510103
 10
-157.1981224393
 20
12.7033864562
 10
-157.2040046307
 20
12.7129551782
 10
-157.2115492046
 20
12.7224253124
 10
-157.2206800054
 20
12.7317012663
 10
-157.2314130987
 20
12.7407810733
 10
-157.243732419
 20
12.7496667
 10
-157.2575136139
 20
12.7582684542
 10
-157.2727714896
 20
12.7665834608
 10
-157.2894912399
 20
12.7746145948
 10
-157.3075040942
 20
12.7822807893
 10
-157.3268231494
 20
12.7895783481
 10
-157.3474353086
 20
12.7965109675
 10
-157.3691325109
 20
12.8030086689
 10
-157.3919257459
 20
12.8090670475
 10
-157.415804024
 20
12.814690508
 10
-157.4405263158
 20
12.819822287
 10
-157.4661011696
 20
12.8244574044
 10
-157.4925200372
 20
12.8286008402
 10
-157.5195162441
 20
12.8322107701
 10
-157.5470956378
 20
12.8352817908
 10
-157.575252371
 20
12.8378193056
 10
-157.603702227
 20
12.8397977006
 10
-157.632350467
 20
12.841208438
 10
-157.66129183
 20
12.8420600556
 10
-157.6905263158
 20
12.8423525535
  0
LINE
  5
24B
100
AcDbEntity
  8
RACCORDO
100
AcDbLine
 62
7
  6
CONTINUOUS
 10
-165.1905263158
 20
12.001511561
 11
-165.1905263158
 21
13.874184355
  0
LINE
  5
24C
100
AcDbEntity
  8
RACCORDO
100
AcDbLine
 62
253
  6
CONTINUOUS
 10
-164.6905263158
 20
12.8423525535
 11
-164.6905263158
 21
14.0423525535
  0
LINE
  5
24D
100
AcDbEntity
  8
0
100
AcDbLine
 62
7
  6
CONTINUOUS
 10
-163.1905263158
 20
11.8333433625
 11
-163.1905263158
 21
10.8243341715
  0
LINE
  5
24E
100
AcDbEntity
  8
0
100
AcDbLine
 62
7
  6
CONTINUOUS
 10
-159.1905263158
 20
10.8243341715
 11
-159.1905263158
 21
11.8333433625
  0
LINE
  5
24F
100
AcDbEntity
  8
RACCORDO
100
AcDbLine
 62
253
  6
CONTINUOUS
 10
-157.6905263158
 20
12.8423525535
 11
-157.6905263158
 21
14.0423525535
  0
LINE
  5
250
100
AcDbEntity
  8
ASSI
100
AcDbLine
 62
7
  6
CONTINUOUS
 10
-157.6905263158
 20
14.0423525535
 11
-157.6905263158
 21
16.0063157895
  0
LINE
  5
251
100
AcDbEntity
  8
RACCORDO
100
AcDbLine
 62
7
  6
CONTINUOUS
 10
-157.1905263158
 20
12.001511561
 11
-157.1905263158
 21
13.874184355
  0
LINE
  5
252
100
AcDbEntity
  8
ASSI
100
AcDbLine
 62
7
  6
CONTINUOUS
 10
-155.8905263158
 20
12.0243341715
 11
-155.8905263158
 21
16.0063157895
  0
LWPOLYLINE
  5
253
100
AcDbEntity
  8
RACCORDO
100
AcDbPolyline
 62
7
  6
CONTINUOUS
 90
28
 70
0
 10
-165.1905263158
 20
13.874184355
 10
-165.1896566571
 20
13.8840169766
 10
-165.187124616
 20
13.8937510103
 10
-165.1829301923
 20
13.9033864562
 10
-165.1770480009
 20
13.9129551782
 10
-165.169503427
 20
13.9224253124
 10
-165.1603726262
 20
13.9317012663
 10
-165.1496395329
 20
13.9407810733
 10
-165.1373202126
 20
13.9496667
 10
-165.1235390177
 20
13.9582684542
 10
-165.108281142
 20
13.9665834608
 10
-165.0915613917
 20
13.9746145948
 10
-165.0735485373
 20
13.9822807893
 10
-165.0542294822
 20
13.9895783481
 10
-165.033617323
 20
13.9965109675
 10
-165.0119201206
 20
14.0030086689
 10
-164.9891268857
 20
14.0090670475
 10
-164.9652486076
 20
14.014690508
 10
-164.9405263158
 20
14.019822287
 10
-164.914951462
 20
14.0244574044
 10
-164.8885325944
 20
14.0286008402
 10
-164.8615363875
 20
14.0322107701
 10
-164.8339569937
 20
14.0352817908
 10
-164.8058002606
 20
14.0378193056
 10
-164.7773504046
 20
14.0397977006
 10
-164.7487021646
 20
14.041208438
 10
-164.7197608016
 20
14.0420600556
 10
-164.6905263158
 20
14.0423525535
  0
LWPOLYLINE
  5
254
100
AcDbEntity
  8
RACCORDO
100
AcDbPolyline
 62
7
  6
CONTINUOUS
 90
28
 70
0
 10
-144.1905263158
 20
12.001511561
 10
-144.1896566571
 20
11.9916789393
 10
-144.187124616
 20
11.9819449056
 10
-144.1829301923
 20
11.9723094597
 10
-144.1770480009
 20
11.9627407377
 10
-144.169503427
 20
11.9532706035
 10
-144.1603726262
 20
11.9439946496
 10
-144.1496395329
 20
11.9349148426
 10
-144.1373202126
 20
11.9260292159
 10
-144.1235390177
 20
11.9174274617
 10
-144.108281142
 20
11.9091124552
 10
-144.0915613917
 20
11.9010813211
 10
-144.0735485373
 20
11.8934151266
 10
-144.0542294822
 20
11.8861175678
 10
-144.033617323
 20
11.8791849484
 10
-144.0119201206
 20
11.872687247
 10
-143.9891268857
 20
11.8666288685
 10
-143.9652486076
 20
11.8610054079
 10
-143.9405263158
 20
11.8558736289
 10
-143.914951462
 20
11.8512385115
 10
-143.8885325944
 20
11.8470950757
 10
-143.8615363875
 20
11.8434851458
 10
-143.8339569937
 20
11.8404141251
 10
-143.8058002606
 20
11.8378766103
 10
-143.7773504046
 20
11.8358982153
 10
-143.7487021646
 20
11.8344874779
 10
-143.7197608016
 20
11.8336358603
 10
-143.6905263158
 20
11.8333433625
  0
LWPOLYLINE
  5
255
100
AcDbEntity
  8
RACCORDO
100
AcDbPolyline
 62
7
  6
CONTINUOUS
 90
28
 70
0
 10
-136.1905263158
 20
12.674184355
 10
-136.1913959744
 20
12.6840169766
 10
-136.1939280156
 20
12.6937510103
 10
-136.1981224393
 20
12.7033864562
 10
-136.2040046307
 20
12.7129551782
 10
-136.2115492046
 20
12.7224253124
 10
-136.2206800054
 20
12.7317012663
 10
-136.2314130987
 20
12.7407810733
 10
-136.243732419
 20
12.7496667
 10
-136.2575136139
 20
12.7582684542
 10
-136.2727714896
 20
12.7665834608
 10
-136.2894912399
 20
12.7746145948
 10
-136.3075040942
 20
12.7822807893
 10
-136.3268231494
 20
12.7895783481
 10
-136.3474353086
 20
12.7965109675
 10
-136.3691325109
 20
12.8030086689
 10
-136.3919257459
 20
12.8090670475
 10
-136.415804024
 20
12.814690508
 10
-136.4405263158
 20
12.819822287
 10
-136.4661011696
 20
12.8244574044
 10
-136.4925200372
 20
12.8286008402
 10
-136.5195162441
 20
12.8322107701
 10
-136.5470956378
 20
12.8352817908
 10
-136.575252371
 20
12.8378193056
 10
-136.603702227
 20
12.8397977006
 10
-136.632350467
 20
12.841208438
 10
-136.66129183
 20
12.8420600556
 10
-136.6905263158
 20
12.8423525535
  0
LINE
  5
256
100
AcDbEntity
  8
ASSI
100
AcDbLine
 62
7
  6
CONTINUOUS
 10
-147.4905263158
 20
12.0243341715
 11
-147.4905263158
 21
16.0063157895
  0
LINE
  5
257
100
AcDbEntity
  8
ASSI
100
AcDbLine
 62
7
  6
CONTINUOUS
 10
-145.6905263158
 20
12.0243341715
 11
-145.6905263158
 21
16.0063157895
  0
LINE
  5
258
100
AcDbEntity
  8
RACCORDO
100
AcDbLine
 62
7
  6
CONTINUOUS
 10
-144.1905263158
 20
12.001511561
 11
-144.1905263158
 21
13.874184355
  0
LINE
  5
259
100
AcDbEntity
  8
RACCORDO
100
AcDbLine
 62
253
  6
CONTINUOUS
 10
-143.6905263158
 20
12.8423525535
 11
-143.6905263158
 21
14.0423525535
  0
LINE
  5
25A
100
AcDbEntity
  8
0
100
AcDbLine
 62
7
  6
CONTINUOUS
 10
-142.1905263158
 20
11.8333433625
 11
-142.1905263158
 21
10.8243341715
  0
LINE
  5
25B
100
AcDbEntity
  8
0
100
AcDbLine
 62
7
  6
CONTINUOUS
 10
-138.1905263158
 20
10.8243341715
 11
-138.1905263158
 21
11.8333433625
  0
LINE
  5
25C
100
AcDbEntity
  8
RACCORDO
100
AcDbLine
 62
253
  6
CONTINUOUS
 10
-136.6905263158
 20
12.8423525535
 11
-136.6905263158
 21
14.0423525535
  0
LINE
  5
25D
100
AcDbEntity
  8
RACCORDO
100
AcDbLine
 62
7
  6
CONTINUOUS
 10
-136.1905263158
 20
12.001511561
 11
-136.1905263158
 21
13.874184355
  0
LINE
  5
25E
100
AcDbEntity
  8
ASSI
100
AcDbLine
 62
7
  6
CONTINUOUS
 10
-135.4405263158
 20
12.0243341715
 11
-135.4405263158
 21
16.0063157895
  0
LWPOLYLINE
  5
25F
100
AcDbEntity
  8
RACCORDO
100
AcDbPolyline
 62
7
  6
CONTINUOUS
 90
28
 70
0
 10
-144.1905263158
 20
13.874184355
 10
-144.1896566571
 20
13.8840169766
 10
-144.187124616
 20
13.8937510103
 10
-144.1829301923
 20
13.9033864562
 10
-144.1770480009
 20
13.9129551782
 10
-144.169503427
 20
13.9224253124
 10
-144.1603726262
 20
13.9317012663
 10
-144.1496395329
 20
13.9407810733
 10
-144.1373202126
 20
13.9496667
 10
-144.1235390177
 20
13.9582684542
 10
-144.108281142
 20
13.9665834608
 10
-144.0915613917
 20
13.9746145948
 10
-144.0735485373
 20
13.9822807893
 10
-144.0542294822
 20
13.9895783481
 10
-144.033617323
 20
13.9965109675
 10
-144.0119201206
 20
14.0030086689
 10
-143.9891268857
 20
14.0090670475
 10
-143.9652486076
 20
14.014690508
 10
-143.9405263158
 20
14.019822287
 10
-143.914951462
 20
14.0244574044
 10
-143.8885325944
 20
14.0286008402
 10
-143.8615363875
 20
14.0322107701
 10
-143.8339569937
 20
14.0352817908
 10
-143.8058002606
 20
14.0378193056
 10
-143.7773504046
 20
14.0397977006
 10
-143.7487021646
 20
14.041208438
 10
-143.7197608016
 20
14.0420600556
 10
-143.6905263158
 20
14.0423525535
  0
LWPOLYLINE
  5
260
100
AcDbEntity
  8
RACCORDO
100
AcDbPolyline
 62
7
  6
CONTINUOUS
 90
28
 70
0
 10
-130.1905263158
 20
12.001511561
 10
-130.1896566571
 20
11.9916789393
 10
-130.187124616
 20
11.9819449056
 10
-130.1829301923
 20
11.9723094597
 10
-130.1770480009
 20
11.9627407377
 10
-130.169503427
 20
11.9532706035
 10
-130.1603726262
 20
11.9439946496
 10
-130.1496395329
 20
11.9349148426
 10
-130.1373202126
 20
11.9260292159
 10
-130.1235390177
 20
11.9174274617
 10
-130.108281142
 20
11.9091124552
 10
-130.0915613917
 20
11.9010813211
 10
-130.0735485373
 20
11.8934151266
 10
-130.0542294822
 20
11.8861175678
 10
-130.033617323
 20
11.8791849484
 10
-130.0119201206
 20
11.872687247
 10
-129.9891268857
 20
11.8666288685
 10
-129.9652486076
 20
11.8610054079
 10
-129.9405263158
 20
11.8558736289
 10
-129.914951462
 20
11.8512385115
 10
-129.8885325944
 20
11.8470950757
 10
-129.8615363875
 20
11.8434851458
 10
-129.8339569937
 20
11.8404141251
 10
-129.8058002606
 20
11.8378766103
 10
-129.7773504046
 20
11.8358982153
 10
-129.7487021646
 20
11.8344874779
 10
-129.7197608016
 20
11.8336358603
 10
-129.6905263158
 20
11.8333433625
  0
LWPOLYLINE
  5
261
100
AcDbEntity
  8
RACCORDO
100
AcDbPolyline
 62
7
  6
CONTINUOUS
 90
28
 70
0
 10
-122.1905263158
 20
12.674184355
 10
-122.1913959744
 20
12.6840169766
 10
-122.1939280156
 20
12.6937510103
 10
-122.1981224393
 20
12.7033864562
 10
-122.2040046307
 20
12.7129551782
 10
-122.2115492046
 20
12.7224253124
 10
-122.2206800054
 20
12.7317012663
 10
-122.2314130987
 20
12.7407810733
 10
-122.243732419
 20
12.7496667
 10
-122.2575136139
 20
12.7582684542
 10
-122.2727714896
 20
12.7665834608
 10
-122.2894912399
 20
12.7746145948
 10
-122.3075040942
 20
12.7822807893
 10
-122.3268231494
 20
12.7895783481
 10
-122.3474353086
 20
12.7965109675
 10
-122.3691325109
 20
12.8030086689
 10
-122.3919257459
 20
12.8090670475
 10
-122.415804024
 20
12.814690508
 10
-122.4405263158
 20
12.819822287
 10
-122.4661011696
 20
12.8244574044
 10
-122.4925200372
 20
12.8286008402
 10
-122.5195162441
 20
12.8322107701
 10
-122.5470956378
 20
12.8352817908
 10
-122.575252371
 20
12.8378193056
 10
-122.603702227
 20
12.8397977006
 10
-122.632350467
 20
12.841208438
 10
-122.66129183
 20
12.8420600556
 10
-122.6905263158
 20
12.8423525535
  0
LINE
  5
262
100
AcDbEntity
  8
ASSI
100
AcDbLine
 62
7
  6
CONTINUOUS
 10
-132.9405263158
 20
12.0243341715
 11
-132.9405263158
 21
16.0063157895
  0
LINE
  5
263
100
AcDbEntity
  8
RACCORDO
100
AcDbLine
 62
7
  6
CONTINUOUS
 10
-130.1905263158
 20
12.001511561
 11
-130.1905263158
 21
13.874184355
  0
LINE
  5
264
100
AcDbEntity
  8
RACCORDO
100
AcDbLine
 62
253
  6
CONTINUOUS
 10
-129.6905263158
 20
12.8423525535
 11
-129.6905263158
 21
14.0423525535
  0
LINE
  5
265
100
AcDbEntity
  8
0
100
AcDbLine
 62
7
  6
CONTINUOUS
 10
-128.1905263158
 20
11.8333433625
 11
-128.1905263158
 21
10.8243341715
  0
LINE
  5
266
100
AcDbEntity
  8
0
100
AcDbLine
 62
7
  6
CONTINUOUS
 10
-124.1905263158
 20
10.8243341715
 11
-124.1905263158
 21
11.8333433625
  0
LINE
  5
267
100
AcDbEntity
  8
RACCORDO
100
AcDbLine
 62
253
  6
CONTINUOUS
 10
-122.6905263158
 20
12.8423525535
 11
-122.6905263158
 21
14.0423525535
  0
LINE
  5
268
100
AcDbEntity
  8
ASSI
100
AcDbLine
 62
7
  6
CONTINUOUS
 10
-122.6905263158
 20
14.0423525535
 11
-122.6905263158
 21
16.0063157895
  0
LINE
  5
269
100
AcDbEntity
  8
RACCORDO
100
AcDbLine
 62
7
  6
CONTINUOUS
 10
-122.1905263158
 20
12.001511561
 11
-122.1905263158
 21
13.874184355
  0
LINE
  5
26A
100
AcDbEntity
  8
ASSI
100
AcDbLine
 62
7
  6
CONTINUOUS
 10
-120.8905263158
 20
12.0243341715
 11
-120.8905263158
 21
16.0063157895
  0
LWPOLYLINE
  5
26B
100
AcDbEntity
  8
RACCORDO
100
AcDbPolyline
 62
7
  6
CONTINUOUS
 90
28
 70
0
 10
-130.1905263158
 20
13.874184355
 10
-130.1896566571
 20
13.8840169766
 10
-130.187124616
 20
13.8937510103
 10
-130.1829301923
 20
13.9033864562
 10
-130.1770480009
 20
13.9129551782
 10
-130.169503427
 20
13.9224253124
 10
-130.1603726262
 20
13.9317012663
 10
-130.1496395329
 20
13.9407810733
 10
-130.1373202126
 20
13.9496667
 10
-130.1235390177
 20
13.9582684542
 10
-130.108281142
 20
13.9665834608
 10
-130.0915613917
 20
13.9746145948
 10
-130.0735485373
 20
13.9822807893
 10
-130.0542294822
 20
13.9895783481
 10
-130.033617323
 20
13.9965109675
 10
-130.0119201206
 20
14.0030086689
 10
-129.9891268857
 20
14.0090670475
 10
-129.9652486076
 20
14.014690508
 10
-129.9405263158
 20
14.019822287
 10
-129.914951462
 20
14.0244574044
 10
-129.8885325944
 20
14.0286008402
 10
-129.8615363875
 20
14.0322107701
 10
-129.8339569937
 20
14.0352817908
 10
-129.8058002606
 20
14.0378193056
 10
-129.7773504046
 20
14.0397977006
 10
-129.7487021646
 20
14.041208438
 10
-129.7197608016
 20
14.0420600556
 10
-129.6905263158
 20
14.0423525535
  0
LWPOLYLINE
  5
26C
100
AcDbEntity
  8
RACCORDO
100
AcDbPolyline
 62
7
  6
CONTINUOUS
 90
28
 70
0
 10
-109.1905263158
 20
12.001511561
 10
-109.1896566571
 20
11.9916789393
 10
-109.187124616
 20
11.9819449056
 10
-109.1829301923
 20
11.9723094597
 10
-109.1770480009
 20
11.9627407377
 10
-109.169503427
 20
11.9532706035
 10
-109.1603726262
 20
11.9439946496
 10
-109.1496395329
 20
11.9349148426
 10
-109.1373202126
 20
11.9260292159
 10
-109.1235390177
 20
11.9174274617
 10
-109.108281142
 20
11.9091124552
 10
-109.0915613917
 20
11.9010813211
 10
-109.0735485373
 20
11.8934151266
 10
-109.0542294822
 20
11.8861175678
 10
-109.033617323
 20
11.8791849484
 10
-109.0119201206
 20
11.872687247
 10
-108.9891268857
 20
11.8666288685
 10
-108.9652486076
 20
11.8610054079
 10
-108.9405263158
 20
11.8558736289
 10
-108.914951462
 20
11.8512385115
 10
-108.8885325944
 20
11.8470950757
 10
-108.8615363875
 20
11.8434851458
 10
-108.8339569937
 20
11.8404141251
 10
-108.8058002606
 20
11.8378766103
 10
-108.7773504046
 20
11.8358982153
 10
-108.7487021646
 20
11.8344874779
 10
-108.7197608016
 20
11.8336358603
 10
-108.6905263158
 20
11.8333433625
  0
LINE
  5
26D
100
AcDbEntity
  8
ASSI
100
AcDbLine
 62
7
  6
CONTINUOUS
 10
-112.4905263158
 20
12.0243341715
 11
-112.4905263158
 21
16.0063157895
  0
LINE
  5
26E
100
AcDbEntity
  8
ASSI
100
AcDbLine
 62
7
  6
CONTINUOUS
 10
-110.6905263158
 20
12.0243341715
 11
-110.6905263158
 21
16.0063157895
  0
LINE
  5
26F
100
AcDbEntity
  8
RACCORDO
100
AcDbLine
 62
7
  6
CONTINUOUS
 10
-109.1905263158
 20
12.001511561
 11
-109.1905263158
 21
13.874184355
  0
LINE
  5
270
100
AcDbEntity
  8
RACCORDO
100
AcDbLine
 62
253
  6
CONTINUOUS
 10
-108.6905263158
 20
12.8423525535
 11
-108.6905263158
 21
14.0423525535
  0
LINE
  5
271
100
AcDbEntity
  8
0
100
AcDbLine
 62
7
  6
CONTINUOUS
 10
-107.1905263158
 20
11.8333433625
 11
-107.1905263158
 21
10.8243341715
  0
LINE
  5
272
100
AcDbEntity
  8
0
100
AcDbLine
 62
7
  6
CONTINUOUS
 10
-103.1905263158
 20
10.8243341715
 11
-103.1905263158
 21
11.8333433625
  0
LWPOLYLINE
  5
273
100
AcDbEntity
  8
RACCORDO
100
AcDbPolyline
 62
7
  6
CONTINUOUS
 90
28
 70
0
 10
-109.1905263158
 20
13.874184355
 10
-109.1896566571
 20
13.8840169766
 10
-109.187124616
 20
13.8937510103
 10
-109.1829301923
 20
13.9033864562
 10
-109.1770480009
 20
13.9129551782
 10
-109.169503427
 20
13.9224253124
 10
-109.1603726262
 20
13.9317012663
 10
-109.1496395329
 20
13.9407810733
 10
-109.1373202126
 20
13.9496667
 10
-109.1235390177
 20
13.9582684542
 10
-109.108281142
 20
13.9665834608
 10
-109.0915613917
 20
13.9746145948
 10
-109.0735485373
 20
13.9822807893
 10
-109.0542294822
 20
13.9895783481
 10
-109.033617323
 20
13.9965109675
 10
-109.0119201206
 20
14.0030086689
 10
-108.9891268857
 20
14.0090670475
 10
-108.9652486076
 20
14.014690508
 10
-108.9405263158
 20
14.019822287
 10
-108.914951462
 20
14.0244574044
 10
-108.8885325944
 20
14.0286008402
 10
-108.8615363875
 20
14.0322107701
 10
-108.8339569937
 20
14.0352817908
 10
-108.8058002606
 20
14.0378193056
 10
-108.7773504046
 20
14.0397977006
 10
-108.7487021646
 20
14.041208438
 10
-108.7197608016
 20
14.0420600556
 10
-108.6905263158
 20
14.0423525535
  0
LWPOLYLINE
  5
274
100
AcDbEntity
  8
RACCORDO
100
AcDbPolyline
 62
7
  6
CONTINUOUS
 90
28
 70
0
 10
-101.1905263158
 20
12.674184355
 10
-101.1913959744
 20
12.6840169766
 10
-101.1939280156
 20
12.6937510103
 10
-101.1981224393
 20
12.7033864562
 10
-101.2040046307
 20
12.7129551782
 10
-101.2115492046
 20
12.7224253124
 10
-101.2206800054
 20
12.7317012663
 10
-101.2314130987
 20
12.7407810733
 10
-101.243732419
 20
12.7496667
 10
-101.2575136139
 20
12.7582684542
 10
-101.2727714896
 20
12.7665834608
 10
-101.2894912399
 20
12.7746145948
 10
-101.3075040942
 20
12.7822807893
 10
-101.3268231494
 20
12.7895783481
 10
-101.3474353086
 20
12.7965109675
 10
-101.3691325109
 20
12.8030086689
 10
-101.3919257459
 20
12.8090670475
 10
-101.415804024
 20
12.814690508
 10
-101.4405263158
 20
12.819822287
 10
-101.4661011696
 20
12.8244574044
 10
-101.4925200372
 20
12.8286008402
 10
-101.5195162441
 20
12.8322107701
 10
-101.5470956378
 20
12.8352817908
 10
-101.575252371
 20
12.8378193056
 10
-101.603702227
 20
12.8397977006
 10
-101.632350467
 20
12.841208438
 10
-101.66129183
 20
12.8420600556
 10
-101.6905263158
 20
12.8423525535
  0
LWPOLYLINE
  5
275
100
AcDbEntity
  8
RACCORDO
100
AcDbPolyline
 62
7
  6
CONTINUOUS
 90
28
 70
0
 10
-95.1905263158
 20
12.001511561
 10
-95.1896566571
 20
11.9916789393
 10
-95.187124616
 20
11.9819449056
 10
-95.1829301923
 20
11.9723094597
 10
-95.1770480009
 20
11.9627407377
 10
-95.169503427
 20
11.9532706035
 10
-95.1603726262
 20
11.9439946496
 10
-95.1496395329
 20
11.9349148426
 10
-95.1373202126
 20
11.9260292159
 10
-95.1235390177
 20
11.9174274617
 10
-95.108281142
 20
11.9091124552
 10
-95.0915613917
 20
11.9010813211
 10
-95.0735485373
 20
11.8934151266
 10
-95.0542294822
 20
11.8861175678
 10
-95.033617323
 20
11.8791849484
 10
-95.0119201206
 20
11.872687247
 10
-94.9891268857
 20
11.8666288685
 10
-94.9652486076
 20
11.8610054079
 10
-94.9405263158
 20
11.8558736289
 10
-94.914951462
 20
11.8512385115
 10
-94.8885325944
 20
11.8470950757
 10
-94.8615363875
 20
11.8434851458
 10
-94.8339569937
 20
11.8404141251
 10
-94.8058002606
 20
11.8378766103
 10
-94.7773504046
 20
11.8358982153
 10
-94.7487021646
 20
11.8344874779
 10
-94.7197608016
 20
11.8336358603
 10
-94.6905263158
 20
11.8333433625
  0
LWPOLYLINE
  5
276
100
AcDbEntity
  8
RACCORDO
100
AcDbPolyline
 62
7
  6
CONTINUOUS
 90
28
 70
0
 10
-87.1905263158
 20
12.674184355
 10
-87.1913959744
 20
12.6840169766
 10
-87.1939280156
 20
12.6937510103
 10
-87.1981224393
 20
12.7033864562
 10
-87.2040046307
 20
12.7129551782
 10
-87.2115492046
 20
12.7224253124
 10
-87.2206800054
 20
12.7317012663
 10
-87.2314130987
 20
12.7407810733
 10
-87.243732419
 20
12.7496667
 10
-87.2575136139
 20
12.7582684542
 10
-87.2727714896
 20
12.7665834608
 10
-87.2894912399
 20
12.7746145948
 10
-87.3075040942
 20
12.7822807893
 10
-87.3268231494
 20
12.7895783481
 10
-87.3474353086
 20
12.7965109675
 10
-87.3691325109
 20
12.8030086689
 10
-87.3919257459
 20
12.8090670475
 10
-87.415804024
 20
12.814690508
 10
-87.4405263158
 20
12.819822287
 10
-87.4661011696
 20
12.8244574044
 10
-87.4925200372
 20
12.8286008402
 10
-87.5195162441
 20
12.8322107701
 10
-87.5470956378
 20
12.8352817908
 10
-87.575252371
 20
12.8378193056
 10
-87.603702227
 20
12.8397977006
 10
-87.632350467
 20
12.841208438
 10
-87.66129183
 20
12.8420600556
 10
-87.6905263158
 20
12.8423525535
  0
LINE
  5
277
100
AcDbEntity
  8
RACCORDO
100
AcDbLine
 62
253
  6
CONTINUOUS
 10
-101.6905263158
 20
12.8423525535
 11
-101.6905263158
 21
14.0423525535
  0
LINE
  5
278
100
AcDbEntity
  8
RACCORDO
100
AcDbLine
 62
7
  6
CONTINUOUS
 10
-101.1905263158
 20
12.001511561
 11
-101.1905263158
 21
13.874184355
  0
LINE
  5
279
100
AcDbEntity
  8
ASSI
100
AcDbLine
 62
7
  6
CONTINUOUS
 10
-100.4405263158
 20
12.0243341715
 11
-100.4405263158
 21
16.0063157895
  0
LINE
  5
27A
100
AcDbEntity
  8
ASSI
100
AcDbLine
 62
7
  6
CONTINUOUS
 10
-97.9405263158
 20
12.0243341715
 11
-97.9405263158
 21
16.0063157895
  0
LINE
  5
27B
100
AcDbEntity
  8
RACCORDO
100
AcDbLine
 62
7
  6
CONTINUOUS
 10
-95.1905263158
 20
12.001511561
 11
-95.1905263158
 21
13.874184355
  0
LINE
  5
27C
100
AcDbEntity
  8
RACCORDO
100
AcDbLine
 62
253
  6
CONTINUOUS
 10
-94.6905263158
 20
12.8423525535
 11
-94.6905263158
 21
14.0423525535
  0
LINE
  5
27D
100
AcDbEntity
  8
0
100
AcDbLine
 62
7
  6
CONTINUOUS
 10
-93.1905263158
 20
11.8333433625
 11
-93.1905263158
 21
10.8243341715
  0
LINE
  5
27E
100
AcDbEntity
  8
0
100
AcDbLine
 62
7
  6
CONTINUOUS
 10
-89.1905263158
 20
10.8243341715
 11
-89.1905263158
 21
11.8333433625
  0
LINE
  5
27F
100
AcDbEntity
  8
RACCORDO
100
AcDbLine
 62
253
  6
CONTINUOUS
 10
-87.6905263158
 20
12.8423525535
 11
-87.6905263158
 21
14.0423525535
  0
LINE
  5
280
100
AcDbEntity
  8
ASSI
100
AcDbLine
 62
7
  6
CONTINUOUS
 10
-87.6905263158
 20
14.0423525535
 11
-87.6905263158
 21
16.0063157895
  0
LINE
  5
281
100
AcDbEntity
  8
RACCORDO
100
AcDbLine
 62
7
  6
CONTINUOUS
 10
-87.1905263158
 20
12.001511561
 11
-87.1905263158
 21
13.874184355
  0
LINE
  5
282
100
AcDbEntity
  8
ASSI
100
AcDbLine
 62
7
  6
CONTINUOUS
 10
-85.8905263158
 20
12.0243341715
 11
-85.8905263158
 21
16.0063157895
  0
LWPOLYLINE
  5
283
100
AcDbEntity
  8
RACCORDO
100
AcDbPolyline
 62
7
  6
CONTINUOUS
 90
28
 70
0
 10
-95.1905263158
 20
13.874184355
 10
-95.1896566571
 20
13.8840169766
 10
-95.187124616
 20
13.8937510103
 10
-95.1829301923
 20
13.9033864562
 10
-95.1770480009
 20
13.9129551782
 10
-95.169503427
 20
13.9224253124
 10
-95.1603726262
 20
13.9317012663
 10
-95.1496395329
 20
13.9407810733
 10
-95.1373202126
 20
13.9496667
 10
-95.1235390177
 20
13.9582684542
 10
-95.108281142
 20
13.9665834608
 10
-95.0915613917
 20
13.9746145948
 10
-95.0735485373
 20
13.9822807893
 10
-95.0542294822
 20
13.9895783481
 10
-95.033617323
 20
13.9965109675
 10
-95.0119201206
 20
14.0030086689
 10
-94.9891268857
 20
14.0090670475
 10
-94.9652486076
 20
14.014690508
 10
-94.9405263158
 20
14.019822287
 10
-94.914951462
 20
14.0244574044
 10
-94.8885325944
 20
14.0286008402
 10
-94.8615363875
 20
14.0322107701
 10
-94.8339569937
 20
14.0352817908
 10
-94.8058002606
 20
14.0378193056
 10
-94.7773504046
 20
14.0397977006
 10
-94.7487021646
 20
14.041208438
 10
-94.7197608016
 20
14.0420600556
 10
-94.6905263158
 20
14.0423525535
  0
LWPOLYLINE
  5
284
100
AcDbEntity
  8
RACCORDO
100
AcDbPolyline
 62
7
  6
CONTINUOUS
 90
28
 70
0
 10
-74.1905263158
 20
12.001511561
 10
-74.1896566571
 20
11.9916789393
 10
-74.187124616
 20
11.9819449056
 10
-74.1829301923
 20
11.9723094597
 10
-74.1770480009
 20
11.9627407377
 10
-74.169503427
 20
11.9532706035
 10
-74.1603726262
 20
11.9439946496
 10
-74.1496395329
 20
11.9349148426
 10
-74.1373202126
 20
11.9260292159
 10
-74.1235390177
 20
11.9174274617
 10
-74.108281142
 20
11.9091124552
 10
-74.0915613917
 20
11.9010813211
 10
-74.0735485373
 20
11.8934151266
 10
-74.0542294822
 20
11.8861175678
 10
-74.033617323
 20
11.8791849484
 10
-74.0119201206
 20
11.872687247
 10
-73.9891268857
 20
11.8666288685
 10
-73.9652486076
 20
11.8610054079
 10
-73.9405263158
 20
11.8558736289
 10
-73.914951462
 20
11.8512385115
 10
-73.8885325944
 20
11.8470950757
 10
-73.8615363875
 20
11.8434851458
 10
-73.8339569937
 20
11.8404141251
 10
-73.8058002606
 20
11.8378766103
 10
-73.7773504046
 20
11.8358982153
 10
-73.7487021646
 20
11.8344874779
 10
-73.7197608016
 20
11.8336358603
 10
-73.6905263158
 20
11.8333433625
  0
LINE
  5
285
100
AcDbEntity
  8
ASSI
100
AcDbLine
 62
7
  6
CONTINUOUS
 10
-77.4905263158
 20
12.0243341715
 11
-77.4905263158
 21
16.0063157895
  0
LINE
  5
286
100
AcDbEntity
  8
ASSI
100
AcDbLine
 62
7
  6
CONTINUOUS
 10
-75.6905263158
 20
12.0243341715
 11
-75.6905263158
 21
16.0063157895
  0
LINE
  5
287
100
AcDbEntity
  8
RACCORDO
100
AcDbLine
 62
7
  6
CONTINUOUS
 10
-74.1905263158
 20
12.001511561
 11
-74.1905263158
 21
13.874184355
  0
LINE
  5
288
100
AcDbEntity
  8
RACCORDO
100
AcDbLine
 62
253
  6
CONTINUOUS
 10
-73.6905263158
 20
12.8423525535
 11
-73.6905263158
 21
14.0423525535
  0
LINE
  5
289
100
AcDbEntity
  8
0
100
AcDbLine
 62
7
  6
CONTINUOUS
 10
-72.1905263158
 20
11.8333433625
 11
-72.1905263158
 21
10.8243341715
  0
LWPOLYLINE
  5
28A
100
AcDbEntity
  8
RACCORDO
100
AcDbPolyline
 62
7
  6
CONTINUOUS
 90
28
 70
0
 10
-74.1905263158
 20
13.874184355
 10
-74.1896566571
 20
13.8840169766
 10
-74.187124616
 20
13.8937510103
 10
-74.1829301923
 20
13.9033864562
 10
-74.1770480009
 20
13.9129551782
 10
-74.169503427
 20
13.9224253124
 10
-74.1603726262
 20
13.9317012663
 10
-74.1496395329
 20
13.9407810733
 10
-74.1373202126
 20
13.9496667
 10
-74.1235390177
 20
13.9582684542
 10
-74.108281142
 20
13.9665834608
 10
-74.0915613917
 20
13.9746145948
 10
-74.0735485373
 20
13.9822807893
 10
-74.0542294822
 20
13.9895783481
 10
-74.033617323
 20
13.9965109675
 10
-74.0119201206
 20
14.0030086689
 10
-73.9891268857
 20
14.0090670475
 10
-73.9652486076
 20
14.014690508
 10
-73.9405263158
 20
14.019822287
 10
-73.914951462
 20
14.0244574044
 10
-73.8885325944
 20
14.0286008402
 10
-73.8615363875
 20
14.0322107701
 10
-73.8339569937
 20
14.0352817908
 10
-73.8058002606
 20
14.0378193056
 10
-73.7773504046
 20
14.0397977006
 10
-73.7487021646
 20
14.041208438
 10
-73.7197608016
 20
14.0420600556
 10
-73.6905263158
 20
14.0423525535
  0
LWPOLYLINE
  5
28B
100
AcDbEntity
  8
RACCORDO
100
AcDbPolyline
 62
7
  6
CONTINUOUS
 90
28
 70
0
 10
-66.1905263158
 20
12.674184355
 10
-66.1913959744
 20
12.6840169766
 10
-66.1939280156
 20
12.6937510103
 10
-66.1981224393
 20
12.7033864562
 10
-66.2040046307
 20
12.7129551782
 10
-66.2115492046
 20
12.7224253124
 10
-66.2206800054
 20
12.7317012663
 10
-66.2314130987
 20
12.7407810733
 10
-66.243732419
 20
12.7496667
 10
-66.2575136139
 20
12.7582684542
 10
-66.2727714896
 20
12.7665834608
 10
-66.2894912399
 20
12.7746145948
 10
-66.3075040942
 20
12.7822807893
 10
-66.3268231494
 20
12.7895783481
 10
-66.3474353086
 20
12.7965109675
 10
-66.3691325109
 20
12.8030086689
 10
-66.3919257459
 20
12.8090670475
 10
-66.415804024
 20
12.814690508
 10
-66.4405263158
 20
12.819822287
 10
-66.4661011696
 20
12.8244574044
 10
-66.4925200372
 20
12.8286008402
 10
-66.5195162441
 20
12.8322107701
 10
-66.5470956378
 20
12.8352817908
 10
-66.575252371
 20
12.8378193056
 10
-66.603702227
 20
12.8397977006
 10
-66.632350467
 20
12.841208438
 10
-66.66129183
 20
12.8420600556
 10
-66.6905263158
 20
12.8423525535
  0
LWPOLYLINE
  5
28C
100
AcDbEntity
  8
RACCORDO
100
AcDbPolyline
 62
7
  6
CONTINUOUS
 90
28
 70
0
 10
-60.1905263158
 20
12.001511561
 10
-60.1896566571
 20
11.9916789393
 10
-60.187124616
 20
11.9819449056
 10
-60.1829301923
 20
11.9723094597
 10
-60.1770480009
 20
11.9627407377
 10
-60.169503427
 20
11.9532706035
 10
-60.1603726262
 20
11.9439946496
 10
-60.1496395329
 20
11.9349148426
 10
-60.1373202126
 20
11.9260292159
 10
-60.1235390177
 20
11.9174274617
 10
-60.108281142
 20
11.9091124552
 10
-60.0915613917
 20
11.9010813211
 10
-60.0735485373
 20
11.8934151266
 10
-60.0542294822
 20
11.8861175678
 10
-60.033617323
 20
11.8791849484
 10
-60.0119201206
 20
11.872687247
 10
-59.9891268857
 20
11.8666288685
 10
-59.9652486076
 20
11.8610054079
 10
-59.9405263158
 20
11.8558736289
 10
-59.914951462
 20
11.8512385115
 10
-59.8885325944
 20
11.8470950757
 10
-59.8615363875
 20
11.8434851458
 10
-59.8339569937
 20
11.8404141251
 10
-59.8058002606
 20
11.8378766103
 10
-59.7773504046
 20
11.8358982153
 10
-59.7487021646
 20
11.8344874779
 10
-59.7197608016
 20
11.8336358603
 10
-59.6905263158
 20
11.8333433625
  0
LINE
  5
28D
100
AcDbEntity
  8
0
100
AcDbLine
 62
7
  6
CONTINUOUS
 10
-68.1905263158
 20
10.8243341715
 11
-68.1905263158
 21
11.8333433625
  0
LINE
  5
28E
100
AcDbEntity
  8
RACCORDO
100
AcDbLine
 62
253
  6
CONTINUOUS
 10
-66.6905263158
 20
12.8423525535
 11
-66.6905263158
 21
14.0423525535
  0
LINE
  5
28F
100
AcDbEntity
  8
RACCORDO
100
AcDbLine
 62
7
  6
CONTINUOUS
 10
-66.1905263158
 20
12.001511561
 11
-66.1905263158
 21
13.874184355
  0
LINE
  5
290
100
AcDbEntity
  8
ASSI
100
AcDbLine
 62
7
  6
CONTINUOUS
 10
-65.4405263158
 20
12.0243341715
 11
-65.4405263158
 21
16.0063157895
  0
LINE
  5
291
100
AcDbEntity
  8
ASSI
100
AcDbLine
 62
7
  6
CONTINUOUS
 10
-62.9405263158
 20
12.0243341715
 11
-62.9405263158
 21
16.0063157895
  0
LINE
  5
292
100
AcDbEntity
  8
RACCORDO
100
AcDbLine
 62
7
  6
CONTINUOUS
 10
-60.1905263158
 20
12.001511561
 11
-60.1905263158
 21
13.874184355
  0
LINE
  5
293
100
AcDbEntity
  8
RACCORDO
100
AcDbLine
 62
253
  6
CONTINUOUS
 10
-59.6905263158
 20
12.8423525535
 11
-59.6905263158
 21
14.0423525535
  0
LINE
  5
294
100
AcDbEntity
  8
0
100
AcDbLine
 62
7
  6
CONTINUOUS
 10
-58.1905263158
 20
11.8333433625
 11
-58.1905263158
 21
10.8243341715
  0
LINE
  5
295
100
AcDbEntity
  8
0
100
AcDbLine
 62
7
  6
CONTINUOUS
 10
-54.1905263158
 20
10.8243341715
 11
-54.1905263158
 21
11.8333433625
  0
LWPOLYLINE
  5
296
100
AcDbEntity
  8
RACCORDO
100
AcDbPolyline
 62
7
  6
CONTINUOUS
 90
28
 70
0
 10
-60.1905263158
 20
13.874184355
 10
-60.1896566571
 20
13.8840169766
 10
-60.187124616
 20
13.8937510103
 10
-60.1829301923
 20
13.9033864562
 10
-60.1770480009
 20
13.9129551782
 10
-60.169503427
 20
13.9224253124
 10
-60.1603726262
 20
13.9317012663
 10
-60.1496395329
 20
13.9407810733
 10
-60.1373202126
 20
13.9496667
 10
-60.1235390177
 20
13.9582684542
 10
-60.108281142
 20
13.9665834608
 10
-60.0915613917
 20
13.9746145948
 10
-60.0735485373
 20
13.9822807893
 10
-60.0542294822
 20
13.9895783481
 10
-60.033617323
 20
13.9965109675
 10
-60.0119201206
 20
14.0030086689
 10
-59.9891268857
 20
14.0090670475
 10
-59.9652486076
 20
14.014690508
 10
-59.9405263158
 20
14.019822287
 10
-59.914951462
 20
14.0244574044
 10
-59.8885325944
 20
14.0286008402
 10
-59.8615363875
 20
14.0322107701
 10
-59.8339569937
 20
14.0352817908
 10
-59.8058002606
 20
14.0378193056
 10
-59.7773504046
 20
14.0397977006
 10
-59.7487021646
 20
14.041208438
 10
-59.7197608016
 20
14.0420600556
 10
-59.6905263158
 20
14.0423525535
  0
LWPOLYLINE
  5
297
100
AcDbEntity
  8
RACCORDO
100
AcDbPolyline
 62
7
  6
CONTINUOUS
 90
28
 70
0
 10
-52.1905263158
 20
12.674184355
 10
-52.1913959744
 20
12.6840169766
 10
-52.1939280156
 20
12.6937510103
 10
-52.1981224393
 20
12.7033864562
 10
-52.2040046307
 20
12.7129551782
 10
-52.2115492046
 20
12.7224253124
 10
-52.2206800054
 20
12.7317012663
 10
-52.2314130987
 20
12.7407810733
 10
-52.243732419
 20
12.7496667
 10
-52.2575136139
 20
12.7582684542
 10
-52.2727714896
 20
12.7665834608
 10
-52.2894912399
 20
12.7746145948
 10
-52.3075040942
 20
12.7822807893
 10
-52.3268231494
 20
12.7895783481
 10
-52.3474353086
 20
12.7965109675
 10
-52.3691325109
 20
12.8030086689
 10
-52.3919257459
 20
12.8090670475
 10
-52.415804024
 20
12.814690508
 10
-52.4405263158
 20
12.819822287
 10
-52.4661011696
 20
12.8244574044
 10
-52.4925200372
 20
12.8286008402
 10
-52.5195162441
 20
12.8322107701
 10
-52.5470956378
 20
12.8352817908
 10
-52.575252371
 20
12.8378193056
 10
-52.603702227
 20
12.8397977006
 10
-52.632350467
 20
12.841208438
 10
-52.66129183
 20
12.8420600556
 10
-52.6905263158
 20
12.8423525535
  0
LWPOLYLINE
  5
298
100
AcDbEntity
  8
RACCORDO
100
AcDbPolyline
 62
7
  6
CONTINUOUS
 90
28
 70
0
 10
-39.1905263158
 20
12.001511561
 10
-39.1896566571
 20
11.9916789393
 10
-39.187124616
 20
11.9819449056
 10
-39.1829301923
 20
11.9723094597
 10
-39.1770480009
 20
11.9627407377
 10
-39.169503427
 20
11.9532706035
 10
-39.1603726262
 20
11.9439946496
 10
-39.1496395329
 20
11.9349148426
 10
-39.1373202126
 20
11.9260292159
 10
-39.1235390177
 20
11.9174274617
 10
-39.108281142
 20
11.9091124552
 10
-39.0915613917
 20
11.9010813211
 10
-39.0735485373
 20
11.8934151266
 10
-39.0542294822
 20
11.8861175678
 10
-39.033617323
 20
11.8791849484
 10
-39.0119201206
 20
11.872687247
 10
-38.9891268857
 20
11.8666288685
 10
-38.9652486076
 20
11.8610054079
 10
-38.9405263158
 20
11.8558736289
 10
-38.914951462
 20
11.8512385115
 10
-38.8885325944
 20
11.8470950757
 10
-38.8615363875
 20
11.8434851458
 10
-38.8339569937
 20
11.8404141251
 10
-38.8058002606
 20
11.8378766103
 10
-38.7773504046
 20
11.8358982153
 10
-38.7487021646
 20
11.8344874779
 10
-38.7197608016
 20
11.8336358603
 10
-38.6905263158
 20
11.8333433625
  0
LINE
  5
299
100
AcDbEntity
  8
RACCORDO
100
AcDbLine
 62
253
  6
CONTINUOUS
 10
-52.6905263158
 20
12.8423525535
 11
-52.6905263158
 21
14.0423525535
  0
LINE
  5
29A
100
AcDbEntity
  8
ASSI
100
AcDbLine
 62
7
  6
CONTINUOUS
 10
-52.6905263158
 20
14.0423525535
 11
-52.6905263158
 21
16.0063157895
  0
LINE
  5
29B
100
AcDbEntity
  8
RACCORDO
100
AcDbLine
 62
7
  6
CONTINUOUS
 10
-52.1905263158
 20
12.001511561
 11
-52.1905263158
 21
13.874184355
  0
LINE
  5
29C
100
AcDbEntity
  8
ASSI
100
AcDbLine
 62
7
  6
CONTINUOUS
 10
-50.8905263158
 20
12.0243341715
 11
-50.8905263158
 21
16.0063157895
  0
LINE
  5
29D
100
AcDbEntity
  8
ASSI
100
AcDbLine
 62
7
  6
CONTINUOUS
 10
-42.4905263158
 20
12.0243341715
 11
-42.4905263158
 21
16.0063157895
  0
LINE
  5
29E
100
AcDbEntity
  8
ASSI
100
AcDbLine
 62
7
  6
CONTINUOUS
 10
-40.6905263158
 20
12.0243341715
 11
-40.6905263158
 21
16.0063157895
  0
LINE
  5
29F
100
AcDbEntity
  8
RACCORDO
100
AcDbLine
 62
7
  6
CONTINUOUS
 10
-39.1905263158
 20
12.001511561
 11
-39.1905263158
 21
13.874184355
  0
LINE
  5
2A0
100
AcDbEntity
  8
RACCORDO
100
AcDbLine
 62
253
  6
CONTINUOUS
 10
-38.6905263158
 20
12.8423525535
 11
-38.6905263158
 21
14.0423525535
  0
LWPOLYLINE
  5
2A1
100
AcDbEntity
  8
RACCORDO
100
AcDbPolyline
 62
7
  6
CONTINUOUS
 90
28
 70
0
 10
-39.1905263158
 20
13.874184355
 10
-39.1896566571
 20
13.8840169766
 10
-39.187124616
 20
13.8937510103
 10
-39.1829301923
 20
13.9033864562
 10
-39.1770480009
 20
13.9129551782
 10
-39.169503427
 20
13.9224253124
 10
-39.1603726262
 20
13.9317012663
 10
-39.1496395329
 20
13.9407810733
 10
-39.1373202126
 20
13.9496667
 10
-39.1235390177
 20
13.9582684542
 10
-39.108281142
 20
13.9665834608
 10
-39.0915613917
 20
13.9746145948
 10
-39.0735485373
 20
13.9822807893
 10
-39.0542294822
 20
13.9895783481
 10
-39.033617323
 20
13.9965109675
 10
-39.0119201206
 20
14.0030086689
 10
-38.9891268857
 20
14.0090670475
 10
-38.9652486076
 20
14.014690508
 10
-38.9405263158
 20
14.019822287
 10
-38.914951462
 20
14.0244574044
 10
-38.8885325944
 20
14.0286008402
 10
-38.8615363875
 20
14.0322107701
 10
-38.8339569937
 20
14.0352817908
 10
-38.8058002606
 20
14.0378193056
 10
-38.7773504046
 20
14.0397977006
 10
-38.7487021646
 20
14.041208438
 10
-38.7197608016
 20
14.0420600556
 10
-38.6905263158
 20
14.0423525535
  0
LWPOLYLINE
  5
2A2
100
AcDbEntity
  8
RACCORDO
100
AcDbPolyline
 62
7
  6
CONTINUOUS
 90
28
 70
0
 10
-31.1905263158
 20
12.674184355
 10
-31.1913959744
 20
12.6840169766
 10
-31.1939280156
 20
12.6937510103
 10
-31.1981224393
 20
12.7033864562
 10
-31.2040046307
 20
12.7129551782
 10
-31.2115492046
 20
12.7224253124
 10
-31.2206800054
 20
12.7317012663
 10
-31.2314130987
 20
12.7407810733
 10
-31.243732419
 20
12.7496667
 10
-31.2575136139
 20
12.7582684542
 10
-31.2727714896
 20
12.7665834608
 10
-31.2894912399
 20
12.7746145948
 10
-31.3075040942
 20
12.7822807893
 10
-31.3268231494
 20
12.7895783481
 10
-31.3474353086
 20
12.7965109675
 10
-31.3691325109
 20
12.8030086689
 10
-31.3919257459
 20
12.8090670475
 10
-31.415804024
 20
12.814690508
 10
-31.4405263158
 20
12.819822287
 10
-31.4661011696
 20
12.8244574044
 10
-31.4925200372
 20
12.8286008402
 10
-31.5195162441
 20
12.8322107701
 10
-31.5470956378
 20
12.8352817908
 10
-31.575252371
 20
12.8378193056
 10
-31.603702227
 20
12.8397977006
 10
-31.632350467
 20
12.841208438
 10
-31.66129183
 20
12.8420600556
 10
-31.6905263158
 20
12.8423525535
  0
LWPOLYLINE
  5
2A3
100
AcDbEntity
  8
RACCORDO
100
AcDbPolyline
 62
7
  6
CONTINUOUS
 90
28
 70
0
 10
-25.1905263158
 20
12.001511561
 10
-25.1896566571
 20
11.9916789393
 10
-25.187124616
 20
11.9819449056
 10
-25.1829301923
 20
11.9723094597
 10
-25.1770480009
 20
11.9627407377
 10
-25.169503427
 20
11.9532706035
 10
-25.1603726262
 20
11.9439946496
 10
-25.1496395329
 20
11.9349148426
 10
-25.1373202126
 20
11.9260292159
 10
-25.1235390177
 20
11.9174274617
 10
-25.108281142
 20
11.9091124552
 10
-25.0915613917
 20
11.9010813211
 10
-25.0735485373
 20
11.8934151266
 10
-25.0542294822
 20
11.8861175678
 10
-25.033617323
 20
11.8791849484
 10
-25.0119201206
 20
11.872687247
 10
-24.9891268857
 20
11.8666288685
 10
-24.9652486076
 20
11.8610054079
 10
-24.9405263158
 20
11.8558736289
 10
-24.914951462
 20
11.8512385115
 10
-24.8885325944
 20
11.8470950757
 10
-24.8615363875
 20
11.8434851458
 10
-24.8339569937
 20
11.8404141251
 10
-24.8058002606
 20
11.8378766103
 10
-24.7773504046
 20
11.8358982153
 10
-24.7487021646
 20
11.8344874779
 10
-24.7197608016
 20
11.8336358603
 10
-24.6905263158
 20
11.8333433625
  0
LINE
  5
2A4
100
AcDbEntity
  8
0
100
AcDbLine
 62
7
  6
CONTINUOUS
 10
-37.1905263158
 20
11.8333433625
 11
-37.1905263158
 21
10.8243341715
  0
LINE
  5
2A5
100
AcDbEntity
  8
0
100
AcDbLine
 62
7
  6
CONTINUOUS
 10
-33.1905263158
 20
10.8243341715
 11
-33.1905263158
 21
11.8333433625
  0
LINE
  5
2A6
100
AcDbEntity
  8
RACCORDO
100
AcDbLine
 62
253
  6
CONTINUOUS
 10
-31.6905263158
 20
12.8423525535
 11
-31.6905263158
 21
14.0423525535
  0
LINE
  5
2A7
100
AcDbEntity
  8
RACCORDO
100
AcDbLine
 62
7
  6
CONTINUOUS
 10
-31.1905263158
 20
12.001511561
 11
-31.1905263158
 21
13.874184355
  0
LINE
  5
2A8
100
AcDbEntity
  8
ASSI
100
AcDbLine
 62
7
  6
CONTINUOUS
 10
-30.4405263158
 20
12.0243341715
 11
-30.4405263158
 21
16.0063157895
  0
LINE
  5
2A9
100
AcDbEntity
  8
ASSI
100
AcDbLine
 62
7
  6
CONTINUOUS
 10
-27.9405263158
 20
12.0243341715
 11
-27.9405263158
 21
16.0063157895
  0
LINE
  5
2AA
100
AcDbEntity
  8
RACCORDO
100
AcDbLine
 62
7
  6
CONTINUOUS
 10
-25.1905263158
 20
12.001511561
 11
-25.1905263158
 21
13.874184355
  0
LINE
  5
2AB
100
AcDbEntity
  8
RACCORDO
100
AcDbLine
 62
253
  6
CONTINUOUS
 10
-24.6905263158
 20
12.8423525535
 11
-24.6905263158
 21
14.0423525535
  0
LINE
  5
2AC
100
AcDbEntity
  8
0
100
AcDbLine
 62
7
  6
CONTINUOUS
 10
-23.1905263158
 20
11.8333433625
 11
-23.1905263158
 21
10.8243341715
  0
LWPOLYLINE
  5
2AD
100
AcDbEntity
  8
RACCORDO
100
AcDbPolyline
 62
7
  6
CONTINUOUS
 90
28
 70
0
 10
-25.1905263158
 20
13.874184355
 10
-25.1896566571
 20
13.8840169766
 10
-25.187124616
 20
13.8937510103
 10
-25.1829301923
 20
13.9033864562
 10
-25.1770480009
 20
13.9129551782
 10
-25.169503427
 20
13.9224253124
 10
-25.1603726262
 20
13.9317012663
 10
-25.1496395329
 20
13.9407810733
 10
-25.1373202126
 20
13.9496667
 10
-25.1235390177
 20
13.9582684542
 10
-25.108281142
 20
13.9665834608
 10
-25.0915613917
 20
13.9746145948
 10
-25.0735485373
 20
13.9822807893
 10
-25.0542294822
 20
13.9895783481
 10
-25.033617323
 20
13.9965109675
 10
-25.0119201206
 20
14.0030086689
 10
-24.9891268857
 20
14.0090670475
 10
-24.9652486076
 20
14.014690508
 10
-24.9405263158
 20
14.019822287
 10
-24.914951462
 20
14.0244574044
 10
-24.8885325944
 20
14.0286008402
 10
-24.8615363875
 20
14.0322107701
 10
-24.8339569937
 20
14.0352817908
 10
-24.8058002606
 20
14.0378193056
 10
-24.7773504046
 20
14.0397977006
 10
-24.7487021646
 20
14.041208438
 10
-24.7197608016
 20
14.0420600556
 10
-24.6905263158
 20
14.0423525535
  0
LWPOLYLINE
  5
2AE
100
AcDbEntity
  8
RACCORDO
100
AcDbPolyline
 62
7
  6
CONTINUOUS
 90
46
 70
0
 10
207.8094736844
 20
-16.96095351
 10
207.9807135696
 20
-16.9598968172
 10
208.1517999588
 20
-16.9567263944
 10
208.3225248394
 20
-16.9514432223
 10
208.4926555885
 20
-16.9440515048
 10
208.6620086992
 20
-16.934555642
 10
208.8304507692
 20
-16.9229570648
 10
208.9977718594
 20
-16.9092621491
 10
209.1637680861
 20
-16.893478788
 10
209.3283172895
 20
-16.8756072914
 10
209.4912005014
 20
-16.8556578237
 10
209.6522259471
 20
-16.8336392813
 10
209.8113143271
 20
-16.8095438179
 10
209.9682441439
 20
-16.7833825721
 10
210.122826172
 20
-16.7551632009
 10
210.2750295048
 20
-16.7248611415
 10
210.4246259398
 20
-16.6924856635
 10
210.5714261234
 20
-16.6580391389
 10
210.7154538225
 20
-16.6214673877
 10
210.8564690108
 20
-16.582772941
 10
210.9942752832
 20
-16.5419469294
 10
211.1289537222
 20
-16.4988863029
 10
211.2602673195
 20
-16.4535702036
 10
211.3879773596
 20
-16.405976065
 10
211.5121574473
 20
-16.3559476803
 10
211.6326992251
 20
-16.3033642732
 10
211.7491704675
 20
-16.248232951
 10
211.8612280667
 20
-16.1905287635
 10
211.9690851302
 20
-16.129903976
 10
212.0720074545
 20
-16.0665016923
 10
212.1685891824
 20
-16.0010303276
 10
212.2591819389
 20
-15.9331448159
 10
212.3433903743
 20
-15.863003803
 10
212.4194328702
 20
-15.792231654
 10
212.4873343328
 20
-15.7212921325
 10
212.5479223956
 20
-15.6498221851
 10
212.6011420829
 20
-15.5784255625
 10
212.6471850611
 20
-15.5075908242
 10
212.6867056547
 20
-15.4371155618
 10
212.7202688412
 20
-15.3666810937
 10
212.7480685425
 20
-15.2965568491
 10
212.7703820643
 20
-15.2268281787
 10
212.7875965489
 20
-15.1569338727
 10
212.7998223426
 20
-15.0868164635
 10
212.8070799313
 20
-15.0169189696
 10
212.8094736842
 20
-14.9474397235
  0
LWPOLYLINE
  5
2AF
100
AcDbEntity
  8
RACCORDO
100
AcDbPolyline
 62
7
  6
CONTINUOUS
 90
46
 70
0
 10
-222.1905263156
 20
-16.96095351
 10
-222.0192864304
 20
-16.9598968172
 10
-221.8482000412
 20
-16.9567263944
 10
-221.6774751606
 20
-16.9514432223
 10
-221.5073444115
 20
-16.9440515048
 10
-221.3379913008
 20
-16.934555642
 10
-221.1695492308
 20
-16.9229570648
 10
-221.0022281406
 20
-16.9092621491
 10
-220.8362319139
 20
-16.893478788
 10
-220.6716827105
 20
-16.8756072914
 10
-220.5087994986
 20
-16.8556578237
 10
-220.3477740529
 20
-16.8336392813
 10
-220.1886856729
 20
-16.8095438179
 10
-220.0317558561
 20
-16.7833825721
 10
-219.877173828
 20
-16.7551632009
 10
-219.7249704952
 20
-16.7248611415
 10
-219.5753740602
 20
-16.6924856635
 10
-219.4285738766
 20
-16.6580391389
 10
-219.2845461775
 20
-16.6214673877
 10
-219.1435309892
 20
-16.582772941
 10
-219.0057247168
 20
-16.5419469294
 10
-218.8710462778
 20
-16.4988863029
 10
-218.7397326805
 20
-16.4535702036
 10
-218.6120226404
 20
-16.405976065
 10
-218.4878425527
 20
-16.3559476803
 10
-218.3673007749
 20
-16.3033642732
 10
-218.2508295325
 20
-16.248232951
 10
-218.1387719333
 20
-16.1905287635
 10
-218.0309148698
 20
-16.129903976
 10
-217.9279925455
 20
-16.0665016923
 10
-217.8314108176
 20
-16.0010303276
 10
-217.7408180611
 20
-15.9331448159
 10
-217.6566096257
 20
-15.863003803
 10
-217.5805671298
 20
-15.792231654
 10
-217.5126656672
 20
-15.7212921325
 10
-217.4520776044
 20
-15.6498221851
 10
-217.3988579171
 20
-15.5784255625
 10
-217.3528149389
 20
-15.5075908242
 10
-217.3132943453
 20
-15.4371155618
 10
-217.2797311588
 20
-15.3666810937
 10
-217.2519314575
 20
-15.2965568491
 10
-217.2296179357
 20
-15.2268281787
 10
-217.2124034511
 20
-15.1569338727
 10
-217.2001776574
 20
-15.0868164635
 10
-217.1929200687
 20
-15.0169189696
 10
-217.1905263158
 20
-14.9474397235
  0
LWPOLYLINE
  5
2B0
100
AcDbEntity
  8
RACCORDO
100
AcDbPolyline
 62
253
  6
CONTINUOUS
 90
88
 70
0
 10
207.8094736842
 20
-16.9318244658
 10
207.9718296081
 20
-16.9308404125
 10
208.133680413
 20
-16.9278949604
 10
208.2950260988
 20
-16.9229881094
 10
208.4561238768
 20
-16.9161077172
 10
208.6167165359
 20
-16.9072659261
 10
208.7760324418
 20
-16.8964991637
 10
208.9340093611
 20
-16.8838012319
 10
209.0907095274
 20
-16.8691783287
 10
209.2455480071
 20
-16.8526854756
 10
209.398530627
 20
-16.8343142523
 10
209.5496515605
 20
-16.8140730791
 10
209.6983083939
 20
-16.792042239
 10
209.8444861217
 20
-16.7682153309
 10
209.9881997495
 20
-16.742598756
 10
210.1288918813
 20
-16.7152919999
 10
210.2665522837
 20
-16.6862882149
 10
210.4011911901
 20
-16.6555942488
 10
210.5322819037
 20
-16.6233301305
 10
210.6598101049
 20
-16.5894898107
 10
210.7837901134
 20
-16.5540793386
 10
210.9037381917
 20
-16.517236891
 10
211.0196386995
 20
-16.4789568398
 10
211.131507277
 20
-16.439244813
 10
211.2389071071
 20
-16.3982558711
 10
211.3418206901
 20
-16.3559850318
 10
211.4402655257
 20
-16.3124372773
 10
211.5338572958
 20
-16.2677826149
 10
211.6225770363
 20
-16.2220167148
 10
211.7064437113
 20
-16.1751439069
 10
211.785129896
 20
-16.1273471874
 10
211.8586153376
 20
-16.0786229454
 10
211.9269202887
 20
-16.0289747918
 10
211.989778083
 20
-15.9785965563
 10
212.0471674267
 20
-15.9274853847
 10
212.0991096135
 20
-15.8756441311
 10
212.1454018575
 20
-15.8232751875
 10
212.1860220722
 20
-15.770376491
 10
212.220992344
 20
-15.7169501044
 10
212.2501761466
 20
-15.6632046079
 10
212.2735508598
 20
-15.6091387541
 10
212.2911391038
 20
-15.5547537903
 10
212.3028722126
 20
-15.5002620395
 10
212.3087272977
 20
-15.4456630841
 10
212.3087272476
 20
-15.3909573415
 10
212.3028720623
 20
-15.3363583869
 10
212.2911388534
 20
-15.2818666379
 10
212.2735505093
 20
-15.2274816768
 10
212.250175696
 20
-15.1734158264
 10
212.2209917934
 20
-15.1196703342
 10
212.1860214216
 20
-15.0662439527
 10
212.1454011074
 20
-15.0133452625
 10
212.0991087642
 20
-14.9609763263
 10
212.0471664787
 20
-14.9091350813
 10
211.9897770368
 20
-14.8580239193
 10
211.9269191447
 20
-14.8076456943
 10
211.8586140963
 20
-14.7579975523
 10
211.7851285595
 20
-14.7092733234
 10
211.7064422826
 20
-14.6614766193
 10
211.6225755173
 20
-14.6146038282
 10
211.5338556861
 20
-14.5688379453
 10
211.4402638209
 20
-14.5241832987
 10
211.3418188898
 20
-14.4806355602
 10
211.2389052195
 20
-14.4383647402
 10
211.131505321
 20
-14.3973758244
 10
211.0196366833
 20
-14.3576638272
 10
210.9037361008
 20
-14.3193838016
 10
210.7837879059
 20
-14.2825413683
 10
210.6598077662
 20
-14.2471309067
 10
210.5322794783
 20
-14.2132906081
 10
210.4011887864
 20
-14.1810265355
 10
210.2665499464
 20
-14.150332626
 10
210.1288895216
 20
-14.1213288813
 10
209.9881971481
 20
-14.0940221265
 10
209.8444831899
 20
-14.0684055366
 10
209.6983053031
 20
-14.0445786388
 10
209.5496486922
 20
-14.0225478638
 10
209.3985281528
 20
-14.0023067808
 10
209.2455457278
 20
-13.9839356248
 10
209.0907071124
 20
-13.9674427922
 10
208.9340066114
 20
-13.9528198867
 10
208.7760291831
 20
-13.9401219538
 10
208.6167122344
 20
-13.9293551934
 10
208.4561183584
 20
-13.9205134057
 10
208.2950202916
 20
-13.9136330371
 10
208.1336756131
 20
-13.9087262365
 10
207.971826744
 20
-13.9057808551
 10
207.8094736842
 20
-13.9047968928
  0
LWPOLYLINE
  5
2B1
100
AcDbEntity
  8
RACCORDO
100
AcDbPolyline
 62
253
  6
CONTINUOUS
 90
88
 70
0
 10
-222.1905263158
 20
-16.9318244658
 10
-222.0281703919
 20
-16.9308404125
 10
-221.866319587
 20
-16.9278949604
 10
-221.7049739012
 20
-16.9229881094
 10
-221.5438761232
 20
-16.9161077172
 10
-221.3832834641
 20
-16.9072659261
 10
-221.2239675582
 20
-16.8964991637
 10
-221.0659906389
 20
-16.8838012319
 10
-220.9092904726
 20
-16.8691783287
 10
-220.7544519929
 20
-16.8526854756
 10
-220.601469373
 20
-16.8343142523
 10
-220.4503484395
 20
-16.8140730791
 10
-220.3016916061
 20
-16.792042239
 10
-220.1555138783
 20
-16.7682153309
 10
-220.0118002505
 20
-16.742598756
 10
-219.8711081187
 20
-16.7152919999
 10
-219.7334477163
 20
-16.6862882149
 10
-219.5988088099
 20
-16.6555942488
 10
-219.4677180963
 20
-16.6233301305
 10
-219.3401898951
 20
-16.5894898107
 10
-219.2162098866
 20
-16.5540793386
 10
-219.0962618083
 20
-16.517236891
 10
-218.9803613005
 20
-16.4789568398
 10
-218.868492723
 20
-16.439244813
 10
-218.7610928929
 20
-16.3982558711
 10
-218.6581793099
 20
-16.3559850318
 10
-218.5597344743
 20
-16.3124372773
 10
-218.4661427042
 20
-16.2677826149
 10
-218.3774229637
 20
-16.2220167148
 10
-218.2935562887
 20
-16.1751439069
 10
-218.214870104
 20
-16.1273471874
 10
-218.1413846624
 20
-16.0786229454
 10
-218.0730797113
 20
-16.0289747918
 10
-218.010221917
 20
-15.9785965563
 10
-217.9528325733
 20
-15.9274853847
 10
-217.9008903865
 20
-15.8756441311
 10
-217.8545981425
 20
-15.8232751875
 10
-217.8139779278
 20
-15.770376491
 10
-217.779007656
 20
-15.7169501044
 10
-217.7498238534
 20
-15.6632046079
 10
-217.7264491402
 20
-15.6091387541
 10
-217.7088608962
 20
-15.5547537903
 10
-217.6971277874
 20
-15.5002620395
 10
-217.6912727023
 20
-15.4456630841
 10
-217.6912727524
 20
-15.3909573415
 10
-217.6971279377
 20
-15.3363583869
 10
-217.7088611466
 20
-15.2818666378
 10
-217.7264494907
 20
-15.2274816768
 10
-217.749824304
 20
-15.1734158264
 10
-217.7790082066
 20
-15.1196703342
 10
-217.8139785784
 20
-15.0662439527
 10
-217.8545988926
 20
-15.0133452625
 10
-217.9008912358
 20
-14.9609763263
 10
-217.9528335213
 20
-14.9091350813
 10
-218.0102229632
 20
-14.8580239193
 10
-218.0730808553
 20
-14.8076456943
 10
-218.1413859037
 20
-14.7579975523
 10
-218.2148714405
 20
-14.7092733234
 10
-218.2935577174
 20
-14.6614766193
 10
-218.3774244827
 20
-14.6146038282
 10
-218.4661443139
 20
-14.5688379453
 10
-218.5597361791
 20
-14.5241832987
 10
-218.6581811102
 20
-14.4806355602
 10
-218.7610947805
 20
-14.4383647402
 10
-218.868494679
 20
-14.3973758244
 10
-218.9803633167
 20
-14.3576638272
 10
-219.0962638992
 20
-14.3193838016
 10
-219.2162120941
 20
-14.2825413683
 10
-219.3401922338
 20
-14.2471309067
 10
-219.4677205217
 20
-14.2132906081
 10
-219.5988112136
 20
-14.1810265355
 10
-219.7334500536
 20
-14.150332626
 10
-219.8711104784
 20
-14.1213288813
 10
-220.0118028519
 20
-14.0940221265
 10
-220.1555168101
 20
-14.0684055366
 10
-220.3016946969
 20
-14.0445786388
 10
-220.4503513078
 20
-14.0225478638
 10
-220.6014718472
 20
-14.0023067808
 10
-220.7544542722
 20
-13.9839356248
 10
-220.9092928876
 20
-13.9674427922
 10
-221.0659933886
 20
-13.9528198867
 10
-221.2239708169
 20
-13.9401219538
 10
-221.3832877656
 20
-13.9293551934
 10
-221.5438816416
 20
-13.9205134057
 10
-221.7049797084
 20
-13.9136330371
 10
-221.8663243869
 20
-13.9087262365
 10
-222.028173256
 20
-13.9057808551
 10
-222.1905263158
 20
-13.9047968928
  0
LWPOLYLINE
  5
2B2
100
AcDbEntity
  8
RACCORDO
100
AcDbPolyline
 62
253
  6
CONTINUOUS
 90
88
 70
0
 10
207.8094736842
 20
-13.9047968928
 10
207.6471177603
 20
-13.9057809461
 10
207.4852669555
 20
-13.9087263982
 10
207.3239212697
 20
-13.9136332491
 10
207.1628234916
 20
-13.9205136413
 10
207.0022308326
 20
-13.9293554324
 10
206.8429149266
 20
-13.9401221948
 10
206.6849380073
 20
-13.9528201267
 10
206.5282378411
 20
-13.9674430299
 10
206.3733993613
 20
-13.9839358829
 10
206.2204167414
 20
-14.0023071062
 10
206.069295808
 20
-14.0225482794
 10
205.9206389745
 20
-14.0445791196
 10
205.7744612467
 20
-14.0684060276
 10
205.6307476189
 20
-14.0940226025
 10
205.4900554872
 20
-14.1213293586
 10
205.3523950847
 20
-14.1503331436
 10
205.2177561784
 20
-14.1810271097
 10
205.0866654647
 20
-14.213291228
 10
204.9591372635
 20
-14.2471315479
 10
204.835157255
 20
-14.2825420199
 10
204.7152091767
 20
-14.3193844676
 10
204.5993086689
 20
-14.3576645188
 10
204.4874400914
 20
-14.3973765455
 10
204.3800402613
 20
-14.4383654875
 10
204.2771266783
 20
-14.4806363268
 10
204.1786818428
 20
-14.5241840813
 10
204.0850900726
 20
-14.5688387437
 10
203.9963703321
 20
-14.6146046437
 10
203.9125036571
 20
-14.6614774517
 10
203.8338174724
 20
-14.7092741712
 10
203.7603320309
 20
-14.7579984132
 10
203.6920270797
 20
-14.8076465667
 10
203.6291692855
 20
-14.8580248022
 10
203.5717799417
 20
-14.9091359738
 10
203.5198377549
 20
-14.9609772274
 10
203.4735455109
 20
-15.013346171
 10
203.4329252962
 20
-15.0662448676
 10
203.3979550244
 20
-15.1196712542
 10
203.3687712218
 20
-15.1734167506
 10
203.3453965086
 20
-15.2274826045
 10
203.3278082646
 20
-15.2818675682
 10
203.3160751558
 20
-15.336359319
 10
203.3102200708
 20
-15.3909582745
 10
203.3102201209
 20
-15.445664017
 10
203.3160753061
 20
-15.5002629716
 10
203.3278085151
 20
-15.5547547207
 10
203.3453968592
 20
-15.6091396818
 10
203.3687716724
 20
-15.6632055321
 10
203.3979555751
 20
-15.7169510243
 10
203.4329259468
 20
-15.7703774058
 10
203.4735462611
 20
-15.8232760961
 10
203.5198386042
 20
-15.8756450323
 10
203.5717808897
 20
-15.9274862773
 10
203.6291703316
 20
-15.9785974393
 10
203.6920282237
 20
-16.0289756643
 10
203.7603332721
 20
-16.0786238063
 10
203.8338188089
 20
-16.1273480351
 10
203.9125050858
 20
-16.1751447393
 10
203.9963718511
 20
-16.2220175303
 10
204.0850916823
 20
-16.2677834132
 10
204.1786835475
 20
-16.3124380599
 10
204.2771284786
 20
-16.3559857983
 10
204.3800421489
 20
-16.3982566183
 10
204.4874420474
 20
-16.4392455341
 10
204.5993106851
 20
-16.4789575314
 10
204.7152112676
 20
-16.517237557
 10
204.8351594625
 20
-16.5540799902
 10
204.9591396022
 20
-16.5894904518
 10
205.0866678902
 20
-16.6233307504
 10
205.217758582
 20
-16.655594823
 10
205.3523974221
 20
-16.6862887326
 10
205.4900578468
 20
-16.7152924772
 10
205.6307502203
 20
-16.742599232
 10
205.7744641785
 20
-16.7682158219
 10
205.9206420653
 20
-16.7920427197
 10
206.0692986762
 20
-16.8140734948
 10
206.2204192157
 20
-16.8343145778
 10
206.3734016406
 20
-16.8526857338
 10
206.5282402561
 20
-16.8691785663
 10
206.684940757
 20
-16.8838014719
 10
206.8429181853
 20
-16.8964994047
 10
207.002235134
 20
-16.9072661651
 10
207.1628290101
 20
-16.9161079529
 10
207.3239270768
 20
-16.9229883214
 10
207.4852717553
 20
-16.927895122
 10
207.6471206244
 20
-16.9308405035
 10
207.8094736842
 20
-16.9318244658
  0
LWPOLYLINE
  5
2B3
100
AcDbEntity
  8
RACCORDO
100
AcDbPolyline
 62
253
  6
CONTINUOUS
 90
88
 70
0
 10
-222.1905263158
 20
-13.9047968928
 10
-222.3528822397
 20
-13.9057809461
 10
-222.5147330445
 20
-13.9087263982
 10
-222.6760787303
 20
-13.9136332491
 10
-222.8371765084
 20
-13.9205136413
 10
-222.9977691674
 20
-13.9293554324
 10
-223.1570850734
 20
-13.9401221948
 10
-223.3150619927
 20
-13.9528201267
 10
-223.4717621589
 20
-13.9674430299
 10
-223.6266006387
 20
-13.9839358829
 10
-223.7795832586
 20
-14.0023071062
 10
-223.930704192
 20
-14.0225482794
 10
-224.0793610255
 20
-14.0445791196
 10
-224.2255387533
 20
-14.0684060276
 10
-224.3692523811
 20
-14.0940226025
 10
-224.5099445128
 20
-14.1213293586
 10
-224.6476049153
 20
-14.1503331436
 10
-224.7822438216
 20
-14.1810271097
 10
-224.9133345353
 20
-14.213291228
 10
-225.0408627365
 20
-14.2471315479
 10
-225.164842745
 20
-14.2825420199
 10
-225.2847908233
 20
-14.3193844676
 10
-225.4006913311
 20
-14.3576645188
 10
-225.5125599086
 20
-14.3973765455
 10
-225.6199597387
 20
-14.4383654875
 10
-225.7228733217
 20
-14.4806363268
 10
-225.8213181572
 20
-14.5241840813
 10
-225.9149099274
 20
-14.5688387437
 10
-226.0036296679
 20
-14.6146046437
 10
-226.0874963429
 20
-14.6614774517
 10
-226.1661825276
 20
-14.7092741712
 10
-226.2396679691
 20
-14.7579984132
 10
-226.3079729203
 20
-14.8076465667
 10
-226.3708307145
 20
-14.8580248022
 10
-226.4282200583
 20
-14.9091359738
 10
-226.4801622451
 20
-14.9609772274
 10
-226.5264544891
 20
-15.013346171
 10
-226.5670747038
 20
-15.0662448676
 10
-226.6020449756
 20
-15.1196712542
 10
-226.6312287782
 20
-15.1734167506
 10
-226.6546034914
 20
-15.2274826045
 10
-226.6721917354
 20
-15.2818675682
 10
-226.6839248442
 20
-15.336359319
 10
-226.6897799292
 20
-15.3909582745
 10
-226.6897798791
 20
-15.445664017
 10
-226.6839246939
 20
-15.5002629716
 10
-226.6721914849
 20
-15.5547547207
 10
-226.6546031408
 20
-15.6091396818
 10
-226.6312283276
 20
-15.6632055321
 10
-226.6020444249
 20
-15.7169510243
 10
-226.5670740532
 20
-15.7703774058
 10
-226.5264537389
 20
-15.8232760961
 10
-226.4801613958
 20
-15.8756450323
 10
-226.4282191103
 20
-15.9274862773
 10
-226.3708296684
 20
-15.9785974393
 10
-226.3079717763
 20
-16.0289756643
 10
-226.2396667279
 20
-16.0786238063
 10
-226.1661811911
 20
-16.1273480351
 10
-226.0874949142
 20
-16.1751447393
 10
-226.0036281489
 20
-16.2220175303
 10
-225.9149083177
 20
-16.2677834132
 10
-225.8213164525
 20
-16.3124380599
 10
-225.7228715214
 20
-16.3559857983
 10
-225.6199578511
 20
-16.3982566183
 10
-225.5125579526
 20
-16.4392455341
 10
-225.4006893149
 20
-16.4789575314
 10
-225.2847887324
 20
-16.517237557
 10
-225.1648405375
 20
-16.5540799902
 10
-225.0408603978
 20
-16.5894904518
 10
-224.9133321098
 20
-16.6233307504
 10
-224.782241418
 20
-16.655594823
 10
-224.6476025779
 20
-16.6862887326
 10
-224.5099421532
 20
-16.7152924772
 10
-224.3692497797
 20
-16.742599232
 10
-224.2255358215
 20
-16.7682158219
 10
-224.0793579347
 20
-16.7920427197
 10
-223.9307013238
 20
-16.8140734948
 10
-223.7795807843
 20
-16.8343145778
 10
-223.6265983594
 20
-16.8526857338
 10
-223.4717597439
 20
-16.8691785663
 10
-223.315059243
 20
-16.8838014719
 10
-223.1570818147
 20
-16.8964994047
 10
-222.997764866
 20
-16.9072661651
 10
-222.8371709899
 20
-16.9161079529
 10
-222.6760729232
 20
-16.9229883214
 10
-222.5147282447
 20
-16.927895122
 10
-222.3528793756
 20
-16.9308405035
 10
-222.1905263158
 20
-16.9318244658
  0
LWPOLYLINE
  5
2B4
100
AcDbEntity
  8
RACCORDO
100
AcDbPolyline
 62
253
  6
CONTINUOUS
 90
46
 70
0
 10
207.8094736842
 20
-13.2657577385
 10
207.6349762026
 20
-13.2667821737
 10
207.4606913193
 20
-13.2698542312
 10
207.2868313736
 20
-13.2749701682
 10
207.1136081875
 20
-13.2821237516
 10
206.9412328062
 20
-13.2913062659
 10
206.7699152414
 20
-13.3025065239
 10
206.5998642157
 20
-13.3157108797
 10
206.4312869116
 20
-13.3309032459
 10
206.2643887168
 20
-13.3480651128
 10
206.0993729722
 20
-13.3671755711
 10
205.9364407228
 20
-13.3882113377
 10
205.7757904753
 20
-13.4111467839
 10
205.6176179568
 20
-13.4359539665
 10
205.4621158765
 20
-13.4626026618
 10
205.3094736901
 20
-13.4910604022
 10
205.1598773683
 20
-13.5212925167
 10
205.0135091714
 20
-13.5532621718
 10
204.8705474268
 20
-13.5869304175
 10
204.7311663113
 20
-13.6222562342
 10
204.5955356393
 20
-13.6591965828
 10
204.4638206558
 20
-13.6977064572
 10
204.3361818351
 20
-13.7377389391
 10
204.2127746856
 20
-13.7792452551
 10
204.0937495598
 20
-13.822174836
 10
203.9792514714
 20
-13.866475379
 10
203.8694199187
 20
-13.9120929105
 10
203.7643887146
 20
-13.9589718526
 10
203.6642858234
 20
-14.0070550906
 10
203.5692332052
 20
-14.0562840424
 10
203.4793466668
 20
-14.1065987301
 10
203.3947357213
 20
-14.157937853
 10
203.3155034539
 20
-14.2102388624
 10
203.241746397
 20
-14.2634380374
 10
203.1735544123
 20
-14.3174705631
 10
203.111010581
 20
-14.3722706092
 10
203.0541911034
 20
-14.4277714103
 10
203.003165205
 20
-14.4839053472
 10
202.9579950532
 20
-14.5406040293
 10
202.9187356809
 20
-14.5977983781
 10
202.8854349194
 20
-14.6554187109
 10
202.8581333407
 20
-14.7133948264
 10
202.8368642075
 20
-14.7716560896
 10
202.821653433
 20
-14.830131518
 10
202.8125195491
 20
-14.8887498684
 10
202.8094736842
 20
-14.9474397235
  0
LINE
  5
2B5
100
AcDbEntity
  8
RACCORDO
100
AcDbLine
 62
7
  6
CONTINUOUS
 10
232.1094736842
 20
-20.1936842105
 11
-246.4905263158
 21
-20.1936842105
  0
LINE
  5
2B6
100
AcDbEntity
  8
RACCORDO
100
AcDbLine
 62
253
  6
CONTINUOUS
 10
211.8094736842
 20
-20.0771680337
 11
-226.1905263158
 21
-20.0771680337
  0
LINE
  5
2B7
100
AcDbEntity
  8
ASSI
100
AcDbLine
 62
7
  6
CONTINUOUS
 10
227.7094736842
 20
-17.3436842105
 11
222.7094736842
 21
-17.3436842105
  0
LINE
  5
2B8
100
AcDbEntity
  8
ASSI
100
AcDbLine
 62
7
  6
CONTINUOUS
 10
-237.0905263158
 20
-17.3436842105
 11
-242.0905263158
 21
-17.3436842105
  0
LWPOLYLINE
  5
2B9
100
AcDbEntity
  8
RACCORDO
100
AcDbPolyline
 62
253
  6
CONTINUOUS
 90
37
 70
0
 10
-226.1905263158
 20
-20.0771680337
 10
-226.2777650905
 20
-20.0753753745
 10
-226.3648378013
 20
-20.0700008091
 10
-226.4515787002
 20
-20.0610545685
 10
-226.5378226711
 20
-20.0485536823
 10
-226.6234055437
 20
-20.0325219466
 10
-226.708164406
 20
-20.0129898787
 10
-226.7919379148
 20
-19.9899946592
 10
-226.8745666024
 20
-19.9635800605
 10
-226.9558931805
 20
-19.9337963646
 10
-227.0357628393
 20
-19.9007002662
 10
-227.1140235423
 20
-19.8643547658
 10
-227.1905263158
 20
-19.824829049
 10
-227.2651255325
 20
-19.7821983553
 10
-227.3376791885
 20
-19.7365438347
 10
-227.4080491738
 20
-19.687952393
 10
-227.4761015352
 20
-19.636516527
 10
-227.541706731
 20
-19.5823341476
 10
-227.6047398782
 20
-19.5255083942
 10
-227.6650809894
 20
-19.4661474377
 10
-227.722615202
 20
-19.4043642751
 10
-227.7772329964
 20
-19.3402765142
 10
-227.8288304044
 20
-19.2740061498
 10
-227.8773092074
 20
-19.2056793311
 10
-227.9225771234
 20
-19.1354261221
 10
-227.9645479821
 20
-19.0633802539
 10
-228.0031418899
 20
-18.9896788699
 10
-228.0382853808
 20
-18.9144622648
 10
-228.0699115574
 20
-18.8378736177
 10
-228.0979602173
 20
-18.7600587194
 10
-228.1223779684
 20
-18.6811656951
 10
-228.14311833
 20
-18.6013447221
 10
-228.1601418218
 20
-18.5207477441
 10
-228.1734160385
 20
-18.4395281821
 10
-228.182915712
 20
-18.3578406421
 10
-228.188622759
 20
-18.275840621
 10
-228.1905263158
 20
-18.1936842105
  0
LWPOLYLINE
  5
2BA
100
AcDbEntity
  8
RACCORDO
100
AcDbPolyline
 62
7
  6
CONTINUOUS
 90
28
 70
0
 10
-17.1905263158
 20
12.674184355
 10
-17.1913959744
 20
12.6840169766
 10
-17.1939280156
 20
12.6937510103
 10
-17.1981224393
 20
12.7033864562
 10
-17.2040046307
 20
12.7129551782
 10
-17.2115492046
 20
12.7224253124
 10
-17.2206800054
 20
12.7317012663
 10
-17.2314130987
 20
12.7407810733
 10
-17.243732419
 20
12.7496667
 10
-17.2575136139
 20
12.7582684542
 10
-17.2727714896
 20
12.7665834608
 10
-17.2894912399
 20
12.7746145948
 10
-17.3075040942
 20
12.7822807893
 10
-17.3268231494
 20
12.7895783481
 10
-17.3474353086
 20
12.7965109675
 10
-17.3691325109
 20
12.8030086689
 10
-17.3919257459
 20
12.8090670475
 10
-17.415804024
 20
12.814690508
 10
-17.4405263158
 20
12.819822287
 10
-17.4661011696
 20
12.8244574044
 10
-17.4925200372
 20
12.8286008402
 10
-17.5195162441
 20
12.8322107701
 10
-17.5470956378
 20
12.8352817908
 10
-17.575252371
 20
12.8378193056
 10
-17.603702227
 20
12.8397977006
 10
-17.632350467
 20
12.841208438
 10
-17.66129183
 20
12.8420600556
 10
-17.6905263158
 20
12.8423525535
  0
LINE
  5
2BB
100
AcDbEntity
  8
0
100
AcDbLine
 62
7
  6
CONTINUOUS
 10
-19.1905263158
 20
10.8243341715
 11
-19.1905263158
 21
11.8333433625
  0
LINE
  5
2BC
100
AcDbEntity
  8
RACCORDO
100
AcDbLine
 62
253
  6
CONTINUOUS
 10
-17.6905263158
 20
12.8423525535
 11
-17.6905263158
 21
14.0423525535
  0
LINE
  5
2BD
100
AcDbEntity
  8
ASSI
100
AcDbLine
 62
7
  6
CONTINUOUS
 10
-17.6905263158
 20
14.0423525535
 11
-17.6905263158
 21
16.0063157895
  0
LINE
  5
2BE
100
AcDbEntity
  8
RACCORDO
100
AcDbLine
 62
7
  6
CONTINUOUS
 10
-17.1905263158
 20
12.001511561
 11
-17.1905263158
 21
13.874184355
  0
LINE
  5
2BF
100
AcDbEntity
  8
ASSI
100
AcDbLine
 62
7
  6
CONTINUOUS
 10
-15.8905263158
 20
12.0243341715
 11
-15.8905263158
 21
16.0063157895
  0
LINE
  5
2C0
100
AcDbEntity
  8
ASSI
100
AcDbLine
 62
7
  6
CONTINUOUS
 10
-7.4905263158
 20
12.0243341715
 11
-7.4905263158
 21
16.0063157895
  0
LINE
  5
2C1
100
AcDbEntity
  8
ASSI
100
AcDbLine
 62
7
  6
CONTINUOUS
 10
-5.6905263158
 20
12.0243341715
 11
-5.6905263158
 21
16.0063157895
  0
LWPOLYLINE
  5
2C2
100
AcDbEntity
  8
RACCORDO
100
AcDbPolyline
 62
7
  6
CONTINUOUS
 90
28
 70
0
 10
-4.1905263158
 20
13.874184355
 10
-4.1896566571
 20
13.8840169766
 10
-4.187124616
 20
13.8937510103
 10
-4.1829301923
 20
13.9033864562
 10
-4.1770480009
 20
13.9129551782
 10
-4.169503427
 20
13.9224253124
 10
-4.1603726262
 20
13.9317012663
 10
-4.1496395329
 20
13.9407810733
 10
-4.1373202126
 20
13.9496667
 10
-4.1235390177
 20
13.9582684542
 10
-4.108281142
 20
13.9665834608
 10
-4.0915613917
 20
13.9746145948
 10
-4.0735485373
 20
13.9822807893
 10
-4.0542294822
 20
13.9895783481
 10
-4.033617323
 20
13.9965109675
 10
-4.0119201206
 20
14.0030086689
 10
-3.9891268857
 20
14.0090670475
 10
-3.9652486076
 20
14.014690508
 10
-3.9405263158
 20
14.019822287
 10
-3.914951462
 20
14.0244574044
 10
-3.8885325944
 20
14.0286008402
 10
-3.8615363875
 20
14.0322107701
 10
-3.8339569937
 20
14.0352817908
 10
-3.8058002606
 20
14.0378193056
 10
-3.7773504046
 20
14.0397977006
 10
-3.7487021646
 20
14.041208438
 10
-3.7197608016
 20
14.0420600556
 10
-3.6905263158
 20
14.0423525535
  0
LWPOLYLINE
  5
2C3
100
AcDbEntity
  8
RACCORDO
100
AcDbPolyline
 62
7
  6
CONTINUOUS
 90
46
 70
0
 10
211.8094736842
 20
-5.1936842105
 10
211.890701178
 20
-5.1924141151
 10
211.9711376693
 20
-5.1889855027
 10
212.0506573932
 20
-5.1833983732
 10
212.1291346354
 20
-5.1755854652
 10
212.2064638388
 20
-5.1656140402
 10
212.2825591362
 20
-5.1536858825
 10
212.3573178286
 20
-5.1397989899
 10
212.4306504422
 20
-5.1239553645
 10
212.5024992883
 20
-5.1063627975
 10
212.5727808511
 20
-5.0870220339
 10
212.6414225506
 20
-5.0659323287
 10
212.7083895737
 20
-5.0432992372
 10
212.7736151936
 20
-5.0191254748
 10
212.8370420417
 20
-4.9934083262
 10
212.8986536695
 20
-4.9663452008
 10
212.9583990147
 20
-4.937939339
 10
213.0162323831
 20
-4.9081875004
 10
213.07214776
 20
-4.8772773725
 10
213.1261066474
 20
-4.8452122646
 10
213.1780740973
 20
-4.8119888674
 10
213.2280504123
 20
-4.7777849405
 10
213.2760076547
 20
-4.7426035185
 10
213.3219202199
 20
-4.7064415668
 10
213.3657920096
 20
-4.6694677416
 10
213.4076040935
 20
-4.6316846235
 10
213.4473390815
 20
-4.593089632
 10
213.4850028792
 20
-4.5538436811
 10
213.5205844168
 20
-4.5139488483
 10
213.5540737002
 20
-4.473403056
 10
213.5854779806
 20
-4.4323609863
 10
213.614793247
 20
-4.3908242845
 10
213.6420163848
 20
-4.3487913053
 10
213.6671561329
 20
-4.3064117946
 10
213.6902148486
 20
-4.2636874941
 10
213.7111962202
 20
-4.2206166622
 10
213.7301116616
 20
-4.1773438204
 10
213.7469698167
 20
-4.1338703125
 10
213.7617804511
 20
-4.0901947946
 10
213.7745580216
 20
-4.0464577561
 10
213.7853170863
 20
-4.0026607952
 10
213.7940736157
 20
-3.9588023137
 10
213.8008463565
 20
-3.9150180057
 10
213.8056555993
 20
-3.8713531029
 10
213.8085233808
 20
-3.8277623736
 10
213.8094736842
 20
-3.7842458181
  0
LWPOLYLINE
  5
2C4
100
AcDbEntity
  8
ASSI
100
AcDbPolyline
 62
7
  6
CONTINUOUS
 90
40
 70
0
 10
207.8094736842
 20
-6.8753661955
 10
207.6883511052
 20
-6.8761955391
 10
207.567814425
 20
-6.8786478101
 10
207.4478636434
 20
-6.8827230086
 10
207.328306309
 20
-6.8884329965
 10
207.2093348733
 20
-6.8957659118
 10
207.0915266913
 20
-6.9046861688
 10
206.9748874174
 20
-6.9152014831
 10
206.8594113973
 20
-6.9273041391
 10
206.7456590231
 20
-6.9409354039
 10
206.633638673
 20
-6.9561027077
 10
206.5233419688
 20
-6.9727986203
 10
206.4153041681
 20
-6.9909421184
 10
206.3095362507
 20
-7.0105402382
 10
206.2060272369
 20
-7.0315859435
 10
206.105279444
 20
-7.0539771018
 10
206.0073062938
 20
-7.0777202529
 10
205.9120943647
 20
-7.1028088571
 10
205.8201057095
 20
-7.129121162
 10
205.7313559956
 20
-7.1566631159
 10
205.6458295556
 20
-7.1854287706
 10
205.5639414397
 20
-7.2152785296
 10
205.4857093328
 20
-7.2462176625
 10
205.41111555
 20
-7.2782408996
 10
205.3405220865
 20
-7.311192836
 10
205.2739483869
 20
-7.3450779856
 10
205.2113750066
 20
-7.3798918344
 10
205.1531056073
 20
-7.4154654347
 10
205.0991611094
 20
-7.4518024793
 10
205.0495205924
 20
-7.4888992754
 10
205.0044249562
 20
-7.5265757963
 10
204.9638962922
 20
-7.56483486
 10
204.9279125091
 20
-7.6036736486
 10
204.8966482319
 20
-7.6429036817
 10
204.8701264012
 20
-7.6825268611
 10
204.8483240764
 20
-7.7225412852
 10
204.8313470619
 20
-7.7627527683
 10
204.8192188123
 20
-7.8031622683
 10
204.811915873
 20
-7.8437688274
 10
204.8094736842
 20
-7.8843753865
  0
LWPOLYLINE
  5
2C5
100
AcDbEntity
  8
ASSI
100
AcDbPolyline
 62
7
  6
CONTINUOUS
 90
40
 70
0
 10
-222.1905263158
 20
-6.8753661955
 10
-222.3116488948
 20
-6.8761955391
 10
-222.432185575
 20
-6.8786478101
 10
-222.5521363566
 20
-6.8827230086
 10
-222.671693691
 20
-6.8884329965
 10
-222.7906651267
 20
-6.8957659118
 10
-222.9084733087
 20
-6.9046861688
 10
-223.0251125826
 20
-6.9152014831
 10
-223.1405886027
 20
-6.9273041391
 10
-223.2543409769
 20
-6.9409354039
 10
-223.366361327
 20
-6.9561027077
 10
-223.4766580312
 20
-6.9727986203
 10
-223.5846958319
 20
-6.9909421184
 10
-223.6904637493
 20
-7.0105402382
 10
-223.7939727631
 20
-7.0315859435
 10
-223.894720556
 20
-7.0539771018
 10
-223.9926937062
 20
-7.0777202529
 10
-224.0879056353
 20
-7.1028088571
 10
-224.1798942905
 20
-7.129121162
 10
-224.2686440044
 20
-7.1566631159
 10
-224.3541704444
 20
-7.1854287706
 10
-224.4360585603
 20
-7.2152785296
 10
-224.5142906672
 20
-7.2462176625
 10
-224.58888445
 20
-7.2782408996
 10
-224.6594779135
 20
-7.311192836
 10
-224.7260516131
 20
-7.3450779856
 10
-224.7886249934
 20
-7.3798918344
 10
-224.8468943927
 20
-7.4154654347
 10
-224.9008388906
 20
-7.4518024793
 10
-224.9504794076
 20
-7.4888992754
 10
-224.9955750438
 20
-7.5265757963
 10
-225.0361037078
 20
-7.56483486
 10
-225.0720874909
 20
-7.6036736486
 10
-225.1033517681
 20
-7.6429036817
 10
-225.1298735988
 20
-7.6825268611
 10
-225.1516759236
 20
-7.7225412852
 10
-225.1686529381
 20
-7.7627527683
 10
-225.1807811877
 20
-7.8031622683
 10
-225.188084127
 20
-7.8437688274
 10
-225.1905263158
 20
-7.8843753865
  0
LWPOLYLINE
  5
2C6
100
AcDbEntity
  8
RACCORDO
100
AcDbPolyline
 62
253
  6
CONTINUOUS
 90
85
 70
0
 10
206.8094736842
 20
1.0705786585
 10
206.9589770372
 20
1.0715180083
 10
207.1079705151
 20
1.0743266853
 10
207.256454118
 20
1.0790046895
 10
207.4046777526
 20
1.0855644169
 10
207.5523915122
 20
1.0939934716
 10
207.6988456758
 20
1.1042546661
 10
207.8439825817
 20
1.1163543635
 10
207.9878598918
 20
1.1302862008
 10
208.1299008706
 20
1.1459939012
 10
208.270110451
 20
1.1634860309
 10
208.4084837003
 20
1.1827540236
 10
208.5444290848
 20
1.2037159032
 10
208.6779311083
 20
1.2263781514
 10
208.8090052672
 20
1.2507342865
 10
208.9371065171
 20
1.2766828874
 10
209.0622240235
 20
1.3042308904
 10
209.1843686211
 20
1.3333713592
 10
209.3030277693
 20
1.3639820638
 10
209.4181863926
 20
1.3960690748
 10
209.5298595665
 20
1.4296263216
 10
209.6375799774
 20
1.4645133631
 10
209.7413311695
 20
1.5007358056
 10
209.8411295986
 20
1.5382880426
 10
209.9365573188
 20
1.577012814
 10
210.0275959762
 20
1.6169150274
 10
210.1142639248
 20
1.6579897752
 10
210.1961982811
 20
1.7000650734
 10
210.2733792022
 20
1.7431451196
 10
210.3458265309
 20
1.7872257162
 10
210.4132369123
 20
1.8321222869
 10
210.4755892252
 20
1.8778382528
 10
210.5329045907
 20
1.9243701928
 10
210.5849430175
 20
1.9715232676
 10
210.6316823791
 20
2.0193000817
 10
210.673144802
 20
2.0676980307
 10
210.7091566743
 20
2.116514462
 10
210.7396951416
 20
2.1657511303
 10
210.7647830583
 20
2.2154062809
 10
210.7843153758
 20
2.2652719968
 10
210.798268799
 20
2.3153491611
 10
210.8066666231
 20
2.3656368907
 10
210.8094736842
 20
2.41592462
 10
210.80666654
 20
2.4662123489
 10
210.7982686329
 20
2.5165000775
 10
210.7843151265
 20
2.5665772402
 10
210.7647827257
 20
2.6164429541
 10
210.7396947256
 20
2.6660981021
 10
210.7091561748
 20
2.715334767
 10
210.6731442189
 20
2.7641511941
 10
210.6316817123
 20
2.8125491381
 10
210.5849422673
 20
2.8603259463
 10
210.5329037572
 20
2.9074790144
 10
210.4755883086
 20
2.9540109466
 10
210.4132359137
 20
2.9997269034
 10
210.345825452
 20
3.0446234635
 10
210.2733780441
 20
3.0887040481
 10
210.1961970437
 20
3.1317840818
 10
210.114262606
 20
3.173859368
 10
210.027594576
 20
3.2149341032
 10
209.9365558426
 20
3.2548363015
 10
209.8411280587
 20
3.2935610529
 10
209.7413295715
 20
3.3311132675
 10
209.6375783112
 20
3.3673356902
 10
209.529857802
 20
3.40222272
 10
209.4181845197
 20
3.435779958
 10
209.3030258222
 20
3.4678669513
 10
209.1843666831
 20
3.4984776186
 10
209.0622221288
 20
3.5276180414
 10
208.9371045959
 20
3.5551660115
 10
208.8090031476
 20
3.5811146113
 10
208.6779287207
 20
3.6054707584
 10
208.5444265626
 20
3.6281329982
 10
208.4084813348
 20
3.6490948251
 10
208.2701083757
 20
3.6683627446
 10
208.129898948
 20
3.685854818
 10
207.9878579192
 20
3.7015624961
 10
207.8439804218
 20
3.7154943281
 10
207.6988431159
 20
3.7275940233
 10
207.5523879599
 20
3.7378552219
 10
207.4046729955
 20
3.7462842835
 10
207.2564490072
 20
3.7528439968
 10
207.1079662567
 20
3.7575219578
 10
206.9589744824
 20
3.7603305703
 10
206.8094736842
 20
3.7612698345
  0
LWPOLYLINE
  5
2C7
100
AcDbEntity
  8
RACCORDO
100
AcDbPolyline
 62
253
  6
CONTINUOUS
 90
85
 70
0
 10
206.8094736842
 20
3.7612698345
 10
206.6599703312
 20
3.7603304848
 10
206.5109768533
 20
3.7575218078
 10
206.3624932505
 20
3.7528438035
 10
206.2142696158
 20
3.7462840761
 10
206.0665558563
 20
3.7378550215
 10
205.9201016926
 20
3.727593827
 10
205.7749647867
 20
3.7154941295
 10
205.6310874766
 20
3.7015622922
 10
205.4890464978
 20
3.6858545919
 10
205.3488369174
 20
3.6683624622
 10
205.2104636681
 20
3.6490944694
 10
205.0745182836
 20
3.6281325898
 10
204.9410162601
 20
3.6054703416
 10
204.8099421013
 20
3.5811142065
 10
204.6818408513
 20
3.5551656056
 10
204.5567233449
 20
3.5276176026
 10
204.4345787473
 20
3.4984771339
 10
204.3159195991
 20
3.4678664292
 10
204.2007609759
 20
3.4357794182
 10
204.0890878019
 20
3.4022221714
 10
203.981367391
 20
3.3673351299
 10
203.8776161989
 20
3.3311126874
 10
203.7778177699
 20
3.2935604504
 10
203.6823900496
 20
3.254835679
 10
203.5913513922
 20
3.2149334656
 10
203.5046834436
 20
3.1738587178
 10
203.4227490873
 20
3.1317834196
 10
203.3455681662
 20
3.0887033735
 10
203.2731208375
 20
3.0446227768
 10
203.2057104561
 20
2.9997262061
 10
203.1433581432
 20
2.9540102402
 10
203.0860427778
 20
2.9074783002
 10
203.034004351
 20
2.8603252254
 10
202.9872649893
 20
2.8125484113
 10
202.9458025664
 20
2.7641504623
 10
202.9097906941
 20
2.715334031
 10
202.8792522268
 20
2.6660973627
 10
202.8541643101
 20
2.6164422121
 10
202.8346319926
 20
2.5665764962
 10
202.8206785694
 20
2.5164993319
 10
202.8122807453
 20
2.4662116023
 10
202.8094736842
 20
2.415923873
 10
202.8122808284
 20
2.3656361441
 10
202.8206787355
 20
2.3153484155
 10
202.8346322419
 20
2.2652712528
 10
202.8541646427
 20
2.2154055389
 10
202.8792526428
 20
2.1657503909
 10
202.9097911936
 20
2.116513726
 10
202.9458031495
 20
2.0676972989
 10
202.9872656561
 20
2.0192993549
 10
203.0340051011
 20
1.9715225467
 10
203.0860436112
 20
1.9243694787
 10
203.1433590598
 20
1.8778375464
 10
203.2057114547
 20
1.8321215896
 10
203.2731219164
 20
1.7872250295
 10
203.3455693244
 20
1.7431444449
 10
203.4227503247
 20
1.7000644112
 10
203.5046847624
 20
1.657989125
 10
203.5913527924
 20
1.6169143899
 10
203.6823915259
 20
1.5770121915
 10
203.7778193097
 20
1.5382874401
 10
203.8776177969
 20
1.5007352255
 10
203.9813690572
 20
1.4645128028
 10
204.0890895664
 20
1.429625773
 10
204.2007628487
 20
1.3960685351
 10
204.3159215462
 20
1.3639815417
 10
204.4345806853
 20
1.3333708744
 10
204.5567252397
 20
1.3042304517
 10
204.6818427726
 20
1.2766824815
 10
204.8099442209
 20
1.2507338817
 10
204.9410186477
 20
1.2263777346
 10
205.0745208058
 20
1.2037154948
 10
205.2104660336
 20
1.1827536679
 10
205.3488389927
 20
1.1634857484
 10
205.4890484204
 20
1.145993675
 10
205.6310894492
 20
1.1302859969
 10
205.7749669466
 20
1.1163541649
 10
205.9201042526
 20
1.1042544697
 10
206.0665594085
 20
1.0939932712
 10
206.2142743729
 20
1.0855642095
 10
206.3624983612
 20
1.0790044963
 10
206.5109811117
 20
1.0743265353
 10
206.659972886
 20
1.0715179227
 10
206.8094736842
 20
1.0705786585
  0
LWPOLYLINE
  5
2C8
100
AcDbEntity
  8
RACCORDO
100
AcDbPolyline
 62
7
  6
CONTINUOUS
 90
46
 70
0
 10
207.8094736844
 20
-9.1669582906
 10
207.6382337991
 20
-9.1680149834
 10
207.4671474098
 20
-9.1711854061
 10
207.2964225292
 20
-9.1764685782
 10
207.1262917802
 20
-9.1838602958
 10
206.9569386694
 20
-9.1933561586
 10
206.7884965995
 20
-9.2049547358
 10
206.6211755092
 20
-9.2186496514
 10
206.4551792826
 20
-9.2344330125
 10
206.2906300791
 20
-9.2523045092
 10
206.1277468672
 20
-9.2722539769
 10
205.9667214215
 20
-9.2942725192
 10
205.8076330415
 20
-9.3183679827
 10
205.6507032247
 20
-9.3445292285
 10
205.4961211966
 20
-9.3727485996
 10
205.3439178637
 20
-9.403050659
 10
205.1943214288
 20
-9.435426137
 10
205.0475212451
 20
-9.4698726617
 10
204.9034935461
 20
-9.5064444128
 10
204.7624783578
 20
-9.5451388595
 10
204.6246720853
 20
-9.5859648712
 10
204.4899936464
 20
-9.6290254977
 10
204.358680049
 20
-9.674341597
 10
204.2309700089
 20
-9.7219357355
 10
204.1067899212
 20
-9.7719641203
 10
203.9862481434
 20
-9.8245475273
 10
203.8697769009
 20
-9.8796788496
 10
203.7577193018
 20
-9.937383037
 10
203.6498622383
 20
-9.9980078245
 10
203.546939914
 20
-10.0614101082
 10
203.4503581861
 20
-10.126881473
 10
203.3597654296
 20
-10.1947669847
 10
203.2755569942
 20
-10.2649079975
 10
203.1995144982
 20
-10.3356801465
 10
203.1316130356
 20
-10.4066196681
 10
203.0710249729
 20
-10.4780896155
 10
203.0178052855
 20
-10.549486238
 10
202.9717623074
 20
-10.6203209763
 10
202.9322417137
 20
-10.6907962387
 10
202.8986785272
 20
-10.7612307068
 10
202.8708788259
 20
-10.8313549515
 10
202.8485653042
 20
-10.9010836218
 10
202.8313508195
 20
-10.9709779278
 10
202.8191250259
 20
-11.041095337
 10
202.8118674371
 20
-11.110992831
 10
202.8094736842
 20
-11.1804720771
  0
LWPOLYLINE
  5
2C9
100
AcDbEntity
  8
RACCORDO
100
AcDbPolyline
 62
7
  6
CONTINUOUS
 90
46
 70
0
 10
-222.1905263156
 20
-9.1669582906
 10
-222.3617662009
 20
-9.1680149834
 10
-222.5328525902
 20
-9.1711854061
 10
-222.7035774708
 20
-9.1764685782
 10
-222.8737082198
 20
-9.1838602958
 10
-223.0430613306
 20
-9.1933561586
 10
-223.2115034005
 20
-9.2049547358
 10
-223.3788244908
 20
-9.2186496514
 10
-223.5448207174
 20
-9.2344330125
 10
-223.7093699209
 20
-9.2523045092
 10
-223.8722531328
 20
-9.2722539769
 10
-224.0332785785
 20
-9.2942725192
 10
-224.1923669585
 20
-9.3183679827
 10
-224.3492967753
 20
-9.3445292285
 10
-224.5038788034
 20
-9.3727485996
 10
-224.6560821363
 20
-9.403050659
 10
-224.8056785712
 20
-9.435426137
 10
-224.9524787549
 20
-9.4698726617
 10
-225.0965064539
 20
-9.5064444128
 10
-225.2375216422
 20
-9.5451388595
 10
-225.3753279147
 20
-9.5859648712
 10
-225.5100063536
 20
-9.6290254977
 10
-225.641319951
 20
-9.674341597
 10
-225.7690299911
 20
-9.7219357355
 10
-225.8932100788
 20
-9.7719641203
 10
-226.0137518566
 20
-9.8245475273
 10
-226.1302230991
 20
-9.8796788496
 10
-226.2422806982
 20
-9.937383037
 10
-226.3501377617
 20
-9.9980078245
 10
-226.453060086
 20
-10.0614101082
 10
-226.5496418139
 20
-10.126881473
 10
-226.6402345704
 20
-10.1947669847
 10
-226.7244430058
 20
-10.2649079975
 10
-226.8004855018
 20
-10.3356801465
 10
-226.8683869644
 20
-10.4066196681
 10
-226.9289750271
 20
-10.4780896155
 10
-226.9821947145
 20
-10.549486238
 10
-227.0282376926
 20
-10.6203209763
 10
-227.0677582863
 20
-10.6907962387
 10
-227.1013214728
 20
-10.7612307068
 10
-227.1291211741
 20
-10.8313549515
 10
-227.1514346958
 20
-10.9010836218
 10
-227.1686491805
 20
-10.9709779278
 10
-227.1808749741
 20
-11.041095337
 10
-227.1881325629
 20
-11.110992831
 10
-227.1905263158
 20
-11.1804720771
  0
LWPOLYLINE
  5
2CA
100
AcDbEntity
  8
RACCORDO
100
AcDbPolyline
 62
7
  6
CONTINUOUS
 90
46
 70
0
 10
206.8094736844
 20
1.0414496143
 10
206.9636280096
 20
1.042408691
 10
207.1176502751
 20
1.0452864332
 10
207.2713525837
 20
1.0500822985
 10
207.4245217794
 20
1.0567927306
 10
207.5769948723
 20
1.0654142817
 10
207.7286600671
 20
1.0759468824
 10
207.879326123
 20
1.0883855875
 10
208.028809699
 20
1.1027243393
 10
208.1770128124
 20
1.1189654982
 10
208.3237365682
 20
1.1371015177
 10
208.4688068027
 20
1.1571261443
 10
208.6121644855
 20
1.1790507131
 10
208.753604151
 20
1.2028671005
 10
208.8929564429
 20
1.2285716551
 10
209.0302161363
 20
1.2561950278
 10
209.1651682906
 20
1.2857318653
 10
209.2976430804
 20
1.3171855248
 10
209.4276981661
 20
1.3506212081
 10
209.5551126311
 20
1.3860446195
 10
209.6796975061
 20
1.4234704939
 10
209.801550111
 20
1.4630123622
 10
209.9204547958
 20
1.504703678
 10
210.0361732183
 20
1.5485735403
 10
210.1487693494
 20
1.5947829423
 10
210.2581981235
 20
1.643489822
 10
210.3639829345
 20
1.6946775875
 10
210.4656408088
 20
1.7483026982
 10
210.5635279528
 20
1.8047946089
 10
210.6568239659
 20
1.8639554087
 10
210.7437451196
 20
1.9247603006
 10
210.8245171257
 20
1.987341181
 10
210.899137095
 20
2.0516895376
 10
210.9662134837
 20
2.1163717139
 10
211.0257342633
 20
2.1808093275
 10
211.0786282984
 20
2.2454200633
 10
211.1252252456
 20
2.3100814014
 10
211.1657532499
 20
2.3745150826
 10
211.2006288452
 20
2.4387403087
 10
211.2303008175
 20
2.5030030483
 10
211.2549169946
 20
2.5670451774
 10
211.2747087598
 20
2.6307959489
 10
211.2899996636
 20
2.6947545051
 10
211.3008740961
 20
2.7589702875
 10
211.3073387005
 20
2.8230438792
 10
211.3094736842
 20
2.8867952023
  0
LWPOLYLINE
  5
2CB
100
AcDbEntity
  8
RACCORDO
100
AcDbPolyline
 62
253
  6
CONTINUOUS
 90
45
 70
0
 10
206.8094736842
 20
4.4003089888
 10
206.6470128273
 20
4.3993223222
 10
206.4847637882
 20
4.3963636089
 10
206.3229381087
 20
4.3914367064
 10
206.1617467792
 20
4.3845480385
 10
206.0013999618
 20
4.3757065868
 10
205.8421067169
 20
4.3649238786
 10
205.6840747312
 20
4.3522139723
 10
205.5275100496
 20
4.3375934394
 10
205.372616805
 20
4.3210813424
 10
205.2195969495
 20
4.3026992101
 10
205.0686499908
 20
4.2824710092
 10
204.9199727342
 20
4.2604231133
 10
204.7737590262
 20
4.2365842688
 10
204.6301995019
 20
4.2109855568
 10
204.4894813348
 20
4.1836603531
 10
204.3517879942
 20
4.1546442845
 10
204.2172990064
 20
4.1239751824
 10
204.0861897203
 20
4.0916930337
 10
203.9586310778
 20
4.0578399284
 10
203.8347893905
 20
4.0224600042
 10
203.7148261239
 20
3.9855993897
 10
203.5988976868
 20
3.947306144
 10
203.4871552281
 20
3.9076301944
 10
203.3797444391
 20
3.8666232707
 10
203.2768053631
 20
3.8243388383
 10
203.1784722128
 20
3.7808320279
 10
203.0848731955
 20
3.736159564
 10
202.9961303463
 20
3.6903796908
 10
202.9123593691
 20
3.6435520967
 10
202.8336694857
 20
3.5957378359
 10
202.7601632928
 20
3.5469992495
 10
202.6919366282
 20
3.497399883
 10
202.6290784463
 20
3.4470044044
 10
202.5716707021
 20
3.3958785197
 10
202.5197882445
 20
3.3440888875
 10
202.4734987184
 20
3.2917030316
 10
202.4328624765
 20
3.2387892532
 10
202.3979325008
 20
3.1854165418
 10
202.3687543331
 20
3.1316544851
 10
202.3453660162
 20
3.0775731785
 10
202.327798044
 20
3.0232431338
 10
202.3160733219
 20
2.968735187
 10
202.3102071367
 20
2.9141204063
 10
202.3094736842
 20
2.8867952023
  0
LWPOLYLINE
  5
2CC
100
AcDbEntity
  8
RACCORDO
100
AcDbPolyline
 62
253
  6
CONTINUOUS
 90
46
 70
0
 10
-222.1905263158
 20
-13.2657577385
 10
-222.3650237974
 20
-13.2667821737
 10
-222.5393086807
 20
-13.2698542312
 10
-222.7131686264
 20
-13.2749701682
 10
-222.8863918125
 20
-13.2821237516
 10
-223.0587671938
 20
-13.2913062659
 10
-223.2300847586
 20
-13.3025065239
 10
-223.4001357843
 20
-13.3157108797
 10
-223.5687130884
 20
-13.3309032459
 10
-223.7356112832
 20
-13.3480651128
 10
-223.9006270278
 20
-13.3671755711
 10
-224.0635592772
 20
-13.3882113377
 10
-224.2242095247
 20
-13.4111467839
 10
-224.3823820432
 20
-13.4359539665
 10
-224.5378841235
 20
-13.4626026618
 10
-224.6905263099
 20
-13.4910604022
 10
-224.8401226317
 20
-13.5212925167
 10
-224.9864908286
 20
-13.5532621718
 10
-225.1294525732
 20
-13.5869304175
 10
-225.2688336887
 20
-13.6222562342
 10
-225.4044643607
 20
-13.6591965828
 10
-225.5361793442
 20
-13.6977064572
 10
-225.6638181649
 20
-13.7377389391
 10
-225.7872253144
 20
-13.7792452551
 10
-225.9062504402
 20
-13.822174836
 10
-226.0207485286
 20
-13.866475379
 10
-226.1305800813
 20
-13.9120929105
 10
-226.2356112854
 20
-13.9589718526
 10
-226.3357141766
 20
-14.0070550906
 10
-226.4307667948
 20
-14.0562840424
 10
-226.5206533332
 20
-14.1065987301
 10
-226.6052642787
 20
-14.157937853
 10
-226.6844965461
 20
-14.2102388624
 10
-226.758253603
 20
-14.2634380374
 10
-226.8264455877
 20
-14.3174705631
 10
-226.888989419
 20
-14.3722706092
 10
-226.9458088966
 20
-14.4277714103
 10
-226.996834795
 20
-14.4839053472
 10
-227.0420049468
 20
-14.5406040293
 10
-227.0812643191
 20
-14.5977983781
 10
-227.1145650806
 20
-14.6554187109
 10
-227.1418666593
 20
-14.7133948264
 10
-227.1631357925
 20
-14.7716560896
 10
-227.178346567
 20
-14.830131518
 10
-227.1874804509
 20
-14.8887498684
 10
-227.1905263158
 20
-14.9474397235
  0
LINE
  5
2CD
100
AcDbEntity
  8
ASSI
100
AcDbLine
 62
7
  6
CONTINUOUS
 10
-242.0905263158
 20
-10.8436842105
 11
-237.0905263158
 21
-10.8436842105
  0
LINE
  5
2CE
100
AcDbEntity
  8
ASSI
100
AcDbLine
 62
7
  6
CONTINUOUS
 10
222.7094736842
 20
-10.8436842105
 11
227.7094736842
 21
-10.8436842105
  0
LINE
  5
2CF
100
AcDbEntity
  8
RACCORDO
100
AcDbLine
 62
7
  6
CONTINUOUS
 10
-226.1905263158
 20
-5.1936842105
 11
211.8094736842
 21
-5.1936842105
  0
LWPOLYLINE
  5
2D0
100
AcDbEntity
  8
RACCORDO
100
AcDbPolyline
 62
253
  6
CONTINUOUS
 90
46
 70
0
 10
-222.1905263158
 20
-9.4987900921
 10
-222.016028834
 20
-9.4998145273
 10
-221.8417439506
 20
-9.5028865848
 10
-221.6678840047
 20
-9.5080025218
 10
-221.4946608184
 20
-9.5151561052
 10
-221.322285437
 20
-9.5243386196
 10
-221.150967872
 20
-9.5355388775
 10
-220.9809168464
 20
-9.5487432334
 10
-220.8123395424
 20
-9.5639355996
 10
-220.6454413477
 20
-9.5810974665
 10
-220.4804256031
 20
-9.6002079248
 10
-220.3174933538
 20
-9.6212436914
 10
-220.1568431063
 20
-9.6441791376
 10
-219.9986705877
 20
-9.6689863203
 10
-219.8431685074
 20
-9.6956350155
 10
-219.690526321
 20
-9.724092756
 10
-219.5409299992
 20
-9.7543248704
 10
-219.3945618024
 20
-9.7862945256
 10
-219.2516000577
 20
-9.8199627713
 10
-219.1122189423
 20
-9.855288588
 10
-218.9765882703
 20
-9.8922289366
 10
-218.8448732868
 20
-9.930738811
 10
-218.7172344662
 20
-9.9707712929
 10
-218.5938273167
 20
-10.0122776089
 10
-218.4748021909
 20
-10.0552071898
 10
-218.3603041025
 20
-10.0995077328
 10
-218.2504725498
 20
-10.1451252643
 10
-218.1454413457
 20
-10.1920042064
 10
-218.0453384546
 20
-10.2400874444
 10
-217.9502858364
 20
-10.2893163962
 10
-217.860399298
 20
-10.3396310839
 10
-217.7757883525
 20
-10.3909702068
 10
-217.6965560852
 20
-10.4432712162
 10
-217.6227990283
 20
-10.4964703912
 10
-217.5546070436
 20
-10.550502917
 10
-217.4920632124
 20
-10.6053029631
 10
-217.4352437347
 20
-10.6608037642
 10
-217.3842178364
 20
-10.7169377011
 10
-217.3390476846
 20
-10.7736363832
 10
-217.2997883123
 20
-10.8308307319
 10
-217.2664875508
 20
-10.8884510648
 10
-217.2391859721
 20
-10.9464271803
 10
-217.217916839
 20
-11.0046884434
 10
-217.2027060645
 20
-11.0631638719
 10
-217.1935721807
 20
-11.1217822223
 10
-217.1905263158
 20
-11.1804720771
  0
LWPOLYLINE
  5
2D1
100
AcDbEntity
  8
RACCORDO
100
AcDbPolyline
 62
253
  6
CONTINUOUS
 90
46
 70
0
 10
207.8094736842
 20
-9.4987900921
 10
207.983971166
 20
-9.4998145273
 10
208.1582560494
 20
-9.5028865848
 10
208.3321159953
 20
-9.5080025218
 10
208.5053391816
 20
-9.5151561052
 10
208.677714563
 20
-9.5243386196
 10
208.849032128
 20
-9.5355388775
 10
209.0190831536
 20
-9.5487432334
 10
209.1876604576
 20
-9.5639355996
 10
209.3545586523
 20
-9.5810974665
 10
209.5195743969
 20
-9.6002079248
 10
209.6825066462
 20
-9.6212436914
 10
209.8431568937
 20
-9.6441791376
 10
210.0013294123
 20
-9.6689863203
 10
210.1568314926
 20
-9.6956350155
 10
210.309473679
 20
-9.724092756
 10
210.4590700008
 20
-9.7543248704
 10
210.6054381976
 20
-9.7862945256
 10
210.7483999423
 20
-9.8199627713
 10
210.8877810577
 20
-9.855288588
 10
211.0234117297
 20
-9.8922289366
 10
211.1551267132
 20
-9.930738811
 10
211.2827655338
 20
-9.9707712929
 10
211.4061726833
 20
-10.0122776089
 10
211.5251978091
 20
-10.0552071898
 10
211.6396958975
 20
-10.0995077328
 10
211.7495274502
 20
-10.1451252643
 10
211.8545586543
 20
-10.1920042064
 10
211.9546615454
 20
-10.2400874444
 10
212.0497141636
 20
-10.2893163962
 10
212.139600702
 20
-10.3396310839
 10
212.2242116475
 20
-10.3909702068
 10
212.3034439148
 20
-10.4432712162
 10
212.3772009717
 20
-10.4964703912
 10
212.4453929564
 20
-10.550502917
 10
212.5079367876
 20
-10.6053029631
 10
212.5647562653
 20
-10.6608037642
 10
212.6157821636
 20
-10.7169377011
 10
212.6609523154
 20
-10.7736363832
 10
212.7002116877
 20
-10.8308307319
 10
212.7335124492
 20
-10.8884510648
 10
212.7608140279
 20
-10.9464271803
 10
212.782083161
 20
-11.0046884434
 10
212.7972939355
 20
-11.0631638719
 10
212.8064278193
 20
-11.1217822223
 10
212.8094736842
 20
-11.1804720771
  0
LWPOLYLINE
  5
2D2
100
AcDbEntity
  8
RACCORDO
100
AcDbPolyline
 62
7
  6
CONTINUOUS
 90
46
 70
0
 10
-226.1905263158
 20
-5.1936842105
 10
-226.2717538096
 20
-5.1925573676
 10
-226.3521903009
 20
-5.1891013094
 10
-226.4317100247
 20
-5.1833983732
 10
-226.510187267
 20
-5.1755583083
 10
-226.5875164704
 20
-5.1656474521
 10
-226.6636117678
 20
-5.1536858825
 10
-226.7383704602
 20
-5.1397680755
 10
-226.8117030737
 20
-5.1239879374
 10
-226.8835519198
 20
-5.1063627975
 10
-226.9538334827
 20
-5.0869890992
 10
-227.0224751822
 20
-5.0659635617
 10
-227.0894422053
 20
-5.0432992372
 10
-227.1546678252
 20
-5.0190918365
 10
-227.2180946733
 20
-4.9934379007
 10
-227.279706301
 20
-4.9663452008
 10
-227.3394516463
 20
-4.9379061886
 10
-227.3972850147
 20
-4.9082155961
 10
-227.4532003916
 20
-4.8772773725
 10
-227.507159279
 20
-4.8451801793
 10
-227.5591267289
 20
-4.8120155862
 10
-227.6091030439
 20
-4.7777849405
 10
-227.6570602863
 20
-4.7425727906
 10
-227.7029728514
 20
-4.7064670216
 10
-227.7468446412
 20
-4.6694677416
 10
-227.788656725
 20
-4.6316553581
 10
-227.828391713
 20
-4.5931139197
 10
-227.8660555108
 20
-4.5538436811
 10
-227.9016370484
 20
-4.5139210342
 10
-227.9351263318
 20
-4.4734262344
 10
-227.9665306122
 20
-4.4323609863
 10
-227.9958458786
 20
-4.3907978488
 10
-228.0230690164
 20
-4.3488133743
 10
-228.0482087645
 20
-4.3064117946
 10
-228.0712674802
 20
-4.2636623263
 10
-228.0922488517
 20
-4.2206375253
 10
-228.1111642931
 20
-4.1773438204
 10
-228.1280224483
 20
-4.1338463934
 10
-228.1428330827
 20
-4.0902143782
 10
-228.1556106532
 20
-4.0464577561
 10
-228.1663697178
 20
-4.0026380848
 10
-228.1751262473
 20
-3.9588204554
 10
-228.1818989881
 20
-3.9150180057
 10
-228.1867082308
 20
-3.8712746076
 10
-228.1895760124
 20
-3.8276648576
 10
-228.1905263158
 20
-3.7842458181
  0
LWPOLYLINE
  5
2D3
100
AcDbEntity
  8
RACCORDO
100
AcDbPolyline
 62
7
  6
CONTINUOUS
 90
28
 70
0
 10
-4.1905263158
 20
12.001511561
 10
-4.1896566571
 20
11.9916789393
 10
-4.187124616
 20
11.9819449056
 10
-4.1829301923
 20
11.9723094597
 10
-4.1770480009
 20
11.9627407377
 10
-4.169503427
 20
11.9532706035
 10
-4.1603726262
 20
11.9439946496
 10
-4.1496395329
 20
11.9349148426
 10
-4.1373202126
 20
11.9260292159
 10
-4.1235390177
 20
11.9174274617
 10
-4.108281142
 20
11.9091124552
 10
-4.0915613917
 20
11.9010813211
 10
-4.0735485373
 20
11.8934151266
 10
-4.0542294822
 20
11.8861175678
 10
-4.033617323
 20
11.8791849484
 10
-4.0119201206
 20
11.872687247
 10
-3.9891268857
 20
11.8666288685
 10
-3.9652486076
 20
11.8610054079
 10
-3.9405263158
 20
11.8558736289
 10
-3.914951462
 20
11.8512385115
 10
-3.8885325944
 20
11.8470950757
 10
-3.8615363875
 20
11.8434851458
 10
-3.8339569937
 20
11.8404141251
 10
-3.8058002606
 20
11.8378766103
 10
-3.7773504046
 20
11.8358982153
 10
-3.7487021646
 20
11.8344874779
 10
-3.7197608016
 20
11.8336358603
 10
-3.6905263158
 20
11.8333433625
  0
LWPOLYLINE
  5
2D4
100
AcDbEntity
  8
RACCORDO
100
AcDbPolyline
 62
7
  6
CONTINUOUS
 90
28
 70
0
 10
3.8094736842
 20
12.674184355
 10
3.8086040256
 20
12.6840169766
 10
3.8060719844
 20
12.6937510103
 10
3.8018775607
 20
12.7033864562
 10
3.7959953693
 20
12.7129551782
 10
3.7884507954
 20
12.7224253124
 10
3.7793199946
 20
12.7317012663
 10
3.7685869013
 20
12.7407810733
 10
3.756267581
 20
12.7496667
 10
3.7424863861
 20
12.7582684542
 10
3.7272285104
 20
12.7665834608
 10
3.7105087601
 20
12.7746145948
 10
3.6924959058
 20
12.7822807893
 10
3.6731768506
 20
12.7895783481
 10
3.6525646914
 20
12.7965109675
 10
3.6308674891
 20
12.8030086689
 10
3.6080742541
 20
12.8090670475
 10
3.584195976
 20
12.814690508
 10
3.5594736842
 20
12.819822287
 10
3.5338988304
 20
12.8244574044
 10
3.5074799628
 20
12.8286008402
 10
3.4804837559
 20
12.8322107701
 10
3.4529043622
 20
12.8352817908
 10
3.424747629
 20
12.8378193056
 10
3.396297773
 20
12.8397977006
 10
3.367649533
 20
12.841208438
 10
3.33870817
 20
12.8420600556
 10
3.3094736842
 20
12.8423525535
  0
LWPOLYLINE
  5
2D5
100
AcDbEntity
  8
RACCORDO
100
AcDbPolyline
 62
7
  6
CONTINUOUS
 90
28
 70
0
 10
9.8094736842
 20
12.001511561
 10
9.8103433429
 20
11.9916789393
 10
9.812875384
 20
11.9819449056
 10
9.8170698077
 20
11.9723094597
 10
9.8229519991
 20
11.9627407377
 10
9.830496573
 20
11.9532706035
 10
9.8396273738
 20
11.9439946496
 10
9.8503604671
 20
11.9349148426
 10
9.8626797874
 20
11.9260292159
 10
9.8764609823
 20
11.9174274617
 10
9.891718858
 20
11.9091124552
 10
9.9084386083
 20
11.9010813211
 10
9.9264514627
 20
11.8934151266
 10
9.9457705178
 20
11.8861175678
 10
9.966382677
 20
11.8791849484
 10
9.9880798794
 20
11.872687247
 10
10.0108731143
 20
11.8666288685
 10
10.0347513924
 20
11.8610054079
 10
10.0594736842
 20
11.8558736289
 10
10.085048538
 20
11.8512385115
 10
10.1114674056
 20
11.8470950757
 10
10.1384636125
 20
11.8434851458
 10
10.1660430063
 20
11.8404141251
 10
10.1941997394
 20
11.8378766103
 10
10.2226495954
 20
11.8358982153
 10
10.2512978354
 20
11.8344874779
 10
10.2802391984
 20
11.8336358603
 10
10.3094736842
 20
11.8333433625
  0
LINE
  5
2D6
100
AcDbEntity
  8
RACCORDO
100
AcDbLine
 62
7
  6
CONTINUOUS
 10
-4.1905263158
 20
12.001511561
 11
-4.1905263158
 21
13.874184355
  0
LINE
  5
2D7
100
AcDbEntity
  8
RACCORDO
100
AcDbLine
 62
253
  6
CONTINUOUS
 10
-3.6905263158
 20
12.8423525535
 11
-3.6905263158
 21
14.0423525535
  0
LINE
  5
2D8
100
AcDbEntity
  8
0
100
AcDbLine
 62
7
  6
CONTINUOUS
 10
-2.1905263158
 20
11.8333433625
 11
-2.1905263158
 21
10.8243341715
  0
LINE
  5
2D9
100
AcDbEntity
  8
0
100
AcDbLine
 62
7
  6
CONTINUOUS
 10
1.8094736842
 20
10.8243341715
 11
1.8094736842
 21
11.8333433625
  0
LINE
  5
2DA
100
AcDbEntity
  8
RACCORDO
100
AcDbLine
 62
253
  6
CONTINUOUS
 10
3.3094736842
 20
12.8423525535
 11
3.3094736842
 21
14.0423525535
  0
LINE
  5
2DB
100
AcDbEntity
  8
RACCORDO
100
AcDbLine
 62
7
  6
CONTINUOUS
 10
3.8094736842
 20
12.001511561
 11
3.8094736842
 21
13.874184355
  0
LINE
  5
2DC
100
AcDbEntity
  8
ASSI
100
AcDbLine
 62
7
  6
CONTINUOUS
 10
4.5594736842
 20
12.0243341715
 11
4.5594736842
 21
16.0063157895
  0
LINE
  5
2DD
100
AcDbEntity
  8
ASSI
100
AcDbLine
 62
7
  6
CONTINUOUS
 10
7.0594736842
 20
12.0243341715
 11
7.0594736842
 21
16.0063157895
  0
LINE
  5
2DE
100
AcDbEntity
  8
RACCORDO
100
AcDbLine
 62
7
  6
CONTINUOUS
 10
9.8094736842
 20
12.001511561
 11
9.8094736842
 21
13.874184355
  0
LINE
  5
2DF
100
AcDbEntity
  8
RACCORDO
100
AcDbLine
 62
253
  6
CONTINUOUS
 10
10.3094736842
 20
12.8423525535
 11
10.3094736842
 21
14.0423525535
  0
LWPOLYLINE
  5
2E0
100
AcDbEntity
  8
RACCORDO
100
AcDbPolyline
 62
7
  6
CONTINUOUS
 90
28
 70
0
 10
9.8094736842
 20
13.874184355
 10
9.8103433429
 20
13.8840169766
 10
9.812875384
 20
13.8937510103
 10
9.8170698077
 20
13.9033864562
 10
9.8229519991
 20
13.9129551782
 10
9.830496573
 20
13.9224253124
 10
9.8396273738
 20
13.9317012663
 10
9.8503604671
 20
13.9407810733
 10
9.8626797874
 20
13.9496667
 10
9.8764609823
 20
13.9582684542
 10
9.891718858
 20
13.9665834608
 10
9.9084386083
 20
13.9746145948
 10
9.9264514627
 20
13.9822807893
 10
9.9457705178
 20
13.9895783481
 10
9.966382677
 20
13.9965109675
 10
9.9880798794
 20
14.0030086689
 10
10.0108731143
 20
14.0090670475
 10
10.0347513924
 20
14.014690508
 10
10.0594736842
 20
14.019822287
 10
10.085048538
 20
14.0244574044
 10
10.1114674056
 20
14.0286008402
 10
10.1384636125
 20
14.0322107701
 10
10.1660430063
 20
14.0352817908
 10
10.1941997394
 20
14.0378193056
 10
10.2226495954
 20
14.0397977006
 10
10.2512978354
 20
14.041208438
 10
10.2802391984
 20
14.0420600556
 10
10.3094736842
 20
14.0423525535
  0
LWPOLYLINE
  5
2E1
100
AcDbEntity
  8
RACCORDO
100
AcDbPolyline
 62
7
  6
CONTINUOUS
 90
43
 70
0
 10
-226.1905263158
 20
14.8063157895
 10
-226.273822953
 20
14.8052272511
 10
-226.3564777128
 20
14.8022223281
 10
-226.4383527284
 20
14.7973010208
 10
-226.5193092229
 20
14.7904154322
 10
-226.5992270617
 20
14.7816134592
 10
-226.6780043648
 20
14.7710387917
 10
-226.7555252656
 20
14.7586868571
 10
-226.8316800275
 20
14.744562228
 10
-226.9063833727
 20
14.7288223115
 10
-226.9795354392
 20
14.711464228
 10
-227.0510433158
 20
14.6924908572
 10
-227.120838841
 20
14.6720682452
 10
-227.1888380658
 20
14.6501949437
 10
-227.2549636298
 20
14.6268724011
 10
-227.3191629989
 20
14.6022710082
 10
-227.3813673048
 20
14.5763904333
 10
-227.4415136344
 20
14.5492310082
 10
-227.4995630946
 20
14.5209641188
 10
-227.5554609356
 20
14.4915901662
 10
-227.6091573995
 20
14.4611087493
 10
-227.6606248194
 20
14.4296900516
 10
-227.7098213689
 20
14.397334931
 10
-227.7567093975
 20
14.3640425296
 10
-227.8012704714
 20
14.3299804568
 10
-227.8434745512
 20
14.2951498491
 10
-227.8832951675
 20
14.25954957
 10
-227.9207216885
 20
14.2233438199
 10
-227.9557348561
 20
14.186533925
 10
-227.9883185858
 20
14.1491185591
 10
-228.0184691733
 20
14.111257943
 10
-228.0461772922
 20
14.072953568
 10
-228.0714365521
 20
14.0342039428
 10
-228.0942497454
 20
13.995164815
 10
-228.1146167456
 20
13.9558378968
 10
-228.1325402715
 20
13.9162214759
 10
-228.1480295333
 20
13.8764661632
 10
-228.1610929828
 20
13.8365739387
 10
-228.1717418597
 20
13.7965428224
 10
-228.1799918082
 20
13.7565174853
 10
-228.1858594683
 20
13.7165461512
 10
-228.1893636184
 20
13.6765805963
 10
-228.1905263158
 20
13.6366208206
  0
LWPOLYLINE
  5
2E2
100
AcDbEntity
  8
RACCORDO
100
AcDbPolyline
 62
7
  6
CONTINUOUS
 90
28
 70
0
 10
192.3094736842
 20
11.8333433625
 10
192.33870817
 20
11.8336358603
 10
192.367649533
 20
11.8344874779
 10
192.396297773
 20
11.8358982153
 10
192.424747629
 20
11.8378766103
 10
192.4529043622
 20
11.8404141251
 10
192.4804837559
 20
11.8434851458
 10
192.5074799628
 20
11.8470950757
 10
192.5338988304
 20
11.8512385115
 10
192.5594736842
 20
11.8558736289
 10
192.584195976
 20
11.8610054079
 10
192.6080742541
 20
11.8666288685
 10
192.6308674891
 20
11.872687247
 10
192.6525646914
 20
11.8791849484
 10
192.6731768506
 20
11.8861175678
 10
192.6924959058
 20
11.8934151266
 10
192.7105087601
 20
11.9010813211
 10
192.7272285104
 20
11.9091124552
 10
192.7424863861
 20
11.9174274617
 10
192.756267581
 20
11.9260292159
 10
192.7685869013
 20
11.9349148426
 10
192.7793199946
 20
11.9439946496
 10
192.7884507954
 20
11.9532706035
 10
192.7959953693
 20
11.9627407377
 10
192.8018775607
 20
11.9723094597
 10
192.8060719844
 20
11.9819449056
 10
192.8086040256
 20
11.9916789393
 10
192.8094736842
 20
12.001511561
  0
LWPOLYLINE
  5
2E3
100
AcDbEntity
  8
RACCORDO
100
AcDbPolyline
 62
7
  6
CONTINUOUS
 90
28
 70
0
 10
178.3094736842
 20
11.8333433625
 10
178.33870817
 20
11.8336358603
 10
178.367649533
 20
11.8344874779
 10
178.396297773
 20
11.8358982153
 10
178.424747629
 20
11.8378766103
 10
178.4529043622
 20
11.8404141251
 10
178.4804837559
 20
11.8434851458
 10
178.5074799628
 20
11.8470950757
 10
178.5338988304
 20
11.8512385115
 10
178.5594736842
 20
11.8558736289
 10
178.584195976
 20
11.8610054079
 10
178.6080742541
 20
11.8666288685
 10
178.6308674891
 20
11.872687247
 10
178.6525646914
 20
11.8791849484
 10
178.6731768506
 20
11.8861175678
 10
178.6924959058
 20
11.8934151266
 10
178.7105087601
 20
11.9010813211
 10
178.7272285104
 20
11.9091124552
 10
178.7424863861
 20
11.9174274617
 10
178.756267581
 20
11.9260292159
 10
178.7685869013
 20
11.9349148426
 10
178.7793199946
 20
11.9439946496
 10
178.7884507954
 20
11.9532706035
 10
178.7959953693
 20
11.9627407377
 10
178.8018775607
 20
11.9723094597
 10
178.8060719844
 20
11.9819449056
 10
178.8086040256
 20
11.9916789393
 10
178.8094736842
 20
12.001511561
  0
LWPOLYLINE
  5
2E4
100
AcDbEntity
  8
RACCORDO
100
AcDbPolyline
 62
7
  6
CONTINUOUS
 90
28
 70
0
 10
157.3094736842
 20
11.8333433625
 10
157.33870817
 20
11.8336358603
 10
157.367649533
 20
11.8344874779
 10
157.396297773
 20
11.8358982153
 10
157.424747629
 20
11.8378766103
 10
157.4529043622
 20
11.8404141251
 10
157.4804837559
 20
11.8434851458
 10
157.5074799628
 20
11.8470950757
 10
157.5338988304
 20
11.8512385115
 10
157.5594736842
 20
11.8558736289
 10
157.584195976
 20
11.8610054079
 10
157.6080742541
 20
11.8666288685
 10
157.6308674891
 20
11.872687247
 10
157.6525646914
 20
11.8791849484
 10
157.6731768506
 20
11.8861175678
 10
157.6924959058
 20
11.8934151266
 10
157.7105087601
 20
11.9010813211
 10
157.7272285104
 20
11.9091124552
 10
157.7424863861
 20
11.9174274617
 10
157.756267581
 20
11.9260292159
 10
157.7685869013
 20
11.9349148426
 10
157.7793199946
 20
11.9439946496
 10
157.7884507954
 20
11.9532706035
 10
157.7959953693
 20
11.9627407377
 10
157.8018775607
 20
11.9723094597
 10
157.8060719844
 20
11.9819449056
 10
157.8086040256
 20
11.9916789393
 10
157.8094736842
 20
12.001511561
  0
LWPOLYLINE
  5
2E5
100
AcDbEntity
  8
RACCORDO
100
AcDbPolyline
 62
7
  6
CONTINUOUS
 90
28
 70
0
 10
143.3094736842
 20
11.8333433625
 10
143.33870817
 20
11.8336358603
 10
143.367649533
 20
11.8344874779
 10
143.396297773
 20
11.8358982153
 10
143.424747629
 20
11.8378766103
 10
143.4529043622
 20
11.8404141251
 10
143.4804837559
 20
11.8434851458
 10
143.5074799628
 20
11.8470950757
 10
143.5338988304
 20
11.8512385115
 10
143.5594736842
 20
11.8558736289
 10
143.584195976
 20
11.8610054079
 10
143.6080742541
 20
11.8666288685
 10
143.6308674891
 20
11.872687247
 10
143.6525646914
 20
11.8791849484
 10
143.6731768506
 20
11.8861175678
 10
143.6924959058
 20
11.8934151266
 10
143.7105087601
 20
11.9010813211
 10
143.7272285104
 20
11.9091124552
 10
143.7424863861
 20
11.9174274617
 10
143.756267581
 20
11.9260292159
 10
143.7685869013
 20
11.9349148426
 10
143.7793199946
 20
11.9439946496
 10
143.7884507954
 20
11.9532706035
 10
143.7959953693
 20
11.9627407377
 10
143.8018775607
 20
11.9723094597
 10
143.8060719844
 20
11.9819449056
 10
143.8086040256
 20
11.9916789393
 10
143.8094736842
 20
12.001511561
  0
LWPOLYLINE
  5
2E6
100
AcDbEntity
  8
RACCORDO
100
AcDbPolyline
 62
7
  6
CONTINUOUS
 90
28
 70
0
 10
122.3094736842
 20
11.8333433625
 10
122.33870817
 20
11.8336358603
 10
122.367649533
 20
11.8344874779
 10
122.396297773
 20
11.8358982153
 10
122.424747629
 20
11.8378766103
 10
122.4529043622
 20
11.8404141251
 10
122.4804837559
 20
11.8434851458
 10
122.5074799628
 20
11.8470950757
 10
122.5338988304
 20
11.8512385115
 10
122.5594736842
 20
11.8558736289
 10
122.584195976
 20
11.8610054079
 10
122.6080742541
 20
11.8666288685
 10
122.6308674891
 20
11.872687247
 10
122.6525646914
 20
11.8791849484
 10
122.6731768506
 20
11.8861175678
 10
122.6924959058
 20
11.8934151266
 10
122.7105087601
 20
11.9010813211
 10
122.7272285104
 20
11.9091124552
 10
122.7424863861
 20
11.9174274617
 10
122.756267581
 20
11.9260292159
 10
122.7685869013
 20
11.9349148426
 10
122.7793199946
 20
11.9439946496
 10
122.7884507954
 20
11.9532706035
 10
122.7959953693
 20
11.9627407377
 10
122.8018775607
 20
11.9723094597
 10
122.8060719844
 20
11.9819449056
 10
122.8086040256
 20
11.9916789393
 10
122.8094736842
 20
12.001511561
  0
LWPOLYLINE
  5
2E7
100
AcDbEntity
  8
RACCORDO
100
AcDbPolyline
 62
7
  6
CONTINUOUS
 90
28
 70
0
 10
108.3094736842
 20
11.8333433625
 10
108.33870817
 20
11.8336358603
 10
108.367649533
 20
11.8344874779
 10
108.396297773
 20
11.8358982153
 10
108.424747629
 20
11.8378766103
 10
108.4529043622
 20
11.8404141251
 10
108.4804837559
 20
11.8434851458
 10
108.5074799628
 20
11.8470950757
 10
108.5338988304
 20
11.8512385115
 10
108.5594736842
 20
11.8558736289
 10
108.584195976
 20
11.8610054079
 10
108.6080742541
 20
11.8666288685
 10
108.6308674891
 20
11.872687247
 10
108.6525646914
 20
11.8791849484
 10
108.6731768506
 20
11.8861175678
 10
108.6924959058
 20
11.8934151266
 10
108.7105087601
 20
11.9010813211
 10
108.7272285104
 20
11.9091124552
 10
108.7424863861
 20
11.9174274617
 10
108.756267581
 20
11.9260292159
 10
108.7685869013
 20
11.9349148426
 10
108.7793199946
 20
11.9439946496
 10
108.7884507954
 20
11.9532706035
 10
108.7959953693
 20
11.9627407377
 10
108.8018775607
 20
11.9723094597
 10
108.8060719844
 20
11.9819449056
 10
108.8086040256
 20
11.9916789393
 10
108.8094736842
 20
12.001511561
  0
LWPOLYLINE
  5
2E8
100
AcDbEntity
  8
RACCORDO
100
AcDbPolyline
 62
7
  6
CONTINUOUS
 90
28
 70
0
 10
87.3094736842
 20
11.8333433625
 10
87.33870817
 20
11.8336358603
 10
87.367649533
 20
11.8344874779
 10
87.396297773
 20
11.8358982153
 10
87.424747629
 20
11.8378766103
 10
87.4529043622
 20
11.8404141251
 10
87.4804837559
 20
11.8434851458
 10
87.5074799628
 20
11.8470950757
 10
87.5338988304
 20
11.8512385115
 10
87.5594736842
 20
11.8558736289
 10
87.584195976
 20
11.8610054079
 10
87.6080742541
 20
11.8666288685
 10
87.6308674891
 20
11.872687247
 10
87.6525646914
 20
11.8791849484
 10
87.6731768506
 20
11.8861175678
 10
87.6924959058
 20
11.8934151266
 10
87.7105087601
 20
11.9010813211
 10
87.7272285104
 20
11.9091124552
 10
87.7424863861
 20
11.9174274617
 10
87.756267581
 20
11.9260292159
 10
87.7685869013
 20
11.9349148426
 10
87.7793199946
 20
11.9439946496
 10
87.7884507954
 20
11.9532706035
 10
87.7959953693
 20
11.9627407377
 10
87.8018775607
 20
11.9723094597
 10
87.8060719844
 20
11.9819449056
 10
87.8086040256
 20
11.9916789393
 10
87.8094736842
 20
12.001511561
  0
LWPOLYLINE
  5
2E9
100
AcDbEntity
  8
RACCORDO
100
AcDbPolyline
 62
7
  6
CONTINUOUS
 90
28
 70
0
 10
185.3094736842
 20
12.8423525535
 10
185.2802391984
 20
12.8420600556
 10
185.2512978354
 20
12.841208438
 10
185.2226495954
 20
12.8397977006
 10
185.1941997394
 20
12.8378193056
 10
185.1660430063
 20
12.8352817908
 10
185.1384636125
 20
12.8322107701
 10
185.1114674056
 20
12.8286008402
 10
185.085048538
 20
12.8244574044
 10
185.0594736842
 20
12.819822287
 10
185.0347513924
 20
12.814690508
 10
185.0108731143
 20
12.8090670475
 10
184.9880798794
 20
12.8030086689
 10
184.966382677
 20
12.7965109675
 10
184.9457705178
 20
12.7895783481
 10
184.9264514627
 20
12.7822807893
 10
184.9084386083
 20
12.7746145948
 10
184.891718858
 20
12.7665834608
 10
184.8764609823
 20
12.7582684542
 10
184.8626797874
 20
12.7496667
 10
184.8503604671
 20
12.7407810733
 10
184.8396273738
 20
12.7317012663
 10
184.830496573
 20
12.7224253124
 10
184.8229519991
 20
12.7129551782
 10
184.8170698077
 20
12.7033864562
 10
184.812875384
 20
12.6937510103
 10
184.8103433429
 20
12.6840169766
 10
184.8094736842
 20
12.674184355
  0
LWPOLYLINE
  5
2EA
100
AcDbEntity
  8
RACCORDO
100
AcDbPolyline
 62
7
  6
CONTINUOUS
 90
28
 70
0
 10
73.3094736842
 20
11.8333433625
 10
73.33870817
 20
11.8336358603
 10
73.367649533
 20
11.8344874779
 10
73.396297773
 20
11.8358982153
 10
73.424747629
 20
11.8378766103
 10
73.4529043622
 20
11.8404141251
 10
73.4804837559
 20
11.8434851458
 10
73.5074799628
 20
11.8470950757
 10
73.5338988304
 20
11.8512385115
 10
73.5594736842
 20
11.8558736289
 10
73.584195976
 20
11.8610054079
 10
73.6080742541
 20
11.8666288685
 10
73.6308674891
 20
11.872687247
 10
73.6525646914
 20
11.8791849484
 10
73.6731768506
 20
11.8861175678
 10
73.6924959058
 20
11.8934151266
 10
73.7105087601
 20
11.9010813211
 10
73.7272285104
 20
11.9091124552
 10
73.7424863861
 20
11.9174274617
 10
73.756267581
 20
11.9260292159
 10
73.7685869013
 20
11.9349148426
 10
73.7793199946
 20
11.9439946496
 10
73.7884507954
 20
11.9532706035
 10
73.7959953693
 20
11.9627407377
 10
73.8018775607
 20
11.9723094597
 10
73.8060719844
 20
11.9819449056
 10
73.8086040256
 20
11.9916789393
 10
73.8094736842
 20
12.001511561
  0
LWPOLYLINE
  5
2EB
100
AcDbEntity
  8
RACCORDO
100
AcDbPolyline
 62
7
  6
CONTINUOUS
 90
28
 70
0
 10
171.3094736842
 20
12.8423525535
 10
171.2802391984
 20
12.8420600556
 10
171.2512978354
 20
12.841208438
 10
171.2226495954
 20
12.8397977006
 10
171.1941997394
 20
12.8378193056
 10
171.1660430063
 20
12.8352817908
 10
171.1384636125
 20
12.8322107701
 10
171.1114674056
 20
12.8286008402
 10
171.085048538
 20
12.8244574044
 10
171.0594736842
 20
12.819822287
 10
171.0347513924
 20
12.814690508
 10
171.0108731143
 20
12.8090670475
 10
170.9880798794
 20
12.8030086689
 10
170.966382677
 20
12.7965109675
 10
170.9457705178
 20
12.7895783481
 10
170.9264514627
 20
12.7822807893
 10
170.9084386083
 20
12.7746145948
 10
170.891718858
 20
12.7665834608
 10
170.8764609823
 20
12.7582684542
 10
170.8626797874
 20
12.7496667
 10
170.8503604671
 20
12.7407810733
 10
170.8396273738
 20
12.7317012663
 10
170.830496573
 20
12.7224253124
 10
170.8229519991
 20
12.7129551782
 10
170.8170698077
 20
12.7033864562
 10
170.812875384
 20
12.6937510103
 10
170.8103433429
 20
12.6840169766
 10
170.8094736842
 20
12.674184355
  0
LWPOLYLINE
  5
2EC
100
AcDbEntity
  8
RACCORDO
100
AcDbPolyline
 62
7
  6
CONTINUOUS
 90
28
 70
0
 10
52.3094736842
 20
11.8333433625
 10
52.33870817
 20
11.8336358603
 10
52.367649533
 20
11.8344874779
 10
52.396297773
 20
11.8358982153
 10
52.424747629
 20
11.8378766103
 10
52.4529043622
 20
11.8404141251
 10
52.4804837559
 20
11.8434851458
 10
52.5074799628
 20
11.8470950757
 10
52.5338988304
 20
11.8512385115
 10
52.5594736842
 20
11.8558736289
 10
52.584195976
 20
11.8610054079
 10
52.6080742541
 20
11.8666288685
 10
52.6308674891
 20
11.872687247
 10
52.6525646914
 20
11.8791849484
 10
52.6731768506
 20
11.8861175678
 10
52.6924959058
 20
11.8934151266
 10
52.7105087601
 20
11.9010813211
 10
52.7272285104
 20
11.9091124552
 10
52.7424863861
 20
11.9174274617
 10
52.756267581
 20
11.9260292159
 10
52.7685869013
 20
11.9349148426
 10
52.7793199946
 20
11.9439946496
 10
52.7884507954
 20
11.9532706035
 10
52.7959953693
 20
11.9627407377
 10
52.8018775607
 20
11.9723094597
 10
52.8060719844
 20
11.9819449056
 10
52.8086040256
 20
11.9916789393
 10
52.8094736842
 20
12.001511561
  0
LWPOLYLINE
  5
2ED
100
AcDbEntity
  8
RACCORDO
100
AcDbPolyline
 62
7
  6
CONTINUOUS
 90
28
 70
0
 10
150.3094736842
 20
12.8423525535
 10
150.2802391984
 20
12.8420600556
 10
150.2512978354
 20
12.841208438
 10
150.2226495954
 20
12.8397977006
 10
150.1941997394
 20
12.8378193056
 10
150.1660430063
 20
12.8352817908
 10
150.1384636125
 20
12.8322107701
 10
150.1114674056
 20
12.8286008402
 10
150.085048538
 20
12.8244574044
 10
150.0594736842
 20
12.819822287
 10
150.0347513924
 20
12.814690508
 10
150.0108731143
 20
12.8090670475
 10
149.9880798794
 20
12.8030086689
 10
149.966382677
 20
12.7965109675
 10
149.9457705178
 20
12.7895783481
 10
149.9264514627
 20
12.7822807893
 10
149.9084386083
 20
12.7746145948
 10
149.891718858
 20
12.7665834608
 10
149.8764609823
 20
12.7582684542
 10
149.8626797874
 20
12.7496667
 10
149.8503604671
 20
12.7407810733
 10
149.8396273738
 20
12.7317012663
 10
149.830496573
 20
12.7224253124
 10
149.8229519991
 20
12.7129551782
 10
149.8170698077
 20
12.7033864562
 10
149.812875384
 20
12.6937510103
 10
149.8103433429
 20
12.6840169766
 10
149.8094736842
 20
12.674184355
  0
LWPOLYLINE
  5
2EE
100
AcDbEntity
  8
RACCORDO
100
AcDbPolyline
 62
7
  6
CONTINUOUS
 90
28
 70
0
 10
38.3094736842
 20
11.8333433625
 10
38.33870817
 20
11.8336358603
 10
38.367649533
 20
11.8344874779
 10
38.396297773
 20
11.8358982153
 10
38.424747629
 20
11.8378766103
 10
38.4529043622
 20
11.8404141251
 10
38.4804837559
 20
11.8434851458
 10
38.5074799628
 20
11.8470950757
 10
38.5338988304
 20
11.8512385115
 10
38.5594736842
 20
11.8558736289
 10
38.584195976
 20
11.8610054079
 10
38.6080742541
 20
11.8666288685
 10
38.6308674891
 20
11.872687247
 10
38.6525646914
 20
11.8791849484
 10
38.6731768506
 20
11.8861175678
 10
38.6924959058
 20
11.8934151266
 10
38.7105087601
 20
11.9010813211
 10
38.7272285104
 20
11.9091124552
 10
38.7424863861
 20
11.9174274617
 10
38.756267581
 20
11.9260292159
 10
38.7685869013
 20
11.9349148426
 10
38.7793199946
 20
11.9439946496
 10
38.7884507954
 20
11.9532706035
 10
38.7959953693
 20
11.9627407377
 10
38.8018775607
 20
11.9723094597
 10
38.8060719844
 20
11.9819449056
 10
38.8086040256
 20
11.9916789393
 10
38.8094736842
 20
12.001511561
  0
LWPOLYLINE
  5
2EF
100
AcDbEntity
  8
RACCORDO
100
AcDbPolyline
 62
7
  6
CONTINUOUS
 90
28
 70
0
 10
136.3094736842
 20
12.8423525535
 10
136.2802391984
 20
12.8420600556
 10
136.2512978354
 20
12.841208438
 10
136.2226495954
 20
12.8397977006
 10
136.1941997394
 20
12.8378193056
 10
136.1660430063
 20
12.8352817908
 10
136.1384636125
 20
12.8322107701
 10
136.1114674056
 20
12.8286008402
 10
136.085048538
 20
12.8244574044
 10
136.0594736842
 20
12.819822287
 10
136.0347513924
 20
12.814690508
 10
136.0108731143
 20
12.8090670475
 10
135.9880798794
 20
12.8030086689
 10
135.966382677
 20
12.7965109675
 10
135.9457705178
 20
12.7895783481
 10
135.9264514627
 20
12.7822807893
 10
135.9084386083
 20
12.7746145948
 10
135.891718858
 20
12.7665834608
 10
135.8764609823
 20
12.7582684542
 10
135.8626797874
 20
12.7496667
 10
135.8503604671
 20
12.7407810733
 10
135.8396273738
 20
12.7317012663
 10
135.830496573
 20
12.7224253124
 10
135.8229519991
 20
12.7129551782
 10
135.8170698077
 20
12.7033864562
 10
135.812875384
 20
12.6937510103
 10
135.8103433429
 20
12.6840169766
 10
135.8094736842
 20
12.674184355
  0
LWPOLYLINE
  5
2F0
100
AcDbEntity
  8
RACCORDO
100
AcDbPolyline
 62
7
  6
CONTINUOUS
 90
28
 70
0
 10
17.3094736842
 20
11.8333433625
 10
17.33870817
 20
11.8336358603
 10
17.367649533
 20
11.8344874779
 10
17.396297773
 20
11.8358982153
 10
17.424747629
 20
11.8378766103
 10
17.4529043622
 20
11.8404141251
 10
17.4804837559
 20
11.8434851458
 10
17.5074799628
 20
11.8470950757
 10
17.5338988304
 20
11.8512385115
 10
17.5594736842
 20
11.8558736289
 10
17.584195976
 20
11.8610054079
 10
17.6080742541
 20
11.8666288685
 10
17.6308674891
 20
11.872687247
 10
17.6525646914
 20
11.8791849484
 10
17.6731768506
 20
11.8861175678
 10
17.6924959058
 20
11.8934151266
 10
17.7105087601
 20
11.9010813211
 10
17.7272285104
 20
11.9091124552
 10
17.7424863861
 20
11.9174274617
 10
17.756267581
 20
11.9260292159
 10
17.7685869013
 20
11.9349148426
 10
17.7793199946
 20
11.9439946496
 10
17.7884507954
 20
11.9532706035
 10
17.7959953693
 20
11.9627407377
 10
17.8018775607
 20
11.9723094597
 10
17.8060719844
 20
11.9819449056
 10
17.8086040256
 20
11.9916789393
 10
17.8094736842
 20
12.001511561
  0
LWPOLYLINE
  5
2F1
100
AcDbEntity
  8
RACCORDO
100
AcDbPolyline
 62
7
  6
CONTINUOUS
 90
28
 70
0
 10
115.3094736842
 20
12.8423525535
 10
115.2802391984
 20
12.8420600556
 10
115.2512978354
 20
12.841208438
 10
115.2226495954
 20
12.8397977006
 10
115.1941997394
 20
12.8378193056
 10
115.1660430063
 20
12.8352817908
 10
115.1384636125
 20
12.8322107701
 10
115.1114674056
 20
12.8286008402
 10
115.085048538
 20
12.8244574044
 10
115.0594736842
 20
12.819822287
 10
115.0347513924
 20
12.814690508
 10
115.0108731143
 20
12.8090670475
 10
114.9880798794
 20
12.8030086689
 10
114.966382677
 20
12.7965109675
 10
114.9457705178
 20
12.7895783481
 10
114.9264514627
 20
12.7822807893
 10
114.9084386083
 20
12.7746145948
 10
114.891718858
 20
12.7665834608
 10
114.8764609823
 20
12.7582684542
 10
114.8626797874
 20
12.7496667
 10
114.8503604671
 20
12.7407810733
 10
114.8396273738
 20
12.7317012663
 10
114.830496573
 20
12.7224253124
 10
114.8229519991
 20
12.7129551782
 10
114.8170698077
 20
12.7033864562
 10
114.812875384
 20
12.6937510103
 10
114.8103433429
 20
12.6840169766
 10
114.8094736842
 20
12.674184355
  0
LWPOLYLINE
  5
2F2
100
AcDbEntity
  8
RACCORDO
100
AcDbPolyline
 62
7
  6
CONTINUOUS
 90
28
 70
0
 10
3.3094736842
 20
11.8333433625
 10
3.33870817
 20
11.8336358603
 10
3.367649533
 20
11.8344874779
 10
3.396297773
 20
11.8358982153
 10
3.424747629
 20
11.8378766103
 10
3.4529043622
 20
11.8404141251
 10
3.4804837559
 20
11.8434851458
 10
3.5074799628
 20
11.8470950757
 10
3.5338988304
 20
11.8512385115
 10
3.5594736842
 20
11.8558736289
 10
3.584195976
 20
11.8610054079
 10
3.6080742541
 20
11.8666288685
 10
3.6308674891
 20
11.872687247
 10
3.6525646914
 20
11.8791849484
 10
3.6731768506
 20
11.8861175678
 10
3.6924959058
 20
11.8934151266
 10
3.7105087601
 20
11.9010813211
 10
3.7272285104
 20
11.9091124552
 10
3.7424863861
 20
11.9174274617
 10
3.756267581
 20
11.9260292159
 10
3.7685869013
 20
11.9349148426
 10
3.7793199946
 20
11.9439946496
 10
3.7884507954
 20
11.9532706035
 10
3.7959953693
 20
11.9627407377
 10
3.8018775607
 20
11.9723094597
 10
3.8060719844
 20
11.9819449056
 10
3.8086040256
 20
11.9916789393
 10
3.8094736842
 20
12.001511561
  0
LWPOLYLINE
  5
2F3
100
AcDbEntity
  8
RACCORDO
100
AcDbPolyline
 62
7
  6
CONTINUOUS
 90
28
 70
0
 10
101.3094736842
 20
12.8423525535
 10
101.2802391984
 20
12.8420600556
 10
101.2512978354
 20
12.841208438
 10
101.2226495954
 20
12.8397977006
 10
101.1941997394
 20
12.8378193056
 10
101.1660430063
 20
12.8352817908
 10
101.1384636125
 20
12.8322107701
 10
101.1114674056
 20
12.8286008402
 10
101.085048538
 20
12.8244574044
 10
101.0594736842
 20
12.819822287
 10
101.0347513924
 20
12.814690508
 10
101.0108731143
 20
12.8090670475
 10
100.9880798794
 20
12.8030086689
 10
100.966382677
 20
12.7965109675
 10
100.9457705178
 20
12.7895783481
 10
100.9264514627
 20
12.7822807893
 10
100.9084386083
 20
12.7746145948
 10
100.891718858
 20
12.7665834608
 10
100.8764609823
 20
12.7582684542
 10
100.8626797874
 20
12.7496667
 10
100.8503604671
 20
12.7407810733
 10
100.8396273738
 20
12.7317012663
 10
100.830496573
 20
12.7224253124
 10
100.8229519991
 20
12.7129551782
 10
100.8170698077
 20
12.7033864562
 10
100.812875384
 20
12.6937510103
 10
100.8103433429
 20
12.6840169766
 10
100.8094736842
 20
12.674184355
  0
LWPOLYLINE
  5
2F4
100
AcDbEntity
  8
RACCORDO
100
AcDbPolyline
 62
7
  6
CONTINUOUS
 90
28
 70
0
 10
-17.6905263158
 20
11.8333433625
 10
-17.66129183
 20
11.8336358603
 10
-17.632350467
 20
11.8344874779
 10
-17.603702227
 20
11.8358982153
 10
-17.575252371
 20
11.8378766103
 10
-17.5470956378
 20
11.8404141251
 10
-17.5195162441
 20
11.8434851458
 10
-17.4925200372
 20
11.8470950757
 10
-17.4661011696
 20
11.8512385115
 10
-17.4405263158
 20
11.8558736289
 10
-17.415804024
 20
11.8610054079
 10
-17.3919257459
 20
11.8666288685
 10
-17.3691325109
 20
11.872687247
 10
-17.3474353086
 20
11.8791849484
 10
-17.3268231494
 20
11.8861175678
 10
-17.3075040942
 20
11.8934151266
 10
-17.2894912399
 20
11.9010813211
 10
-17.2727714896
 20
11.9091124552
 10
-17.2575136139
 20
11.9174274617
 10
-17.243732419
 20
11.9260292159
 10
-17.2314130987
 20
11.9349148426
 10
-17.2206800054
 20
11.9439946496
 10
-17.2115492046
 20
11.9532706035
 10
-17.2040046307
 20
11.9627407377
 10
-17.1981224393
 20
11.9723094597
 10
-17.1939280156
 20
11.9819449056
 10
-17.1913959744
 20
11.9916789393
 10
-17.1905263158
 20
12.001511561
  0
LWPOLYLINE
  5
2F5
100
AcDbEntity
  8
RACCORDO
100
AcDbPolyline
 62
7
  6
CONTINUOUS
 90
28
 70
0
 10
80.3094736842
 20
12.8423525535
 10
80.2802391984
 20
12.8420600556
 10
80.2512978354
 20
12.841208438
 10
80.2226495954
 20
12.8397977006
 10
80.1941997394
 20
12.8378193056
 10
80.1660430063
 20
12.8352817908
 10
80.1384636125
 20
12.8322107701
 10
80.1114674056
 20
12.8286008402
 10
80.085048538
 20
12.8244574044
 10
80.0594736842
 20
12.819822287
 10
80.0347513924
 20
12.814690508
 10
80.0108731143
 20
12.8090670475
 10
79.9880798794
 20
12.8030086689
 10
79.966382677
 20
12.7965109675
 10
79.9457705178
 20
12.7895783481
 10
79.9264514627
 20
12.7822807893
 10
79.9084386083
 20
12.7746145948
 10
79.891718858
 20
12.7665834608
 10
79.8764609823
 20
12.7582684542
 10
79.8626797874
 20
12.7496667
 10
79.8503604671
 20
12.7407810733
 10
79.8396273738
 20
12.7317012663
 10
79.830496573
 20
12.7224253124
 10
79.8229519991
 20
12.7129551782
 10
79.8170698077
 20
12.7033864562
 10
79.812875384
 20
12.6937510103
 10
79.8103433429
 20
12.6840169766
 10
79.8094736842
 20
12.674184355
  0
LWPOLYLINE
  5
2F6
100
AcDbEntity
  8
RACCORDO
100
AcDbPolyline
 62
7
  6
CONTINUOUS
 90
28
 70
0
 10
-31.6905263158
 20
11.8333433625
 10
-31.66129183
 20
11.8336358603
 10
-31.632350467
 20
11.8344874779
 10
-31.603702227
 20
11.8358982153
 10
-31.575252371
 20
11.8378766103
 10
-31.5470956378
 20
11.8404141251
 10
-31.5195162441
 20
11.8434851458
 10
-31.4925200372
 20
11.8470950757
 10
-31.4661011696
 20
11.8512385115
 10
-31.4405263158
 20
11.8558736289
 10
-31.415804024
 20
11.8610054079
 10
-31.3919257459
 20
11.8666288685
 10
-31.3691325109
 20
11.872687247
 10
-31.3474353086
 20
11.8791849484
 10
-31.3268231494
 20
11.8861175678
 10
-31.3075040942
 20
11.8934151266
 10
-31.2894912399
 20
11.9010813211
 10
-31.2727714896
 20
11.9091124552
 10
-31.2575136139
 20
11.9174274617
 10
-31.243732419
 20
11.9260292159
 10
-31.2314130987
 20
11.9349148426
 10
-31.2206800054
 20
11.9439946496
 10
-31.2115492046
 20
11.9532706035
 10
-31.2040046307
 20
11.9627407377
 10
-31.1981224393
 20
11.9723094597
 10
-31.1939280156
 20
11.9819449056
 10
-31.1913959744
 20
11.9916789393
 10
-31.1905263158
 20
12.001511561
  0
LWPOLYLINE
  5
2F7
100
AcDbEntity
  8
RACCORDO
100
AcDbPolyline
 62
7
  6
CONTINUOUS
 90
28
 70
0
 10
66.3094736842
 20
12.8423525535
 10
66.2802391984
 20
12.8420600556
 10
66.2512978354
 20
12.841208438
 10
66.2226495954
 20
12.8397977006
 10
66.1941997394
 20
12.8378193056
 10
66.1660430063
 20
12.8352817908
 10
66.1384636125
 20
12.8322107701
 10
66.1114674056
 20
12.8286008402
 10
66.085048538
 20
12.8244574044
 10
66.0594736842
 20
12.819822287
 10
66.0347513924
 20
12.814690508
 10
66.0108731143
 20
12.8090670475
 10
65.9880798794
 20
12.8030086689
 10
65.966382677
 20
12.7965109675
 10
65.9457705178
 20
12.7895783481
 10
65.9264514627
 20
12.7822807893
 10
65.9084386083
 20
12.7746145948
 10
65.891718858
 20
12.7665834608
 10
65.8764609823
 20
12.7582684542
 10
65.8626797874
 20
12.7496667
 10
65.8503604671
 20
12.7407810733
 10
65.8396273738
 20
12.7317012663
 10
65.830496573
 20
12.7224253124
 10
65.8229519991
 20
12.7129551782
 10
65.8170698077
 20
12.7033864562
 10
65.812875384
 20
12.6937510103
 10
65.8103433429
 20
12.6840169766
 10
65.8094736842
 20
12.674184355
  0
LWPOLYLINE
  5
2F8
100
AcDbEntity
  8
RACCORDO
100
AcDbPolyline
 62
7
  6
CONTINUOUS
 90
28
 70
0
 10
-52.6905263158
 20
11.8333433625
 10
-52.66129183
 20
11.8336358603
 10
-52.632350467
 20
11.8344874779
 10
-52.603702227
 20
11.8358982153
 10
-52.575252371
 20
11.8378766103
 10
-52.5470956378
 20
11.8404141251
 10
-52.5195162441
 20
11.8434851458
 10
-52.4925200372
 20
11.8470950757
 10
-52.4661011696
 20
11.8512385115
 10
-52.4405263158
 20
11.8558736289
 10
-52.415804024
 20
11.8610054079
 10
-52.3919257459
 20
11.8666288685
 10
-52.3691325109
 20
11.872687247
 10
-52.3474353086
 20
11.8791849484
 10
-52.3268231494
 20
11.8861175678
 10
-52.3075040942
 20
11.8934151266
 10
-52.2894912399
 20
11.9010813211
 10
-52.2727714896
 20
11.9091124552
 10
-52.2575136139
 20
11.9174274617
 10
-52.243732419
 20
11.9260292159
 10
-52.2314130987
 20
11.9349148426
 10
-52.2206800054
 20
11.9439946496
 10
-52.2115492046
 20
11.9532706035
 10
-52.2040046307
 20
11.9627407377
 10
-52.1981224393
 20
11.9723094597
 10
-52.1939280156
 20
11.9819449056
 10
-52.1913959744
 20
11.9916789393
 10
-52.1905263158
 20
12.001511561
  0
LWPOLYLINE
  5
2F9
100
AcDbEntity
  8
RACCORDO
100
AcDbPolyline
 62
7
  6
CONTINUOUS
 90
28
 70
0
 10
45.3094736842
 20
12.8423525535
 10
45.2802391984
 20
12.8420600556
 10
45.2512978354
 20
12.841208438
 10
45.2226495954
 20
12.8397977006
 10
45.1941997394
 20
12.8378193056
 10
45.1660430063
 20
12.8352817908
 10
45.1384636125
 20
12.8322107701
 10
45.1114674056
 20
12.8286008402
 10
45.085048538
 20
12.8244574044
 10
45.0594736842
 20
12.819822287
 10
45.0347513924
 20
12.814690508
 10
45.0108731143
 20
12.8090670475
 10
44.9880798794
 20
12.8030086689
 10
44.966382677
 20
12.7965109675
 10
44.9457705178
 20
12.7895783481
 10
44.9264514627
 20
12.7822807893
 10
44.9084386083
 20
12.7746145948
 10
44.891718858
 20
12.7665834608
 10
44.8764609823
 20
12.7582684542
 10
44.8626797874
 20
12.7496667
 10
44.8503604671
 20
12.7407810733
 10
44.8396273738
 20
12.7317012663
 10
44.830496573
 20
12.7224253124
 10
44.8229519991
 20
12.7129551782
 10
44.8170698077
 20
12.7033864562
 10
44.812875384
 20
12.6937510103
 10
44.8103433429
 20
12.6840169766
 10
44.8094736842
 20
12.674184355
  0
LWPOLYLINE
  5
2FA
100
AcDbEntity
  8
RACCORDO
100
AcDbPolyline
 62
7
  6
CONTINUOUS
 90
28
 70
0
 10
-66.6905263158
 20
11.8333433625
 10
-66.66129183
 20
11.8336358603
 10
-66.632350467
 20
11.8344874779
 10
-66.603702227
 20
11.8358982153
 10
-66.575252371
 20
11.8378766103
 10
-66.5470956378
 20
11.8404141251
 10
-66.5195162441
 20
11.8434851458
 10
-66.4925200372
 20
11.8470950757
 10
-66.4661011696
 20
11.8512385115
 10
-66.4405263158
 20
11.8558736289
 10
-66.415804024
 20
11.8610054079
 10
-66.3919257459
 20
11.8666288685
 10
-66.3691325109
 20
11.872687247
 10
-66.3474353086
 20
11.8791849484
 10
-66.3268231494
 20
11.8861175678
 10
-66.3075040942
 20
11.8934151266
 10
-66.2894912399
 20
11.9010813211
 10
-66.2727714896
 20
11.9091124552
 10
-66.2575136139
 20
11.9174274617
 10
-66.243732419
 20
11.9260292159
 10
-66.2314130987
 20
11.9349148426
 10
-66.2206800054
 20
11.9439946496
 10
-66.2115492046
 20
11.9532706035
 10
-66.2040046307
 20
11.9627407377
 10
-66.1981224393
 20
11.9723094597
 10
-66.1939280156
 20
11.9819449056
 10
-66.1913959744
 20
11.9916789393
 10
-66.1905263158
 20
12.001511561
  0
LWPOLYLINE
  5
2FB
100
AcDbEntity
  8
RACCORDO
100
AcDbPolyline
 62
7
  6
CONTINUOUS
 90
28
 70
0
 10
31.3094736842
 20
12.8423525535
 10
31.2802391984
 20
12.8420600556
 10
31.2512978354
 20
12.841208438
 10
31.2226495954
 20
12.8397977006
 10
31.1941997394
 20
12.8378193056
 10
31.1660430063
 20
12.8352817908
 10
31.1384636125
 20
12.8322107701
 10
31.1114674056
 20
12.8286008402
 10
31.085048538
 20
12.8244574044
 10
31.0594736842
 20
12.819822287
 10
31.0347513924
 20
12.814690508
 10
31.0108731143
 20
12.8090670475
 10
30.9880798794
 20
12.8030086689
 10
30.966382677
 20
12.7965109675
 10
30.9457705178
 20
12.7895783481
 10
30.9264514627
 20
12.7822807893
 10
30.9084386083
 20
12.7746145948
 10
30.891718858
 20
12.7665834608
 10
30.8764609823
 20
12.7582684542
 10
30.8626797874
 20
12.7496667
 10
30.8503604671
 20
12.7407810733
 10
30.8396273738
 20
12.7317012663
 10
30.830496573
 20
12.7224253124
 10
30.8229519991
 20
12.7129551782
 10
30.8170698077
 20
12.7033864562
 10
30.812875384
 20
12.6937510103
 10
30.8103433429
 20
12.6840169766
 10
30.8094736842
 20
12.674184355
  0
LWPOLYLINE
  5
2FC
100
AcDbEntity
  8
RACCORDO
100
AcDbPolyline
 62
7
  6
CONTINUOUS
 90
28
 70
0
 10
-87.6905263158
 20
11.8333433625
 10
-87.66129183
 20
11.8336358603
 10
-87.632350467
 20
11.8344874779
 10
-87.603702227
 20
11.8358982153
 10
-87.575252371
 20
11.8378766103
 10
-87.5470956378
 20
11.8404141251
 10
-87.5195162441
 20
11.8434851458
 10
-87.4925200372
 20
11.8470950757
 10
-87.4661011696
 20
11.8512385115
 10
-87.4405263158
 20
11.8558736289
 10
-87.415804024
 20
11.8610054079
 10
-87.3919257459
 20
11.8666288685
 10
-87.3691325109
 20
11.872687247
 10
-87.3474353086
 20
11.8791849484
 10
-87.3268231494
 20
11.8861175678
 10
-87.3075040942
 20
11.8934151266
 10
-87.2894912399
 20
11.9010813211
 10
-87.2727714896
 20
11.9091124552
 10
-87.2575136139
 20
11.9174274617
 10
-87.243732419
 20
11.9260292159
 10
-87.2314130987
 20
11.9349148426
 10
-87.2206800054
 20
11.9439946496
 10
-87.2115492046
 20
11.9532706035
 10
-87.2040046307
 20
11.9627407377
 10
-87.1981224393
 20
11.9723094597
 10
-87.1939280156
 20
11.9819449056
 10
-87.1913959744
 20
11.9916789393
 10
-87.1905263158
 20
12.001511561
  0
LWPOLYLINE
  5
2FD
100
AcDbEntity
  8
RACCORDO
100
AcDbPolyline
 62
7
  6
CONTINUOUS
 90
28
 70
0
 10
10.3094736842
 20
12.8423525535
 10
10.2802391984
 20
12.8420600556
 10
10.2512978354
 20
12.841208438
 10
10.2226495954
 20
12.8397977006
 10
10.1941997394
 20
12.8378193056
 10
10.1660430063
 20
12.8352817908
 10
10.1384636125
 20
12.8322107701
 10
10.1114674056
 20
12.8286008402
 10
10.085048538
 20
12.8244574044
 10
10.0594736842
 20
12.819822287
 10
10.0347513924
 20
12.814690508
 10
10.0108731143
 20
12.8090670475
 10
9.9880798794
 20
12.8030086689
 10
9.966382677
 20
12.7965109675
 10
9.9457705178
 20
12.7895783481
 10
9.9264514627
 20
12.7822807893
 10
9.9084386083
 20
12.7746145948
 10
9.891718858
 20
12.7665834608
 10
9.8764609823
 20
12.7582684542
 10
9.8626797874
 20
12.7496667
 10
9.8503604671
 20
12.7407810733
 10
9.8396273738
 20
12.7317012663
 10
9.830496573
 20
12.7224253124
 10
9.8229519991
 20
12.7129551782
 10
9.8170698077
 20
12.7033864562
 10
9.812875384
 20
12.6937510103
 10
9.8103433429
 20
12.6840169766
 10
9.8094736842
 20
12.674184355
  0
LWPOLYLINE
  5
2FE
100
AcDbEntity
  8
RACCORDO
100
AcDbPolyline
 62
7
  6
CONTINUOUS
 90
28
 70
0
 10
-101.6905263158
 20
11.8333433625
 10
-101.66129183
 20
11.8336358603
 10
-101.632350467
 20
11.8344874779
 10
-101.603702227
 20
11.8358982153
 10
-101.575252371
 20
11.8378766103
 10
-101.5470956378
 20
11.8404141251
 10
-101.5195162441
 20
11.8434851458
 10
-101.4925200372
 20
11.8470950757
 10
-101.4661011696
 20
11.8512385115
 10
-101.4405263158
 20
11.8558736289
 10
-101.415804024
 20
11.8610054079
 10
-101.3919257459
 20
11.8666288685
 10
-101.3691325109
 20
11.872687247
 10
-101.3474353086
 20
11.8791849484
 10
-101.3268231494
 20
11.8861175678
 10
-101.3075040942
 20
11.8934151266
 10
-101.2894912399
 20
11.9010813211
 10
-101.2727714896
 20
11.9091124552
 10
-101.2575136139
 20
11.9174274617
 10
-101.243732419
 20
11.9260292159
 10
-101.2314130987
 20
11.9349148426
 10
-101.2206800054
 20
11.9439946496
 10
-101.2115492046
 20
11.9532706035
 10
-101.2040046307
 20
11.9627407377
 10
-101.1981224393
 20
11.9723094597
 10
-101.1939280156
 20
11.9819449056
 10
-101.1913959744
 20
11.9916789393
 10
-101.1905263158
 20
12.001511561
  0
LWPOLYLINE
  5
2FF
100
AcDbEntity
  8
RACCORDO
100
AcDbPolyline
 62
7
  6
CONTINUOUS
 90
28
 70
0
 10
-3.6905263158
 20
12.8423525535
 10
-3.7197608016
 20
12.8420600556
 10
-3.7487021646
 20
12.841208438
 10
-3.7773504046
 20
12.8397977006
 10
-3.8058002606
 20
12.8378193056
 10
-3.8339569937
 20
12.8352817908
 10
-3.8615363875
 20
12.8322107701
 10
-3.8885325944
 20
12.8286008402
 10
-3.914951462
 20
12.8244574044
 10
-3.9405263158
 20
12.819822287
 10
-3.9652486076
 20
12.814690508
 10
-3.9891268857
 20
12.8090670475
 10
-4.0119201206
 20
12.8030086689
 10
-4.033617323
 20
12.7965109675
 10
-4.0542294822
 20
12.7895783481
 10
-4.0735485373
 20
12.7822807893
 10
-4.0915613917
 20
12.7746145948
 10
-4.108281142
 20
12.7665834608
 10
-4.1235390177
 20
12.7582684542
 10
-4.1373202126
 20
12.7496667
 10
-4.1496395329
 20
12.7407810733
 10
-4.1603726262
 20
12.7317012663
 10
-4.169503427
 20
12.7224253124
 10
-4.1770480009
 20
12.7129551782
 10
-4.1829301923
 20
12.7033864562
 10
-4.187124616
 20
12.6937510103
 10
-4.1896566571
 20
12.6840169766
 10
-4.1905263158
 20
12.674184355
  0
LWPOLYLINE
  5
300
100
AcDbEntity
  8
RACCORDO
100
AcDbPolyline
 62
7
  6
CONTINUOUS
 90
28
 70
0
 10
-122.6905263158
 20
11.8333433625
 10
-122.66129183
 20
11.8336358603
 10
-122.632350467
 20
11.8344874779
 10
-122.603702227
 20
11.8358982153
 10
-122.575252371
 20
11.8378766103
 10
-122.5470956378
 20
11.8404141251
 10
-122.5195162441
 20
11.8434851458
 10
-122.4925200372
 20
11.8470950757
 10
-122.4661011696
 20
11.8512385115
 10
-122.4405263158
 20
11.8558736289
 10
-122.415804024
 20
11.8610054079
 10
-122.3919257459
 20
11.8666288685
 10
-122.3691325109
 20
11.872687247
 10
-122.3474353086
 20
11.8791849484
 10
-122.3268231494
 20
11.8861175678
 10
-122.3075040942
 20
11.8934151266
 10
-122.2894912399
 20
11.9010813211
 10
-122.2727714896
 20
11.9091124552
 10
-122.2575136139
 20
11.9174274617
 10
-122.243732419
 20
11.9260292159
 10
-122.2314130987
 20
11.9349148426
 10
-122.2206800054
 20
11.9439946496
 10
-122.2115492046
 20
11.9532706035
 10
-122.2040046307
 20
11.9627407377
 10
-122.1981224393
 20
11.9723094597
 10
-122.1939280156
 20
11.9819449056
 10
-122.1913959744
 20
11.9916789393
 10
-122.1905263158
 20
12.001511561
  0
LWPOLYLINE
  5
301
100
AcDbEntity
  8
RACCORDO
100
AcDbPolyline
 62
7
  6
CONTINUOUS
 90
28
 70
0
 10
-24.6905263158
 20
12.8423525535
 10
-24.7197608016
 20
12.8420600556
 10
-24.7487021646
 20
12.841208438
 10
-24.7773504046
 20
12.8397977006
 10
-24.8058002606
 20
12.8378193056
 10
-24.8339569937
 20
12.8352817908
 10
-24.8615363875
 20
12.8322107701
 10
-24.8885325944
 20
12.8286008402
 10
-24.914951462
 20
12.8244574044
 10
-24.9405263158
 20
12.819822287
 10
-24.9652486076
 20
12.814690508
 10
-24.9891268857
 20
12.8090670475
 10
-25.0119201206
 20
12.8030086689
 10
-25.033617323
 20
12.7965109675
 10
-25.0542294822
 20
12.7895783481
 10
-25.0735485373
 20
12.7822807893
 10
-25.0915613917
 20
12.7746145948
 10
-25.108281142
 20
12.7665834608
 10
-25.1235390177
 20
12.7582684542
 10
-25.1373202126
 20
12.7496667
 10
-25.1496395329
 20
12.7407810733
 10
-25.1603726262
 20
12.7317012663
 10
-25.169503427
 20
12.7224253124
 10
-25.1770480009
 20
12.7129551782
 10
-25.1829301923
 20
12.7033864562
 10
-25.187124616
 20
12.6937510103
 10
-25.1896566571
 20
12.6840169766
 10
-25.1905263158
 20
12.674184355
  0
LWPOLYLINE
  5
302
100
AcDbEntity
  8
RACCORDO
100
AcDbPolyline
 62
7
  6
CONTINUOUS
 90
28
 70
0
 10
-136.6905263158
 20
11.8333433625
 10
-136.66129183
 20
11.8336358603
 10
-136.632350467
 20
11.8344874779
 10
-136.603702227
 20
11.8358982153
 10
-136.575252371
 20
11.8378766103
 10
-136.5470956378
 20
11.8404141251
 10
-136.5195162441
 20
11.8434851458
 10
-136.4925200372
 20
11.8470950757
 10
-136.4661011696
 20
11.8512385115
 10
-136.4405263158
 20
11.8558736289
 10
-136.415804024
 20
11.8610054079
 10
-136.3919257459
 20
11.8666288685
 10
-136.3691325109
 20
11.872687247
 10
-136.3474353086
 20
11.8791849484
 10
-136.3268231494
 20
11.8861175678
 10
-136.3075040942
 20
11.8934151266
 10
-136.2894912399
 20
11.9010813211
 10
-136.2727714896
 20
11.9091124552
 10
-136.2575136139
 20
11.9174274617
 10
-136.243732419
 20
11.9260292159
 10
-136.2314130987
 20
11.9349148426
 10
-136.2206800054
 20
11.9439946496
 10
-136.2115492046
 20
11.9532706035
 10
-136.2040046307
 20
11.9627407377
 10
-136.1981224393
 20
11.9723094597
 10
-136.1939280156
 20
11.9819449056
 10
-136.1913959744
 20
11.9916789393
 10
-136.1905263158
 20
12.001511561
  0
LWPOLYLINE
  5
303
100
AcDbEntity
  8
RACCORDO
100
AcDbPolyline
 62
7
  6
CONTINUOUS
 90
28
 70
0
 10
-38.6905263158
 20
12.8423525535
 10
-38.7197608016
 20
12.8420600556
 10
-38.7487021646
 20
12.841208438
 10
-38.7773504046
 20
12.8397977006
 10
-38.8058002606
 20
12.8378193056
 10
-38.8339569937
 20
12.8352817908
 10
-38.8615363875
 20
12.8322107701
 10
-38.8885325944
 20
12.8286008402
 10
-38.914951462
 20
12.8244574044
 10
-38.9405263158
 20
12.819822287
 10
-38.9652486076
 20
12.814690508
 10
-38.9891268857
 20
12.8090670475
 10
-39.0119201206
 20
12.8030086689
 10
-39.033617323
 20
12.7965109675
 10
-39.0542294822
 20
12.7895783481
 10
-39.0735485373
 20
12.7822807893
 10
-39.0915613917
 20
12.7746145948
 10
-39.108281142
 20
12.7665834608
 10
-39.1235390177
 20
12.7582684542
 10
-39.1373202126
 20
12.7496667
 10
-39.1496395329
 20
12.7407810733
 10
-39.1603726262
 20
12.7317012663
 10
-39.169503427
 20
12.7224253124
 10
-39.1770480009
 20
12.7129551782
 10
-39.1829301923
 20
12.7033864562
 10
-39.187124616
 20
12.6937510103
 10
-39.1896566571
 20
12.6840169766
 10
-39.1905263158
 20
12.674184355
  0
LWPOLYLINE
  5
304
100
AcDbEntity
  8
RACCORDO
100
AcDbPolyline
 62
7
  6
CONTINUOUS
 90
28
 70
0
 10
-157.6905263158
 20
11.8333433625
 10
-157.66129183
 20
11.8336358603
 10
-157.632350467
 20
11.8344874779
 10
-157.603702227
 20
11.8358982153
 10
-157.575252371
 20
11.8378766103
 10
-157.5470956378
 20
11.8404141251
 10
-157.5195162441
 20
11.8434851458
 10
-157.4925200372
 20
11.8470950757
 10
-157.4661011696
 20
11.8512385115
 10
-157.4405263158
 20
11.8558736289
 10
-157.415804024
 20
11.8610054079
 10
-157.3919257459
 20
11.8666288685
 10
-157.3691325109
 20
11.872687247
 10
-157.3474353086
 20
11.8791849484
 10
-157.3268231494
 20
11.8861175678
 10
-157.3075040942
 20
11.8934151266
 10
-157.2894912399
 20
11.9010813211
 10
-157.2727714896
 20
11.9091124552
 10
-157.2575136139
 20
11.9174274617
 10
-157.243732419
 20
11.9260292159
 10
-157.2314130987
 20
11.9349148426
 10
-157.2206800054
 20
11.9439946496
 10
-157.2115492046
 20
11.9532706035
 10
-157.2040046307
 20
11.9627407377
 10
-157.1981224393
 20
11.9723094597
 10
-157.1939280156
 20
11.9819449056
 10
-157.1913959744
 20
11.9916789393
 10
-157.1905263158
 20
12.001511561
  0
LWPOLYLINE
  5
305
100
AcDbEntity
  8
RACCORDO
100
AcDbPolyline
 62
7
  6
CONTINUOUS
 90
28
 70
0
 10
-59.6905263158
 20
12.8423525535
 10
-59.7197608016
 20
12.8420600556
 10
-59.7487021646
 20
12.841208438
 10
-59.7773504046
 20
12.8397977006
 10
-59.8058002606
 20
12.8378193056
 10
-59.8339569937
 20
12.8352817908
 10
-59.8615363875
 20
12.8322107701
 10
-59.8885325944
 20
12.8286008402
 10
-59.914951462
 20
12.8244574044
 10
-59.9405263158
 20
12.819822287
 10
-59.9652486076
 20
12.814690508
 10
-59.9891268857
 20
12.8090670475
 10
-60.0119201206
 20
12.8030086689
 10
-60.033617323
 20
12.7965109675
 10
-60.0542294822
 20
12.7895783481
 10
-60.0735485373
 20
12.7822807893
 10
-60.0915613917
 20
12.7746145948
 10
-60.108281142
 20
12.7665834608
 10
-60.1235390177
 20
12.7582684542
 10
-60.1373202126
 20
12.7496667
 10
-60.1496395329
 20
12.7407810733
 10
-60.1603726262
 20
12.7317012663
 10
-60.169503427
 20
12.7224253124
 10
-60.1770480009
 20
12.7129551782
 10
-60.1829301923
 20
12.7033864562
 10
-60.187124616
 20
12.6937510103
 10
-60.1896566571
 20
12.6840169766
 10
-60.1905263158
 20
12.674184355
  0
LWPOLYLINE
  5
306
100
AcDbEntity
  8
RACCORDO
100
AcDbPolyline
 62
7
  6
CONTINUOUS
 90
28
 70
0
 10
-171.6905263158
 20
11.8333433625
 10
-171.66129183
 20
11.8336358603
 10
-171.632350467
 20
11.8344874779
 10
-171.603702227
 20
11.8358982153
 10
-171.575252371
 20
11.8378766103
 10
-171.5470956378
 20
11.8404141251
 10
-171.5195162441
 20
11.8434851458
 10
-171.4925200372
 20
11.8470950757
 10
-171.4661011696
 20
11.8512385115
 10
-171.4405263158
 20
11.8558736289
 10
-171.415804024
 20
11.8610054079
 10
-171.3919257459
 20
11.8666288685
 10
-171.3691325109
 20
11.872687247
 10
-171.3474353086
 20
11.8791849484
 10
-171.3268231494
 20
11.8861175678
 10
-171.3075040942
 20
11.8934151266
 10
-171.2894912399
 20
11.9010813211
 10
-171.2727714896
 20
11.9091124552
 10
-171.2575136139
 20
11.9174274617
 10
-171.243732419
 20
11.9260292159
 10
-171.2314130987
 20
11.9349148426
 10
-171.2206800054
 20
11.9439946496
 10
-171.2115492046
 20
11.9532706035
 10
-171.2040046307
 20
11.9627407377
 10
-171.1981224393
 20
11.9723094597
 10
-171.1939280156
 20
11.9819449056
 10
-171.1913959744
 20
11.9916789393
 10
-171.1905263158
 20
12.001511561
  0
LWPOLYLINE
  5
307
100
AcDbEntity
  8
RACCORDO
100
AcDbPolyline
 62
7
  6
CONTINUOUS
 90
28
 70
0
 10
-73.6905263158
 20
12.8423525535
 10
-73.7197608016
 20
12.8420600556
 10
-73.7487021646
 20
12.841208438
 10
-73.7773504046
 20
12.8397977006
 10
-73.8058002606
 20
12.8378193056
 10
-73.8339569937
 20
12.8352817908
 10
-73.8615363875
 20
12.8322107701
 10
-73.8885325944
 20
12.8286008402
 10
-73.914951462
 20
12.8244574044
 10
-73.9405263158
 20
12.819822287
 10
-73.9652486076
 20
12.814690508
 10
-73.9891268857
 20
12.8090670475
 10
-74.0119201206
 20
12.8030086689
 10
-74.033617323
 20
12.7965109675
 10
-74.0542294822
 20
12.7895783481
 10
-74.0735485373
 20
12.7822807893
 10
-74.0915613917
 20
12.7746145948
 10
-74.108281142
 20
12.7665834608
 10
-74.1235390177
 20
12.7582684542
 10
-74.1373202126
 20
12.7496667
 10
-74.1496395329
 20
12.7407810733
 10
-74.1603726262
 20
12.7317012663
 10
-74.169503427
 20
12.7224253124
 10
-74.1770480009
 20
12.7129551782
 10
-74.1829301923
 20
12.7033864562
 10
-74.187124616
 20
12.6937510103
 10
-74.1896566571
 20
12.6840169766
 10
-74.1905263158
 20
12.674184355
  0
LWPOLYLINE
  5
308
100
AcDbEntity
  8
RACCORDO
100
AcDbPolyline
 62
7
  6
CONTINUOUS
 90
28
 70
0
 10
-192.6905263158
 20
11.8333433625
 10
-192.66129183
 20
11.8336358603
 10
-192.632350467
 20
11.8344874779
 10
-192.603702227
 20
11.8358982153
 10
-192.575252371
 20
11.8378766103
 10
-192.5470956378
 20
11.8404141251
 10
-192.5195162441
 20
11.8434851458
 10
-192.4925200372
 20
11.8470950757
 10
-192.4661011696
 20
11.8512385115
 10
-192.4405263158
 20
11.8558736289
 10
-192.415804024
 20
11.8610054079
 10
-192.3919257459
 20
11.8666288685
 10
-192.3691325109
 20
11.872687247
 10
-192.3474353086
 20
11.8791849484
 10
-192.3268231494
 20
11.8861175678
 10
-192.3075040942
 20
11.8934151266
 10
-192.2894912399
 20
11.9010813211
 10
-192.2727714896
 20
11.9091124552
 10
-192.2575136139
 20
11.9174274617
 10
-192.243732419
 20
11.9260292159
 10
-192.2314130987
 20
11.9349148426
 10
-192.2206800054
 20
11.9439946496
 10
-192.2115492046
 20
11.9532706035
 10
-192.2040046307
 20
11.9627407377
 10
-192.1981224393
 20
11.9723094597
 10
-192.1939280156
 20
11.9819449056
 10
-192.1913959744
 20
11.9916789393
 10
-192.1905263158
 20
12.001511561
  0
LWPOLYLINE
  5
309
100
AcDbEntity
  8
RACCORDO
100
AcDbPolyline
 62
7
  6
CONTINUOUS
 90
28
 70
0
 10
-94.6905263158
 20
12.8423525535
 10
-94.7197608016
 20
12.8420600556
 10
-94.7487021646
 20
12.841208438
 10
-94.7773504046
 20
12.8397977006
 10
-94.8058002606
 20
12.8378193056
 10
-94.8339569937
 20
12.8352817908
 10
-94.8615363875
 20
12.8322107701
 10
-94.8885325944
 20
12.8286008402
 10
-94.914951462
 20
12.8244574044
 10
-94.9405263158
 20
12.819822287
 10
-94.9652486076
 20
12.814690508
 10
-94.9891268857
 20
12.8090670475
 10
-95.0119201206
 20
12.8030086689
 10
-95.033617323
 20
12.7965109675
 10
-95.0542294822
 20
12.7895783481
 10
-95.0735485373
 20
12.7822807893
 10
-95.0915613917
 20
12.7746145948
 10
-95.108281142
 20
12.7665834608
 10
-95.1235390177
 20
12.7582684542
 10
-95.1373202126
 20
12.7496667
 10
-95.1496395329
 20
12.7407810733
 10
-95.1603726262
 20
12.7317012663
 10
-95.169503427
 20
12.7224253124
 10
-95.1770480009
 20
12.7129551782
 10
-95.1829301923
 20
12.7033864562
 10
-95.187124616
 20
12.6937510103
 10
-95.1896566571
 20
12.6840169766
 10
-95.1905263158
 20
12.674184355
  0
LWPOLYLINE
  5
30A
100
AcDbEntity
  8
RACCORDO
100
AcDbPolyline
 62
7
  6
CONTINUOUS
 90
28
 70
0
 10
-206.6905263158
 20
11.8333433625
 10
-206.66129183
 20
11.8336358603
 10
-206.632350467
 20
11.8344874779
 10
-206.603702227
 20
11.8358982153
 10
-206.575252371
 20
11.8378766103
 10
-206.5470956378
 20
11.8404141251
 10
-206.5195162441
 20
11.8434851458
 10
-206.4925200372
 20
11.8470950757
 10
-206.4661011696
 20
11.8512385115
 10
-206.4405263158
 20
11.8558736289
 10
-206.415804024
 20
11.8610054079
 10
-206.3919257459
 20
11.8666288685
 10
-206.3691325109
 20
11.872687247
 10
-206.3474353086
 20
11.8791849484
 10
-206.3268231494
 20
11.8861175678
 10
-206.3075040942
 20
11.8934151266
 10
-206.2894912399
 20
11.9010813211
 10
-206.2727714896
 20
11.9091124552
 10
-206.2575136139
 20
11.9174274617
 10
-206.243732419
 20
11.9260292159
 10
-206.2314130987
 20
11.9349148426
 10
-206.2206800054
 20
11.9439946496
 10
-206.2115492046
 20
11.9532706035
 10
-206.2040046307
 20
11.9627407377
 10
-206.1981224393
 20
11.9723094597
 10
-206.1939280156
 20
11.9819449056
 10
-206.1913959744
 20
11.9916789393
 10
-206.1905263158
 20
12.001511561
  0
LWPOLYLINE
  5
30B
100
AcDbEntity
  8
RACCORDO
100
AcDbPolyline
 62
7
  6
CONTINUOUS
 90
28
 70
0
 10
-108.6905263158
 20
12.8423525535
 10
-108.7197608016
 20
12.8420600556
 10
-108.7487021646
 20
12.841208438
 10
-108.7773504046
 20
12.8397977006
 10
-108.8058002606
 20
12.8378193056
 10
-108.8339569937
 20
12.8352817908
 10
-108.8615363875
 20
12.8322107701
 10
-108.8885325944
 20
12.8286008402
 10
-108.914951462
 20
12.8244574044
 10
-108.9405263158
 20
12.819822287
 10
-108.9652486076
 20
12.814690508
 10
-108.9891268857
 20
12.8090670475
 10
-109.0119201206
 20
12.8030086689
 10
-109.033617323
 20
12.7965109675
 10
-109.0542294822
 20
12.7895783481
 10
-109.0735485373
 20
12.7822807893
 10
-109.0915613917
 20
12.7746145948
 10
-109.108281142
 20
12.7665834608
 10
-109.1235390177
 20
12.7582684542
 10
-109.1373202126
 20
12.7496667
 10
-109.1496395329
 20
12.7407810733
 10
-109.1603726262
 20
12.7317012663
 10
-109.169503427
 20
12.7224253124
 10
-109.1770480009
 20
12.7129551782
 10
-109.1829301923
 20
12.7033864562
 10
-109.187124616
 20
12.6937510103
 10
-109.1896566571
 20
12.6840169766
 10
-109.1905263158
 20
12.674184355
  0
LWPOLYLINE
  5
30C
100
AcDbEntity
  8
RACCORDO
100
AcDbPolyline
 62
7
  6
CONTINUOUS
 90
28
 70
0
 10
-129.6905263158
 20
12.8423525535
 10
-129.7197608016
 20
12.8420600556
 10
-129.7487021646
 20
12.841208438
 10
-129.7773504046
 20
12.8397977006
 10
-129.8058002606
 20
12.8378193056
 10
-129.8339569937
 20
12.8352817908
 10
-129.8615363875
 20
12.8322107701
 10
-129.8885325944
 20
12.8286008402
 10
-129.914951462
 20
12.8244574044
 10
-129.9405263158
 20
12.819822287
 10
-129.9652486076
 20
12.814690508
 10
-129.9891268857
 20
12.8090670475
 10
-130.0119201206
 20
12.8030086689
 10
-130.033617323
 20
12.7965109675
 10
-130.0542294822
 20
12.7895783481
 10
-130.0735485373
 20
12.7822807893
 10
-130.0915613917
 20
12.7746145948
 10
-130.108281142
 20
12.7665834608
 10
-130.1235390177
 20
12.7582684542
 10
-130.1373202126
 20
12.7496667
 10
-130.1496395329
 20
12.7407810733
 10
-130.1603726262
 20
12.7317012663
 10
-130.169503427
 20
12.7224253124
 10
-130.1770480009
 20
12.7129551782
 10
-130.1829301923
 20
12.7033864562
 10
-130.187124616
 20
12.6937510103
 10
-130.1896566571
 20
12.6840169766
 10
-130.1905263158
 20
12.674184355
  0
LWPOLYLINE
  5
30D
100
AcDbEntity
  8
RACCORDO
100
AcDbPolyline
 62
7
  6
CONTINUOUS
 90
28
 70
0
 10
-143.6905263158
 20
12.8423525535
 10
-143.7197608016
 20
12.8420600556
 10
-143.7487021646
 20
12.841208438
 10
-143.7773504046
 20
12.8397977006
 10
-143.8058002606
 20
12.8378193056
 10
-143.8339569937
 20
12.8352817908
 10
-143.8615363875
 20
12.8322107701
 10
-143.8885325944
 20
12.8286008402
 10
-143.914951462
 20
12.8244574044
 10
-143.9405263158
 20
12.819822287
 10
-143.9652486076
 20
12.814690508
 10
-143.9891268857
 20
12.8090670475
 10
-144.0119201206
 20
12.8030086689
 10
-144.033617323
 20
12.7965109675
 10
-144.0542294822
 20
12.7895783481
 10
-144.0735485373
 20
12.7822807893
 10
-144.0915613917
 20
12.7746145948
 10
-144.108281142
 20
12.7665834608
 10
-144.1235390177
 20
12.7582684542
 10
-144.1373202126
 20
12.7496667
 10
-144.1496395329
 20
12.7407810733
 10
-144.1603726262
 20
12.7317012663
 10
-144.169503427
 20
12.7224253124
 10
-144.1770480009
 20
12.7129551782
 10
-144.1829301923
 20
12.7033864562
 10
-144.187124616
 20
12.6937510103
 10
-144.1896566571
 20
12.6840169766
 10
-144.1905263158
 20
12.674184355
  0
LWPOLYLINE
  5
30E
100
AcDbEntity
  8
RACCORDO
100
AcDbPolyline
 62
7
  6
CONTINUOUS
 90
28
 70
0
 10
-164.6905263158
 20
12.8423525535
 10
-164.7197608016
 20
12.8420600556
 10
-164.7487021646
 20
12.841208438
 10
-164.7773504046
 20
12.8397977006
 10
-164.8058002606
 20
12.8378193056
 10
-164.8339569937
 20
12.8352817908
 10
-164.8615363875
 20
12.8322107701
 10
-164.8885325944
 20
12.8286008402
 10
-164.914951462
 20
12.8244574044
 10
-164.9405263158
 20
12.819822287
 10
-164.9652486076
 20
12.814690508
 10
-164.9891268857
 20
12.8090670475
 10
-165.0119201206
 20
12.8030086689
 10
-165.033617323
 20
12.7965109675
 10
-165.0542294822
 20
12.7895783481
 10
-165.0735485373
 20
12.7822807893
 10
-165.0915613917
 20
12.7746145948
 10
-165.108281142
 20
12.7665834608
 10
-165.1235390177
 20
12.7582684542
 10
-165.1373202126
 20
12.7496667
 10
-165.1496395329
 20
12.7407810733
 10
-165.1603726262
 20
12.7317012663
 10
-165.169503427
 20
12.7224253124
 10
-165.1770480009
 20
12.7129551782
 10
-165.1829301923
 20
12.7033864562
 10
-165.187124616
 20
12.6937510103
 10
-165.1896566571
 20
12.6840169766
 10
-165.1905263158
 20
12.674184355
  0
LWPOLYLINE
  5
30F
100
AcDbEntity
  8
RACCORDO
100
AcDbPolyline
 62
7
  6
CONTINUOUS
 90
28
 70
0
 10
-178.6905263158
 20
12.8423525535
 10
-178.7197608016
 20
12.8420600556
 10
-178.7487021646
 20
12.841208438
 10
-178.7773504046
 20
12.8397977006
 10
-178.8058002606
 20
12.8378193056
 10
-178.8339569937
 20
12.8352817908
 10
-178.8615363875
 20
12.8322107701
 10
-178.8885325944
 20
12.8286008402
 10
-178.914951462
 20
12.8244574044
 10
-178.9405263158
 20
12.819822287
 10
-178.9652486076
 20
12.814690508
 10
-178.9891268857
 20
12.8090670475
 10
-179.0119201206
 20
12.8030086689
 10
-179.033617323
 20
12.7965109675
 10
-179.0542294822
 20
12.7895783481
 10
-179.0735485373
 20
12.7822807893
 10
-179.0915613917
 20
12.7746145948
 10
-179.108281142
 20
12.7665834608
 10
-179.1235390177
 20
12.7582684542
 10
-179.1373202126
 20
12.7496667
 10
-179.1496395329
 20
12.7407810733
 10
-179.1603726262
 20
12.7317012663
 10
-179.169503427
 20
12.7224253124
 10
-179.1770480009
 20
12.7129551782
 10
-179.1829301923
 20
12.7033864562
 10
-179.187124616
 20
12.6937510103
 10
-179.1896566571
 20
12.6840169766
 10
-179.1905263158
 20
12.674184355
  0
LWPOLYLINE
  5
310
100
AcDbEntity
  8
RACCORDO
100
AcDbPolyline
 62
7
  6
CONTINUOUS
 90
28
 70
0
 10
-199.6905263158
 20
12.8423525535
 10
-199.7197608016
 20
12.8420600556
 10
-199.7487021646
 20
12.841208438
 10
-199.7773504046
 20
12.8397977006
 10
-199.8058002606
 20
12.8378193056
 10
-199.8339569937
 20
12.8352817908
 10
-199.8615363875
 20
12.8322107701
 10
-199.8885325944
 20
12.8286008402
 10
-199.914951462
 20
12.8244574044
 10
-199.9405263158
 20
12.819822287
 10
-199.9652486076
 20
12.814690508
 10
-199.9891268857
 20
12.8090670475
 10
-200.0119201206
 20
12.8030086689
 10
-200.033617323
 20
12.7965109675
 10
-200.0542294822
 20
12.7895783481
 10
-200.0735485373
 20
12.7822807893
 10
-200.0915613917
 20
12.7746145948
 10
-200.108281142
 20
12.7665834608
 10
-200.1235390177
 20
12.7582684542
 10
-200.1373202126
 20
12.7496667
 10
-200.1496395329
 20
12.7407810733
 10
-200.1603726262
 20
12.7317012663
 10
-200.169503427
 20
12.7224253124
 10
-200.1770480009
 20
12.7129551782
 10
-200.1829301923
 20
12.7033864562
 10
-200.187124616
 20
12.6937510103
 10
-200.1896566571
 20
12.6840169766
 10
-200.1905263158
 20
12.674184355
  0
LWPOLYLINE
  5
311
100
AcDbEntity
  8
RACCORDO
100
AcDbPolyline
 62
7
  6
CONTINUOUS
 90
28
 70
0
 10
-213.6905263158
 20
12.8423525535
 10
-213.7197608016
 20
12.8420600556
 10
-213.7487021646
 20
12.841208438
 10
-213.7773504046
 20
12.8397977006
 10
-213.8058002606
 20
12.8378193056
 10
-213.8339569937
 20
12.8352817908
 10
-213.8615363875
 20
12.8322107701
 10
-213.8885325944
 20
12.8286008402
 10
-213.914951462
 20
12.8244574044
 10
-213.9405263158
 20
12.819822287
 10
-213.9652486076
 20
12.814690508
 10
-213.9891268857
 20
12.8090670475
 10
-214.0119201206
 20
12.8030086689
 10
-214.033617323
 20
12.7965109675
 10
-214.0542294822
 20
12.7895783481
 10
-214.0735485373
 20
12.7822807893
 10
-214.0915613917
 20
12.7746145948
 10
-214.108281142
 20
12.7665834608
 10
-214.1235390177
 20
12.7582684542
 10
-214.1373202126
 20
12.7496667
 10
-214.1496395329
 20
12.7407810733
 10
-214.1603726262
 20
12.7317012663
 10
-214.169503427
 20
12.7224253124
 10
-214.1770480009
 20
12.7129551782
 10
-214.1829301923
 20
12.7033864562
 10
-214.187124616
 20
12.6937510103
 10
-214.1896566571
 20
12.6840169766
 10
-214.1905263158
 20
12.674184355
  0
LWPOLYLINE
  5
312
100
AcDbEntity
  8
RACCORDO
100
AcDbPolyline
 62
7
  6
CONTINUOUS
 90
37
 70
0
 10
-225.1905263158
 20
10.8243341715
 10
-225.2780400749
 20
10.8236838075
 10
-225.3650575364
 20
10.8217655379
 10
-225.4515787002
 20
10.8185793625
 10
-225.5377661684
 20
10.814114403
 10
-225.6234573389
 20
10.8083815378
 10
-225.708164406
 20
10.8014134018
 10
-225.7918817568
 20
10.7932029497
 10
-225.8746150042
 20
10.7837572269
 10
-225.9558931805
 20
10.7731300039
 10
-226.0357079869
 20
10.7613145423
 10
-226.1140677223
 20
10.7483175807
 10
-226.1905263158
 20
10.7342131055
 10
-226.2650729243
 20
10.7189948002
 10
-226.3377183909
 20
10.7026689814
 10
-226.4080491738
 20
10.6853285855
 10
-226.4760520713
 20
10.6669678259
 10
-226.5417402851
 20
10.6475924893
 10
-226.6047398782
 20
10.6273128716
 10
-226.6650355162
 20
10.6061238155
 10
-226.7226425336
 20
10.5840304783
 10
-226.7772329964
 20
10.5611586288
 10
-226.8287896999
 20
10.5375038267
 10
-226.8773298488
 20
10.5130705122
 10
-226.9225771234
 20
10.4879977745
 10
-226.9645127428
 20
10.4622819666
 10
-227.0031554879
 20
10.4359267355
 10
-227.0382853808
 20
10.4090821111
 10
-227.0698823862
 20
10.3817453021
 10
-227.0979665394
 20
10.3539190998
 10
-227.1223779684
 20
10.3257619077
 10
-227.1430957261
 20
10.2972718379
 10
-227.1601407597
 20
10.2684507784
 10
-227.1734160385
 20
10.2394627959
 10
-227.1828892191
 20
10.2103625794
 10
-227.1885926448
 20
10.1810954399
 10
-227.1905263158
 20
10.1516613775
  0
LWPOLYLINE
  5
313
100
AcDbEntity
  8
ASSI
100
AcDbPolyline
 62
7
  6
CONTINUOUS
 90
45
 70
0
 10
206.8094736842
 20
13.3468571489
 10
206.6466613583
 20
13.3458597821
 10
206.4844828306
 20
13.3429023545
 10
206.3229381013
 20
13.3379848663
 10
206.1618183811
 20
13.3310958049
 10
206.0013324592
 20
13.3222466828
 10
205.8421067033
 20
13.3114720377
 10
205.684146038
 20
13.2987643446
 10
205.5274455387
 20
13.2841311284
 10
205.3726167986
 20
13.2676295019
 10
205.2196671327
 20
13.2492521631
 10
205.068589226
 20
13.2290064139
 10
204.9199727272
 20
13.2069712724
 10
204.7738272556
 20
13.1831397455
 10
204.6301431918
 20
13.1575188263
 10
204.4894813269
 20
13.1302085116
 10
204.3518534716
 20
13.1012021995
 10
204.2172478151
 20
13.070506492
 10
204.0861897158
 20
13.0382411927
 10
203.9586930377
 20
13.0044001678
 10
203.8347439167
 20
12.9689895511
 10
203.7148261194
 20
12.9321475484
 10
203.5989554003
 20
12.8938685658
 10
203.4871160049
 20
12.8541581971
 10
203.3797444361
 20
12.8131714297
 10
203.2768581544
 20
12.7709032754
 10
203.1784396993
 20
12.7273587224
 10
203.0848731925
 20
12.6827077227
 10
202.9961775957
 20
12.6369459522
 10
202.9123339472
 20
12.590077735
 10
202.8336694842
 20
12.5422859952
 10
202.7602044471
 20
12.4935671235
 10
202.6919185954
 20
12.4439247291
 10
202.629078445
 20
12.3935525635
 10
202.571705278
 20
12.3424477747
 10
202.5197778123
 20
12.2906132148
 10
202.4734987179
 20
12.2382511911
 10
202.4328900688
 20
12.1853596423
 10
202.3979297911
 20
12.1319406296
 10
202.3687543328
 20
12.0782026446
 10
202.345386301
 20
12.0241444408
 10
202.3278030886
 20
11.9697672645
 10
202.3160733219
 20
11.915283347
 10
202.3102198762
 20
11.8606922711
 10
202.3094881955
 20
11.8333433625
  0
LINE
  5
314
100
AcDbEntity
  8
0
100
AcDbLine
 62
7
  6
CONTINUOUS
 10
-227.1905263158
 20
8.8063157895
 11
202.3094736842
 21
8.8063157895
  0
LINE
  5
315
100
AcDbEntity
  8
0
100
AcDbLine
 62
7
  6
CONTINUOUS
 10
211.3094736842
 20
8.8063157895
 11
212.8094736842
 21
8.8063157895
  0
LINE
  5
316
100
AcDbEntity
  8
RACCORDO
100
AcDbLine
 62
7
  6
CONTINUOUS
 10
-225.1905263158
 20
10.8243341715
 11
-212.1905263158
 21
10.8243341715
  0
LINE
  5
317
100
AcDbEntity
  8
0
100
AcDbLine
 62
7
  6
CONTINUOUS
 10
-208.1905263158
 20
10.8243341715
 11
-198.1905263158
 21
10.8243341715
  0
LINE
  5
318
100
AcDbEntity
  8
0
100
AcDbLine
 62
7
  6
CONTINUOUS
 10
-194.1905263158
 20
10.8243341715
 11
-177.1905263158
 21
10.8243341715
  0
LINE
  5
319
100
AcDbEntity
  8
0
100
AcDbLine
 62
7
  6
CONTINUOUS
 10
-173.1905263158
 20
10.8243341715
 11
-163.1905263158
 21
10.8243341715
  0
LINE
  5
31A
100
AcDbEntity
  8
0
100
AcDbLine
 62
7
  6
CONTINUOUS
 10
-159.1905263158
 20
10.8243341715
 11
-142.1905263158
 21
10.8243341715
  0
LINE
  5
31B
100
AcDbEntity
  8
0
100
AcDbLine
 62
7
  6
CONTINUOUS
 10
-138.1905263158
 20
10.8243341715
 11
-128.1905263158
 21
10.8243341715
  0
LINE
  5
31C
100
AcDbEntity
  8
0
100
AcDbLine
 62
7
  6
CONTINUOUS
 10
-124.1905263158
 20
10.8243341715
 11
-107.1905263158
 21
10.8243341715
  0
LINE
  5
31D
100
AcDbEntity
  8
0
100
AcDbLine
 62
7
  6
CONTINUOUS
 10
-103.1905263158
 20
10.8243341715
 11
-93.1905263158
 21
10.8243341715
  0
LINE
  5
31E
100
AcDbEntity
  8
0
100
AcDbLine
 62
7
  6
CONTINUOUS
 10
-89.1905263158
 20
10.8243341715
 11
-72.1905263158
 21
10.8243341715
  0
LINE
  5
31F
100
AcDbEntity
  8
0
100
AcDbLine
 62
7
  6
CONTINUOUS
 10
-68.1905263158
 20
10.8243341715
 11
-58.1905263158
 21
10.8243341715
  0
LINE
  5
320
100
AcDbEntity
  8
0
100
AcDbLine
 62
7
  6
CONTINUOUS
 10
-54.1905263158
 20
10.8243341715
 11
-37.1905263158
 21
10.8243341715
  0
LINE
  5
321
100
AcDbEntity
  8
0
100
AcDbLine
 62
7
  6
CONTINUOUS
 10
-33.1905263158
 20
10.8243341715
 11
-23.1905263158
 21
10.8243341715
  0
LINE
  5
322
100
AcDbEntity
  8
0
100
AcDbLine
 62
7
  6
CONTINUOUS
 10
-19.1905263158
 20
10.8243341715
 11
-2.1905263158
 21
10.8243341715
  0
LINE
  5
323
100
AcDbEntity
  8
0
100
AcDbLine
 62
7
  6
CONTINUOUS
 10
1.8094736842
 20
10.8243341715
 11
11.8094736842
 21
10.8243341715
  0
LINE
  5
324
100
AcDbEntity
  8
0
100
AcDbLine
 62
7
  6
CONTINUOUS
 10
15.8094736842
 20
10.8243341715
 11
32.8094736842
 21
10.8243341715
  0
LINE
  5
325
100
AcDbEntity
  8
0
100
AcDbLine
 62
7
  6
CONTINUOUS
 10
36.8094736842
 20
10.8243341715
 11
46.8094736842
 21
10.8243341715
  0
LINE
  5
326
100
AcDbEntity
  8
0
100
AcDbLine
 62
7
  6
CONTINUOUS
 10
50.8094736842
 20
10.8243341715
 11
67.8094736842
 21
10.8243341715
  0
LINE
  5
327
100
AcDbEntity
  8
0
100
AcDbLine
 62
7
  6
CONTINUOUS
 10
71.8094736842
 20
10.8243341715
 11
81.8094736842
 21
10.8243341715
  0
LINE
  5
328
100
AcDbEntity
  8
0
100
AcDbLine
 62
7
  6
CONTINUOUS
 10
85.8094736842
 20
10.8243341715
 11
102.8094736842
 21
10.8243341715
  0
LINE
  5
329
100
AcDbEntity
  8
0
100
AcDbLine
 62
7
  6
CONTINUOUS
 10
106.8094736842
 20
10.8243341715
 11
116.8094736842
 21
10.8243341715
  0
LINE
  5
32A
100
AcDbEntity
  8
0
100
AcDbLine
 62
7
  6
CONTINUOUS
 10
120.8094736842
 20
10.8243341715
 11
137.8094736842
 21
10.8243341715
  0
LINE
  5
32B
100
AcDbEntity
  8
0
100
AcDbLine
 62
7
  6
CONTINUOUS
 10
141.8094736842
 20
10.8243341715
 11
151.8094736842
 21
10.8243341715
  0
LINE
  5
32C
100
AcDbEntity
  8
0
100
AcDbLine
 62
7
  6
CONTINUOUS
 10
155.8094736842
 20
10.8243341715
 11
172.8094736842
 21
10.8243341715
  0
LINE
  5
32D
100
AcDbEntity
  8
0
100
AcDbLine
 62
7
  6
CONTINUOUS
 10
176.8094736842
 20
10.8243341715
 11
186.8094736842
 21
10.8243341715
  0
LINE
  5
32E
100
AcDbEntity
  8
0
100
AcDbLine
 62
7
  6
CONTINUOUS
 10
190.8094736842
 20
10.8243341715
 11
200.8094736842
 21
10.8243341715
  0
LINE
  5
32F
100
AcDbEntity
  8
RACCORDO
100
AcDbLine
 62
7
  6
CONTINUOUS
 10
-213.6905263158
 20
11.8333433625
 11
-212.1905263158
 21
11.8333433625
  0
LINE
  5
330
100
AcDbEntity
  8
RACCORDO
100
AcDbLine
 62
7
  6
CONTINUOUS
 10
-208.1905263158
 20
11.8333433625
 11
-206.6905263158
 21
11.8333433625
  0
LINE
  5
331
100
AcDbEntity
  8
RACCORDO
100
AcDbLine
 62
7
  6
CONTINUOUS
 10
-199.6905263158
 20
11.8333433625
 11
-198.1905263158
 21
11.8333433625
  0
LINE
  5
332
100
AcDbEntity
  8
RACCORDO
100
AcDbLine
 62
7
  6
CONTINUOUS
 10
-194.1905263158
 20
11.8333433625
 11
-192.6905263158
 21
11.8333433625
  0
LINE
  5
333
100
AcDbEntity
  8
RACCORDO
100
AcDbLine
 62
7
  6
CONTINUOUS
 10
-178.6905263158
 20
11.8333433625
 11
-177.1905263158
 21
11.8333433625
  0
LINE
  5
334
100
AcDbEntity
  8
RACCORDO
100
AcDbLine
 62
7
  6
CONTINUOUS
 10
-173.1905263158
 20
11.8333433625
 11
-171.6905263158
 21
11.8333433625
  0
LINE
  5
335
100
AcDbEntity
  8
RACCORDO
100
AcDbLine
 62
7
  6
CONTINUOUS
 10
-164.6905263158
 20
11.8333433625
 11
-163.1905263158
 21
11.8333433625
  0
LINE
  5
336
100
AcDbEntity
  8
RACCORDO
100
AcDbLine
 62
7
  6
CONTINUOUS
 10
-159.1905263158
 20
11.8333433625
 11
-157.6905263158
 21
11.8333433625
  0
LINE
  5
337
100
AcDbEntity
  8
RACCORDO
100
AcDbLine
 62
7
  6
CONTINUOUS
 10
-143.6905263158
 20
11.8333433625
 11
-142.1905263158
 21
11.8333433625
  0
LINE
  5
338
100
AcDbEntity
  8
RACCORDO
100
AcDbLine
 62
7
  6
CONTINUOUS
 10
-138.1905263158
 20
11.8333433625
 11
-136.6905263158
 21
11.8333433625
  0
LINE
  5
339
100
AcDbEntity
  8
RACCORDO
100
AcDbLine
 62
7
  6
CONTINUOUS
 10
-129.6905263158
 20
11.8333433625
 11
-128.1905263158
 21
11.8333433625
  0
LINE
  5
33A
100
AcDbEntity
  8
RACCORDO
100
AcDbLine
 62
7
  6
CONTINUOUS
 10
-124.1905263158
 20
11.8333433625
 11
-122.6905263158
 21
11.8333433625
  0
LINE
  5
33B
100
AcDbEntity
  8
RACCORDO
100
AcDbLine
 62
7
  6
CONTINUOUS
 10
-108.6905263158
 20
11.8333433625
 11
-107.1905263158
 21
11.8333433625
  0
LINE
  5
33C
100
AcDbEntity
  8
RACCORDO
100
AcDbLine
 62
7
  6
CONTINUOUS
 10
-103.1905263158
 20
11.8333433625
 11
-101.6905263158
 21
11.8333433625
  0
LINE
  5
33D
100
AcDbEntity
  8
RACCORDO
100
AcDbLine
 62
7
  6
CONTINUOUS
 10
-94.6905263158
 20
11.8333433625
 11
-93.1905263158
 21
11.8333433625
  0
LINE
  5
33E
100
AcDbEntity
  8
RACCORDO
100
AcDbLine
 62
7
  6
CONTINUOUS
 10
-89.1905263158
 20
11.8333433625
 11
-87.6905263158
 21
11.8333433625
  0
LINE
  5
33F
100
AcDbEntity
  8
RACCORDO
100
AcDbLine
 62
7
  6
CONTINUOUS
 10
-73.6905263158
 20
11.8333433625
 11
-72.1905263158
 21
11.8333433625
  0
LINE
  5
340
100
AcDbEntity
  8
RACCORDO
100
AcDbLine
 62
7
  6
CONTINUOUS
 10
-68.1905263158
 20
11.8333433625
 11
-66.6905263158
 21
11.8333433625
  0
LINE
  5
341
100
AcDbEntity
  8
RACCORDO
100
AcDbLine
 62
7
  6
CONTINUOUS
 10
-59.6905263158
 20
11.8333433625
 11
-58.1905263158
 21
11.8333433625
  0
LINE
  5
342
100
AcDbEntity
  8
RACCORDO
100
AcDbLine
 62
7
  6
CONTINUOUS
 10
-54.1905263158
 20
11.8333433625
 11
-52.6905263158
 21
11.8333433625
  0
LINE
  5
343
100
AcDbEntity
  8
RACCORDO
100
AcDbLine
 62
7
  6
CONTINUOUS
 10
-38.6905263158
 20
11.8333433625
 11
-37.1905263158
 21
11.8333433625
  0
LINE
  5
344
100
AcDbEntity
  8
RACCORDO
100
AcDbLine
 62
7
  6
CONTINUOUS
 10
-33.1905263158
 20
11.8333433625
 11
-31.6905263158
 21
11.8333433625
  0
LINE
  5
345
100
AcDbEntity
  8
RACCORDO
100
AcDbLine
 62
7
  6
CONTINUOUS
 10
-24.6905263158
 20
11.8333433625
 11
-23.1905263158
 21
11.8333433625
  0
LINE
  5
346
100
AcDbEntity
  8
RACCORDO
100
AcDbLine
 62
7
  6
CONTINUOUS
 10
-19.1905263158
 20
11.8333433625
 11
-17.6905263158
 21
11.8333433625
  0
LINE
  5
347
100
AcDbEntity
  8
RACCORDO
100
AcDbLine
 62
7
  6
CONTINUOUS
 10
-3.6905263158
 20
11.8333433625
 11
-2.1905263158
 21
11.8333433625
  0
LINE
  5
348
100
AcDbEntity
  8
RACCORDO
100
AcDbLine
 62
7
  6
CONTINUOUS
 10
1.8094736842
 20
11.8333433625
 11
3.3094736842
 21
11.8333433625
  0
LINE
  5
349
100
AcDbEntity
  8
RACCORDO
100
AcDbLine
 62
7
  6
CONTINUOUS
 10
10.3094736842
 20
11.8333433625
 11
11.8094736842
 21
11.8333433625
  0
LINE
  5
34A
100
AcDbEntity
  8
RACCORDO
100
AcDbLine
 62
7
  6
CONTINUOUS
 10
15.8094736842
 20
11.8333433625
 11
17.3094736842
 21
11.8333433625
  0
LINE
  5
34B
100
AcDbEntity
  8
RACCORDO
100
AcDbLine
 62
7
  6
CONTINUOUS
 10
31.3094736842
 20
11.8333433625
 11
32.8094736842
 21
11.8333433625
  0
LINE
  5
34C
100
AcDbEntity
  8
RACCORDO
100
AcDbLine
 62
7
  6
CONTINUOUS
 10
36.8094736842
 20
11.8333433625
 11
38.3094736842
 21
11.8333433625
  0
LINE
  5
34D
100
AcDbEntity
  8
RACCORDO
100
AcDbLine
 62
7
  6
CONTINUOUS
 10
45.3094736842
 20
11.8333433625
 11
46.8094736842
 21
11.8333433625
  0
LINE
  5
34E
100
AcDbEntity
  8
RACCORDO
100
AcDbLine
 62
7
  6
CONTINUOUS
 10
50.8094736842
 20
11.8333433625
 11
52.3094736842
 21
11.8333433625
  0
LINE
  5
34F
100
AcDbEntity
  8
RACCORDO
100
AcDbLine
 62
7
  6
CONTINUOUS
 10
66.3094736842
 20
11.8333433625
 11
67.8094736842
 21
11.8333433625
  0
LINE
  5
350
100
AcDbEntity
  8
RACCORDO
100
AcDbLine
 62
7
  6
CONTINUOUS
 10
71.8094736842
 20
11.8333433625
 11
73.3094736842
 21
11.8333433625
  0
LINE
  5
351
100
AcDbEntity
  8
RACCORDO
100
AcDbLine
 62
7
  6
CONTINUOUS
 10
80.3094736842
 20
11.8333433625
 11
81.8094736842
 21
11.8333433625
  0
LINE
  5
352
100
AcDbEntity
  8
RACCORDO
100
AcDbLine
 62
7
  6
CONTINUOUS
 10
85.8094736842
 20
11.8333433625
 11
87.3094736842
 21
11.8333433625
  0
LINE
  5
353
100
AcDbEntity
  8
RACCORDO
100
AcDbLine
 62
7
  6
CONTINUOUS
 10
101.3094736842
 20
11.8333433625
 11
102.8094736842
 21
11.8333433625
  0
LINE
  5
354
100
AcDbEntity
  8
RACCORDO
100
AcDbLine
 62
7
  6
CONTINUOUS
 10
106.8094736842
 20
11.8333433625
 11
108.3094736842
 21
11.8333433625
  0
LINE
  5
355
100
AcDbEntity
  8
RACCORDO
100
AcDbLine
 62
7
  6
CONTINUOUS
 10
115.3094736842
 20
11.8333433625
 11
116.8094736842
 21
11.8333433625
  0
LINE
  5
356
100
AcDbEntity
  8
RACCORDO
100
AcDbLine
 62
7
  6
CONTINUOUS
 10
120.8094736842
 20
11.8333433625
 11
122.3094736842
 21
11.8333433625
  0
LINE
  5
357
100
AcDbEntity
  8
RACCORDO
100
AcDbLine
 62
7
  6
CONTINUOUS
 10
136.3094736842
 20
11.8333433625
 11
137.8094736842
 21
11.8333433625
  0
LINE
  5
358
100
AcDbEntity
  8
RACCORDO
100
AcDbLine
 62
7
  6
CONTINUOUS
 10
141.8094736842
 20
11.8333433625
 11
143.3094736842
 21
11.8333433625
  0
LINE
  5
359
100
AcDbEntity
  8
RACCORDO
100
AcDbLine
 62
7
  6
CONTINUOUS
 10
150.3094736842
 20
11.8333433625
 11
151.8094736842
 21
11.8333433625
  0
LINE
  5
35A
100
AcDbEntity
  8
RACCORDO
100
AcDbLine
 62
7
  6
CONTINUOUS
 10
155.8094736842
 20
11.8333433625
 11
157.3094736842
 21
11.8333433625
  0
LINE
  5
35B
100
AcDbEntity
  8
RACCORDO
100
AcDbLine
 62
7
  6
CONTINUOUS
 10
171.3094736842
 20
11.8333433625
 11
172.8094736842
 21
11.8333433625
  0
LINE
  5
35C
100
AcDbEntity
  8
RACCORDO
100
AcDbLine
 62
7
  6
CONTINUOUS
 10
176.8094736842
 20
11.8333433625
 11
178.3094736842
 21
11.8333433625
  0
LINE
  5
35D
100
AcDbEntity
  8
RACCORDO
100
AcDbLine
 62
7
  6
CONTINUOUS
 10
185.3094736842
 20
11.8333433625
 11
186.8094736842
 21
11.8333433625
  0
LINE
  5
35E
100
AcDbEntity
  8
RACCORDO
100
AcDbLine
 62
7
  6
CONTINUOUS
 10
190.8094736842
 20
11.8333433625
 11
192.3094736842
 21
11.8333433625
  0
LINE
  5
35F
100
AcDbEntity
  8
RACCORDO
100
AcDbLine
 62
7
  6
CONTINUOUS
 10
-225.1905263158
 20
12.0243341715
 11
-214.1905263158
 21
12.0243341715
  0
LINE
  5
360
100
AcDbEntity
  8
0
100
AcDbLine
 62
7
  6
CONTINUOUS
 10
-206.1905263158
 20
12.0243341715
 11
-200.1905263158
 21
12.0243341715
  0
LINE
  5
361
100
AcDbEntity
  8
0
100
AcDbLine
 62
7
  6
CONTINUOUS
 10
-192.1905263158
 20
12.0243341715
 11
-179.1905263158
 21
12.0243341715
  0
LINE
  5
362
100
AcDbEntity
  8
0
100
AcDbLine
 62
7
  6
CONTINUOUS
 10
-171.1905263158
 20
12.0243341715
 11
-165.1905263158
 21
12.0243341715
  0
LINE
  5
363
100
AcDbEntity
  8
0
100
AcDbLine
 62
7
  6
CONTINUOUS
 10
-157.1905263158
 20
12.0243341715
 11
-144.1905263158
 21
12.0243341715
  0
LINE
  5
364
100
AcDbEntity
  8
0
100
AcDbLine
 62
7
  6
CONTINUOUS
 10
-136.1905263158
 20
12.0243341715
 11
-130.1905263158
 21
12.0243341715
  0
LINE
  5
365
100
AcDbEntity
  8
0
100
AcDbLine
 62
7
  6
CONTINUOUS
 10
-122.1905263158
 20
12.0243341715
 11
-109.1905263158
 21
12.0243341715
  0
LINE
  5
366
100
AcDbEntity
  8
0
100
AcDbLine
 62
7
  6
CONTINUOUS
 10
-101.1905263158
 20
12.0243341715
 11
-95.1905263158
 21
12.0243341715
  0
LINE
  5
367
100
AcDbEntity
  8
0
100
AcDbLine
 62
7
  6
CONTINUOUS
 10
-87.1905263158
 20
12.0243341715
 11
-74.1905263158
 21
12.0243341715
  0
LINE
  5
368
100
AcDbEntity
  8
0
100
AcDbLine
 62
7
  6
CONTINUOUS
 10
-66.1905263158
 20
12.0243341715
 11
-60.1905263158
 21
12.0243341715
  0
LINE
  5
369
100
AcDbEntity
  8
0
100
AcDbLine
 62
7
  6
CONTINUOUS
 10
-52.1905263158
 20
12.0243341715
 11
-39.1905263158
 21
12.0243341715
  0
LINE
  5
36A
100
AcDbEntity
  8
0
100
AcDbLine
 62
7
  6
CONTINUOUS
 10
-31.1905263158
 20
12.0243341715
 11
-25.1905263158
 21
12.0243341715
  0
LINE
  5
36B
100
AcDbEntity
  8
0
100
AcDbLine
 62
7
  6
CONTINUOUS
 10
-17.1905263158
 20
12.0243341715
 11
-4.1905263158
 21
12.0243341715
  0
LINE
  5
36C
100
AcDbEntity
  8
0
100
AcDbLine
 62
7
  6
CONTINUOUS
 10
3.8094736842
 20
12.0243341715
 11
9.8094736842
 21
12.0243341715
  0
LINE
  5
36D
100
AcDbEntity
  8
0
100
AcDbLine
 62
7
  6
CONTINUOUS
 10
17.8094736842
 20
12.0243341715
 11
30.8094736842
 21
12.0243341715
  0
LINE
  5
36E
100
AcDbEntity
  8
0
100
AcDbLine
 62
7
  6
CONTINUOUS
 10
38.8094736842
 20
12.0243341715
 11
44.8094736842
 21
12.0243341715
  0
LINE
  5
36F
100
AcDbEntity
  8
0
100
AcDbLine
 62
7
  6
CONTINUOUS
 10
52.8094736842
 20
12.0243341715
 11
65.8094736842
 21
12.0243341715
  0
LINE
  5
370
100
AcDbEntity
  8
0
100
AcDbLine
 62
7
  6
CONTINUOUS
 10
73.8094736842
 20
12.0243341715
 11
79.8094736842
 21
12.0243341715
  0
LINE
  5
371
100
AcDbEntity
  8
0
100
AcDbLine
 62
7
  6
CONTINUOUS
 10
87.8094736842
 20
12.0243341715
 11
100.8094736842
 21
12.0243341715
  0
LINE
  5
372
100
AcDbEntity
  8
0
100
AcDbLine
 62
7
  6
CONTINUOUS
 10
108.8094736842
 20
12.0243341715
 11
114.8094736842
 21
12.0243341715
  0
LINE
  5
373
100
AcDbEntity
  8
0
100
AcDbLine
 62
7
  6
CONTINUOUS
 10
122.8094736842
 20
12.0243341715
 11
135.8094736842
 21
12.0243341715
  0
LINE
  5
374
100
AcDbEntity
  8
0
100
AcDbLine
 62
7
  6
CONTINUOUS
 10
143.8094736842
 20
12.0243341715
 11
149.8094736842
 21
12.0243341715
  0
LINE
  5
375
100
AcDbEntity
  8
0
100
AcDbLine
 62
7
  6
CONTINUOUS
 10
157.8094736842
 20
12.0243341715
 11
170.8094736842
 21
12.0243341715
  0
LINE
  5
376
100
AcDbEntity
  8
0
100
AcDbLine
 62
7
  6
CONTINUOUS
 10
178.8094736842
 20
12.0243341715
 11
184.8094736842
 21
12.0243341715
  0
LINE
  5
377
100
AcDbEntity
  8
0
100
AcDbLine
 62
7
  6
CONTINUOUS
 10
192.8094736842
 20
12.0243341715
 11
200.8094736842
 21
12.0243341715
  0
LINE
  5
378
100
AcDbEntity
  8
RACCORDO
100
AcDbLine
 62
7
  6
CONTINUOUS
 10
192.3094736842
 20
12.8423525535
 11
185.3094736842
 21
12.8423525535
  0
LINE
  5
379
100
AcDbEntity
  8
RACCORDO
100
AcDbLine
 62
7
  6
CONTINUOUS
 10
178.3094736842
 20
12.8423525535
 11
171.3094736842
 21
12.8423525535
  0
LINE
  5
37A
100
AcDbEntity
  8
RACCORDO
100
AcDbLine
 62
7
  6
CONTINUOUS
 10
157.3094736842
 20
12.8423525535
 11
150.3094736842
 21
12.8423525535
  0
LINE
  5
37B
100
AcDbEntity
  8
RACCORDO
100
AcDbLine
 62
7
  6
CONTINUOUS
 10
143.3094736842
 20
12.8423525535
 11
136.3094736842
 21
12.8423525535
  0
LINE
  5
37C
100
AcDbEntity
  8
RACCORDO
100
AcDbLine
 62
7
  6
CONTINUOUS
 10
122.3094736842
 20
12.8423525535
 11
115.3094736842
 21
12.8423525535
  0
LINE
  5
37D
100
AcDbEntity
  8
RACCORDO
100
AcDbLine
 62
7
  6
CONTINUOUS
 10
108.3094736842
 20
12.8423525535
 11
101.3094736842
 21
12.8423525535
  0
LINE
  5
37E
100
AcDbEntity
  8
RACCORDO
100
AcDbLine
 62
7
  6
CONTINUOUS
 10
87.3094736842
 20
12.8423525535
 11
80.3094736842
 21
12.8423525535
  0
LINE
  5
37F
100
AcDbEntity
  8
RACCORDO
100
AcDbLine
 62
7
  6
CONTINUOUS
 10
73.3094736842
 20
12.8423525535
 11
66.3094736842
 21
12.8423525535
  0
LINE
  5
380
100
AcDbEntity
  8
RACCORDO
100
AcDbLine
 62
7
  6
CONTINUOUS
 10
52.3094736842
 20
12.8423525535
 11
45.3094736842
 21
12.8423525535
  0
LINE
  5
381
100
AcDbEntity
  8
RACCORDO
100
AcDbLine
 62
7
  6
CONTINUOUS
 10
38.3094736842
 20
12.8423525535
 11
31.3094736842
 21
12.8423525535
  0
LINE
  5
382
100
AcDbEntity
  8
RACCORDO
100
AcDbLine
 62
7
  6
CONTINUOUS
 10
17.3094736842
 20
12.8423525535
 11
10.3094736842
 21
12.8423525535
  0
LINE
  5
383
100
AcDbEntity
  8
RACCORDO
100
AcDbLine
 62
7
  6
CONTINUOUS
 10
3.3094736842
 20
12.8423525535
 11
-3.6905263158
 21
12.8423525535
  0
LINE
  5
384
100
AcDbEntity
  8
RACCORDO
100
AcDbLine
 62
7
  6
CONTINUOUS
 10
-17.6905263158
 20
12.8423525535
 11
-24.6905263158
 21
12.8423525535
  0
LINE
  5
385
100
AcDbEntity
  8
RACCORDO
100
AcDbLine
 62
7
  6
CONTINUOUS
 10
-31.6905263158
 20
12.8423525535
 11
-38.6905263158
 21
12.8423525535
  0
LINE
  5
386
100
AcDbEntity
  8
RACCORDO
100
AcDbLine
 62
7
  6
CONTINUOUS
 10
-52.6905263158
 20
12.8423525535
 11
-59.6905263158
 21
12.8423525535
  0
LINE
  5
387
100
AcDbEntity
  8
RACCORDO
100
AcDbLine
 62
7
  6
CONTINUOUS
 10
-66.6905263158
 20
12.8423525535
 11
-73.6905263158
 21
12.8423525535
  0
LINE
  5
388
100
AcDbEntity
  8
RACCORDO
100
AcDbLine
 62
7
  6
CONTINUOUS
 10
-87.6905263158
 20
12.8423525535
 11
-94.6905263158
 21
12.8423525535
  0
LINE
  5
389
100
AcDbEntity
  8
RACCORDO
100
AcDbLine
 62
7
  6
CONTINUOUS
 10
-101.6905263158
 20
12.8423525535
 11
-108.6905263158
 21
12.8423525535
  0
LINE
  5
38A
100
AcDbEntity
  8
RACCORDO
100
AcDbLine
 62
7
  6
CONTINUOUS
 10
-122.6905263158
 20
12.8423525535
 11
-129.6905263158
 21
12.8423525535
  0
LINE
  5
38B
100
AcDbEntity
  8
RACCORDO
100
AcDbLine
 62
7
  6
CONTINUOUS
 10
-136.6905263158
 20
12.8423525535
 11
-143.6905263158
 21
12.8423525535
  0
LINE
  5
38C
100
AcDbEntity
  8
RACCORDO
100
AcDbLine
 62
7
  6
CONTINUOUS
 10
-157.6905263158
 20
12.8423525535
 11
-164.6905263158
 21
12.8423525535
  0
LINE
  5
38D
100
AcDbEntity
  8
RACCORDO
100
AcDbLine
 62
7
  6
CONTINUOUS
 10
-171.6905263158
 20
12.8423525535
 11
-178.6905263158
 21
12.8423525535
  0
LINE
  5
38E
100
AcDbEntity
  8
RACCORDO
100
AcDbLine
 62
7
  6
CONTINUOUS
 10
-192.6905263158
 20
12.8423525535
 11
-199.6905263158
 21
12.8423525535
  0
LINE
  5
38F
100
AcDbEntity
  8
RACCORDO
100
AcDbLine
 62
7
  6
CONTINUOUS
 10
-206.6905263158
 20
12.8423525535
 11
-213.6905263158
 21
12.8423525535
  0
LINE
  5
390
100
AcDbEntity
  8
0
100
AcDbLine
 62
7
  6
CONTINUOUS
 10
212.8094736842
 20
13.5150253474
 11
200.8094736842
 21
13.5150253474
  0
LINE
  5
391
100
AcDbEntity
  8
RACCORDO
100
AcDbLine
 62
7
  6
CONTINUOUS
 10
192.3094736842
 20
14.0423525535
 11
185.3094736842
 21
14.0423525535
  0
LINE
  5
392
100
AcDbEntity
  8
RACCORDO
100
AcDbLine
 62
7
  6
CONTINUOUS
 10
178.3094736842
 20
14.0423525535
 11
171.3094736842
 21
14.0423525535
  0
LINE
  5
393
100
AcDbEntity
  8
RACCORDO
100
AcDbLine
 62
7
  6
CONTINUOUS
 10
157.3094736842
 20
14.0423525535
 11
150.3094736842
 21
14.0423525535
  0
LINE
  5
394
100
AcDbEntity
  8
RACCORDO
100
AcDbLine
 62
7
  6
CONTINUOUS
 10
143.3094736842
 20
14.0423525535
 11
136.3094736842
 21
14.0423525535
  0
LINE
  5
395
100
AcDbEntity
  8
RACCORDO
100
AcDbLine
 62
7
  6
CONTINUOUS
 10
122.3094736842
 20
14.0423525535
 11
115.3094736842
 21
14.0423525535
  0
LINE
  5
396
100
AcDbEntity
  8
RACCORDO
100
AcDbLine
 62
7
  6
CONTINUOUS
 10
108.3094736842
 20
14.0423525535
 11
101.3094736842
 21
14.0423525535
  0
LINE
  5
397
100
AcDbEntity
  8
RACCORDO
100
AcDbLine
 62
7
  6
CONTINUOUS
 10
87.3094736842
 20
14.0423525535
 11
80.3094736842
 21
14.0423525535
  0
LINE
  5
398
100
AcDbEntity
  8
RACCORDO
100
AcDbLine
 62
7
  6
CONTINUOUS
 10
73.3094736842
 20
14.0423525535
 11
66.3094736842
 21
14.0423525535
  0
LINE
  5
399
100
AcDbEntity
  8
RACCORDO
100
AcDbLine
 62
7
  6
CONTINUOUS
 10
52.3094736842
 20
14.0423525535
 11
45.3094736842
 21
14.0423525535
  0
LINE
  5
39A
100
AcDbEntity
  8
RACCORDO
100
AcDbLine
 62
7
  6
CONTINUOUS
 10
38.3094736842
 20
14.0423525535
 11
31.3094736842
 21
14.0423525535
  0
LINE
  5
39B
100
AcDbEntity
  8
RACCORDO
100
AcDbLine
 62
7
  6
CONTINUOUS
 10
17.3094736842
 20
14.0423525535
 11
10.3094736842
 21
14.0423525535
  0
LINE
  5
39C
100
AcDbEntity
  8
RACCORDO
100
AcDbLine
 62
7
  6
CONTINUOUS
 10
3.3094736842
 20
14.0423525535
 11
-3.6905263158
 21
14.0423525535
  0
LINE
  5
39D
100
AcDbEntity
  8
RACCORDO
100
AcDbLine
 62
7
  6
CONTINUOUS
 10
-17.6905263158
 20
14.0423525535
 11
-24.6905263158
 21
14.0423525535
  0
LINE
  5
39E
100
AcDbEntity
  8
RACCORDO
100
AcDbLine
 62
7
  6
CONTINUOUS
 10
-31.6905263158
 20
14.0423525535
 11
-38.6905263158
 21
14.0423525535
  0
LINE
  5
39F
100
AcDbEntity
  8
RACCORDO
100
AcDbLine
 62
7
  6
CONTINUOUS
 10
-52.6905263158
 20
14.0423525535
 11
-59.6905263158
 21
14.0423525535
  0
LINE
  5
3A0
100
AcDbEntity
  8
RACCORDO
100
AcDbLine
 62
7
  6
CONTINUOUS
 10
-66.6905263158
 20
14.0423525535
 11
-73.6905263158
 21
14.0423525535
  0
LINE
  5
3A1
100
AcDbEntity
  8
RACCORDO
100
AcDbLine
 62
7
  6
CONTINUOUS
 10
-87.6905263158
 20
14.0423525535
 11
-94.6905263158
 21
14.0423525535
  0
LINE
  5
3A2
100
AcDbEntity
  8
RACCORDO
100
AcDbLine
 62
7
  6
CONTINUOUS
 10
-101.6905263158
 20
14.0423525535
 11
-108.6905263158
 21
14.0423525535
  0
LINE
  5
3A3
100
AcDbEntity
  8
RACCORDO
100
AcDbLine
 62
7
  6
CONTINUOUS
 10
-122.6905263158
 20
14.0423525535
 11
-129.6905263158
 21
14.0423525535
  0
LINE
  5
3A4
100
AcDbEntity
  8
RACCORDO
100
AcDbLine
 62
7
  6
CONTINUOUS
 10
-136.6905263158
 20
14.0423525535
 11
-143.6905263158
 21
14.0423525535
  0
LINE
  5
3A5
100
AcDbEntity
  8
RACCORDO
100
AcDbLine
 62
7
  6
CONTINUOUS
 10
-157.6905263158
 20
14.0423525535
 11
-164.6905263158
 21
14.0423525535
  0
LINE
  5
3A6
100
AcDbEntity
  8
RACCORDO
100
AcDbLine
 62
7
  6
CONTINUOUS
 10
-171.6905263158
 20
14.0423525535
 11
-178.6905263158
 21
14.0423525535
  0
LINE
  5
3A7
100
AcDbEntity
  8
RACCORDO
100
AcDbLine
 62
7
  6
CONTINUOUS
 10
-192.6905263158
 20
14.0423525535
 11
-199.6905263158
 21
14.0423525535
  0
LINE
  5
3A8
100
AcDbEntity
  8
RACCORDO
100
AcDbLine
 62
7
  6
CONTINUOUS
 10
-206.6905263158
 20
14.0423525535
 11
-213.6905263158
 21
14.0423525535
  0
LINE
  5
3A9
100
AcDbEntity
  8
ASSI
100
AcDbLine
 62
7
  6
CONTINUOUS
 10
227.7094736842
 20
14.4563157895
 11
222.7094736842
 21
14.4563157895
  0
LINE
  5
3AA
100
AcDbEntity
  8
ASSI
100
AcDbLine
 62
7
  6
CONTINUOUS
 10
-237.0905263158
 20
14.4563157895
 11
-242.0905263158
 21
14.4563157895
  0
LINE
  5
3AB
100
AcDbEntity
  8
0
100
AcDbLine
 62
7
  6
CONTINUOUS
 10
212.8094736842
 20
14.7150253474
 11
200.8094736842
 21
14.7150253474
  0
LINE
  5
3AC
100
AcDbEntity
  8
RACCORDO
100
AcDbLine
 62
7
  6
CONTINUOUS
 10
-226.1905263158
 20
14.8063157895
 11
-224.6905263158
 21
14.8063157895
  0
LINE
  5
3AD
100
AcDbEntity
  8
RACCORDO
100
AcDbLine
 62
7
  6
CONTINUOUS
 10
210.3094736842
 20
14.8063157895
 11
211.8094736842
 21
14.8063157895
  0
LINE
  5
3AE
100
AcDbEntity
  8
ASSI
100
AcDbLine
 62
7
  6
CONTINUOUS
 10
-217.4905263158
 20
16.0063157895
 11
-215.6905263158
 21
16.0063157895
  0
LINE
  5
3AF
100
AcDbEntity
  8
ASSI
100
AcDbLine
 62
7
  6
CONTINUOUS
 10
-205.4405263158
 20
16.0063157895
 11
-202.9405263158
 21
16.0063157895
  0
LINE
  5
3B0
100
AcDbEntity
  8
ASSI
100
AcDbLine
 62
7
  6
CONTINUOUS
 10
-192.6905263158
 20
16.0063157895
 11
-190.8905263158
 21
16.0063157895
  0
LINE
  5
3B1
100
AcDbEntity
  8
ASSI
100
AcDbLine
 62
7
  6
CONTINUOUS
 10
-182.4905263158
 20
16.0063157895
 11
-180.6905263158
 21
16.0063157895
  0
LINE
  5
3B2
100
AcDbEntity
  8
ASSI
100
AcDbLine
 62
7
  6
CONTINUOUS
 10
-170.4405263158
 20
16.0063157895
 11
-167.9405263158
 21
16.0063157895
  0
LINE
  5
3B3
100
AcDbEntity
  8
ASSI
100
AcDbLine
 62
7
  6
CONTINUOUS
 10
-157.6905263158
 20
16.0063157895
 11
-155.8905263158
 21
16.0063157895
  0
LINE
  5
3B4
100
AcDbEntity
  8
ASSI
100
AcDbLine
 62
7
  6
CONTINUOUS
 10
-147.4905263158
 20
16.0063157895
 11
-145.6905263158
 21
16.0063157895
  0
LINE
  5
3B5
100
AcDbEntity
  8
ASSI
100
AcDbLine
 62
7
  6
CONTINUOUS
 10
-135.4405263158
 20
16.0063157895
 11
-132.9405263158
 21
16.0063157895
  0
LINE
  5
3B6
100
AcDbEntity
  8
ASSI
100
AcDbLine
 62
7
  6
CONTINUOUS
 10
-122.6905263158
 20
16.0063157895
 11
-120.8905263158
 21
16.0063157895
  0
LINE
  5
3B7
100
AcDbEntity
  8
ASSI
100
AcDbLine
 62
7
  6
CONTINUOUS
 10
-112.4905263158
 20
16.0063157895
 11
-110.6905263158
 21
16.0063157895
  0
LINE
  5
3B8
100
AcDbEntity
  8
ASSI
100
AcDbLine
 62
7
  6
CONTINUOUS
 10
-100.4405263158
 20
16.0063157895
 11
-97.9405263158
 21
16.0063157895
  0
LINE
  5
3B9
100
AcDbEntity
  8
ASSI
100
AcDbLine
 62
7
  6
CONTINUOUS
 10
-87.6905263158
 20
16.0063157895
 11
-85.8905263158
 21
16.0063157895
  0
LINE
  5
3BA
100
AcDbEntity
  8
ASSI
100
AcDbLine
 62
7
  6
CONTINUOUS
 10
-77.4905263158
 20
16.0063157895
 11
-75.6905263158
 21
16.0063157895
  0
LINE
  5
3BB
100
AcDbEntity
  8
ASSI
100
AcDbLine
 62
7
  6
CONTINUOUS
 10
-65.4405263158
 20
16.0063157895
 11
-62.9405263158
 21
16.0063157895
  0
LINE
  5
3BC
100
AcDbEntity
  8
ASSI
100
AcDbLine
 62
7
  6
CONTINUOUS
 10
-52.6905263158
 20
16.0063157895
 11
-50.8905263158
 21
16.0063157895
  0
LINE
  5
3BD
100
AcDbEntity
  8
ASSI
100
AcDbLine
 62
7
  6
CONTINUOUS
 10
-42.4905263158
 20
16.0063157895
 11
-40.6905263158
 21
16.0063157895
  0
LINE
  5
3BE
100
AcDbEntity
  8
ASSI
100
AcDbLine
 62
7
  6
CONTINUOUS
 10
-30.4405263158
 20
16.0063157895
 11
-27.9405263158
 21
16.0063157895
  0
LINE
  5
3BF
100
AcDbEntity
  8
ASSI
100
AcDbLine
 62
7
  6
CONTINUOUS
 10
-17.6905263158
 20
16.0063157895
 11
-15.8905263158
 21
16.0063157895
  0
LINE
  5
3C0
100
AcDbEntity
  8
ASSI
100
AcDbLine
 62
7
  6
CONTINUOUS
 10
-7.4905263158
 20
16.0063157895
 11
-5.6905263158
 21
16.0063157895
  0
LINE
  5
3C1
100
AcDbEntity
  8
ASSI
100
AcDbLine
 62
7
  6
CONTINUOUS
 10
4.5594736842
 20
16.0063157895
 11
7.0594736842
 21
16.0063157895
  0
LINE
  5
3C2
100
AcDbEntity
  8
ASSI
100
AcDbLine
 62
7
  6
CONTINUOUS
 10
17.3094736842
 20
16.0063157895
 11
19.1094736842
 21
16.0063157895
  0
LINE
  5
3C3
100
AcDbEntity
  8
ASSI
100
AcDbLine
 62
7
  6
CONTINUOUS
 10
27.5094736842
 20
16.0063157895
 11
29.3094736842
 21
16.0063157895
  0
LINE
  5
3C4
100
AcDbEntity
  8
ASSI
100
AcDbLine
 62
7
  6
CONTINUOUS
 10
39.5594736842
 20
16.0063157895
 11
42.0594736842
 21
16.0063157895
  0
LINE
  5
3C5
100
AcDbEntity
  8
ASSI
100
AcDbLine
 62
7
  6
CONTINUOUS
 10
52.3094736842
 20
16.0063157895
 11
54.1094736842
 21
16.0063157895
  0
LINE
  5
3C6
100
AcDbEntity
  8
ASSI
100
AcDbLine
 62
7
  6
CONTINUOUS
 10
62.5094736842
 20
16.0063157895
 11
64.3094736842
 21
16.0063157895
  0
LINE
  5
3C7
100
AcDbEntity
  8
ASSI
100
AcDbLine
 62
7
  6
CONTINUOUS
 10
74.5594736842
 20
16.0063157895
 11
77.0594736842
 21
16.0063157895
  0
LINE
  5
3C8
100
AcDbEntity
  8
ASSI
100
AcDbLine
 62
7
  6
CONTINUOUS
 10
87.3094736842
 20
16.0063157895
 11
89.1094736842
 21
16.0063157895
  0
LINE
  5
3C9
100
AcDbEntity
  8
ASSI
100
AcDbLine
 62
7
  6
CONTINUOUS
 10
97.5094736842
 20
16.0063157895
 11
99.3094736842
 21
16.0063157895
  0
LINE
  5
3CA
100
AcDbEntity
  8
ASSI
100
AcDbLine
 62
7
  6
CONTINUOUS
 10
109.5594736842
 20
16.0063157895
 11
112.0594736842
 21
16.0063157895
  0
LINE
  5
3CB
100
AcDbEntity
  8
ASSI
100
AcDbLine
 62
7
  6
CONTINUOUS
 10
122.3094736842
 20
16.0063157895
 11
124.1094736842
 21
16.0063157895
  0
LINE
  5
3CC
100
AcDbEntity
  8
ASSI
100
AcDbLine
 62
7
  6
CONTINUOUS
 10
132.5094736842
 20
16.0063157895
 11
134.3094736842
 21
16.0063157895
  0
LINE
  5
3CD
100
AcDbEntity
  8
ASSI
100
AcDbLine
 62
7
  6
CONTINUOUS
 10
144.5594736842
 20
16.0063157895
 11
147.0594736842
 21
16.0063157895
  0
LINE
  5
3CE
100
AcDbEntity
  8
ASSI
100
AcDbLine
 62
7
  6
CONTINUOUS
 10
157.3094736842
 20
16.0063157895
 11
159.1094736842
 21
16.0063157895
  0
LINE
  5
3CF
100
AcDbEntity
  8
ASSI
100
AcDbLine
 62
7
  6
CONTINUOUS
 10
167.5094736842
 20
16.0063157895
 11
169.3094736842
 21
16.0063157895
  0
LINE
  5
3D0
100
AcDbEntity
  8
ASSI
100
AcDbLine
 62
7
  6
CONTINUOUS
 10
179.5594736842
 20
16.0063157895
 11
182.0594736842
 21
16.0063157895
  0
LINE
  5
3D1
100
AcDbEntity
  8
ASSI
100
AcDbLine
 62
7
  6
CONTINUOUS
 10
192.3094736842
 20
16.0063157895
 11
194.1094736842
 21
16.0063157895
  0
LWPOLYLINE
  5
3D2
100
AcDbEntity
  8
RACCORDO
100
AcDbPolyline
 62
7
  6
CONTINUOUS
 90
28
 70
0
 10
-206.6905263158
 20
14.0423525535
 10
-206.66129183
 20
14.0420600556
 10
-206.632350467
 20
14.041208438
 10
-206.603702227
 20
14.0397977006
 10
-206.575252371
 20
14.0378193056
 10
-206.5470956378
 20
14.0352817908
 10
-206.5195162441
 20
14.0322107701
 10
-206.4925200372
 20
14.0286008402
 10
-206.4661011696
 20
14.0244574044
 10
-206.4405263158
 20
14.019822287
 10
-206.415804024
 20
14.014690508
 10
-206.3919257459
 20
14.0090670475
 10
-206.3691325109
 20
14.0030086689
 10
-206.3474353086
 20
13.9965109675
 10
-206.3268231494
 20
13.9895783481
 10
-206.3075040942
 20
13.9822807893
 10
-206.2894912399
 20
13.9746145948
 10
-206.2727714896
 20
13.9665834608
 10
-206.2575136139
 20
13.9582684542
 10
-206.243732419
 20
13.9496667
 10
-206.2314130987
 20
13.9407810733
 10
-206.2206800054
 20
13.9317012663
 10
-206.2115492046
 20
13.9224253124
 10
-206.2040046307
 20
13.9129551782
 10
-206.1981224393
 20
13.9033864562
 10
-206.1939280156
 20
13.8937510103
 10
-206.1913959744
 20
13.8840169766
 10
-206.1905263158
 20
13.874184355
  0
LWPOLYLINE
  5
3D3
100
AcDbEntity
  8
RACCORDO
100
AcDbPolyline
 62
7
  6
CONTINUOUS
 90
28
 70
0
 10
-192.6905263158
 20
14.0423525535
 10
-192.66129183
 20
14.0420600556
 10
-192.632350467
 20
14.041208438
 10
-192.603702227
 20
14.0397977006
 10
-192.575252371
 20
14.0378193056
 10
-192.5470956378
 20
14.0352817908
 10
-192.5195162441
 20
14.0322107701
 10
-192.4925200372
 20
14.0286008402
 10
-192.4661011696
 20
14.0244574044
 10
-192.4405263158
 20
14.019822287
 10
-192.415804024
 20
14.014690508
 10
-192.3919257459
 20
14.0090670475
 10
-192.3691325109
 20
14.0030086689
 10
-192.3474353086
 20
13.9965109675
 10
-192.3268231494
 20
13.9895783481
 10
-192.3075040942
 20
13.9822807893
 10
-192.2894912399
 20
13.9746145948
 10
-192.2727714896
 20
13.9665834608
 10
-192.2575136139
 20
13.9582684542
 10
-192.243732419
 20
13.9496667
 10
-192.2314130987
 20
13.9407810733
 10
-192.2206800054
 20
13.9317012663
 10
-192.2115492046
 20
13.9224253124
 10
-192.2040046307
 20
13.9129551782
 10
-192.1981224393
 20
13.9033864562
 10
-192.1939280156
 20
13.8937510103
 10
-192.1913959744
 20
13.8840169766
 10
-192.1905263158
 20
13.874184355
  0
LWPOLYLINE
  5
3D4
100
AcDbEntity
  8
RACCORDO
100
AcDbPolyline
 62
7
  6
CONTINUOUS
 90
28
 70
0
 10
-171.6905263158
 20
14.0423525535
 10
-171.66129183
 20
14.0420600556
 10
-171.632350467
 20
14.041208438
 10
-171.603702227
 20
14.0397977006
 10
-171.575252371
 20
14.0378193056
 10
-171.5470956378
 20
14.0352817908
 10
-171.5195162441
 20
14.0322107701
 10
-171.4925200372
 20
14.0286008402
 10
-171.4661011696
 20
14.0244574044
 10
-171.4405263158
 20
14.019822287
 10
-171.415804024
 20
14.014690508
 10
-171.3919257459
 20
14.0090670475
 10
-171.3691325109
 20
14.0030086689
 10
-171.3474353086
 20
13.9965109675
 10
-171.3268231494
 20
13.9895783481
 10
-171.3075040942
 20
13.9822807893
 10
-171.2894912399
 20
13.9746145948
 10
-171.2727714896
 20
13.9665834608
 10
-171.2575136139
 20
13.9582684542
 10
-171.243732419
 20
13.9496667
 10
-171.2314130987
 20
13.9407810733
 10
-171.2206800054
 20
13.9317012663
 10
-171.2115492046
 20
13.9224253124
 10
-171.2040046307
 20
13.9129551782
 10
-171.1981224393
 20
13.9033864562
 10
-171.1939280156
 20
13.8937510103
 10
-171.1913959744
 20
13.8840169766
 10
-171.1905263158
 20
13.874184355
  0
LWPOLYLINE
  5
3D5
100
AcDbEntity
  8
RACCORDO
100
AcDbPolyline
 62
7
  6
CONTINUOUS
 90
28
 70
0
 10
-157.6905263158
 20
14.0423525535
 10
-157.66129183
 20
14.0420600556
 10
-157.632350467
 20
14.041208438
 10
-157.603702227
 20
14.0397977006
 10
-157.575252371
 20
14.0378193056
 10
-157.5470956378
 20
14.0352817908
 10
-157.5195162441
 20
14.0322107701
 10
-157.4925200372
 20
14.0286008402
 10
-157.4661011696
 20
14.0244574044
 10
-157.4405263158
 20
14.019822287
 10
-157.415804024
 20
14.014690508
 10
-157.3919257459
 20
14.0090670475
 10
-157.3691325109
 20
14.0030086689
 10
-157.3474353086
 20
13.9965109675
 10
-157.3268231494
 20
13.9895783481
 10
-157.3075040942
 20
13.9822807893
 10
-157.2894912399
 20
13.9746145948
 10
-157.2727714896
 20
13.9665834608
 10
-157.2575136139
 20
13.9582684542
 10
-157.243732419
 20
13.9496667
 10
-157.2314130987
 20
13.9407810733
 10
-157.2206800054
 20
13.9317012663
 10
-157.2115492046
 20
13.9224253124
 10
-157.2040046307
 20
13.9129551782
 10
-157.1981224393
 20
13.9033864562
 10
-157.1939280156
 20
13.8937510103
 10
-157.1913959744
 20
13.8840169766
 10
-157.1905263158
 20
13.874184355
  0
LWPOLYLINE
  5
3D6
100
AcDbEntity
  8
RACCORDO
100
AcDbPolyline
 62
7
  6
CONTINUOUS
 90
28
 70
0
 10
-136.6905263158
 20
14.0423525535
 10
-136.66129183
 20
14.0420600556
 10
-136.632350467
 20
14.041208438
 10
-136.603702227
 20
14.0397977006
 10
-136.575252371
 20
14.0378193056
 10
-136.5470956378
 20
14.0352817908
 10
-136.5195162441
 20
14.0322107701
 10
-136.4925200372
 20
14.0286008402
 10
-136.4661011696
 20
14.0244574044
 10
-136.4405263158
 20
14.019822287
 10
-136.415804024
 20
14.014690508
 10
-136.3919257459
 20
14.0090670475
 10
-136.3691325109
 20
14.0030086689
 10
-136.3474353086
 20
13.9965109675
 10
-136.3268231494
 20
13.9895783481
 10
-136.3075040942
 20
13.9822807893
 10
-136.2894912399
 20
13.9746145948
 10
-136.2727714896
 20
13.9665834608
 10
-136.2575136139
 20
13.9582684542
 10
-136.243732419
 20
13.9496667
 10
-136.2314130987
 20
13.9407810733
 10
-136.2206800054
 20
13.9317012663
 10
-136.2115492046
 20
13.9224253124
 10
-136.2040046307
 20
13.9129551782
 10
-136.1981224393
 20
13.9033864562
 10
-136.1939280156
 20
13.8937510103
 10
-136.1913959744
 20
13.8840169766
 10
-136.1905263158
 20
13.874184355
  0
LWPOLYLINE
  5
3D7
100
AcDbEntity
  8
RACCORDO
100
AcDbPolyline
 62
7
  6
CONTINUOUS
 90
28
 70
0
 10
-122.6905263158
 20
14.0423525535
 10
-122.66129183
 20
14.0420600556
 10
-122.632350467
 20
14.041208438
 10
-122.603702227
 20
14.0397977006
 10
-122.575252371
 20
14.0378193056
 10
-122.5470956378
 20
14.0352817908
 10
-122.5195162441
 20
14.0322107701
 10
-122.4925200372
 20
14.0286008402
 10
-122.4661011696
 20
14.0244574044
 10
-122.4405263158
 20
14.019822287
 10
-122.415804024
 20
14.014690508
 10
-122.3919257459
 20
14.0090670475
 10
-122.3691325109
 20
14.0030086689
 10
-122.3474353086
 20
13.9965109675
 10
-122.3268231494
 20
13.9895783481
 10
-122.3075040942
 20
13.9822807893
 10
-122.2894912399
 20
13.9746145948
 10
-122.2727714896
 20
13.9665834608
 10
-122.2575136139
 20
13.9582684542
 10
-122.243732419
 20
13.9496667
 10
-122.2314130987
 20
13.9407810733
 10
-122.2206800054
 20
13.9317012663
 10
-122.2115492046
 20
13.9224253124
 10
-122.2040046307
 20
13.9129551782
 10
-122.1981224393
 20
13.9033864562
 10
-122.1939280156
 20
13.8937510103
 10
-122.1913959744
 20
13.8840169766
 10
-122.1905263158
 20
13.874184355
  0
LWPOLYLINE
  5
3D8
100
AcDbEntity
  8
RACCORDO
100
AcDbPolyline
 62
7
  6
CONTINUOUS
 90
28
 70
0
 10
-101.6905263158
 20
14.0423525535
 10
-101.66129183
 20
14.0420600556
 10
-101.632350467
 20
14.041208438
 10
-101.603702227
 20
14.0397977006
 10
-101.575252371
 20
14.0378193056
 10
-101.5470956378
 20
14.0352817908
 10
-101.5195162441
 20
14.0322107701
 10
-101.4925200372
 20
14.0286008402
 10
-101.4661011696
 20
14.0244574044
 10
-101.4405263158
 20
14.019822287
 10
-101.415804024
 20
14.014690508
 10
-101.3919257459
 20
14.0090670475
 10
-101.3691325109
 20
14.0030086689
 10
-101.3474353086
 20
13.9965109675
 10
-101.3268231494
 20
13.9895783481
 10
-101.3075040942
 20
13.9822807893
 10
-101.2894912399
 20
13.9746145948
 10
-101.2727714896
 20
13.9665834608
 10
-101.2575136139
 20
13.9582684542
 10
-101.243732419
 20
13.9496667
 10
-101.2314130987
 20
13.9407810733
 10
-101.2206800054
 20
13.9317012663
 10
-101.2115492046
 20
13.9224253124
 10
-101.2040046307
 20
13.9129551782
 10
-101.1981224393
 20
13.9033864562
 10
-101.1939280156
 20
13.8937510103
 10
-101.1913959744
 20
13.8840169766
 10
-101.1905263158
 20
13.874184355
  0
LWPOLYLINE
  5
3D9
100
AcDbEntity
  8
RACCORDO
100
AcDbPolyline
 62
7
  6
CONTINUOUS
 90
28
 70
0
 10
-87.6905263158
 20
14.0423525535
 10
-87.66129183
 20
14.0420600556
 10
-87.632350467
 20
14.041208438
 10
-87.603702227
 20
14.0397977006
 10
-87.575252371
 20
14.0378193056
 10
-87.5470956378
 20
14.0352817908
 10
-87.5195162441
 20
14.0322107701
 10
-87.4925200372
 20
14.0286008402
 10
-87.4661011696
 20
14.0244574044
 10
-87.4405263158
 20
14.019822287
 10
-87.415804024
 20
14.014690508
 10
-87.3919257459
 20
14.0090670475
 10
-87.3691325109
 20
14.0030086689
 10
-87.3474353086
 20
13.9965109675
 10
-87.3268231494
 20
13.9895783481
 10
-87.3075040942
 20
13.9822807893
 10
-87.2894912399
 20
13.9746145948
 10
-87.2727714896
 20
13.9665834608
 10
-87.2575136139
 20
13.9582684542
 10
-87.243732419
 20
13.9496667
 10
-87.2314130987
 20
13.9407810733
 10
-87.2206800054
 20
13.9317012663
 10
-87.2115492046
 20
13.9224253124
 10
-87.2040046307
 20
13.9129551782
 10
-87.1981224393
 20
13.9033864562
 10
-87.1939280156
 20
13.8937510103
 10
-87.1913959744
 20
13.8840169766
 10
-87.1905263158
 20
13.874184355
  0
LWPOLYLINE
  5
3DA
100
AcDbEntity
  8
RACCORDO
100
AcDbPolyline
 62
7
  6
CONTINUOUS
 90
28
 70
0
 10
-66.6905263158
 20
14.0423525535
 10
-66.66129183
 20
14.0420600556
 10
-66.632350467
 20
14.041208438
 10
-66.603702227
 20
14.0397977006
 10
-66.575252371
 20
14.0378193056
 10
-66.5470956378
 20
14.0352817908
 10
-66.5195162441
 20
14.0322107701
 10
-66.4925200372
 20
14.0286008402
 10
-66.4661011696
 20
14.0244574044
 10
-66.4405263158
 20
14.019822287
 10
-66.415804024
 20
14.014690508
 10
-66.3919257459
 20
14.0090670475
 10
-66.3691325109
 20
14.0030086689
 10
-66.3474353086
 20
13.9965109675
 10
-66.3268231494
 20
13.9895783481
 10
-66.3075040942
 20
13.9822807893
 10
-66.2894912399
 20
13.9746145948
 10
-66.2727714896
 20
13.9665834608
 10
-66.2575136139
 20
13.9582684542
 10
-66.243732419
 20
13.9496667
 10
-66.2314130987
 20
13.9407810733
 10
-66.2206800054
 20
13.9317012663
 10
-66.2115492046
 20
13.9224253124
 10
-66.2040046307
 20
13.9129551782
 10
-66.1981224393
 20
13.9033864562
 10
-66.1939280156
 20
13.8937510103
 10
-66.1913959744
 20
13.8840169766
 10
-66.1905263158
 20
13.874184355
  0
LWPOLYLINE
  5
3DB
100
AcDbEntity
  8
RACCORDO
100
AcDbPolyline
 62
7
  6
CONTINUOUS
 90
28
 70
0
 10
-52.6905263158
 20
14.0423525535
 10
-52.66129183
 20
14.0420600556
 10
-52.632350467
 20
14.041208438
 10
-52.603702227
 20
14.0397977006
 10
-52.575252371
 20
14.0378193056
 10
-52.5470956378
 20
14.0352817908
 10
-52.5195162441
 20
14.0322107701
 10
-52.4925200372
 20
14.0286008402
 10
-52.4661011696
 20
14.0244574044
 10
-52.4405263158
 20
14.019822287
 10
-52.415804024
 20
14.014690508
 10
-52.3919257459
 20
14.0090670475
 10
-52.3691325109
 20
14.0030086689
 10
-52.3474353086
 20
13.9965109675
 10
-52.3268231494
 20
13.9895783481
 10
-52.3075040942
 20
13.9822807893
 10
-52.2894912399
 20
13.9746145948
 10
-52.2727714896
 20
13.9665834608
 10
-52.2575136139
 20
13.9582684542
 10
-52.243732419
 20
13.9496667
 10
-52.2314130987
 20
13.9407810733
 10
-52.2206800054
 20
13.9317012663
 10
-52.2115492046
 20
13.9224253124
 10
-52.2040046307
 20
13.9129551782
 10
-52.1981224393
 20
13.9033864562
 10
-52.1939280156
 20
13.8937510103
 10
-52.1913959744
 20
13.8840169766
 10
-52.1905263158
 20
13.874184355
  0
LWPOLYLINE
  5
3DC
100
AcDbEntity
  8
RACCORDO
100
AcDbPolyline
 62
7
  6
CONTINUOUS
 90
28
 70
0
 10
-31.6905263158
 20
14.0423525535
 10
-31.66129183
 20
14.0420600556
 10
-31.632350467
 20
14.041208438
 10
-31.603702227
 20
14.0397977006
 10
-31.575252371
 20
14.0378193056
 10
-31.5470956378
 20
14.0352817908
 10
-31.5195162441
 20
14.0322107701
 10
-31.4925200372
 20
14.0286008402
 10
-31.4661011696
 20
14.0244574044
 10
-31.4405263158
 20
14.019822287
 10
-31.415804024
 20
14.014690508
 10
-31.3919257459
 20
14.0090670475
 10
-31.3691325109
 20
14.0030086689
 10
-31.3474353086
 20
13.9965109675
 10
-31.3268231494
 20
13.9895783481
 10
-31.3075040942
 20
13.9822807893
 10
-31.2894912399
 20
13.9746145948
 10
-31.2727714896
 20
13.9665834608
 10
-31.2575136139
 20
13.9582684542
 10
-31.243732419
 20
13.9496667
 10
-31.2314130987
 20
13.9407810733
 10
-31.2206800054
 20
13.9317012663
 10
-31.2115492046
 20
13.9224253124
 10
-31.2040046307
 20
13.9129551782
 10
-31.1981224393
 20
13.9033864562
 10
-31.1939280156
 20
13.8937510103
 10
-31.1913959744
 20
13.8840169766
 10
-31.1905263158
 20
13.874184355
  0
LWPOLYLINE
  5
3DD
100
AcDbEntity
  8
RACCORDO
100
AcDbPolyline
 62
7
  6
CONTINUOUS
 90
28
 70
0
 10
-17.6905263158
 20
14.0423525535
 10
-17.66129183
 20
14.0420600556
 10
-17.632350467
 20
14.041208438
 10
-17.603702227
 20
14.0397977006
 10
-17.575252371
 20
14.0378193056
 10
-17.5470956378
 20
14.0352817908
 10
-17.5195162441
 20
14.0322107701
 10
-17.4925200372
 20
14.0286008402
 10
-17.4661011696
 20
14.0244574044
 10
-17.4405263158
 20
14.019822287
 10
-17.415804024
 20
14.014690508
 10
-17.3919257459
 20
14.0090670475
 10
-17.3691325109
 20
14.0030086689
 10
-17.3474353086
 20
13.9965109675
 10
-17.3268231494
 20
13.9895783481
 10
-17.3075040942
 20
13.9822807893
 10
-17.2894912399
 20
13.9746145948
 10
-17.2727714896
 20
13.9665834608
 10
-17.2575136139
 20
13.9582684542
 10
-17.243732419
 20
13.9496667
 10
-17.2314130987
 20
13.9407810733
 10
-17.2206800054
 20
13.9317012663
 10
-17.2115492046
 20
13.9224253124
 10
-17.2040046307
 20
13.9129551782
 10
-17.1981224393
 20
13.9033864562
 10
-17.1939280156
 20
13.8937510103
 10
-17.1913959744
 20
13.8840169766
 10
-17.1905263158
 20
13.874184355
  0
LWPOLYLINE
  5
3DE
100
AcDbEntity
  8
RACCORDO
100
AcDbPolyline
 62
7
  6
CONTINUOUS
 90
28
 70
0
 10
3.3094736842
 20
14.0423525535
 10
3.33870817
 20
14.0420600556
 10
3.367649533
 20
14.041208438
 10
3.396297773
 20
14.0397977006
 10
3.424747629
 20
14.0378193056
 10
3.4529043622
 20
14.0352817908
 10
3.4804837559
 20
14.0322107701
 10
3.5074799628
 20
14.0286008402
 10
3.5338988304
 20
14.0244574044
 10
3.5594736842
 20
14.019822287
 10
3.584195976
 20
14.014690508
 10
3.6080742541
 20
14.0090670475
 10
3.6308674891
 20
14.0030086689
 10
3.6525646914
 20
13.9965109675
 10
3.6731768506
 20
13.9895783481
 10
3.6924959058
 20
13.9822807893
 10
3.7105087601
 20
13.9746145948
 10
3.7272285104
 20
13.9665834608
 10
3.7424863861
 20
13.9582684542
 10
3.756267581
 20
13.9496667
 10
3.7685869013
 20
13.9407810733
 10
3.7793199946
 20
13.9317012663
 10
3.7884507954
 20
13.9224253124
 10
3.7959953693
 20
13.9129551782
 10
3.8018775607
 20
13.9033864562
 10
3.8060719844
 20
13.8937510103
 10
3.8086040256
 20
13.8840169766
 10
3.8094736842
 20
13.874184355
  0
LWPOLYLINE
  5
3DF
100
AcDbEntity
  8
RACCORDO
100
AcDbPolyline
 62
7
  6
CONTINUOUS
 90
28
 70
0
 10
17.3094736842
 20
14.0423525535
 10
17.33870817
 20
14.0420600556
 10
17.367649533
 20
14.041208438
 10
17.396297773
 20
14.0397977006
 10
17.424747629
 20
14.0378193056
 10
17.4529043622
 20
14.0352817908
 10
17.4804837559
 20
14.0322107701
 10
17.5074799628
 20
14.0286008402
 10
17.5338988304
 20
14.0244574044
 10
17.5594736842
 20
14.019822287
 10
17.584195976
 20
14.014690508
 10
17.6080742541
 20
14.0090670475
 10
17.6308674891
 20
14.0030086689
 10
17.6525646914
 20
13.9965109675
 10
17.6731768506
 20
13.9895783481
 10
17.6924959058
 20
13.9822807893
 10
17.7105087601
 20
13.9746145948
 10
17.7272285104
 20
13.9665834608
 10
17.7424863861
 20
13.9582684542
 10
17.756267581
 20
13.9496667
 10
17.7685869013
 20
13.9407810733
 10
17.7793199946
 20
13.9317012663
 10
17.7884507954
 20
13.9224253124
 10
17.7959953693
 20
13.9129551782
 10
17.8018775607
 20
13.9033864562
 10
17.8060719844
 20
13.8937510103
 10
17.8086040256
 20
13.8840169766
 10
17.8094736842
 20
13.874184355
  0
LWPOLYLINE
  5
3E0
100
AcDbEntity
  8
RACCORDO
100
AcDbPolyline
 62
7
  6
CONTINUOUS
 90
28
 70
0
 10
38.3094736842
 20
14.0423525535
 10
38.33870817
 20
14.0420600556
 10
38.367649533
 20
14.041208438
 10
38.396297773
 20
14.0397977006
 10
38.424747629
 20
14.0378193056
 10
38.4529043622
 20
14.0352817908
 10
38.4804837559
 20
14.0322107701
 10
38.5074799628
 20
14.0286008402
 10
38.5338988304
 20
14.0244574044
 10
38.5594736842
 20
14.019822287
 10
38.584195976
 20
14.014690508
 10
38.6080742541
 20
14.0090670475
 10
38.6308674891
 20
14.0030086689
 10
38.6525646914
 20
13.9965109675
 10
38.6731768506
 20
13.9895783481
 10
38.6924959058
 20
13.9822807893
 10
38.7105087601
 20
13.9746145948
 10
38.7272285104
 20
13.9665834608
 10
38.7424863861
 20
13.9582684542
 10
38.756267581
 20
13.9496667
 10
38.7685869013
 20
13.9407810733
 10
38.7793199946
 20
13.9317012663
 10
38.7884507954
 20
13.9224253124
 10
38.7959953693
 20
13.9129551782
 10
38.8018775607
 20
13.9033864562
 10
38.8060719844
 20
13.8937510103
 10
38.8086040256
 20
13.8840169766
 10
38.8094736842
 20
13.874184355
  0
LWPOLYLINE
  5
3E1
100
AcDbEntity
  8
RACCORDO
100
AcDbPolyline
 62
7
  6
CONTINUOUS
 90
28
 70
0
 10
52.3094736842
 20
14.0423525535
 10
52.33870817
 20
14.0420600556
 10
52.367649533
 20
14.041208438
 10
52.396297773
 20
14.0397977006
 10
52.424747629
 20
14.0378193056
 10
52.4529043622
 20
14.0352817908
 10
52.4804837559
 20
14.0322107701
 10
52.5074799628
 20
14.0286008402
 10
52.5338988304
 20
14.0244574044
 10
52.5594736842
 20
14.019822287
 10
52.584195976
 20
14.014690508
 10
52.6080742541
 20
14.0090670475
 10
52.6308674891
 20
14.0030086689
 10
52.6525646914
 20
13.9965109675
 10
52.6731768506
 20
13.9895783481
 10
52.6924959058
 20
13.9822807893
 10
52.7105087601
 20
13.9746145948
 10
52.7272285104
 20
13.9665834608
 10
52.7424863861
 20
13.9582684542
 10
52.756267581
 20
13.9496667
 10
52.7685869013
 20
13.9407810733
 10
52.7793199946
 20
13.9317012663
 10
52.7884507954
 20
13.9224253124
 10
52.7959953693
 20
13.9129551782
 10
52.8018775607
 20
13.9033864562
 10
52.8060719844
 20
13.8937510103
 10
52.8086040256
 20
13.8840169766
 10
52.8094736842
 20
13.874184355
  0
LWPOLYLINE
  5
3E2
100
AcDbEntity
  8
RACCORDO
100
AcDbPolyline
 62
7
  6
CONTINUOUS
 90
28
 70
0
 10
73.3094736842
 20
14.0423525535
 10
73.33870817
 20
14.0420600556
 10
73.367649533
 20
14.041208438
 10
73.396297773
 20
14.0397977006
 10
73.424747629
 20
14.0378193056
 10
73.4529043622
 20
14.0352817908
 10
73.4804837559
 20
14.0322107701
 10
73.5074799628
 20
14.0286008402
 10
73.5338988304
 20
14.0244574044
 10
73.5594736842
 20
14.019822287
 10
73.584195976
 20
14.014690508
 10
73.6080742541
 20
14.0090670475
 10
73.6308674891
 20
14.0030086689
 10
73.6525646914
 20
13.9965109675
 10
73.6731768506
 20
13.9895783481
 10
73.6924959058
 20
13.9822807893
 10
73.7105087601
 20
13.9746145948
 10
73.7272285104
 20
13.9665834608
 10
73.7424863861
 20
13.9582684542
 10
73.756267581
 20
13.9496667
 10
73.7685869013
 20
13.9407810733
 10
73.7793199946
 20
13.9317012663
 10
73.7884507954
 20
13.9224253124
 10
73.7959953693
 20
13.9129551782
 10
73.8018775607
 20
13.9033864562
 10
73.8060719844
 20
13.8937510103
 10
73.8086040256
 20
13.8840169766
 10
73.8094736842
 20
13.874184355
  0
LWPOLYLINE
  5
3E3
100
AcDbEntity
  8
RACCORDO
100
AcDbPolyline
 62
7
  6
CONTINUOUS
 90
28
 70
0
 10
87.3094736842
 20
14.0423525535
 10
87.33870817
 20
14.0420600556
 10
87.367649533
 20
14.041208438
 10
87.396297773
 20
14.0397977006
 10
87.424747629
 20
14.0378193056
 10
87.4529043622
 20
14.0352817908
 10
87.4804837559
 20
14.0322107701
 10
87.5074799628
 20
14.0286008402
 10
87.5338988304
 20
14.0244574044
 10
87.5594736842
 20
14.019822287
 10
87.584195976
 20
14.014690508
 10
87.6080742541
 20
14.0090670475
 10
87.6308674891
 20
14.0030086689
 10
87.6525646914
 20
13.9965109675
 10
87.6731768506
 20
13.9895783481
 10
87.6924959058
 20
13.9822807893
 10
87.7105087601
 20
13.9746145948
 10
87.7272285104
 20
13.9665834608
 10
87.7424863861
 20
13.9582684542
 10
87.756267581
 20
13.9496667
 10
87.7685869013
 20
13.9407810733
 10
87.7793199946
 20
13.9317012663
 10
87.7884507954
 20
13.9224253124
 10
87.7959953693
 20
13.9129551782
 10
87.8018775607
 20
13.9033864562
 10
87.8060719844
 20
13.8937510103
 10
87.8086040256
 20
13.8840169766
 10
87.8094736842
 20
13.874184355
  0
LWPOLYLINE
  5
3E4
100
AcDbEntity
  8
RACCORDO
100
AcDbPolyline
 62
7
  6
CONTINUOUS
 90
28
 70
0
 10
108.3094736842
 20
14.0423525535
 10
108.33870817
 20
14.0420600556
 10
108.367649533
 20
14.041208438
 10
108.396297773
 20
14.0397977006
 10
108.424747629
 20
14.0378193056
 10
108.4529043622
 20
14.0352817908
 10
108.4804837559
 20
14.0322107701
 10
108.5074799628
 20
14.0286008402
 10
108.5338988304
 20
14.0244574044
 10
108.5594736842
 20
14.019822287
 10
108.584195976
 20
14.014690508
 10
108.6080742541
 20
14.0090670475
 10
108.6308674891
 20
14.0030086689
 10
108.6525646914
 20
13.9965109675
 10
108.6731768506
 20
13.9895783481
 10
108.6924959058
 20
13.9822807893
 10
108.7105087601
 20
13.9746145948
 10
108.7272285104
 20
13.9665834608
 10
108.7424863861
 20
13.9582684542
 10
108.756267581
 20
13.9496667
 10
108.7685869013
 20
13.9407810733
 10
108.7793199946
 20
13.9317012663
 10
108.7884507954
 20
13.9224253124
 10
108.7959953693
 20
13.9129551782
 10
108.8018775607
 20
13.9033864562
 10
108.8060719844
 20
13.8937510103
 10
108.8086040256
 20
13.8840169766
 10
108.8094736842
 20
13.874184355
  0
LWPOLYLINE
  5
3E5
100
AcDbEntity
  8
RACCORDO
100
AcDbPolyline
 62
7
  6
CONTINUOUS
 90
28
 70
0
 10
122.3094736842
 20
14.0423525535
 10
122.33870817
 20
14.0420600556
 10
122.367649533
 20
14.041208438
 10
122.396297773
 20
14.0397977006
 10
122.424747629
 20
14.0378193056
 10
122.4529043622
 20
14.0352817908
 10
122.4804837559
 20
14.0322107701
 10
122.5074799628
 20
14.0286008402
 10
122.5338988304
 20
14.0244574044
 10
122.5594736842
 20
14.019822287
 10
122.584195976
 20
14.014690508
 10
122.6080742541
 20
14.0090670475
 10
122.6308674891
 20
14.0030086689
 10
122.6525646914
 20
13.9965109675
 10
122.6731768506
 20
13.9895783481
 10
122.6924959058
 20
13.9822807893
 10
122.7105087601
 20
13.9746145948
 10
122.7272285104
 20
13.9665834608
 10
122.7424863861
 20
13.9582684542
 10
122.756267581
 20
13.9496667
 10
122.7685869013
 20
13.9407810733
 10
122.7793199946
 20
13.9317012663
 10
122.7884507954
 20
13.9224253124
 10
122.7959953693
 20
13.9129551782
 10
122.8018775607
 20
13.9033864562
 10
122.8060719844
 20
13.8937510103
 10
122.8086040256
 20
13.8840169766
 10
122.8094736842
 20
13.874184355
  0
LWPOLYLINE
  5
3E6
100
AcDbEntity
  8
RACCORDO
100
AcDbPolyline
 62
7
  6
CONTINUOUS
 90
28
 70
0
 10
143.3094736842
 20
14.0423525535
 10
143.33870817
 20
14.0420600556
 10
143.367649533
 20
14.041208438
 10
143.396297773
 20
14.0397977006
 10
143.424747629
 20
14.0378193056
 10
143.4529043622
 20
14.0352817908
 10
143.4804837559
 20
14.0322107701
 10
143.5074799628
 20
14.0286008402
 10
143.5338988304
 20
14.0244574044
 10
143.5594736842
 20
14.019822287
 10
143.584195976
 20
14.014690508
 10
143.6080742541
 20
14.0090670475
 10
143.6308674891
 20
14.0030086689
 10
143.6525646914
 20
13.9965109675
 10
143.6731768506
 20
13.9895783481
 10
143.6924959058
 20
13.9822807893
 10
143.7105087601
 20
13.9746145948
 10
143.7272285104
 20
13.9665834608
 10
143.7424863861
 20
13.9582684542
 10
143.756267581
 20
13.9496667
 10
143.7685869013
 20
13.9407810733
 10
143.7793199946
 20
13.9317012663
 10
143.7884507954
 20
13.9224253124
 10
143.7959953693
 20
13.9129551782
 10
143.8018775607
 20
13.9033864562
 10
143.8060719844
 20
13.8937510103
 10
143.8086040256
 20
13.8840169766
 10
143.8094736842
 20
13.874184355
  0
LWPOLYLINE
  5
3E7
100
AcDbEntity
  8
RACCORDO
100
AcDbPolyline
 62
7
  6
CONTINUOUS
 90
28
 70
0
 10
157.3094736842
 20
14.0423525535
 10
157.33870817
 20
14.0420600556
 10
157.367649533
 20
14.041208438
 10
157.396297773
 20
14.0397977006
 10
157.424747629
 20
14.0378193056
 10
157.4529043622
 20
14.0352817908
 10
157.4804837559
 20
14.0322107701
 10
157.5074799628
 20
14.0286008402
 10
157.5338988304
 20
14.0244574044
 10
157.5594736842
 20
14.019822287
 10
157.584195976
 20
14.014690508
 10
157.6080742541
 20
14.0090670475
 10
157.6308674891
 20
14.0030086689
 10
157.6525646914
 20
13.9965109675
 10
157.6731768506
 20
13.9895783481
 10
157.6924959058
 20
13.9822807893
 10
157.7105087601
 20
13.9746145948
 10
157.7272285104
 20
13.9665834608
 10
157.7424863861
 20
13.9582684542
 10
157.756267581
 20
13.9496667
 10
157.7685869013
 20
13.9407810733
 10
157.7793199946
 20
13.9317012663
 10
157.7884507954
 20
13.9224253124
 10
157.7959953693
 20
13.9129551782
 10
157.8018775607
 20
13.9033864562
 10
157.8060719844
 20
13.8937510103
 10
157.8086040256
 20
13.8840169766
 10
157.8094736842
 20
13.874184355
  0
LWPOLYLINE
  5
3E8
100
AcDbEntity
  8
RACCORDO
100
AcDbPolyline
 62
7
  6
CONTINUOUS
 90
28
 70
0
 10
178.3094736842
 20
14.0423525535
 10
178.33870817
 20
14.0420600556
 10
178.367649533
 20
14.041208438
 10
178.396297773
 20
14.0397977006
 10
178.424747629
 20
14.0378193056
 10
178.4529043622
 20
14.0352817908
 10
178.4804837559
 20
14.0322107701
 10
178.5074799628
 20
14.0286008402
 10
178.5338988304
 20
14.0244574044
 10
178.5594736842
 20
14.019822287
 10
178.584195976
 20
14.014690508
 10
178.6080742541
 20
14.0090670475
 10
178.6308674891
 20
14.0030086689
 10
178.6525646914
 20
13.9965109675
 10
178.6731768506
 20
13.9895783481
 10
178.6924959058
 20
13.9822807893
 10
178.7105087601
 20
13.9746145948
 10
178.7272285104
 20
13.9665834608
 10
178.7424863861
 20
13.9582684542
 10
178.756267581
 20
13.9496667
 10
178.7685869013
 20
13.9407810733
 10
178.7793199946
 20
13.9317012663
 10
178.7884507954
 20
13.9224253124
 10
178.7959953693
 20
13.9129551782
 10
178.8018775607
 20
13.9033864562
 10
178.8060719844
 20
13.8937510103
 10
178.8086040256
 20
13.8840169766
 10
178.8094736842
 20
13.874184355
  0
LWPOLYLINE
  5
3E9
100
AcDbEntity
  8
RACCORDO
100
AcDbPolyline
 62
7
  6
CONTINUOUS
 90
28
 70
0
 10
192.3094736842
 20
14.0423525535
 10
192.33870817
 20
14.0420600556
 10
192.367649533
 20
14.041208438
 10
192.396297773
 20
14.0397977006
 10
192.424747629
 20
14.0378193056
 10
192.4529043622
 20
14.0352817908
 10
192.4804837559
 20
14.0322107701
 10
192.5074799628
 20
14.0286008402
 10
192.5338988304
 20
14.0244574044
 10
192.5594736842
 20
14.019822287
 10
192.584195976
 20
14.014690508
 10
192.6080742541
 20
14.0090670475
 10
192.6308674891
 20
14.0030086689
 10
192.6525646914
 20
13.9965109675
 10
192.6731768506
 20
13.9895783481
 10
192.6924959058
 20
13.9822807893
 10
192.7105087601
 20
13.9746145948
 10
192.7272285104
 20
13.9665834608
 10
192.7424863861
 20
13.9582684542
 10
192.756267581
 20
13.9496667
 10
192.7685869013
 20
13.9407810733
 10
192.7793199946
 20
13.9317012663
 10
192.7884507954
 20
13.9224253124
 10
192.7959953693
 20
13.9129551782
 10
192.8018775607
 20
13.9033864562
 10
192.8060719844
 20
13.8937510103
 10
192.8086040256
 20
13.8840169766
 10
192.8094736842
 20
13.874184355
  0
LWPOLYLINE
  5
3EA
100
AcDbEntity
  8
RACCORDO
100
AcDbPolyline
 62
7
  6
CONTINUOUS
 90
11
 70
0
 10
211.8094736842
 20
14.8063157895
 10
211.8927703214
 20
14.8053369819
 10
211.9754250812
 20
14.802311522
 10
212.0573000968
 20
14.7973010208
 10
212.1382565913
 20
14.7903958607
 10
212.2181744302
 20
14.7816420817
 10
212.2969517332
 20
14.7710387917
 10
212.374472634
 20
14.7586634261
 10
212.4506273959
 20
14.744592025
 10
212.5253307411
 20
14.7288223115
 10
212.5833867845
 20
14.7150253474
  0
LWPOLYLINE
  5
3EB
100
AcDbEntity
  8
RACCORDO
100
AcDbPolyline
 62
7
  6
CONTINUOUS
 90
28
 70
0
 10
17.8094736842
 20
12.674184355
 10
17.8086040256
 20
12.6840169766
 10
17.8060719844
 20
12.6937510103
 10
17.8018775607
 20
12.7033864562
 10
17.7959953693
 20
12.7129551782
 10
17.7884507954
 20
12.7224253124
 10
17.7793199946
 20
12.7317012663
 10
17.7685869013
 20
12.7407810733
 10
17.756267581
 20
12.7496667
 10
17.7424863861
 20
12.7582684542
 10
17.7272285104
 20
12.7665834608
 10
17.7105087601
 20
12.7746145948
 10
17.6924959058
 20
12.7822807893
 10
17.6731768506
 20
12.7895783481
 10
17.6525646914
 20
12.7965109675
 10
17.6308674891
 20
12.8030086689
 10
17.6080742541
 20
12.8090670475
 10
17.584195976
 20
12.814690508
 10
17.5594736842
 20
12.819822287
 10
17.5338988304
 20
12.8244574044
 10
17.5074799628
 20
12.8286008402
 10
17.4804837559
 20
12.8322107701
 10
17.4529043622
 20
12.8352817908
 10
17.424747629
 20
12.8378193056
 10
17.396297773
 20
12.8397977006
 10
17.367649533
 20
12.841208438
 10
17.33870817
 20
12.8420600556
 10
17.3094736842
 20
12.8423525535
  0
LINE
  5
3EC
100
AcDbEntity
  8
0
100
AcDbLine
 62
7
  6
CONTINUOUS
 10
11.8094736842
 20
11.8333433625
 11
11.8094736842
 21
10.8243341715
  0
LINE
  5
3ED
100
AcDbEntity
  8
0
100
AcDbLine
 62
7
  6
CONTINUOUS
 10
15.8094736842
 20
10.8243341715
 11
15.8094736842
 21
11.8333433625
  0
LINE
  5
3EE
100
AcDbEntity
  8
RACCORDO
100
AcDbLine
 62
253
  6
CONTINUOUS
 10
17.3094736842
 20
12.8423525535
 11
17.3094736842
 21
14.0423525535
  0
LINE
  5
3EF
100
AcDbEntity
  8
ASSI
100
AcDbLine
 62
7
  6
CONTINUOUS
 10
17.3094736842
 20
14.0423525535
 11
17.3094736842
 21
16.0063157895
  0
LINE
  5
3F0
100
AcDbEntity
  8
RACCORDO
100
AcDbLine
 62
7
  6
CONTINUOUS
 10
17.8094736842
 20
12.001511561
 11
17.8094736842
 21
13.874184355
  0
LINE
  5
3F1
100
AcDbEntity
  8
ASSI
100
AcDbLine
 62
7
  6
CONTINUOUS
 10
19.1094736842
 20
12.0243341715
 11
19.1094736842
 21
16.0063157895
  0
LINE
  5
3F2
100
AcDbEntity
  8
ASSI
100
AcDbLine
 62
7
  6
CONTINUOUS
 10
-242.0905263158
 20
20.9563157895
 11
-237.0905263158
 21
20.9563157895
  0
LINE
  5
3F3
100
AcDbEntity
  8
ASSI
100
AcDbLine
 62
7
  6
CONTINUOUS
 10
222.7094736842
 20
20.9563157895
 11
227.7094736842
 21
20.9563157895
  0
LINE
  5
3F4
100
AcDbEntity
  8
RACCORDO
100
AcDbLine
 62
7
  6
CONTINUOUS
 10
-246.4905263158
 20
23.8063157895
 11
-224.6905263158
 21
23.8063157895
  0
LINE
  5
3F5
100
AcDbEntity
  8
RACCORDO
100
AcDbLine
 62
7
  6
CONTINUOUS
 10
210.3094736842
 20
23.8063157895
 11
232.1094736842
 21
23.8063157895
  0
LINE
  5
3F6
100
AcDbEntity
  8
0
100
AcDbLine
 62
7
  6
CONTINUOUS
 10
210.3094736842
 20
23.8063157895
 11
-224.6905263158
 21
23.8063157895
  0
LWPOLYLINE
  5
3F7
100
AcDbEntity
  8
RACCORDO
100
AcDbPolyline
 62
7
  6
CONTINUOUS
 90
28
 70
0
 10
30.8094736842
 20
12.001511561
 10
30.8103433429
 20
11.9916789393
 10
30.812875384
 20
11.9819449056
 10
30.8170698077
 20
11.9723094597
 10
30.8229519991
 20
11.9627407377
 10
30.830496573
 20
11.9532706035
 10
30.8396273738
 20
11.9439946496
 10
30.8503604671
 20
11.9349148426
 10
30.8626797874
 20
11.9260292159
 10
30.8764609823
 20
11.9174274617
 10
30.891718858
 20
11.9091124552
 10
30.9084386083
 20
11.9010813211
 10
30.9264514627
 20
11.8934151266
 10
30.9457705178
 20
11.8861175678
 10
30.966382677
 20
11.8791849484
 10
30.9880798794
 20
11.872687247
 10
31.0108731143
 20
11.8666288685
 10
31.0347513924
 20
11.8610054079
 10
31.0594736842
 20
11.8558736289
 10
31.085048538
 20
11.8512385115
 10
31.1114674056
 20
11.8470950757
 10
31.1384636125
 20
11.8434851458
 10
31.1660430063
 20
11.8404141251
 10
31.1941997394
 20
11.8378766103
 10
31.2226495954
 20
11.8358982153
 10
31.2512978354
 20
11.8344874779
 10
31.2802391984
 20
11.8336358603
 10
31.3094736842
 20
11.8333433625
  0
LWPOLYLINE
  5
3F8
100
AcDbEntity
  8
RACCORDO
100
AcDbPolyline
 62
7
  6
CONTINUOUS
 90
28
 70
0
 10
38.8094736842
 20
12.674184355
 10
38.8086040256
 20
12.6840169766
 10
38.8060719844
 20
12.6937510103
 10
38.8018775607
 20
12.7033864562
 10
38.7959953693
 20
12.7129551782
 10
38.7884507954
 20
12.7224253124
 10
38.7793199946
 20
12.7317012663
 10
38.7685869013
 20
12.7407810733
 10
38.756267581
 20
12.7496667
 10
38.7424863861
 20
12.7582684542
 10
38.7272285104
 20
12.7665834608
 10
38.7105087601
 20
12.7746145948
 10
38.6924959058
 20
12.7822807893
 10
38.6731768506
 20
12.7895783481
 10
38.6525646914
 20
12.7965109675
 10
38.6308674891
 20
12.8030086689
 10
38.6080742541
 20
12.8090670475
 10
38.584195976
 20
12.814690508
 10
38.5594736842
 20
12.819822287
 10
38.5338988304
 20
12.8244574044
 10
38.5074799628
 20
12.8286008402
 10
38.4804837559
 20
12.8322107701
 10
38.4529043622
 20
12.8352817908
 10
38.424747629
 20
12.8378193056
 10
38.396297773
 20
12.8397977006
 10
38.367649533
 20
12.841208438
 10
38.33870817
 20
12.8420600556
 10
38.3094736842
 20
12.8423525535
  0
LINE
  5
3F9
100
AcDbEntity
  8
ASSI
100
AcDbLine
 62
7
  6
CONTINUOUS
 10
27.5094736842
 20
12.0243341715
 11
27.5094736842
 21
16.0063157895
  0
LINE
  5
3FA
100
AcDbEntity
  8
ASSI
100
AcDbLine
 62
7
  6
CONTINUOUS
 10
29.3094736842
 20
12.0243341715
 11
29.3094736842
 21
16.0063157895
  0
LINE
  5
3FB
100
AcDbEntity
  8
RACCORDO
100
AcDbLine
 62
7
  6
CONTINUOUS
 10
30.8094736842
 20
12.001511561
 11
30.8094736842
 21
13.874184355
  0
LINE
  5
3FC
100
AcDbEntity
  8
RACCORDO
100
AcDbLine
 62
253
  6
CONTINUOUS
 10
31.3094736842
 20
12.8423525535
 11
31.3094736842
 21
14.0423525535
  0
LINE
  5
3FD
100
AcDbEntity
  8
0
100
AcDbLine
 62
7
  6
CONTINUOUS
 10
32.8094736842
 20
11.8333433625
 11
32.8094736842
 21
10.8243341715
  0
LINE
  5
3FE
100
AcDbEntity
  8
0
100
AcDbLine
 62
7
  6
CONTINUOUS
 10
36.8094736842
 20
10.8243341715
 11
36.8094736842
 21
11.8333433625
  0
LINE
  5
3FF
100
AcDbEntity
  8
RACCORDO
100
AcDbLine
 62
253
  6
CONTINUOUS
 10
38.3094736842
 20
12.8423525535
 11
38.3094736842
 21
14.0423525535
  0
LINE
  5
400
100
AcDbEntity
  8
RACCORDO
100
AcDbLine
 62
7
  6
CONTINUOUS
 10
38.8094736842
 20
12.001511561
 11
38.8094736842
 21
13.874184355
  0
LINE
  5
401
100
AcDbEntity
  8
ASSI
100
AcDbLine
 62
7
  6
CONTINUOUS
 10
39.5594736842
 20
12.0243341715
 11
39.5594736842
 21
16.0063157895
  0
LINE
  5
402
100
AcDbEntity
  8
ASSI
100
AcDbLine
 62
7
  6
CONTINUOUS
 10
42.0594736842
 20
12.0243341715
 11
42.0594736842
 21
16.0063157895
  0
LWPOLYLINE
  5
403
100
AcDbEntity
  8
RACCORDO
100
AcDbPolyline
 62
7
  6
CONTINUOUS
 90
28
 70
0
 10
30.8094736842
 20
13.874184355
 10
30.8103433429
 20
13.8840169766
 10
30.812875384
 20
13.8937510103
 10
30.8170698077
 20
13.9033864562
 10
30.8229519991
 20
13.9129551782
 10
30.830496573
 20
13.9224253124
 10
30.8396273738
 20
13.9317012663
 10
30.8503604671
 20
13.9407810733
 10
30.8626797874
 20
13.9496667
 10
30.8764609823
 20
13.9582684542
 10
30.891718858
 20
13.9665834608
 10
30.9084386083
 20
13.9746145948
 10
30.9264514627
 20
13.9822807893
 10
30.9457705178
 20
13.9895783481
 10
30.966382677
 20
13.9965109675
 10
30.9880798794
 20
14.0030086689
 10
31.0108731143
 20
14.0090670475
 10
31.0347513924
 20
14.014690508
 10
31.0594736842
 20
14.019822287
 10
31.085048538
 20
14.0244574044
 10
31.1114674056
 20
14.0286008402
 10
31.1384636125
 20
14.0322107701
 10
31.1660430063
 20
14.0352817908
 10
31.1941997394
 20
14.0378193056
 10
31.2226495954
 20
14.0397977006
 10
31.2512978354
 20
14.041208438
 10
31.2802391984
 20
14.0420600556
 10
31.3094736842
 20
14.0423525535
  0
LWPOLYLINE
  5
404
100
AcDbEntity
  8
RACCORDO
100
AcDbPolyline
 62
7
  6
CONTINUOUS
 90
28
 70
0
 10
44.8094736842
 20
12.001511561
 10
44.8103433429
 20
11.9916789393
 10
44.812875384
 20
11.9819449056
 10
44.8170698077
 20
11.9723094597
 10
44.8229519991
 20
11.9627407377
 10
44.830496573
 20
11.9532706035
 10
44.8396273738
 20
11.9439946496
 10
44.8503604671
 20
11.9349148426
 10
44.8626797874
 20
11.9260292159
 10
44.8764609823
 20
11.9174274617
 10
44.891718858
 20
11.9091124552
 10
44.9084386083
 20
11.9010813211
 10
44.9264514627
 20
11.8934151266
 10
44.9457705178
 20
11.8861175678
 10
44.966382677
 20
11.8791849484
 10
44.9880798794
 20
11.872687247
 10
45.0108731143
 20
11.8666288685
 10
45.0347513924
 20
11.8610054079
 10
45.0594736842
 20
11.8558736289
 10
45.085048538
 20
11.8512385115
 10
45.1114674056
 20
11.8470950757
 10
45.1384636125
 20
11.8434851458
 10
45.1660430063
 20
11.8404141251
 10
45.1941997394
 20
11.8378766103
 10
45.2226495954
 20
11.8358982153
 10
45.2512978354
 20
11.8344874779
 10
45.2802391984
 20
11.8336358603
 10
45.3094736842
 20
11.8333433625
  0
LWPOLYLINE
  5
405
100
AcDbEntity
  8
RACCORDO
100
AcDbPolyline
 62
7
  6
CONTINUOUS
 90
28
 70
0
 10
52.8094736842
 20
12.674184355
 10
52.8086040256
 20
12.6840169766
 10
52.8060719844
 20
12.6937510103
 10
52.8018775607
 20
12.7033864562
 10
52.7959953693
 20
12.7129551782
 10
52.7884507954
 20
12.7224253124
 10
52.7793199946
 20
12.7317012663
 10
52.7685869013
 20
12.7407810733
 10
52.756267581
 20
12.7496667
 10
52.7424863861
 20
12.7582684542
 10
52.7272285104
 20
12.7665834608
 10
52.7105087601
 20
12.7746145948
 10
52.6924959058
 20
12.7822807893
 10
52.6731768506
 20
12.7895783481
 10
52.6525646914
 20
12.7965109675
 10
52.6308674891
 20
12.8030086689
 10
52.6080742541
 20
12.8090670475
 10
52.584195976
 20
12.814690508
 10
52.5594736842
 20
12.819822287
 10
52.5338988304
 20
12.8244574044
 10
52.5074799628
 20
12.8286008402
 10
52.4804837559
 20
12.8322107701
 10
52.4529043622
 20
12.8352817908
 10
52.424747629
 20
12.8378193056
 10
52.396297773
 20
12.8397977006
 10
52.367649533
 20
12.841208438
 10
52.33870817
 20
12.8420600556
 10
52.3094736842
 20
12.8423525535
  0
LINE
  5
406
100
AcDbEntity
  8
RACCORDO
100
AcDbLine
 62
7
  6
CONTINUOUS
 10
44.8094736842
 20
12.001511561
 11
44.8094736842
 21
13.874184355
  0
LINE
  5
407
100
AcDbEntity
  8
RACCORDO
100
AcDbLine
 62
253
  6
CONTINUOUS
 10
45.3094736842
 20
12.8423525535
 11
45.3094736842
 21
14.0423525535
  0
LINE
  5
408
100
AcDbEntity
  8
0
100
AcDbLine
 62
7
  6
CONTINUOUS
 10
46.8094736842
 20
11.8333433625
 11
46.8094736842
 21
10.8243341715
  0
LINE
  5
409
100
AcDbEntity
  8
0
100
AcDbLine
 62
7
  6
CONTINUOUS
 10
50.8094736842
 20
10.8243341715
 11
50.8094736842
 21
11.8333433625
  0
LINE
  5
40A
100
AcDbEntity
  8
RACCORDO
100
AcDbLine
 62
253
  6
CONTINUOUS
 10
52.3094736842
 20
12.8423525535
 11
52.3094736842
 21
14.0423525535
  0
LINE
  5
40B
100
AcDbEntity
  8
ASSI
100
AcDbLine
 62
7
  6
CONTINUOUS
 10
52.3094736842
 20
14.0423525535
 11
52.3094736842
 21
16.0063157895
  0
LINE
  5
40C
100
AcDbEntity
  8
RACCORDO
100
AcDbLine
 62
7
  6
CONTINUOUS
 10
52.8094736842
 20
12.001511561
 11
52.8094736842
 21
13.874184355
  0
LINE
  5
40D
100
AcDbEntity
  8
ASSI
100
AcDbLine
 62
7
  6
CONTINUOUS
 10
54.1094736842
 20
12.0243341715
 11
54.1094736842
 21
16.0063157895
  0
LWPOLYLINE
  5
40E
100
AcDbEntity
  8
RACCORDO
100
AcDbPolyline
 62
7
  6
CONTINUOUS
 90
28
 70
0
 10
44.8094736842
 20
13.874184355
 10
44.8103433429
 20
13.8840169766
 10
44.812875384
 20
13.8937510103
 10
44.8170698077
 20
13.9033864562
 10
44.8229519991
 20
13.9129551782
 10
44.830496573
 20
13.9224253124
 10
44.8396273738
 20
13.9317012663
 10
44.8503604671
 20
13.9407810733
 10
44.8626797874
 20
13.9496667
 10
44.8764609823
 20
13.9582684542
 10
44.891718858
 20
13.9665834608
 10
44.9084386083
 20
13.9746145948
 10
44.9264514627
 20
13.9822807893
 10
44.9457705178
 20
13.9895783481
 10
44.966382677
 20
13.9965109675
 10
44.9880798794
 20
14.0030086689
 10
45.0108731143
 20
14.0090670475
 10
45.0347513924
 20
14.014690508
 10
45.0594736842
 20
14.019822287
 10
45.085048538
 20
14.0244574044
 10
45.1114674056
 20
14.0286008402
 10
45.1384636125
 20
14.0322107701
 10
45.1660430063
 20
14.0352817908
 10
45.1941997394
 20
14.0378193056
 10
45.2226495954
 20
14.0397977006
 10
45.2512978354
 20
14.041208438
 10
45.2802391984
 20
14.0420600556
 10
45.3094736842
 20
14.0423525535
  0
LWPOLYLINE
  5
40F
100
AcDbEntity
  8
RACCORDO
100
AcDbPolyline
 62
7
  6
CONTINUOUS
 90
28
 70
0
 10
65.8094736842
 20
12.001511561
 10
65.8103433429
 20
11.9916789393
 10
65.812875384
 20
11.9819449056
 10
65.8170698077
 20
11.9723094597
 10
65.8229519991
 20
11.9627407377
 10
65.830496573
 20
11.9532706035
 10
65.8396273738
 20
11.9439946496
 10
65.8503604671
 20
11.9349148426
 10
65.8626797874
 20
11.9260292159
 10
65.8764609823
 20
11.9174274617
 10
65.891718858
 20
11.9091124552
 10
65.9084386083
 20
11.9010813211
 10
65.9264514627
 20
11.8934151266
 10
65.9457705178
 20
11.8861175678
 10
65.966382677
 20
11.8791849484
 10
65.9880798794
 20
11.872687247
 10
66.0108731143
 20
11.8666288685
 10
66.0347513924
 20
11.8610054079
 10
66.0594736842
 20
11.8558736289
 10
66.085048538
 20
11.8512385115
 10
66.1114674056
 20
11.8470950757
 10
66.1384636125
 20
11.8434851458
 10
66.1660430063
 20
11.8404141251
 10
66.1941997394
 20
11.8378766103
 10
66.2226495954
 20
11.8358982153
 10
66.2512978354
 20
11.8344874779
 10
66.2802391984
 20
11.8336358603
 10
66.3094736842
 20
11.8333433625
  0
LWPOLYLINE
  5
410
100
AcDbEntity
  8
RACCORDO
100
AcDbPolyline
 62
7
  6
CONTINUOUS
 90
28
 70
0
 10
73.8094736842
 20
12.674184355
 10
73.8086040256
 20
12.6840169766
 10
73.8060719844
 20
12.6937510103
 10
73.8018775607
 20
12.7033864562
 10
73.7959953693
 20
12.7129551782
 10
73.7884507954
 20
12.7224253124
 10
73.7793199946
 20
12.7317012663
 10
73.7685869013
 20
12.7407810733
 10
73.756267581
 20
12.7496667
 10
73.7424863861
 20
12.7582684542
 10
73.7272285104
 20
12.7665834608
 10
73.7105087601
 20
12.7746145948
 10
73.6924959058
 20
12.7822807893
 10
73.6731768506
 20
12.7895783481
 10
73.6525646914
 20
12.7965109675
 10
73.6308674891
 20
12.8030086689
 10
73.6080742541
 20
12.8090670475
 10
73.584195976
 20
12.814690508
 10
73.5594736842
 20
12.819822287
 10
73.5338988304
 20
12.8244574044
 10
73.5074799628
 20
12.8286008402
 10
73.4804837559
 20
12.8322107701
 10
73.4529043622
 20
12.8352817908
 10
73.424747629
 20
12.8378193056
 10
73.396297773
 20
12.8397977006
 10
73.367649533
 20
12.841208438
 10
73.33870817
 20
12.8420600556
 10
73.3094736842
 20
12.8423525535
  0
LINE
  5
411
100
AcDbEntity
  8
ASSI
100
AcDbLine
 62
7
  6
CONTINUOUS
 10
62.5094736842
 20
12.0243341715
 11
62.5094736842
 21
16.0063157895
  0
LINE
  5
412
100
AcDbEntity
  8
ASSI
100
AcDbLine
 62
7
  6
CONTINUOUS
 10
64.3094736842
 20
12.0243341715
 11
64.3094736842
 21
16.0063157895
  0
LINE
  5
413
100
AcDbEntity
  8
RACCORDO
100
AcDbLine
 62
7
  6
CONTINUOUS
 10
65.8094736842
 20
12.001511561
 11
65.8094736842
 21
13.874184355
  0
LINE
  5
414
100
AcDbEntity
  8
RACCORDO
100
AcDbLine
 62
253
  6
CONTINUOUS
 10
66.3094736842
 20
12.8423525535
 11
66.3094736842
 21
14.0423525535
  0
LINE
  5
415
100
AcDbEntity
  8
0
100
AcDbLine
 62
7
  6
CONTINUOUS
 10
67.8094736842
 20
11.8333433625
 11
67.8094736842
 21
10.8243341715
  0
LINE
  5
416
100
AcDbEntity
  8
0
100
AcDbLine
 62
7
  6
CONTINUOUS
 10
71.8094736842
 20
10.8243341715
 11
71.8094736842
 21
11.8333433625
  0
LINE
  5
417
100
AcDbEntity
  8
RACCORDO
100
AcDbLine
 62
253
  6
CONTINUOUS
 10
73.3094736842
 20
12.8423525535
 11
73.3094736842
 21
14.0423525535
  0
LINE
  5
418
100
AcDbEntity
  8
RACCORDO
100
AcDbLine
 62
7
  6
CONTINUOUS
 10
73.8094736842
 20
12.001511561
 11
73.8094736842
 21
13.874184355
  0
LINE
  5
419
100
AcDbEntity
  8
ASSI
100
AcDbLine
 62
7
  6
CONTINUOUS
 10
74.5594736842
 20
12.0243341715
 11
74.5594736842
 21
16.0063157895
  0
LWPOLYLINE
  5
41A
100
AcDbEntity
  8
RACCORDO
100
AcDbPolyline
 62
7
  6
CONTINUOUS
 90
28
 70
0
 10
65.8094736842
 20
13.874184355
 10
65.8103433429
 20
13.8840169766
 10
65.812875384
 20
13.8937510103
 10
65.8170698077
 20
13.9033864562
 10
65.8229519991
 20
13.9129551782
 10
65.830496573
 20
13.9224253124
 10
65.8396273738
 20
13.9317012663
 10
65.8503604671
 20
13.9407810733
 10
65.8626797874
 20
13.9496667
 10
65.8764609823
 20
13.9582684542
 10
65.891718858
 20
13.9665834608
 10
65.9084386083
 20
13.9746145948
 10
65.9264514627
 20
13.9822807893
 10
65.9457705178
 20
13.9895783481
 10
65.966382677
 20
13.9965109675
 10
65.9880798794
 20
14.0030086689
 10
66.0108731143
 20
14.0090670475
 10
66.0347513924
 20
14.014690508
 10
66.0594736842
 20
14.019822287
 10
66.085048538
 20
14.0244574044
 10
66.1114674056
 20
14.0286008402
 10
66.1384636125
 20
14.0322107701
 10
66.1660430063
 20
14.0352817908
 10
66.1941997394
 20
14.0378193056
 10
66.2226495954
 20
14.0397977006
 10
66.2512978354
 20
14.041208438
 10
66.2802391984
 20
14.0420600556
 10
66.3094736842
 20
14.0423525535
  0
LWPOLYLINE
  5
41B
100
AcDbEntity
  8
RACCORDO
100
AcDbPolyline
 62
7
  6
CONTINUOUS
 90
28
 70
0
 10
79.8094736842
 20
12.001511561
 10
79.8103433429
 20
11.9916789393
 10
79.812875384
 20
11.9819449056
 10
79.8170698077
 20
11.9723094597
 10
79.8229519991
 20
11.9627407377
 10
79.830496573
 20
11.9532706035
 10
79.8396273738
 20
11.9439946496
 10
79.8503604671
 20
11.9349148426
 10
79.8626797874
 20
11.9260292159
 10
79.8764609823
 20
11.9174274617
 10
79.891718858
 20
11.9091124552
 10
79.9084386083
 20
11.9010813211
 10
79.9264514627
 20
11.8934151266
 10
79.9457705178
 20
11.8861175678
 10
79.966382677
 20
11.8791849484
 10
79.9880798794
 20
11.872687247
 10
80.0108731143
 20
11.8666288685
 10
80.0347513924
 20
11.8610054079
 10
80.0594736842
 20
11.8558736289
 10
80.085048538
 20
11.8512385115
 10
80.1114674056
 20
11.8470950757
 10
80.1384636125
 20
11.8434851458
 10
80.1660430063
 20
11.8404141251
 10
80.1941997394
 20
11.8378766103
 10
80.2226495954
 20
11.8358982153
 10
80.2512978354
 20
11.8344874779
 10
80.2802391984
 20
11.8336358603
 10
80.3094736842
 20
11.8333433625
  0
LWPOLYLINE
  5
41C
100
AcDbEntity
  8
RACCORDO
100
AcDbPolyline
 62
7
  6
CONTINUOUS
 90
28
 70
0
 10
87.8094736842
 20
12.674184355
 10
87.8086040256
 20
12.6840169766
 10
87.8060719844
 20
12.6937510103
 10
87.8018775607
 20
12.7033864562
 10
87.7959953693
 20
12.7129551782
 10
87.7884507954
 20
12.7224253124
 10
87.7793199946
 20
12.7317012663
 10
87.7685869013
 20
12.7407810733
 10
87.756267581
 20
12.7496667
 10
87.7424863861
 20
12.7582684542
 10
87.7272285104
 20
12.7665834608
 10
87.7105087601
 20
12.7746145948
 10
87.6924959058
 20
12.7822807893
 10
87.6731768506
 20
12.7895783481
 10
87.6525646914
 20
12.7965109675
 10
87.6308674891
 20
12.8030086689
 10
87.6080742541
 20
12.8090670475
 10
87.584195976
 20
12.814690508
 10
87.5594736842
 20
12.819822287
 10
87.5338988304
 20
12.8244574044
 10
87.5074799628
 20
12.8286008402
 10
87.4804837559
 20
12.8322107701
 10
87.4529043622
 20
12.8352817908
 10
87.424747629
 20
12.8378193056
 10
87.396297773
 20
12.8397977006
 10
87.367649533
 20
12.841208438
 10
87.33870817
 20
12.8420600556
 10
87.3094736842
 20
12.8423525535
  0
LINE
  5
41D
100
AcDbEntity
  8
ASSI
100
AcDbLine
 62
7
  6
CONTINUOUS
 10
77.0594736842
 20
12.0243341715
 11
77.0594736842
 21
16.0063157895
  0
LINE
  5
41E
100
AcDbEntity
  8
RACCORDO
100
AcDbLine
 62
7
  6
CONTINUOUS
 10
79.8094736842
 20
12.001511561
 11
79.8094736842
 21
13.874184355
  0
LINE
  5
41F
100
AcDbEntity
  8
RACCORDO
100
AcDbLine
 62
253
  6
CONTINUOUS
 10
80.3094736842
 20
12.8423525535
 11
80.3094736842
 21
14.0423525535
  0
LINE
  5
420
100
AcDbEntity
  8
0
100
AcDbLine
 62
7
  6
CONTINUOUS
 10
81.8094736842
 20
11.8333433625
 11
81.8094736842
 21
10.8243341715
  0
LINE
  5
421
100
AcDbEntity
  8
0
100
AcDbLine
 62
7
  6
CONTINUOUS
 10
85.8094736842
 20
10.8243341715
 11
85.8094736842
 21
11.8333433625
  0
LINE
  5
422
100
AcDbEntity
  8
RACCORDO
100
AcDbLine
 62
253
  6
CONTINUOUS
 10
87.3094736842
 20
12.8423525535
 11
87.3094736842
 21
14.0423525535
  0
LINE
  5
423
100
AcDbEntity
  8
ASSI
100
AcDbLine
 62
7
  6
CONTINUOUS
 10
87.3094736842
 20
14.0423525535
 11
87.3094736842
 21
16.0063157895
  0
LINE
  5
424
100
AcDbEntity
  8
RACCORDO
100
AcDbLine
 62
7
  6
CONTINUOUS
 10
87.8094736842
 20
12.001511561
 11
87.8094736842
 21
13.874184355
  0
LINE
  5
425
100
AcDbEntity
  8
ASSI
100
AcDbLine
 62
7
  6
CONTINUOUS
 10
89.1094736842
 20
12.0243341715
 11
89.1094736842
 21
16.0063157895
  0
LWPOLYLINE
  5
426
100
AcDbEntity
  8
RACCORDO
100
AcDbPolyline
 62
7
  6
CONTINUOUS
 90
28
 70
0
 10
79.8094736842
 20
13.874184355
 10
79.8103433429
 20
13.8840169766
 10
79.812875384
 20
13.8937510103
 10
79.8170698077
 20
13.9033864562
 10
79.8229519991
 20
13.9129551782
 10
79.830496573
 20
13.9224253124
 10
79.8396273738
 20
13.9317012663
 10
79.8503604671
 20
13.9407810733
 10
79.8626797874
 20
13.9496667
 10
79.8764609823
 20
13.9582684542
 10
79.891718858
 20
13.9665834608
 10
79.9084386083
 20
13.9746145948
 10
79.9264514627
 20
13.9822807893
 10
79.9457705178
 20
13.9895783481
 10
79.966382677
 20
13.9965109675
 10
79.9880798794
 20
14.0030086689
 10
80.0108731143
 20
14.0090670475
 10
80.0347513924
 20
14.014690508
 10
80.0594736842
 20
14.019822287
 10
80.085048538
 20
14.0244574044
 10
80.1114674056
 20
14.0286008402
 10
80.1384636125
 20
14.0322107701
 10
80.1660430063
 20
14.0352817908
 10
80.1941997394
 20
14.0378193056
 10
80.2226495954
 20
14.0397977006
 10
80.2512978354
 20
14.041208438
 10
80.2802391984
 20
14.0420600556
 10
80.3094736842
 20
14.0423525535
  0
LWPOLYLINE
  5
427
100
AcDbEntity
  8
RACCORDO
100
AcDbPolyline
 62
7
  6
CONTINUOUS
 90
30
 70
0
 10
212.8077854342
 20
14.6501664067
 10
212.8739109982
 20
14.6269026402
 10
212.9381103673
 20
14.6022710082
 10
213.0003146732
 20
14.576360594
 10
213.0604610029
 20
14.5492608736
 10
213.118510463
 20
14.5209641188
 10
213.174408304
 20
14.491559705
 10
213.2281047679
 20
14.4611380239
 10
213.2795721878
 20
14.4296900516
 10
213.3287687373
 20
14.3973043628
 10
213.3756567659
 20
14.3640710568
 10
213.4202178398
 20
14.3299804568
 10
213.4624219196
 20
14.2951195468
 10
213.502242536
 20
14.2595772203
 10
213.5396690569
 20
14.2233438199
 10
213.5746822245
 20
14.1865041537
 10
213.6072659543
 20
14.1491452076
 10
213.6374165417
 20
14.111257943
 10
213.6651246607
 20
14.0729245214
 10
213.6903839205
 20
14.0342294584
 10
213.7131971138
 20
13.995164815
 10
213.733564114
 20
13.955809725
 10
213.7514876399
 20
13.9162457136
 10
213.7669769017
 20
13.8764661632
 10
213.7800403512
 20
13.8365467785
 10
213.7906892281
 20
13.7965656339
 10
213.7989391767
 20
13.7565174853
 10
213.8048068367
 20
13.7164492367
 10
213.8083109868
 20
13.6764600263
 10
213.8094736842
 20
13.6366208206
  0
LWPOLYLINE
  5
428
100
AcDbEntity
  8
RACCORDO
100
AcDbPolyline
 62
7
  6
CONTINUOUS
 90
28
 70
0
 10
100.8094736842
 20
12.001511561
 10
100.8103433429
 20
11.9916789393
 10
100.812875384
 20
11.9819449056
 10
100.8170698077
 20
11.9723094597
 10
100.8229519991
 20
11.9627407377
 10
100.830496573
 20
11.9532706035
 10
100.8396273738
 20
11.9439946496
 10
100.8503604671
 20
11.9349148426
 10
100.8626797874
 20
11.9260292159
 10
100.8764609823
 20
11.9174274617
 10
100.891718858
 20
11.9091124552
 10
100.9084386083
 20
11.9010813211
 10
100.9264514627
 20
11.8934151266
 10
100.9457705178
 20
11.8861175678
 10
100.966382677
 20
11.8791849484
 10
100.9880798794
 20
11.872687247
 10
101.0108731143
 20
11.8666288685
 10
101.0347513924
 20
11.8610054079
 10
101.0594736842
 20
11.8558736289
 10
101.085048538
 20
11.8512385115
 10
101.1114674056
 20
11.8470950757
 10
101.1384636125
 20
11.8434851458
 10
101.1660430063
 20
11.8404141251
 10
101.1941997394
 20
11.8378766103
 10
101.2226495954
 20
11.8358982153
 10
101.2512978354
 20
11.8344874779
 10
101.2802391984
 20
11.8336358603
 10
101.3094736842
 20
11.8333433625
  0
LINE
  5
429
100
AcDbEntity
  8
ASSI
100
AcDbLine
 62
7
  6
CONTINUOUS
 10
97.5094736842
 20
12.0243341715
 11
97.5094736842
 21
16.0063157895
  0
LINE
  5
42A
100
AcDbEntity
  8
ASSI
100
AcDbLine
 62
7
  6
CONTINUOUS
 10
99.3094736842
 20
12.0243341715
 11
99.3094736842
 21
16.0063157895
  0
LINE
  5
42B
100
AcDbEntity
  8
RACCORDO
100
AcDbLine
 62
7
  6
CONTINUOUS
 10
100.8094736842
 20
12.001511561
 11
100.8094736842
 21
13.874184355
  0
LINE
  5
42C
100
AcDbEntity
  8
RACCORDO
100
AcDbLine
 62
253
  6
CONTINUOUS
 10
101.3094736842
 20
12.8423525535
 11
101.3094736842
 21
14.0423525535
  0
LINE
  5
42D
100
AcDbEntity
  8
0
100
AcDbLine
 62
7
  6
CONTINUOUS
 10
102.8094736842
 20
11.8333433625
 11
102.8094736842
 21
10.8243341715
  0
LINE
  5
42E
100
AcDbEntity
  8
0
100
AcDbLine
 62
7
  6
CONTINUOUS
 10
106.8094736842
 20
10.8243341715
 11
106.8094736842
 21
11.8333433625
  0
LWPOLYLINE
  5
42F
100
AcDbEntity
  8
RACCORDO
100
AcDbPolyline
 62
7
  6
CONTINUOUS
 90
28
 70
0
 10
100.8094736842
 20
13.874184355
 10
100.8103433429
 20
13.8840169766
 10
100.812875384
 20
13.8937510103
 10
100.8170698077
 20
13.9033864562
 10
100.8229519991
 20
13.9129551782
 10
100.830496573
 20
13.9224253124
 10
100.8396273738
 20
13.9317012663
 10
100.8503604671
 20
13.9407810733
 10
100.8626797874
 20
13.9496667
 10
100.8764609823
 20
13.9582684542
 10
100.891718858
 20
13.9665834608
 10
100.9084386083
 20
13.9746145948
 10
100.9264514627
 20
13.9822807893
 10
100.9457705178
 20
13.9895783481
 10
100.966382677
 20
13.9965109675
 10
100.9880798794
 20
14.0030086689
 10
101.0108731143
 20
14.0090670475
 10
101.0347513924
 20
14.014690508
 10
101.0594736842
 20
14.019822287
 10
101.085048538
 20
14.0244574044
 10
101.1114674056
 20
14.0286008402
 10
101.1384636125
 20
14.0322107701
 10
101.1660430063
 20
14.0352817908
 10
101.1941997394
 20
14.0378193056
 10
101.2226495954
 20
14.0397977006
 10
101.2512978354
 20
14.041208438
 10
101.2802391984
 20
14.0420600556
 10
101.3094736842
 20
14.0423525535
  0
LWPOLYLINE
  5
430
100
AcDbEntity
  8
RACCORDO
100
AcDbPolyline
 62
7
  6
CONTINUOUS
 90
28
 70
0
 10
108.8094736842
 20
12.674184355
 10
108.8086040256
 20
12.6840169766
 10
108.8060719844
 20
12.6937510103
 10
108.8018775607
 20
12.7033864562
 10
108.7959953693
 20
12.7129551782
 10
108.7884507954
 20
12.7224253124
 10
108.7793199946
 20
12.7317012663
 10
108.7685869013
 20
12.7407810733
 10
108.756267581
 20
12.7496667
 10
108.7424863861
 20
12.7582684542
 10
108.7272285104
 20
12.7665834608
 10
108.7105087601
 20
12.7746145948
 10
108.6924959058
 20
12.7822807893
 10
108.6731768506
 20
12.7895783481
 10
108.6525646914
 20
12.7965109675
 10
108.6308674891
 20
12.8030086689
 10
108.6080742541
 20
12.8090670475
 10
108.584195976
 20
12.814690508
 10
108.5594736842
 20
12.819822287
 10
108.5338988304
 20
12.8244574044
 10
108.5074799628
 20
12.8286008402
 10
108.4804837559
 20
12.8322107701
 10
108.4529043622
 20
12.8352817908
 10
108.424747629
 20
12.8378193056
 10
108.396297773
 20
12.8397977006
 10
108.367649533
 20
12.841208438
 10
108.33870817
 20
12.8420600556
 10
108.3094736842
 20
12.8423525535
  0
LWPOLYLINE
  5
431
100
AcDbEntity
  8
RACCORDO
100
AcDbPolyline
 62
7
  6
CONTINUOUS
 90
28
 70
0
 10
114.8094736842
 20
12.001511561
 10
114.8103433429
 20
11.9916789393
 10
114.812875384
 20
11.9819449056
 10
114.8170698077
 20
11.9723094597
 10
114.8229519991
 20
11.9627407377
 10
114.830496573
 20
11.9532706035
 10
114.8396273738
 20
11.9439946496
 10
114.8503604671
 20
11.9349148426
 10
114.8626797874
 20
11.9260292159
 10
114.8764609823
 20
11.9174274617
 10
114.891718858
 20
11.9091124552
 10
114.9084386083
 20
11.9010813211
 10
114.9264514627
 20
11.8934151266
 10
114.9457705178
 20
11.8861175678
 10
114.966382677
 20
11.8791849484
 10
114.9880798794
 20
11.872687247
 10
115.0108731143
 20
11.8666288685
 10
115.0347513924
 20
11.8610054079
 10
115.0594736842
 20
11.8558736289
 10
115.085048538
 20
11.8512385115
 10
115.1114674056
 20
11.8470950757
 10
115.1384636125
 20
11.8434851458
 10
115.1660430063
 20
11.8404141251
 10
115.1941997394
 20
11.8378766103
 10
115.2226495954
 20
11.8358982153
 10
115.2512978354
 20
11.8344874779
 10
115.2802391984
 20
11.8336358603
 10
115.3094736842
 20
11.8333433625
  0
LWPOLYLINE
  5
432
100
AcDbEntity
  8
RACCORDO
100
AcDbPolyline
 62
7
  6
CONTINUOUS
 90
28
 70
0
 10
122.8094736842
 20
12.674184355
 10
122.8086040256
 20
12.6840169766
 10
122.8060719844
 20
12.6937510103
 10
122.8018775607
 20
12.7033864562
 10
122.7959953693
 20
12.7129551782
 10
122.7884507954
 20
12.7224253124
 10
122.7793199946
 20
12.7317012663
 10
122.7685869013
 20
12.7407810733
 10
122.756267581
 20
12.7496667
 10
122.7424863861
 20
12.7582684542
 10
122.7272285104
 20
12.7665834608
 10
122.7105087601
 20
12.7746145948
 10
122.6924959058
 20
12.7822807893
 10
122.6731768506
 20
12.7895783481
 10
122.6525646914
 20
12.7965109675
 10
122.6308674891
 20
12.8030086689
 10
122.6080742541
 20
12.8090670475
 10
122.584195976
 20
12.814690508
 10
122.5594736842
 20
12.819822287
 10
122.5338988304
 20
12.8244574044
 10
122.5074799628
 20
12.8286008402
 10
122.4804837559
 20
12.8322107701
 10
122.4529043622
 20
12.8352817908
 10
122.424747629
 20
12.8378193056
 10
122.396297773
 20
12.8397977006
 10
122.367649533
 20
12.841208438
 10
122.33870817
 20
12.8420600556
 10
122.3094736842
 20
12.8423525535
  0
LINE
  5
433
100
AcDbEntity
  8
RACCORDO
100
AcDbLine
 62
253
  6
CONTINUOUS
 10
108.3094736842
 20
12.8423525535
 11
108.3094736842
 21
14.0423525535
  0
LINE
  5
434
100
AcDbEntity
  8
RACCORDO
100
AcDbLine
 62
7
  6
CONTINUOUS
 10
108.8094736842
 20
12.001511561
 11
108.8094736842
 21
13.874184355
  0
LINE
  5
435
100
AcDbEntity
  8
ASSI
100
AcDbLine
 62
7
  6
CONTINUOUS
 10
109.5594736842
 20
12.0243341715
 11
109.5594736842
 21
16.0063157895
  0
LINE
  5
436
100
AcDbEntity
  8
ASSI
100
AcDbLine
 62
7
  6
CONTINUOUS
 10
112.0594736842
 20
12.0243341715
 11
112.0594736842
 21
16.0063157895
  0
LINE
  5
437
100
AcDbEntity
  8
RACCORDO
100
AcDbLine
 62
7
  6
CONTINUOUS
 10
114.8094736842
 20
12.001511561
 11
114.8094736842
 21
13.874184355
  0
LINE
  5
438
100
AcDbEntity
  8
RACCORDO
100
AcDbLine
 62
253
  6
CONTINUOUS
 10
115.3094736842
 20
12.8423525535
 11
115.3094736842
 21
14.0423525535
  0
LINE
  5
439
100
AcDbEntity
  8
0
100
AcDbLine
 62
7
  6
CONTINUOUS
 10
116.8094736842
 20
11.8333433625
 11
116.8094736842
 21
10.8243341715
  0
LINE
  5
43A
100
AcDbEntity
  8
0
100
AcDbLine
 62
7
  6
CONTINUOUS
 10
120.8094736842
 20
10.8243341715
 11
120.8094736842
 21
11.8333433625
  0
LINE
  5
43B
100
AcDbEntity
  8
RACCORDO
100
AcDbLine
 62
253
  6
CONTINUOUS
 10
122.3094736842
 20
12.8423525535
 11
122.3094736842
 21
14.0423525535
  0
LINE
  5
43C
100
AcDbEntity
  8
ASSI
100
AcDbLine
 62
7
  6
CONTINUOUS
 10
122.3094736842
 20
14.0423525535
 11
122.3094736842
 21
16.0063157895
  0
LINE
  5
43D
100
AcDbEntity
  8
RACCORDO
100
AcDbLine
 62
7
  6
CONTINUOUS
 10
122.8094736842
 20
12.001511561
 11
122.8094736842
 21
13.874184355
  0
LINE
  5
43E
100
AcDbEntity
  8
ASSI
100
AcDbLine
 62
7
  6
CONTINUOUS
 10
124.1094736842
 20
12.0243341715
 11
124.1094736842
 21
16.0063157895
  0
LWPOLYLINE
  5
43F
100
AcDbEntity
  8
RACCORDO
100
AcDbPolyline
 62
7
  6
CONTINUOUS
 90
28
 70
0
 10
114.8094736842
 20
13.874184355
 10
114.8103433429
 20
13.8840169766
 10
114.812875384
 20
13.8937510103
 10
114.8170698077
 20
13.9033864562
 10
114.8229519991
 20
13.9129551782
 10
114.830496573
 20
13.9224253124
 10
114.8396273738
 20
13.9317012663
 10
114.8503604671
 20
13.9407810733
 10
114.8626797874
 20
13.9496667
 10
114.8764609823
 20
13.9582684542
 10
114.891718858
 20
13.9665834608
 10
114.9084386083
 20
13.9746145948
 10
114.9264514627
 20
13.9822807893
 10
114.9457705178
 20
13.9895783481
 10
114.966382677
 20
13.9965109675
 10
114.9880798794
 20
14.0030086689
 10
115.0108731143
 20
14.0090670475
 10
115.0347513924
 20
14.014690508
 10
115.0594736842
 20
14.019822287
 10
115.085048538
 20
14.0244574044
 10
115.1114674056
 20
14.0286008402
 10
115.1384636125
 20
14.0322107701
 10
115.1660430063
 20
14.0352817908
 10
115.1941997394
 20
14.0378193056
 10
115.2226495954
 20
14.0397977006
 10
115.2512978354
 20
14.041208438
 10
115.2802391984
 20
14.0420600556
 10
115.3094736842
 20
14.0423525535
  0
LWPOLYLINE
  5
440
100
AcDbEntity
  8
RACCORDO
100
AcDbPolyline
 62
7
  6
CONTINUOUS
 90
28
 70
0
 10
135.8094736842
 20
12.001511561
 10
135.8103433429
 20
11.9916789393
 10
135.812875384
 20
11.9819449056
 10
135.8170698077
 20
11.9723094597
 10
135.8229519991
 20
11.9627407377
 10
135.830496573
 20
11.9532706035
 10
135.8396273738
 20
11.9439946496
 10
135.8503604671
 20
11.9349148426
 10
135.8626797874
 20
11.9260292159
 10
135.8764609823
 20
11.9174274617
 10
135.891718858
 20
11.9091124552
 10
135.9084386083
 20
11.9010813211
 10
135.9264514627
 20
11.8934151266
 10
135.9457705178
 20
11.8861175678
 10
135.966382677
 20
11.8791849484
 10
135.9880798794
 20
11.872687247
 10
136.0108731143
 20
11.8666288685
 10
136.0347513924
 20
11.8610054079
 10
136.0594736842
 20
11.8558736289
 10
136.085048538
 20
11.8512385115
 10
136.1114674056
 20
11.8470950757
 10
136.1384636125
 20
11.8434851458
 10
136.1660430063
 20
11.8404141251
 10
136.1941997394
 20
11.8378766103
 10
136.2226495954
 20
11.8358982153
 10
136.2512978354
 20
11.8344874779
 10
136.2802391984
 20
11.8336358603
 10
136.3094736842
 20
11.8333433625
  0
LINE
  5
441
100
AcDbEntity
  8
ASSI
100
AcDbLine
 62
7
  6
CONTINUOUS
 10
132.5094736842
 20
12.0243341715
 11
132.5094736842
 21
16.0063157895
  0
LINE
  5
442
100
AcDbEntity
  8
ASSI
100
AcDbLine
 62
7
  6
CONTINUOUS
 10
134.3094736842
 20
12.0243341715
 11
134.3094736842
 21
16.0063157895
  0
LINE
  5
443
100
AcDbEntity
  8
RACCORDO
100
AcDbLine
 62
7
  6
CONTINUOUS
 10
135.8094736842
 20
12.001511561
 11
135.8094736842
 21
13.874184355
  0
LINE
  5
444
100
AcDbEntity
  8
RACCORDO
100
AcDbLine
 62
253
  6
CONTINUOUS
 10
136.3094736842
 20
12.8423525535
 11
136.3094736842
 21
14.0423525535
  0
LINE
  5
445
100
AcDbEntity
  8
0
100
AcDbLine
 62
7
  6
CONTINUOUS
 10
137.8094736842
 20
11.8333433625
 11
137.8094736842
 21
10.8243341715
  0
LWPOLYLINE
  5
446
100
AcDbEntity
  8
RACCORDO
100
AcDbPolyline
 62
7
  6
CONTINUOUS
 90
28
 70
0
 10
135.8094736842
 20
13.874184355
 10
135.8103433429
 20
13.8840169766
 10
135.812875384
 20
13.8937510103
 10
135.8170698077
 20
13.9033864562
 10
135.8229519991
 20
13.9129551782
 10
135.830496573
 20
13.9224253124
 10
135.8396273738
 20
13.9317012663
 10
135.8503604671
 20
13.9407810733
 10
135.8626797874
 20
13.9496667
 10
135.8764609823
 20
13.9582684542
 10
135.891718858
 20
13.9665834608
 10
135.9084386083
 20
13.9746145948
 10
135.9264514627
 20
13.9822807893
 10
135.9457705178
 20
13.9895783481
 10
135.966382677
 20
13.9965109675
 10
135.9880798794
 20
14.0030086689
 10
136.0108731143
 20
14.0090670475
 10
136.0347513924
 20
14.014690508
 10
136.0594736842
 20
14.019822287
 10
136.085048538
 20
14.0244574044
 10
136.1114674056
 20
14.0286008402
 10
136.1384636125
 20
14.0322107701
 10
136.1660430063
 20
14.0352817908
 10
136.1941997394
 20
14.0378193056
 10
136.2226495954
 20
14.0397977006
 10
136.2512978354
 20
14.041208438
 10
136.2802391984
 20
14.0420600556
 10
136.3094736842
 20
14.0423525535
  0
LWPOLYLINE
  5
447
100
AcDbEntity
  8
RACCORDO
100
AcDbPolyline
 62
7
  6
CONTINUOUS
 90
28
 70
0
 10
143.8094736842
 20
12.674184355
 10
143.8086040256
 20
12.6840169766
 10
143.8060719844
 20
12.6937510103
 10
143.8018775607
 20
12.7033864562
 10
143.7959953693
 20
12.7129551782
 10
143.7884507954
 20
12.7224253124
 10
143.7793199946
 20
12.7317012663
 10
143.7685869013
 20
12.7407810733
 10
143.756267581
 20
12.7496667
 10
143.7424863861
 20
12.7582684542
 10
143.7272285104
 20
12.7665834608
 10
143.7105087601
 20
12.7746145948
 10
143.6924959058
 20
12.7822807893
 10
143.6731768506
 20
12.7895783481
 10
143.6525646914
 20
12.7965109675
 10
143.6308674891
 20
12.8030086689
 10
143.6080742541
 20
12.8090670475
 10
143.584195976
 20
12.814690508
 10
143.5594736842
 20
12.819822287
 10
143.5338988304
 20
12.8244574044
 10
143.5074799628
 20
12.8286008402
 10
143.4804837559
 20
12.8322107701
 10
143.4529043622
 20
12.8352817908
 10
143.424747629
 20
12.8378193056
 10
143.396297773
 20
12.8397977006
 10
143.367649533
 20
12.841208438
 10
143.33870817
 20
12.8420600556
 10
143.3094736842
 20
12.8423525535
  0
LWPOLYLINE
  5
448
100
AcDbEntity
  8
RACCORDO
100
AcDbPolyline
 62
7
  6
CONTINUOUS
 90
28
 70
0
 10
149.8094736842
 20
12.001511561
 10
149.8103433429
 20
11.9916789393
 10
149.812875384
 20
11.9819449056
 10
149.8170698077
 20
11.9723094597
 10
149.8229519991
 20
11.9627407377
 10
149.830496573
 20
11.9532706035
 10
149.8396273738
 20
11.9439946496
 10
149.8503604671
 20
11.9349148426
 10
149.8626797874
 20
11.9260292159
 10
149.8764609823
 20
11.9174274617
 10
149.891718858
 20
11.9091124552
 10
149.9084386083
 20
11.9010813211
 10
149.9264514627
 20
11.8934151266
 10
149.9457705178
 20
11.8861175678
 10
149.966382677
 20
11.8791849484
 10
149.9880798794
 20
11.872687247
 10
150.0108731143
 20
11.8666288685
 10
150.0347513924
 20
11.8610054079
 10
150.0594736842
 20
11.8558736289
 10
150.085048538
 20
11.8512385115
 10
150.1114674056
 20
11.8470950757
 10
150.1384636125
 20
11.8434851458
 10
150.1660430063
 20
11.8404141251
 10
150.1941997394
 20
11.8378766103
 10
150.2226495954
 20
11.8358982153
 10
150.2512978354
 20
11.8344874779
 10
150.2802391984
 20
11.8336358603
 10
150.3094736842
 20
11.8333433625
  0
LINE
  5
449
100
AcDbEntity
  8
0
100
AcDbLine
 62
7
  6
CONTINUOUS
 10
141.8094736842
 20
10.8243341715
 11
141.8094736842
 21
11.8333433625
  0
LINE
  5
44A
100
AcDbEntity
  8
RACCORDO
100
AcDbLine
 62
253
  6
CONTINUOUS
 10
143.3094736842
 20
12.8423525535
 11
143.3094736842
 21
14.0423525535
  0
LINE
  5
44B
100
AcDbEntity
  8
RACCORDO
100
AcDbLine
 62
7
  6
CONTINUOUS
 10
143.8094736842
 20
12.001511561
 11
143.8094736842
 21
13.874184355
  0
LINE
  5
44C
100
AcDbEntity
  8
ASSI
100
AcDbLine
 62
7
  6
CONTINUOUS
 10
144.5594736842
 20
12.0243341715
 11
144.5594736842
 21
16.0063157895
  0
LINE
  5
44D
100
AcDbEntity
  8
ASSI
100
AcDbLine
 62
7
  6
CONTINUOUS
 10
147.0594736842
 20
12.0243341715
 11
147.0594736842
 21
16.0063157895
  0
LINE
  5
44E
100
AcDbEntity
  8
RACCORDO
100
AcDbLine
 62
7
  6
CONTINUOUS
 10
149.8094736842
 20
12.001511561
 11
149.8094736842
 21
13.874184355
  0
LINE
  5
44F
100
AcDbEntity
  8
RACCORDO
100
AcDbLine
 62
253
  6
CONTINUOUS
 10
150.3094736842
 20
12.8423525535
 11
150.3094736842
 21
14.0423525535
  0
LINE
  5
450
100
AcDbEntity
  8
0
100
AcDbLine
 62
7
  6
CONTINUOUS
 10
151.8094736842
 20
11.8333433625
 11
151.8094736842
 21
10.8243341715
  0
LINE
  5
451
100
AcDbEntity
  8
0
100
AcDbLine
 62
7
  6
CONTINUOUS
 10
155.8094736842
 20
10.8243341715
 11
155.8094736842
 21
11.8333433625
  0
LWPOLYLINE
  5
452
100
AcDbEntity
  8
RACCORDO
100
AcDbPolyline
 62
7
  6
CONTINUOUS
 90
28
 70
0
 10
149.8094736842
 20
13.874184355
 10
149.8103433429
 20
13.8840169766
 10
149.812875384
 20
13.8937510103
 10
149.8170698077
 20
13.9033864562
 10
149.8229519991
 20
13.9129551782
 10
149.830496573
 20
13.9224253124
 10
149.8396273738
 20
13.9317012663
 10
149.8503604671
 20
13.9407810733
 10
149.8626797874
 20
13.9496667
 10
149.8764609823
 20
13.9582684542
 10
149.891718858
 20
13.9665834608
 10
149.9084386083
 20
13.9746145948
 10
149.9264514627
 20
13.9822807893
 10
149.9457705178
 20
13.9895783481
 10
149.966382677
 20
13.9965109675
 10
149.9880798794
 20
14.0030086689
 10
150.0108731143
 20
14.0090670475
 10
150.0347513924
 20
14.014690508
 10
150.0594736842
 20
14.019822287
 10
150.085048538
 20
14.0244574044
 10
150.1114674056
 20
14.0286008402
 10
150.1384636125
 20
14.0322107701
 10
150.1660430063
 20
14.0352817908
 10
150.1941997394
 20
14.0378193056
 10
150.2226495954
 20
14.0397977006
 10
150.2512978354
 20
14.041208438
 10
150.2802391984
 20
14.0420600556
 10
150.3094736842
 20
14.0423525535
  0
LWPOLYLINE
  5
453
100
AcDbEntity
  8
RACCORDO
100
AcDbPolyline
 62
7
  6
CONTINUOUS
 90
28
 70
0
 10
157.8094736842
 20
12.674184355
 10
157.8086040256
 20
12.6840169766
 10
157.8060719844
 20
12.6937510103
 10
157.8018775607
 20
12.7033864562
 10
157.7959953693
 20
12.7129551782
 10
157.7884507954
 20
12.7224253124
 10
157.7793199946
 20
12.7317012663
 10
157.7685869013
 20
12.7407810733
 10
157.756267581
 20
12.7496667
 10
157.7424863861
 20
12.7582684542
 10
157.7272285104
 20
12.7665834608
 10
157.7105087601
 20
12.7746145948
 10
157.6924959058
 20
12.7822807893
 10
157.6731768506
 20
12.7895783481
 10
157.6525646914
 20
12.7965109675
 10
157.6308674891
 20
12.8030086689
 10
157.6080742541
 20
12.8090670475
 10
157.584195976
 20
12.814690508
 10
157.5594736842
 20
12.819822287
 10
157.5338988304
 20
12.8244574044
 10
157.5074799628
 20
12.8286008402
 10
157.4804837559
 20
12.8322107701
 10
157.4529043622
 20
12.8352817908
 10
157.424747629
 20
12.8378193056
 10
157.396297773
 20
12.8397977006
 10
157.367649533
 20
12.841208438
 10
157.33870817
 20
12.8420600556
 10
157.3094736842
 20
12.8423525535
  0
LWPOLYLINE
  5
454
100
AcDbEntity
  8
RACCORDO
100
AcDbPolyline
 62
7
  6
CONTINUOUS
 90
28
 70
0
 10
170.8094736842
 20
12.001511561
 10
170.8103433429
 20
11.9916789393
 10
170.812875384
 20
11.9819449056
 10
170.8170698077
 20
11.9723094597
 10
170.8229519991
 20
11.9627407377
 10
170.830496573
 20
11.9532706035
 10
170.8396273738
 20
11.9439946496
 10
170.8503604671
 20
11.9349148426
 10
170.8626797874
 20
11.9260292159
 10
170.8764609823
 20
11.9174274617
 10
170.891718858
 20
11.9091124552
 10
170.9084386083
 20
11.9010813211
 10
170.9264514627
 20
11.8934151266
 10
170.9457705178
 20
11.8861175678
 10
170.966382677
 20
11.8791849484
 10
170.9880798794
 20
11.872687247
 10
171.0108731143
 20
11.8666288685
 10
171.0347513924
 20
11.8610054079
 10
171.0594736842
 20
11.8558736289
 10
171.085048538
 20
11.8512385115
 10
171.1114674056
 20
11.8470950757
 10
171.1384636125
 20
11.8434851458
 10
171.1660430063
 20
11.8404141251
 10
171.1941997394
 20
11.8378766103
 10
171.2226495954
 20
11.8358982153
 10
171.2512978354
 20
11.8344874779
 10
171.2802391984
 20
11.8336358603
 10
171.3094736842
 20
11.8333433625
  0
LINE
  5
455
100
AcDbEntity
  8
RACCORDO
100
AcDbLine
 62
253
  6
CONTINUOUS
 10
157.3094736842
 20
12.8423525535
 11
157.3094736842
 21
14.0423525535
  0
LINE
  5
456
100
AcDbEntity
  8
ASSI
100
AcDbLine
 62
7
  6
CONTINUOUS
 10
157.3094736842
 20
14.0423525535
 11
157.3094736842
 21
16.0063157895
  0
LINE
  5
457
100
AcDbEntity
  8
RACCORDO
100
AcDbLine
 62
7
  6
CONTINUOUS
 10
157.8094736842
 20
12.001511561
 11
157.8094736842
 21
13.874184355
  0
LINE
  5
458
100
AcDbEntity
  8
ASSI
100
AcDbLine
 62
7
  6
CONTINUOUS
 10
159.1094736842
 20
12.0243341715
 11
159.1094736842
 21
16.0063157895
  0
LINE
  5
459
100
AcDbEntity
  8
ASSI
100
AcDbLine
 62
7
  6
CONTINUOUS
 10
167.5094736842
 20
12.0243341715
 11
167.5094736842
 21
16.0063157895
  0
LINE
  5
45A
100
AcDbEntity
  8
ASSI
100
AcDbLine
 62
7
  6
CONTINUOUS
 10
169.3094736842
 20
12.0243341715
 11
169.3094736842
 21
16.0063157895
  0
LINE
  5
45B
100
AcDbEntity
  8
RACCORDO
100
AcDbLine
 62
7
  6
CONTINUOUS
 10
170.8094736842
 20
12.001511561
 11
170.8094736842
 21
13.874184355
  0
LINE
  5
45C
100
AcDbEntity
  8
RACCORDO
100
AcDbLine
 62
253
  6
CONTINUOUS
 10
171.3094736842
 20
12.8423525535
 11
171.3094736842
 21
14.0423525535
  0
LWPOLYLINE
  5
45D
100
AcDbEntity
  8
RACCORDO
100
AcDbPolyline
 62
7
  6
CONTINUOUS
 90
28
 70
0
 10
170.8094736842
 20
13.874184355
 10
170.8103433429
 20
13.8840169766
 10
170.812875384
 20
13.8937510103
 10
170.8170698077
 20
13.9033864562
 10
170.8229519991
 20
13.9129551782
 10
170.830496573
 20
13.9224253124
 10
170.8396273738
 20
13.9317012663
 10
170.8503604671
 20
13.9407810733
 10
170.8626797874
 20
13.9496667
 10
170.8764609823
 20
13.9582684542
 10
170.891718858
 20
13.9665834608
 10
170.9084386083
 20
13.9746145948
 10
170.9264514627
 20
13.9822807893
 10
170.9457705178
 20
13.9895783481
 10
170.966382677
 20
13.9965109675
 10
170.9880798794
 20
14.0030086689
 10
171.0108731143
 20
14.0090670475
 10
171.0347513924
 20
14.014690508
 10
171.0594736842
 20
14.019822287
 10
171.085048538
 20
14.0244574044
 10
171.1114674056
 20
14.0286008402
 10
171.1384636125
 20
14.0322107701
 10
171.1660430063
 20
14.0352817908
 10
171.1941997394
 20
14.0378193056
 10
171.2226495954
 20
14.0397977006
 10
171.2512978354
 20
14.041208438
 10
171.2802391984
 20
14.0420600556
 10
171.3094736842
 20
14.0423525535
  0
LWPOLYLINE
  5
45E
100
AcDbEntity
  8
RACCORDO
100
AcDbPolyline
 62
7
  6
CONTINUOUS
 90
28
 70
0
 10
178.8094736842
 20
12.674184355
 10
178.8086040256
 20
12.6840169766
 10
178.8060719844
 20
12.6937510103
 10
178.8018775607
 20
12.7033864562
 10
178.7959953693
 20
12.7129551782
 10
178.7884507954
 20
12.7224253124
 10
178.7793199946
 20
12.7317012663
 10
178.7685869013
 20
12.7407810733
 10
178.756267581
 20
12.7496667
 10
178.7424863861
 20
12.7582684542
 10
178.7272285104
 20
12.7665834608
 10
178.7105087601
 20
12.7746145948
 10
178.6924959058
 20
12.7822807893
 10
178.6731768506
 20
12.7895783481
 10
178.6525646914
 20
12.7965109675
 10
178.6308674891
 20
12.8030086689
 10
178.6080742541
 20
12.8090670475
 10
178.584195976
 20
12.814690508
 10
178.5594736842
 20
12.819822287
 10
178.5338988304
 20
12.8244574044
 10
178.5074799628
 20
12.8286008402
 10
178.4804837559
 20
12.8322107701
 10
178.4529043622
 20
12.8352817908
 10
178.424747629
 20
12.8378193056
 10
178.396297773
 20
12.8397977006
 10
178.367649533
 20
12.841208438
 10
178.33870817
 20
12.8420600556
 10
178.3094736842
 20
12.8423525535
  0
LWPOLYLINE
  5
45F
100
AcDbEntity
  8
RACCORDO
100
AcDbPolyline
 62
7
  6
CONTINUOUS
 90
28
 70
0
 10
184.8094736842
 20
12.001511561
 10
184.8103433429
 20
11.9916789393
 10
184.812875384
 20
11.9819449056
 10
184.8170698077
 20
11.9723094597
 10
184.8229519991
 20
11.9627407377
 10
184.830496573
 20
11.9532706035
 10
184.8396273738
 20
11.9439946496
 10
184.8503604671
 20
11.9349148426
 10
184.8626797874
 20
11.9260292159
 10
184.8764609823
 20
11.9174274617
 10
184.891718858
 20
11.9091124552
 10
184.9084386083
 20
11.9010813211
 10
184.9264514627
 20
11.8934151266
 10
184.9457705178
 20
11.8861175678
 10
184.966382677
 20
11.8791849484
 10
184.9880798794
 20
11.872687247
 10
185.0108731143
 20
11.8666288685
 10
185.0347513924
 20
11.8610054079
 10
185.0594736842
 20
11.8558736289
 10
185.085048538
 20
11.8512385115
 10
185.1114674056
 20
11.8470950757
 10
185.1384636125
 20
11.8434851458
 10
185.1660430063
 20
11.8404141251
 10
185.1941997394
 20
11.8378766103
 10
185.2226495954
 20
11.8358982153
 10
185.2512978354
 20
11.8344874779
 10
185.2802391984
 20
11.8336358603
 10
185.3094736842
 20
11.8333433625
  0
LINE
  5
460
100
AcDbEntity
  8
0
100
AcDbLine
 62
7
  6
CONTINUOUS
 10
172.8094736842
 20
11.8333433625
 11
172.8094736842
 21
10.8243341715
  0
LINE
  5
461
100
AcDbEntity
  8
0
100
AcDbLine
 62
7
  6
CONTINUOUS
 10
176.8094736842
 20
10.8243341715
 11
176.8094736842
 21
11.8333433625
  0
LINE
  5
462
100
AcDbEntity
  8
RACCORDO
100
AcDbLine
 62
253
  6
CONTINUOUS
 10
178.3094736842
 20
12.8423525535
 11
178.3094736842
 21
14.0423525535
  0
LINE
  5
463
100
AcDbEntity
  8
RACCORDO
100
AcDbLine
 62
7
  6
CONTINUOUS
 10
178.8094736842
 20
12.001511561
 11
178.8094736842
 21
13.874184355
  0
LINE
  5
464
100
AcDbEntity
  8
ASSI
100
AcDbLine
 62
7
  6
CONTINUOUS
 10
179.5594736842
 20
12.0243341715
 11
179.5594736842
 21
16.0063157895
  0
LINE
  5
465
100
AcDbEntity
  8
ASSI
100
AcDbLine
 62
7
  6
CONTINUOUS
 10
182.0594736842
 20
12.0243341715
 11
182.0594736842
 21
16.0063157895
  0
LINE
  5
466
100
AcDbEntity
  8
RACCORDO
100
AcDbLine
 62
7
  6
CONTINUOUS
 10
184.8094736842
 20
12.001511561
 11
184.8094736842
 21
13.874184355
  0
LINE
  5
467
100
AcDbEntity
  8
RACCORDO
100
AcDbLine
 62
253
  6
CONTINUOUS
 10
185.3094736842
 20
12.8423525535
 11
185.3094736842
 21
14.0423525535
  0
LINE
  5
468
100
AcDbEntity
  8
0
100
AcDbLine
 62
7
  6
CONTINUOUS
 10
186.8094736842
 20
11.8333433625
 11
186.8094736842
 21
10.8243341715
  0
LWPOLYLINE
  5
469
100
AcDbEntity
  8
RACCORDO
100
AcDbPolyline
 62
7
  6
CONTINUOUS
 90
28
 70
0
 10
184.8094736842
 20
13.874184355
 10
184.8103433429
 20
13.8840169766
 10
184.812875384
 20
13.8937510103
 10
184.8170698077
 20
13.9033864562
 10
184.8229519991
 20
13.9129551782
 10
184.830496573
 20
13.9224253124
 10
184.8396273738
 20
13.9317012663
 10
184.8503604671
 20
13.9407810733
 10
184.8626797874
 20
13.9496667
 10
184.8764609823
 20
13.9582684542
 10
184.891718858
 20
13.9665834608
 10
184.9084386083
 20
13.9746145948
 10
184.9264514627
 20
13.9822807893
 10
184.9457705178
 20
13.9895783481
 10
184.966382677
 20
13.9965109675
 10
184.9880798794
 20
14.0030086689
 10
185.0108731143
 20
14.0090670475
 10
185.0347513924
 20
14.014690508
 10
185.0594736842
 20
14.019822287
 10
185.085048538
 20
14.0244574044
 10
185.1114674056
 20
14.0286008402
 10
185.1384636125
 20
14.0322107701
 10
185.1660430063
 20
14.0352817908
 10
185.1941997394
 20
14.0378193056
 10
185.2226495954
 20
14.0397977006
 10
185.2512978354
 20
14.041208438
 10
185.2802391984
 20
14.0420600556
 10
185.3094736842
 20
14.0423525535
  0
LWPOLYLINE
  5
46A
100
AcDbEntity
  8
RACCORDO
100
AcDbPolyline
 62
7
  6
CONTINUOUS
 90
28
 70
0
 10
192.8094736842
 20
12.674184355
 10
192.8086040256
 20
12.6840169766
 10
192.8060719844
 20
12.6937510103
 10
192.8018775607
 20
12.7033864562
 10
192.7959953693
 20
12.7129551782
 10
192.7884507954
 20
12.7224253124
 10
192.7793199946
 20
12.7317012663
 10
192.7685869013
 20
12.7407810733
 10
192.756267581
 20
12.7496667
 10
192.7424863861
 20
12.7582684542
 10
192.7272285104
 20
12.7665834608
 10
192.7105087601
 20
12.7746145948
 10
192.6924959058
 20
12.7822807893
 10
192.6731768506
 20
12.7895783481
 10
192.6525646914
 20
12.7965109675
 10
192.6308674891
 20
12.8030086689
 10
192.6080742541
 20
12.8090670475
 10
192.584195976
 20
12.814690508
 10
192.5594736842
 20
12.819822287
 10
192.5338988304
 20
12.8244574044
 10
192.5074799628
 20
12.8286008402
 10
192.4804837559
 20
12.8322107701
 10
192.4529043622
 20
12.8352817908
 10
192.424747629
 20
12.8378193056
 10
192.396297773
 20
12.8397977006
 10
192.367649533
 20
12.841208438
 10
192.33870817
 20
12.8420600556
 10
192.3094736842
 20
12.8423525535
  0
LWPOLYLINE
  5
46B
100
AcDbEntity
  8
RACCORDO
100
AcDbPolyline
 62
7
  6
CONTINUOUS
 90
46
 70
0
 10
202.8094736842
 20
-14.9474397235
 10
202.811853184
 20
-15.0167118445
 10
202.8190891927
 20
-15.0865581308
 10
202.8313182474
 20
-15.1567787854
 10
202.8485993414
 20
-15.2269485039
 10
202.8710717504
 20
-15.2970958607
 10
202.8991277324
 20
-15.3677105023
 10
202.9330673926
 20
-15.4387068911
 10
202.9731018584
 20
-15.5098019717
 10
203.0197648122
 20
-15.5812313105
 10
203.073722475
 20
-15.6532033196
 10
203.1351669598
 20
-15.7252218789
 10
203.2039552528
 20
-15.7965938192
 10
203.2808722501
 20
-15.867665107
 10
203.3659472238
 20
-15.9380066114
 10
203.4573468872
 20
-16.0059890814
 10
203.5546204811
 20
-16.0714442107
 10
203.6581208088
 20
-16.1347428736
 10
203.7664744088
 20
-16.1952194846
 10
203.8789348599
 20
-16.2527369141
 10
203.9956988402
 20
-16.30764297
 10
204.1164657469
 20
-16.3599896729
 10
204.240810172
 20
-16.4097762204
 10
204.3686070367
 20
-16.4571191071
 10
204.49994751
 20
-16.5021828354
 10
204.6345936022
 20
-16.5449917709
 10
204.7723035821
 20
-16.5855667966
 10
204.9131722964
 20
-16.6240156931
 10
205.0570080262
 20
-16.6603491787
 10
205.2035661463
 20
-16.6945641998
 10
205.3528721944
 20
-16.7267158099
 10
205.5047370836
 20
-16.7568024139
 10
205.658933471
 20
-16.7848156649
 10
205.8154337855
 20
-16.8107812589
 10
205.9740497639
 20
-16.8346923308
 10
206.1345613763
 20
-16.8565386115
 10
206.2968940328
 20
-16.8763290777
 10
206.4608588094
 20
-16.8940556597
 10
206.6262375096
 20
-16.9097087644
 10
206.7929099706
 20
-16.9232887401
 10
206.9606743251
 20
-16.9347883674
 10
207.1293230055
 20
-16.9442019383
 10
207.2987253734
 20
-16.951528654
 10
207.4687005597
 20
-16.9567647142
 10
207.6390184268
 20
-16.9599064817
 10
207.8094736844
 20
-16.96095351
  0
LWPOLYLINE
  5
46C
100
AcDbEntity
  8
RACCORDO
100
AcDbPolyline
 62
7
  6
CONTINUOUS
 90
46
 70
0
 10
202.3094736842
 20
2.8867952023
 10
202.3115934119
 20
2.8232720093
 10
202.3180339056
 20
2.7592624711
 10
202.328908227
 20
2.6949481156
 10
202.3442620186
 20
2.6307106689
 10
202.3642092629
 20
2.5665298909
 10
202.3890798069
 20
2.5019788602
 10
202.4191290864
 20
2.4371279203
 10
202.4545224204
 20
2.3722507592
 10
202.4956769327
 20
2.3071888767
 10
202.5430128034
 20
2.2419271257
 10
202.5967652694
 20
2.1767417254
 10
202.6572066009
 20
2.1118206448
 10
202.7252654543
 20
2.0467371371
 10
202.8009158508
 20
1.9820669324
 10
202.8826460116
 20
1.9193079075
 10
202.9703549049
 20
1.8584996371
 10
203.0642927465
 20
1.7994539807
 10
203.1627257988
 20
1.7431314063
 10
203.2648228713
 20
1.6897197373
 10
203.3709165179
 20
1.6387921021
 10
203.4805768493
 20
1.590357286
 10
203.5933346993
 20
1.5444246091
 10
203.7091259954
 20
1.5008413687
 10
203.8280417208
 20
1.4594346839
 10
203.9498490287
 20
1.4201725072
 10
204.0743237062
 20
1.3830231314
 10
204.2015744176
 20
1.3478692741
 10
204.3314157477
 20
1.3146946968
 10
204.4636234385
 20
1.2834939524
 10
204.5982580499
 20
1.2542008582
 10
204.7351506533
 20
1.2268112492
 10
204.8740868985
 20
1.20132969
 10
205.0150647845
 20
1.1777245116
 10
205.1579159623
 20
1.1559986102
 10
205.3024367012
 20
1.1361592301
 10
205.4485729317
 20
1.1181939194
 10
205.5961536594
 20
1.1021081002
 10
205.7449807798
 20
1.0879087784
 10
205.8949581251
 20
1.0755929805
 10
206.0459044568
 20
1.0651660904
 10
206.1976311376
 20
1.0566323737
 10
206.3500291783
 20
1.0499912708
 10
206.5029383515
 20
1.0452456211
 10
206.6561481898
 20
1.0423984022
 10
206.8094736844
 20
1.0414496143
  0
LINE
  5
46D
100
AcDbEntity
  8
0
100
AcDbLine
 62
7
  6
CONTINUOUS
 10
190.8094736842
 20
10.8243341715
 11
190.8094736842
 21
11.8333433625
  0
LINE
  5
46E
100
AcDbEntity
  8
RACCORDO
100
AcDbLine
 62
253
  6
CONTINUOUS
 10
192.3094736842
 20
12.8423525535
 11
192.3094736842
 21
14.0423525535
  0
LINE
  5
46F
100
AcDbEntity
  8
ASSI
100
AcDbLine
 62
7
  6
CONTINUOUS
 10
192.3094736842
 20
14.0423525535
 11
192.3094736842
 21
16.0063157895
  0
LINE
  5
470
100
AcDbEntity
  8
RACCORDO
100
AcDbLine
 62
7
  6
CONTINUOUS
 10
192.8094736842
 20
12.001511561
 11
192.8094736842
 21
13.874184355
  0
LINE
  5
471
100
AcDbEntity
  8
ASSI
100
AcDbLine
 62
7
  6
CONTINUOUS
 10
194.1094736842
 20
12.0243341715
 11
194.1094736842
 21
16.0063157895
  0
LINE
  5
472
100
AcDbEntity
  8
0
100
AcDbLine
 62
7
  6
CONTINUOUS
 10
200.8094736842
 20
10.8243341715
 11
200.8094736842
 21
14.7150253474
  0
LINE
  5
473
100
AcDbEntity
  8
ASSI
100
AcDbLine
 62
7
  6
CONTINUOUS
 10
202.3094736842
 20
11.8333433625
 11
202.3094736842
 21
2.8867952023
  0
LINE
  5
474
100
AcDbEntity
  8
ASSI
100
AcDbLine
 62
7
  6
CONTINUOUS
 10
202.8094736842
 20
-11.1804720771
 11
202.8094736842
 21
-14.9474397235
  0
LINE
  5
475
100
AcDbEntity
  8
ASSI
100
AcDbLine
 62
7
  6
CONTINUOUS
 10
204.8094736842
 20
-7.8843753865
 11
204.8094736842
 21
-9.5322433823
  0
LWPOLYLINE
  5
476
100
AcDbEntity
  8
RACCORDO
100
AcDbPolyline
 62
253
  6
CONTINUOUS
 90
46
 70
0
 10
202.8094736842
 20
-11.1804720771
 10
202.8125195491
 20
-11.121782222
 10
202.821653433
 20
-11.0631638716
 10
202.8368642075
 20
-11.0046884432
 10
202.8581333407
 20
-10.9464271801
 10
202.8854349194
 20
-10.8884510646
 10
202.9187356808
 20
-10.8308307317
 10
202.9579950532
 20
-10.7736363829
 10
203.003165205
 20
-10.7169377008
 10
203.0541911034
 20
-10.6608037639
 10
203.111010581
 20
-10.6053029629
 10
203.1735544123
 20
-10.5505029167
 10
203.241746397
 20
-10.496470391
 10
203.3155034539
 20
-10.443271216
 10
203.3947357213
 20
-10.3909702066
 10
203.4793466668
 20
-10.3396310837
 10
203.5692332052
 20
-10.289316396
 10
203.6642858234
 20
-10.2400874442
 10
203.7643887146
 20
-10.1920042062
 10
203.8694199187
 20
-10.1451252641
 10
203.9792514714
 20
-10.0995077326
 10
204.0937495598
 20
-10.0552071897
 10
204.2127746856
 20
-10.0122776087
 10
204.3361818351
 20
-9.9707712927
 10
204.4638206557
 20
-9.9307388108
 10
204.5955356393
 20
-9.8922289364
 10
204.7311663113
 20
-9.8552885878
 10
204.8705474267
 20
-9.8199627711
 10
205.0135091714
 20
-9.7862945254
 10
205.1598773683
 20
-9.7543248703
 10
205.30947369
 20
-9.7240927559
 10
205.4621158765
 20
-9.6956350154
 10
205.6176179567
 20
-9.6689863202
 10
205.7757904753
 20
-9.6441791375
 10
205.9364407228
 20
-9.6212436913
 10
206.0993729722
 20
-9.6002079247
 10
206.2643887168
 20
-9.5810974664
 10
206.4312869116
 20
-9.5639355996
 10
206.5998642157
 20
-9.5487432333
 10
206.7699152413
 20
-9.5355388775
 10
206.9412328062
 20
-9.5243386196
 10
207.1136081874
 20
-9.5151561052
 10
207.2868313736
 20
-9.5080025218
 10
207.4606913193
 20
-9.5028865848
 10
207.6349762026
 20
-9.4998145273
 10
207.8094736842
 20
-9.4987900921
  0
LWPOLYLINE
  5
477
100
AcDbEntity
  8
ASSI
100
AcDbPolyline
 62
7
  6
CONTINUOUS
 90
40
 70
0
 10
210.8094736842
 20
-7.8843753865
 10
210.8070314955
 20
-7.8437688274
 10
210.7997285561
 20
-7.8031622683
 10
210.7876003065
 20
-7.7627527683
 10
210.770623292
 20
-7.7225412852
 10
210.7488209673
 20
-7.6825268611
 10
210.7222991365
 20
-7.6429036817
 10
210.6910348594
 20
-7.6036736486
 10
210.6550510762
 20
-7.56483486
 10
210.6145224123
 20
-7.5265757963
 10
210.569426776
 20
-7.4888992754
 10
210.5197862591
 20
-7.4518024793
 10
210.4658417612
 20
-7.4154654347
 10
210.4075723618
 20
-7.3798918344
 10
210.3449989815
 20
-7.3450779856
 10
210.2784252819
 20
-7.311192836
 10
210.2078318184
 20
-7.2782408996
 10
210.1332380356
 20
-7.2462176625
 10
210.0550059287
 20
-7.2152785296
 10
209.9731178128
 20
-7.1854287706
 10
209.8875913728
 20
-7.1566631159
 10
209.7988416589
 20
-7.129121162
 10
209.7068530037
 20
-7.1028088571
 10
209.6116410746
 20
-7.0777202529
 10
209.5136679244
 20
-7.0539771018
 10
209.4129201316
 20
-7.0315859435
 10
209.3094111177
 20
-7.0105402382
 10
209.2036432003
 20
-6.9909421184
 10
209.0956053996
 20
-6.9727986203
 10
208.9853086954
 20
-6.9561027077
 10
208.8732883453
 20
-6.9409354039
 10
208.7595359711
 20
-6.9273041391
 10
208.644059951
 20
-6.9152014831
 10
208.5274206771
 20
-6.9046861688
 10
208.4096124951
 20
-6.8957659118
 10
208.2906410594
 20
-6.8884329965
 10
208.171083725
 20
-6.8827230086
 10
208.0511329435
 20
-6.8786478101
 10
207.9305962632
 20
-6.8761955391
 10
207.8094736842
 20
-6.8753661955
  0
LWPOLYLINE
  5
478
100
AcDbEntity
  8
RACCORDO
100
AcDbPolyline
 62
253
  6
CONTINUOUS
 90
46
 70
0
 10
212.8094736842
 20
-14.9474397235
 10
212.8064278193
 20
-14.8887498687
 10
212.7972939355
 20
-14.8301315182
 10
212.782083161
 20
-14.7716560898
 10
212.7608140279
 20
-14.7133948267
 10
212.7335124492
 20
-14.6554187112
 10
212.7002116877
 20
-14.5977983783
 10
212.6609523154
 20
-14.5406040296
 10
212.6157821636
 20
-14.4839053474
 10
212.5647562653
 20
-14.4277714106
 10
212.5079367876
 20
-14.3722706095
 10
212.4453929564
 20
-14.3174705634
 10
212.3772009717
 20
-14.2634380376
 10
212.3034439148
 20
-14.2102388626
 10
212.2242116475
 20
-14.1579378532
 10
212.139600702
 20
-14.1065987303
 10
212.0497141636
 20
-14.0562840426
 10
211.9546615454
 20
-14.0070550908
 10
211.8545586543
 20
-13.9589718528
 10
211.7495274502
 20
-13.9120929107
 10
211.6396958975
 20
-13.8664753792
 10
211.5251978091
 20
-13.8221748362
 10
211.4061726833
 20
-13.7792452552
 10
211.2827655338
 20
-13.7377389393
 10
211.1551267132
 20
-13.6977064574
 10
211.0234117297
 20
-13.659196583
 10
210.8877810578
 20
-13.6222562343
 10
210.7483999423
 20
-13.5869304177
 10
210.6054381977
 20
-13.5532621719
 10
210.4590700008
 20
-13.5212925168
 10
210.3094736791
 20
-13.4910604024
 10
210.1568314926
 20
-13.4626026619
 10
210.0013294123
 20
-13.4359539666
 10
209.8431568938
 20
-13.411146784
 10
209.6825066462
 20
-13.3882113378
 10
209.5195743969
 20
-13.3671755712
 10
209.3545586523
 20
-13.3480651129
 10
209.1876604576
 20
-13.330903246
 10
209.0190831536
 20
-13.3157108798
 10
208.849032128
 20
-13.3025065239
 10
208.6777145631
 20
-13.291306266
 10
208.5053391816
 20
-13.2821237516
 10
208.3321159953
 20
-13.2749701682
 10
208.1582560494
 20
-13.2698542312
 10
207.983971166
 20
-13.2667821737
 10
207.8094736842
 20
-13.2657577385
  0
LWPOLYLINE
  5
479
100
AcDbEntity
  8
RACCORDO
100
AcDbPolyline
 62
7
  6
CONTINUOUS
 90
46
 70
0
 10
212.8094736842
 20
-11.1804720771
 10
212.8070941844
 20
-11.111199956
 10
212.7998581757
 20
-11.0413536698
 10
212.787629121
 20
-10.9711330152
 10
212.770348027
 20
-10.9009632967
 10
212.747875618
 20
-10.8308159399
 10
212.719819636
 20
-10.7602012982
 10
212.6858799759
 20
-10.6892049095
 10
212.64584551
 20
-10.6181098289
 10
212.5991825562
 20
-10.5466804901
 10
212.5452248934
 20
-10.474708481
 10
212.4837804087
 20
-10.4026899217
 10
212.4149921157
 20
-10.3313179814
 10
212.3380751184
 20
-10.2602466936
 10
212.2530001446
 20
-10.1899051892
 10
212.1616004812
 20
-10.1219227192
 10
212.0643268873
 20
-10.0564675899
 10
211.9608265596
 20
-9.993168927
 10
211.8524729597
 20
-9.932692316
 10
211.7400125086
 20
-9.8751748865
 10
211.6232485283
 20
-9.8202688306
 10
211.5024816217
 20
-9.7679221277
 10
211.3781371965
 20
-9.7181355802
 10
211.2503403318
 20
-9.6707926935
 10
211.1189998586
 20
-9.6257289652
 10
210.9843537663
 20
-9.5829200297
 10
210.8466437865
 20
-9.542345004
 10
210.7057750721
 20
-9.5038961075
 10
210.5619393424
 20
-9.4675626219
 10
210.4153812222
 20
-9.4333476008
 10
210.2660751742
 20
-9.4011959907
 10
210.114210285
 20
-9.3711093867
 10
209.9600138976
 20
-9.3430961357
 10
209.8035135831
 20
-9.3171305417
 10
209.6448976047
 20
-9.2932194698
 10
209.4843859923
 20
-9.2713731891
 10
209.3220533358
 20
-9.2515827229
 10
209.1580885592
 20
-9.2338561409
 10
208.9927098591
 20
-9.2182030362
 10
208.8260373981
 20
-9.2046230605
 10
208.6582730435
 20
-9.1931234332
 10
208.4896243632
 20
-9.1837098623
 10
208.3202219953
 20
-9.1763831466
 10
208.150246809
 20
-9.1711470864
 10
207.9799289418
 20
-9.1680053188
 10
207.8094736844
 20
-9.1669582906
  0
LWPOLYLINE
  5
47A
100
AcDbEntity
  8
RACCORDO
100
AcDbPolyline
 62
253
  6
CONTINUOUS
 90
45
 70
0
 10
211.3094736842
 20
2.8867952023
 10
211.3087402318
 20
2.9141204059
 10
211.3028740466
 20
2.9687351867
 10
211.2911493245
 20
3.0232431335
 10
211.2735813524
 20
3.0775731782
 10
211.2501930355
 20
3.1316544848
 10
211.2210148678
 20
3.1854165415
 10
211.1860848921
 20
3.2387892529
 10
211.1454486503
 20
3.2917030312
 10
211.0991591242
 20
3.3440888872
 10
211.0472766666
 20
3.3958785194
 10
210.9898689225
 20
3.4470044041
 10
210.9270107406
 20
3.4973998827
 10
210.8587840761
 20
3.5469992492
 10
210.7852778832
 20
3.5957378356
 10
210.7065879999
 20
3.6435520964
 10
210.6228170227
 20
3.6903796905
 10
210.5340741735
 20
3.7361595637
 10
210.4404751562
 20
3.7808320276
 10
210.3421420059
 20
3.824338838
 10
210.23920293
 20
3.8666232704
 10
210.131792141
 20
3.9076301941
 10
210.0200496824
 20
3.9473061438
 10
209.9041212453
 20
3.9855993895
 10
209.7841579787
 20
4.0224600039
 10
209.6603162914
 20
4.0578399281
 10
209.5327576489
 20
4.0916930335
 10
209.4016483629
 20
4.1239751822
 10
209.2671593752
 20
4.1546442843
 10
209.1294660346
 20
4.1836603529
 10
208.9887478675
 20
4.2109855566
 10
208.845188343
 20
4.2365842686
 10
208.698974635
 20
4.2604231132
 10
208.5502973784
 20
4.2824710091
 10
208.3993504198
 20
4.30269921
 10
208.2463305645
 20
4.3210813423
 10
208.0914373199
 20
4.3375934393
 10
207.9348726384
 20
4.3522139722
 10
207.7768406527
 20
4.3649238785
 10
207.6175474077
 20
4.3757065867
 10
207.4572005901
 20
4.3845480385
 10
207.2960092603
 20
4.3914367064
 10
207.1341835807
 20
4.3963636089
 10
206.9719345414
 20
4.3993223222
 10
206.8094736842
 20
4.4003089888
  0
LWPOLYLINE
  5
47B
100
AcDbEntity
  8
ASSI
100
AcDbPolyline
 62
7
  6
CONTINUOUS
 90
45
 70
0
 10
211.3094591729
 20
11.8333433625
 10
211.3087274922
 20
11.8606922711
 10
211.3028740465
 20
11.915283347
 10
211.2911442798
 20
11.9697672645
 10
211.2735610674
 20
12.0241444408
 10
211.2501930356
 20
12.0782026446
 10
211.2210175773
 20
12.1319406296
 10
211.1860572996
 20
12.1853596423
 10
211.1454486505
 20
12.2382511911
 10
211.0991695562
 20
12.2906132148
 10
211.0472420904
 20
12.3424477747
 10
210.9898689234
 20
12.3935525635
 10
210.927028773
 20
12.4439247291
 10
210.8587429214
 20
12.4935671235
 10
210.7852778842
 20
12.5422859952
 10
210.7066134212
 20
12.590077735
 10
210.6227697728
 20
12.6369459522
 10
210.5340741759
 20
12.6827077227
 10
210.4405076692
 20
12.7273587224
 10
210.342089214
 20
12.7709032754
 10
210.2392029323
 20
12.8131714297
 10
210.1318313635
 20
12.8541581971
 10
210.0199919681
 20
12.8938685658
 10
209.9041212491
 20
12.9321475484
 10
209.7842034517
 20
12.9689895511
 10
209.6602543308
 20
13.0044001678
 10
209.5327576526
 20
13.0382411927
 10
209.4016995533
 20
13.070506492
 10
209.2670938968
 20
13.1012021995
 10
209.1294660415
 20
13.1302085116
 10
208.9888041766
 20
13.1575188263
 10
208.8451201129
 20
13.1831397455
 10
208.6989746412
 20
13.2069712724
 10
208.5503581424
 20
13.2290064139
 10
208.3992802358
 20
13.2492521631
 10
208.2463305698
 20
13.2676295019
 10
208.0915018297
 20
13.2841311284
 10
207.9348013304
 20
13.2987643446
 10
207.7768406652
 20
13.3114720377
 10
207.6176149092
 20
13.3222466828
 10
207.4571289873
 20
13.3310958049
 10
207.2960092671
 20
13.3379848663
 10
207.1344645378
 20
13.3429023545
 10
206.9722860102
 20
13.3458597821
 10
206.8094736842
 20
13.3468571489
  0
LINE
  5
47C
100
AcDbEntity
  8
0
100
AcDbLine
 62
7
  6
CONTINUOUS
 10
210.3094736842
 20
23.8063157895
 11
210.3094736842
 21
14.7150253474
  0
LINE
  5
47D
100
AcDbEntity
  8
ASSI
100
AcDbLine
 62
7
  6
CONTINUOUS
 10
210.8094736842
 20
-7.8843753865
 11
210.8094736842
 21
-9.5321997462
  0
LINE
  5
47E
100
AcDbEntity
  8
ASSI
100
AcDbLine
 62
7
  6
CONTINUOUS
 10
211.3094736842
 20
11.8333433625
 11
211.3094736842
 21
2.8867952023
  0
LINE
  5
47F
100
AcDbEntity
  8
RACCORDO
100
AcDbLine
 62
253
  6
CONTINUOUS
 10
211.8094736842
 20
23.8063157895
 11
211.8094736842
 21
14.7150253474
  0
LINE
  5
480
100
AcDbEntity
  8
RACCORDO
100
AcDbLine
 62
253
  6
CONTINUOUS
 10
211.8094736842
 20
8.8063157895
 11
211.8094736842
 21
-9.9107005156
  0
LINE
  5
481
100
AcDbEntity
  8
RACCORDO
100
AcDbLine
 62
253
  6
CONTINUOUS
 10
211.8094736842
 20
-16.2171797413
 11
211.8094736842
 21
-20.1936842105
  0
LINE
  5
482
100
AcDbEntity
  8
ASSI
100
AcDbLine
 62
7
  6
CONTINUOUS
 10
212.8094736842
 20
-11.1804720771
 11
212.8094736842
 21
-14.9474397235
  0
LINE
  5
483
100
AcDbEntity
  8
0
100
AcDbLine
 62
7
  6
CONTINUOUS
 10
212.8094736842
 20
8.8063157895
 11
212.8094736842
 21
14.7150253474
  0
LINE
  5
484
100
AcDbEntity
  8
RACCORDO
100
AcDbLine
 62
7
  6
CONTINUOUS
 10
213.8094736842
 20
21.8063157895
 11
213.8094736842
 21
-18.1936842105
  0
LINE
  5
485
100
AcDbEntity
  8
RACCORDO
100
AcDbLine
 62
7
  6
CONTINUOUS
 10
234.1094736842
 20
21.8063157895
 11
234.1094736842
 21
-18.1936842105
  0
LWPOLYLINE
  5
486
100
AcDbEntity
  8
RACCORDO
100
AcDbPolyline
 62
253
  6
CONTINUOUS
 90
37
 70
0
 10
213.8094736842
 20
-18.1936842105
 10
213.8075701292
 20
-18.2758405811
 10
213.8018630878
 20
-18.3578405625
 10
213.7923634236
 20
-18.4395280633
 10
213.7790892218
 20
-18.5207475757
 10
213.7620657495
 20
-18.6013445051
 10
213.7413254026
 20
-18.6811654637
 10
213.7169076495
 20
-18.7600585289
 10
213.6888589716
 20
-18.8378734991
 10
213.6572327713
 20
-18.9144622145
 10
213.6220892575
 20
-18.9896788715
 10
213.5834953231
 20
-19.0633803037
 10
213.541524431
 20
-19.1354262213
 10
213.4962564732
 20
-19.2056794828
 10
213.4477776209
 20
-19.274006354
 10
213.3961801577
 20
-19.3402767684
 10
213.341562303
 20
-19.4043645752
 10
213.2840280245
 20
-19.4661477803
 10
213.2236868416
 20
-19.5255087755
 10
213.160653617
 20
-19.582334564
 10
213.0950483383
 20
-19.6365169737
 10
213.0269958903
 20
-19.6879528641
 10
212.9566258151
 20
-19.7365443238
 10
212.8840720661
 20
-19.7821988562
 10
212.8094727541
 20
-19.8248295547
 10
212.7329698816
 20
-19.8643552703
 10
212.6547090781
 20
-19.9007007623
 10
212.5748393237
 20
-19.9337968425
 10
212.4935126594
 20
-19.9635805101
 10
212.410883892
 20
-19.9899950722
 10
212.3271103045
 20
-20.0129902497
 10
212.2423512936
 20
-20.0325222845
 10
212.156768273
 20
-20.0485539756
 10
212.0705243661
 20
-20.0610547796
 10
211.9837838175
 20
-20.0700009205
 10
211.8967116747
 20
-20.0753754067
 10
211.8094736842
 20
-20.0771680337
  0
ARC
  5
487
100
AcDbEntity
  8
ASSI
100
AcDbCircle
 62
7
  6
CONTINUOUS
 10
-242.0905263158
 20
-14.0936842105
 40
3.25
100
AcDbArc
 50
90.0
 51
270.0
  0
ARC
  5
488
100
AcDbEntity
  8
ASSI
100
AcDbCircle
 62
7
  6
CONTINUOUS
 10
-237.0905263158
 20
-14.0936842105
 40
3.25
100
AcDbArc
 50
270.0
 51
90.0
  0
ARC
  5
489
100
AcDbEntity
  8
ASSI
100
AcDbCircle
 62
7
  6
CONTINUOUS
 10
-242.0905263158
 20
17.7063157895
 40
3.25
100
AcDbArc
 50
90.0
 51
270.0
  0
ARC
  5
48A
100
AcDbEntity
  8
ASSI
100
AcDbCircle
 62
7
  6
CONTINUOUS
 10
-237.0905263158
 20
17.7063157895
 40
3.25
100
AcDbArc
 50
270.0
 51
90.0
  0
ARC
  5
48B
100
AcDbEntity
  8
ASSI
100
AcDbCircle
 62
7
  6
CONTINUOUS
 10
227.7094736842
 20
-14.0936842105
 40
3.25
100
AcDbArc
 50
270.0
 51
90.0
  0
ARC
  5
48C
100
AcDbEntity
  8
ASSI
100
AcDbCircle
 62
7
  6
CONTINUOUS
 10
222.7094736842
 20
-14.0936842105
 40
3.25
100
AcDbArc
 50
90.0
 51
270.0
  0
ARC
  5
48D
100
AcDbEntity
  8
ASSI
100
AcDbCircle
 62
7
  6
CONTINUOUS
 10
227.7094736842
 20
17.7063157895
 40
3.25
100
AcDbArc
 50
270.0
 51
90.0
  0
ARC
  5
48E
100
AcDbEntity
  8
ASSI
100
AcDbCircle
 62
7
  6
CONTINUOUS
 10
222.7094736842
 20
17.7063157895
 40
3.25
100
AcDbArc
 50
90.0
 51
270.0
  0
ARC
  5
48F
100
AcDbEntity
  8
RACCORDO
100
AcDbCircle
 62
7
  6
CONTINUOUS
 10
211.8094736842
 20
21.8063157895
 40
2.0
100
AcDbArc
 50
0.0
 51
90.0
  0
ARC
  5
490
100
AcDbEntity
  8
RACCORDO
100
AcDbCircle
 62
7
  6
CONTINUOUS
 10
232.1094736842
 20
21.8063157895
 40
2.0
100
AcDbArc
 50
0.0
 51
90.0
  0
ARC
  5
491
100
AcDbEntity
  8
RACCORDO
100
AcDbCircle
 62
7
  6
CONTINUOUS
 10
232.1094736842
 20
-18.1936842105
 40
2.0
100
AcDbArc
 50
270.0
 51
360.0
  0
ARC
  5
492
100
AcDbEntity
  8
RACCORDO
100
AcDbCircle
 62
7
  6
CONTINUOUS
 10
-246.4905263158
 20
-18.1936842105
 40
2.0
100
AcDbArc
 50
180.0
 51
270.0
  0
ARC
  5
493
100
AcDbEntity
  8
RACCORDO
100
AcDbCircle
 62
7
  6
CONTINUOUS
 10
-246.4905263158
 20
21.8063157895
 40
2.0
100
AcDbArc
 50
90.0
 51
180.0
  0
ARC
  5
494
100
AcDbEntity
  8
RACCORDO
100
AcDbCircle
 62
7
  6
CONTINUOUS
 10
-226.1905263158
 20
-18.1936842105
 40
2.0
100
AcDbArc
 50
180.0
 51
270.0
  0
ARC
  5
495
100
AcDbEntity
  8
RACCORDO
100
AcDbCircle
 62
7
  6
CONTINUOUS
 10
211.8094736842
 20
-18.1936842105
 40
2.0
100
AcDbArc
 50
270.0
 51
360.0
  0
ARC
  5
496
100
AcDbEntity
  8
RACCORDO
100
AcDbCircle
 62
7
  6
CONTINUOUS
 10
-226.1905263158
 20
21.8063157895
 40
2.0
100
AcDbArc
 50
90.0
 51
180.0
  0
ENDSEC
  0
SECTION
  2
OBJECTS
  0
DICTIONARY
  5
C
100
AcDbDictionary
280
0
281
1
  3
ACAD_GROUP
350
D
  3
ACAD_MLINESTYLE
350
17
  3
ACAD_LAYOUT
350
1A
  3
ACAD_PLOTSETTINGS
350
19
  3
ACAD_PLOTSTYLENAME
350
E
  0
DICTIONARY
  5
D
102
{ACAD_REACTORS
330
C
102
}
100
AcDbDictionary
280
0
281
1
  0
ACDBDICTIONARYWDFLT
  5
E
102
{ACAD_REACTORS
330
C
102
}
100
AcDbDictionary
281
1
  3
Normal
350
F
100
AcDbDictionaryWithDefault
340
F
  0
DICTIONARY
  5
17
102
{ACAD_REACTORS
330
C
102
}
100
AcDbDictionary
280
0
281
1
  3
Standard
350
18
  0
DICTIONARY
  5
19
102
{ACAD_REACTORS
330
C
102
}
100
AcDbDictionary
281
1
  0
DICTIONARY
  5
1A
102
{ACAD_REACTORS
330
C
102
}
100
AcDbDictionary
281
1
  3
Model
350
497
  3
Layout1
350
498
  0
ACDBPLACEHOLDER
  5
F
102
{ACAD_REACTORS
330
E
102
}
  0
MLINESTYLE
  5
18
102
{ACAD_REACTORS
330
17
102
}
100
AcDbMlineStyle
  2
STANDARD
 70
0
  3

 62
256
 51
90.0
 52
90.0
 71
2
 49
0.5
 62
256
  6
BYLAYER
 49
-0.5
 62
256
  6
BYLAYER
  0
LAYOUT
  5
497
102
{ACAD_REACTORS
330
1A
102
}
100
AcDbPlotSettings
  1

  2
none_device
  4
ISO_A2_(594.00_x_420.00_MM)
  6

 40
0.0
 41
0.0
 42
0.0
 43
0.0
 44
594.0
 45
420.0
 46
0.0
 47
0.0
 48
0.0
 49
0.0
140
0.0
141
0.0
142
1.0
143
1.0
 70
1024
 72
1
 73
0
 74
0
  7

 75
0
147
1.0
148
0.0
149
0.0
100
AcDbLayout
  1
Model
 70
0
 71
0
 10
0.0
 20
0.0
 11
594.0
 21
420.0
 12
0.0
 22
0.0
 32
0.0
 14
0.0
 24
0.0
 34
0.0
 15
0.0
 25
0.0
 35
0.0
146
0.0
 13
0.0
 23
0.0
 33
0.0
 16
1.0
 26
0.0
 36
0.0
 17
0.0
 27
1.0
 37
0.0
 76
0
330
20F
345
0
346
0
  0
LAYOUT
  5
498
102
{ACAD_REACTORS
330
1A
102
}
100
AcDbPlotSettings
  1

  2
none_device
  4
ISO_A2_(594.00_x_420.00_MM)
  6

 40
0.0
 41
0.0
 42
0.0
 43
0.0
 44
594.0
 45
420.0
 46
0.0
 47
0.0
 48
0.0
 49
0.0
140
0.0
141
0.0
142
1.0
143
1.0
 70
0
 72
1
 73
0
 74
0
  7

 75
0
147
1.0
148
0.0
149
0.0
100
AcDbLayout
  1
Layout1
 70
0
 71
1
 10
0.0
 20
0.0
 11
594.0
 21
420.0
 12
0.0
 22
0.0
 32
0.0
 14
0.0
 24
0.0
 34
0.0
 15
0.0
 25
0.0
 35
0.0
146
0.0
 13
0.0
 23
0.0
 33
0.0
 16
1.0
 26
0.0
 36
0.0
 17
0.0
 27
1.0
 37
0.0
 76
0
330
210
345
0
346
0
  0
ENDSEC
  0
EOF
