0
SECTION
2
HEADER
9
$ACADVER
1
AC1014
9
$HANDSEED
5
       2B0
9
$EXTMAX
10
297.0000000000
20
210.0000000000
9
$EXTMIN
10
0.0000000000
20
0.0000000000
9
$LIMMIN
10
0.0000000000
20
0.0000000000
9
$LIMMAX
10
297.0000000000
20
210.0000000000
9
$VIEWCTR
10
148.5000000000
20
105.0000000000
9
$VIEWSIZE
40
210.0000000000
9
$CLAYER
8
0
9
$LTSCALE
40
16.3350000000
9
$CELTYPE
6
BYLAYER
9
$DIMSCALE
40
1
9
$DIMASZ
40
3.0000000000
9
$DIMEXO
40
1.8562500000
9
$DIMDLI
40
11.2860000000
9
$DIMEXE
40
5.3460000000
9
$DIMCEN
40
2.6730000000
9
$DIMLFAC
40
1.0000000000
9
$DIMTXT
40
3.0000000000
9
$DIMTOL
70
1
9
$DIMLIM
70
0
9
$DIMTFAC
40
1.0000000000
9
$DIMTP
40
0.0100000000
9
$DIMTM
40
0.0100000000
9
$MEASUREMENT
70
1
0
ENDSEC
0
SECTION
2
CLASSES
0
ENDSEC
0
SECTION
2
TABLES
0
TABLE
2
VPORT
5
8
100
AcDbSymbolTable
70
2
0
VPORT
5
1F4
100
AcDbSymbolTableRecord
100
AcDbViewportTableRecord
2
*ACTIVE
70
0
10
0.0
20
0.0
11
1.0
21
1.0
12
148.5000000000
22
105.0000000000
13
0.0
23
0.0
14
1.0
24
1.0
15
0.0
25
0.0
16
0.0
26
0.0
36
1.0
17
0.0
27
0.0
37
0.0
40
210.0000000000
41
1.4142857143
42
50.0
43
0.0
44
0.0
50
0.0
51
0.0
71
0
72
100
73
1
74
1
75
0
76
0
77
0
78
0
0
ENDTAB
0
TABLE
2
LTYPE
5
5
100
AcDbSymbolTable
70
6
0
LTYPE
5
14
100
AcDbSymbolTableRecord
100
AcDbLinetypeTableRecord
2
BYBLOCK
70
0
3

72
65
73
0
40
0.0
0
LTYPE
5
15
100
AcDbSymbolTableRecord
100
AcDbLinetypeTableRecord
2
BYLAYER
70
0
3

72
65
73
0
40
0.0
0
LTYPE
5
16
100
AcDbSymbolTableRecord
100
AcDbLinetypeTableRecord
2
CONTINUOUS
70
64
3
Solid line
72
65
73
0
40
0
0
LTYPE
5
1F5
100
AcDbSymbolTableRecord
100
AcDbLinetypeTableRecord
2
CENTER
70
64
3
____ _ ____ _ ____ _ ____ _ ____ _ ____ _ ____
72
65
73
4
40
0.6
49
0.375
74
0
49
-0.075
74
0
49
0.075
74
0
49
-0.075
74
0
0
LTYPE
5
1F6
100
AcDbSymbolTableRecord
100
AcDbLinetypeTableRecord
2
HIDDEN
70
64
3
- - - - - - - - - - - - - - - - - - - -
72
65
73
2
40
0.2
49
0.1
74
0
49
-0.1
74
0
0
LTYPE
5
1F7
100
AcDbSymbolTableRecord
100
AcDbLinetypeTableRecord
2
PHANTOM
70
64
3
_____ _ _ _____ _ _ _____ _ _ _____
72
65
73
6
40
0.8
49
0.45
74
0
49
-0.05
74
0
49
0.1
74
0
49
-0.05
74
0
49
0.1
74
0
49
-0.05
74
0
0
LTYPE
5
1F8
100
AcDbSymbolTableRecord
100
AcDbLinetypeTableRecord
2
DOT
70
64
3
. . . . . . . . . . . . . . . . . . . .
72
65
73
2
40
0.2
49
0.1
74
0
49
-0.1
74
0
0
LTYPE
5
1F9
100
AcDbSymbolTableRecord
100
AcDbLinetypeTableRecord
2
DASHED
70
64
3
- - - - - - - - - - - - - - - - - - - -
72
65
73
2
40
0.2
49
0.1
74
0
49
-0.1
74
0
0
ENDTAB
0
TABLE
2
LAYER
5
2
100
AcDbSymbolTable
70
36
0
LAYER
5
10
100
AcDbSymbolTableRecord
100
AcDbLayerTableRecord
2
0
70
0
62
7
6
CONTINUOUS
0
LAYER
5
1FA
100
AcDbSymbolTableRecord
100
AcDbLayerTableRecord
2
DEFAULT_1
70
0
62
7
6
CENTER
0
LAYER
5
1FB
100
AcDbSymbolTableRecord
100
AcDbLayerTableRecord
2
DEFAULT_2
70
0
62
8
6
HIDDEN
0
LAYER
5
1FC
100
AcDbSymbolTableRecord
100
AcDbLayerTableRecord
2
DEFAULT_3
70
0
62
7
6
PHANTOM
0
LAYER
5
1FD
100
AcDbSymbolTableRecord
100
AcDbLayerTableRecord
2
ASSI
70
0
62
7
6
CONTINUOUS
0
LAYER
5
1FE
100
AcDbSymbolTableRecord
100
AcDbLayerTableRecord
2
COORDINATE
70
0
62
7
6
CONTINUOUS
0
LAYER
5
1FF
100
AcDbSymbolTableRecord
100
AcDbLayerTableRecord
2
COORD_ORIGINE
70
0
62
7
6
CONTINUOUS
0
LAYER
5
200
100
AcDbSymbolTableRecord
100
AcDbLayerTableRecord
2
PIANI
70
0
62
7
6
CONTINUOUS
0
LAYER
5
201
100
AcDbSymbolTableRecord
100
AcDbLayerTableRecord
2
PIANI_ORIGINE
70
0
62
7
6
CONTINUOUS
0
LAYER
5
202
100
AcDbSymbolTableRecord
100
AcDbLayerTableRecord
2
RACCORDO
70
0
62
7
6
CONTINUOUS
0
LAYER
5
203
100
AcDbSymbolTableRecord
100
AcDbLayerTableRecord
2
SMUSSO
70
0
62
7
6
CONTINUOUS
0
LAYER
5
204
100
AcDbSymbolTableRecord
100
AcDbLayerTableRecord
2
SNAPLINE
70
0
62
7
6
CONTINUOUS
0
LAYER
5
205
100
AcDbSymbolTableRecord
100
AcDbLayerTableRecord
2
TRASH
70
0
62
7
6
CONTINUOUS
0
ENDTAB
0
TABLE
2
STYLE
5
3
100
AcDbSymbolTable
70
1
0
STYLE
5
11
100
AcDbSymbolTableRecord
100
AcDbTextStyleTableRecord
2
STANDARD
70
0
40
0.0
41
0.8000000000
50
0.0
71
0
42
0.2
3
txt
4

0
ENDTAB
0
TABLE
2
VIEW
5
6
100
AcDbSymbolTable
70
0
0
ENDTAB
0
TABLE
2
UCS
5
7
100
AcDbSymbolTable
70
0
0
ENDTAB
0
TABLE
2
APPID
5
9
100
AcDbSymbolTable
70
1
0
APPID
5
206
100
AcDbSymbolTableRecord
100
AcDbRegAppTableRecord
2
ACAD
70
0
0
ENDTAB
0
TABLE
2
DIMSTYLE
5
A
100
AcDbSymbolTable
70
1
0
DIMSTYLE
105
207
100
AcDbSymbolTableRecord
100
AcDbDimStyleTableRecord
2
STANDARD
70
0
3

4

5

6

7

40
1.0
41
3.0000000000
42
0.0625
43
0.38
44
0.18
45
0.0
46
0.0
47
0.0100000000
48
0.0100000000
140
3.0000000000
141
0.09
142
0.0
143
25.4
144
1.0000000000
145
0.0
146
1.0000000000
147
0.09
71
1
72
0
73
0
74
0
75
0
76
0
77
1
78
8
170
0
171
2
172
0
173
0
174
0
175
0
176
0
177
0
178
0
270
2
271
2
272
2
273
2
274
2
340
11
275
0
280
0
281
0
282
0
283
1
284
8
285
0
286
0
287
3
288
0
0
ENDTAB
0
TABLE
2
BLOCK_RECORD
5
1
100
AcDbSymbolTable
70
0
0
BLOCK_RECORD
5
1B
100
AcDbSymbolTableRecord
100
AcDbBlockTableRecord
2
*MODEL_SPACE
0
BLOCK_RECORD
5
1C
100
AcDbSymbolTableRecord
100
AcDbBlockTableRecord
2
*PAPER_SPACE
0
ENDTAB
0
ENDSEC
0
SECTION
2
BLOCKS
0
BLOCK
5
1E
100
AcDbEntity
8
0
100
AcDbBlockBegin
2
*MODEL_SPACE
70
0
10
0.0
20
0.0
30
0.0
3
*MODEL_SPACE
1

0
ENDBLK
5
1F
100
AcDbEntity
8
0
100
AcDbBlockEnd
0
BLOCK
5
20
100
AcDbEntity
8
0
100
AcDbBlockBegin
2
*PAPER_SPACE
70
0
10
0.0
20
0.0
30
0.0
3
*PAPER_SPACE
1

0
ENDBLK
5
21
100
AcDbEntity
8
0
100
AcDbBlockEnd
0
ENDSEC
0
SECTION
2
ENTITIES
0
LINE
5
208
100
AcDbEntity
8
0
100
AcDbLine
62
7
6
CONTINUOUS
10
5.6765908235
20
-35.1397244791
11
10.4763751487
21
-35.1397244791
0
LINE
5
209
100
AcDbEntity
8
0
100
AcDbLine
62
7
6
CONTINUOUS
10
5.6764829861
20
-32.6397244791
11
10.4764829861
21
-32.6397244791
0
LINE
5
20A
100
AcDbEntity
8
0
100
AcDbLine
62
7
6
CONTINUOUS
10
6.0764829861
20
-31.1397244791
11
10.0764829861
21
-31.1397244791
0
LINE
5
20B
100
AcDbEntity
8
0
100
AcDbLine
62
7
6
CONTINUOUS
10
5.2078538360
20
-30.1397244791
11
11.0764829861
21
-30.1397244791
0
LINE
5
20C
100
AcDbEntity
8
0
100
AcDbLine
62
7
6
CONTINUOUS
10
5.0764829861
20
-29.3397244791
11
5.8764829861
21
-29.3397244791
0
LINE
5
20D
100
AcDbEntity
8
0
100
AcDbLine
62
7
6
CONTINUOUS
10
10.2764829861
20
-29.3397244791
11
11.0764829861
21
-29.3397244791
0
LINE
5
20E
100
AcDbEntity
8
0
100
AcDbLine
62
7
6
CONTINUOUS
10
11.7264829861
20
-27.9397244791
11
4.4264829861
21
-27.9397244791
0
LINE
5
20F
100
AcDbEntity
8
0
100
AcDbLine
62
7
6
CONTINUOUS
10
11.7264829861
20
-26.4397244791
11
10.0764829861
21
-26.4397244791
0
LINE
5
210
100
AcDbEntity
8
0
100
AcDbLine
62
7
6
CONTINUOUS
10
6.0764829861
20
-26.4397244791
11
4.4264829861
21
-26.4397244791
0
LINE
5
211
100
AcDbEntity
8
0
100
AcDbLine
62
7
6
CONTINUOUS
10
6.0764829861
20
-25.9397244791
11
10.0764829861
21
-25.9397244791
0
LINE
5
212
100
AcDbEntity
8
0
100
AcDbLine
62
7
6
CONTINUOUS
10
6.0764829861
20
-24.8397244791
11
10.0764829861
21
-24.8397244791
0
LINE
5
213
100
AcDbEntity
8
0
100
AcDbLine
62
7
6
CONTINUOUS
10
10.8264829861
20
-24.1397244791
11
10.0764829861
21
-24.1397244791
0
LINE
5
214
100
AcDbEntity
8
0
100
AcDbLine
62
7
6
CONTINUOUS
10
6.0764829861
20
-24.1397244791
11
5.3264829861
21
-24.1397244791
0
LINE
5
215
100
AcDbEntity
8
0
100
AcDbLine
62
7
6
CONTINUOUS
10
6.0764829861
20
-23.7397244791
11
10.0764829861
21
-23.7397244791
0
LINE
5
216
100
AcDbEntity
8
0
100
AcDbLine
62
7
6
CONTINUOUS
10
11.7264829861
20
-22.9397244791
11
12.7264829861
21
-22.9397244791
0
LINE
5
217
100
AcDbEntity
8
0
100
AcDbLine
62
9
6
CONTINUOUS
10
11.7264829861
20
-22.0897244791
11
12.7264829861
21
-22.0897244791
0
LINE
5
218
100
AcDbEntity
8
0
100
AcDbLine
62
7
6
CONTINUOUS
10
5.3264829861
20
-21.9397244791
11
10.8264829861
21
-21.9397244791
0
LINE
5
219
100
AcDbEntity
8
0
100
AcDbLine
62
7
6
CONTINUOUS
10
5.0764829861
20
-30.0468312603
11
5.2078538360
21
-30.1397244791
0
LINE
5
21A
100
AcDbEntity
8
0
100
AcDbLine
62
7
6
CONTINUOUS
10
5.8764829861
20
-29.3397244791
11
7.0078538360
21
-30.1397244791
0
LINE
5
21B
100
AcDbEntity
8
0
100
AcDbLine
62
7
6
CONTINUOUS
10
5.3264829861
20
-19.9397244791
11
10.8264829861
21
-19.9397244791
0
LINE
5
21C
100
AcDbEntity
8
0
100
AcDbLine
62
7
6
CONTINUOUS
10
11.7264829861
20
-17.9397244791
11
12.7264829861
21
-17.9397244791
0
LINE
5
21D
100
AcDbEntity
8
0
100
AcDbLine
62
7
6
CONTINUOUS
10
11.7264829861
20
-17.7397244791
11
11.5764829861
21
-17.7397244791
0
LINE
5
21E
100
AcDbEntity
8
0
100
AcDbLine
62
7
6
CONTINUOUS
10
4.4264829861
20
-17.7397244791
11
4.5764829861
21
-17.7397244791
0
LINE
5
21F
100
AcDbEntity
8
0
100
AcDbLine
62
7
6
CONTINUOUS
10
9.3264829861
20
-17.4397244791
11
6.8264829861
21
-17.4397244791
0
LINE
5
220
100
AcDbEntity
8
0
100
AcDbLine
62
7
6
CONTINUOUS
10
11.7264829861
20
-16.1397244791
11
11.5764829861
21
-16.1397244791
0
LINE
5
221
100
AcDbEntity
8
0
100
AcDbLine
62
7
6
CONTINUOUS
10
4.4264829861
20
-16.1397244791
11
4.5764829861
21
-16.1397244791
0
LINE
5
222
100
AcDbEntity
8
0
100
AcDbLine
62
7
6
CONTINUOUS
10
-10.6735170139
20
13.0602755209
11
-10.6735170139
21
11.7102755209
0
LINE
5
223
100
AcDbEntity
8
0
100
AcDbLine
62
7
6
CONTINUOUS
10
-10.6735170139
20
11.2102755209
11
-10.6735170139
21
-0.9397244791
0
LINE
5
224
100
AcDbEntity
8
0
100
AcDbLine
62
7
6
CONTINUOUS
10
-8.8235170139
20
32.0602755209
11
-9.0279906981
21
29.9602755209
0
LINE
5
225
100
AcDbEntity
8
0
100
AcDbLine
62
7
6
CONTINUOUS
10
-9.1253591192
20
28.9602755209
11
-9.6122012245
21
23.9602755209
0
LINE
5
226
100
AcDbEntity
8
0
100
AcDbLine
62
7
6
CONTINUOUS
10
-9.7095696455
20
22.9602755209
11
-10.1964117508
21
17.9602755209
0
LINE
5
227
100
AcDbEntity
8
0
100
AcDbLine
62
7
6
CONTINUOUS
10
-10.2937801718
20
16.9602755209
11
-10.6735170139
21
13.0602755209
0
LINE
5
228
100
AcDbEntity
8
0
100
AcDbLine
62
7
6
CONTINUOUS
10
11.7264829861
20
-14.9397244791
11
4.4264829861
21
-14.9397244791
0
LINE
5
229
100
AcDbEntity
8
0
100
AcDbLine
62
7
6
CONTINUOUS
10
11.7264829861
20
-12.4397244791
11
4.4264829861
21
-12.4397244791
0
LINE
5
22A
100
AcDbEntity
8
0
100
AcDbLine
62
7
6
CONTINUOUS
10
4.4264829861
20
-11.9397244791
11
11.7264829861
21
-11.9397244791
0
LINE
5
22B
100
AcDbEntity
8
0
100
AcDbLine
62
7
6
CONTINUOUS
10
11.7264829861
20
-11.4397244791
11
4.4264829861
21
-11.4397244791
0
LINE
5
22C
100
AcDbEntity
8
0
100
AcDbLine
62
7
6
CONTINUOUS
10
4.4264829861
20
-10.9397244791
11
11.7264829861
21
-10.9397244791
0
LINE
5
22D
100
AcDbEntity
8
0
100
AcDbLine
62
7
6
CONTINUOUS
10
11.7264829861
20
-10.4397244791
11
4.4264829861
21
-10.4397244791
0
LINE
5
22E
100
AcDbEntity
8
0
100
AcDbLine
62
7
6
CONTINUOUS
10
4.4264829861
20
-9.9397244791
11
11.7264829861
21
-9.9397244791
0
LINE
5
22F
100
AcDbEntity
8
0
100
AcDbLine
62
7
6
CONTINUOUS
10
11.7264829861
20
-9.4397244791
11
4.4264829861
21
-9.4397244791
0
LINE
5
230
100
AcDbEntity
8
0
100
AcDbLine
62
7
6
CONTINUOUS
10
4.4264829861
20
-8.9397244791
11
11.7264829861
21
-8.9397244791
0
LINE
5
231
100
AcDbEntity
8
0
100
AcDbLine
62
7
6
CONTINUOUS
10
11.7264829861
20
-8.4397244791
11
4.4264829861
21
-8.4397244791
0
LINE
5
232
100
AcDbEntity
8
0
100
AcDbLine
62
7
6
CONTINUOUS
10
4.4264829861
20
-7.9397244791
11
11.7264829861
21
-7.9397244791
0
LINE
5
233
100
AcDbEntity
8
0
100
AcDbLine
62
7
6
CONTINUOUS
10
11.7264829861
20
-7.4397244791
11
4.4264829861
21
-7.4397244791
0
LINE
5
234
100
AcDbEntity
8
0
100
AcDbLine
62
7
6
CONTINUOUS
10
4.4264829861
20
-6.9397244791
11
11.7264829861
21
-6.9397244791
0
LINE
5
235
100
AcDbEntity
8
0
100
AcDbLine
62
7
6
CONTINUOUS
10
-5.0235170139
20
32.0602755209
11
-4.8190433297
21
29.9602755209
0
LINE
5
236
100
AcDbEntity
8
0
100
AcDbLine
62
7
6
CONTINUOUS
10
-4.7216749087
20
28.9602755209
11
-4.2348328034
21
23.9602755209
0
LINE
5
237
100
AcDbEntity
8
0
100
AcDbLine
62
7
6
CONTINUOUS
10
-4.1374643824
20
22.9602755209
11
-3.6506222771
21
17.9602755209
0
LINE
5
238
100
AcDbEntity
8
0
100
AcDbLine
62
7
6
CONTINUOUS
10
-3.5532538560
20
16.9602755209
11
-3.1735170139
21
13.0602755209
0
LINE
5
239
100
AcDbEntity
8
0
100
AcDbLine
62
7
6
CONTINUOUS
10
-3.1735170139
20
13.0602755209
11
-3.1735170139
21
11.7102755209
0
LINE
5
23A
100
AcDbEntity
8
0
100
AcDbLine
62
7
6
CONTINUOUS
10
-3.1735170139
20
11.2102755209
11
-3.1735170139
21
-0.9397244791
0
LINE
5
23B
100
AcDbEntity
8
0
100
AcDbLine
62
7
6
CONTINUOUS
10
11.2264829861
20
-5.9397244791
11
4.9264829861
21
-5.9397244791
0
LINE
5
23C
100
AcDbEntity
8
0
100
AcDbLine
62
7
6
CONTINUOUS
10
3.5764829861
20
-2.9397244791
11
12.5764829861
21
-2.9397244791
0
LINE
5
23D
100
AcDbEntity
8
0
100
AcDbLine
62
7
6
CONTINUOUS
10
3.5764829861
20
-0.9397244791
11
3.5764829861
21
-2.9397244791
0
LINE
5
23E
100
AcDbEntity
8
0
100
AcDbLine
62
7
6
CONTINUOUS
10
5.0764829861
20
11.0602755209
11
4.0764829861
21
4.0602755209
0
LINE
5
23F
100
AcDbEntity
8
0
100
AcDbLine
62
7
6
CONTINUOUS
10
-3.1735170139
20
-0.9397244791
11
-10.6735170139
21
-0.9397244791
0
LINE
5
240
100
AcDbEntity
8
0
100
AcDbLine
62
7
6
CONTINUOUS
10
3.5764829861
20
-0.9397244791
11
12.5764829861
21
-0.9397244791
0
LINE
5
241
100
AcDbEntity
8
0
100
AcDbLine
62
7
6
CONTINUOUS
10
10.0764829861
20
-31.1397244791
11
10.4764829861
21
-32.6397244791
0
LINE
5
242
100
AcDbEntity
8
0
100
AcDbLine
62
7
6
CONTINUOUS
10
4.0764829861
20
4.0602755209
11
4.0764829861
21
-0.9397244791
0
LINE
5
243
100
AcDbEntity
8
0
100
AcDbLine
62
9
6
CONTINUOUS
10
4.0764829861
20
-0.9397244791
11
4.0764829861
21
-2.9397244791
0
LINE
5
244
100
AcDbEntity
8
0
100
AcDbLine
62
7
6
CONTINUOUS
10
4.4264829861
20
-2.9397244791
11
4.4264829861
21
-6.9397244791
0
LINE
5
245
100
AcDbEntity
8
0
100
AcDbLine
62
7
6
CONTINUOUS
10
4.4264829861
20
-27.9397244791
11
4.4264829861
21
-17.7397244791
0
LINE
5
246
100
AcDbEntity
8
0
100
AcDbLine
62
7
6
CONTINUOUS
10
4.4264829861
20
-16.1397244791
11
4.4264829861
21
-12.4397244791
0
LINE
5
247
100
AcDbEntity
8
0
100
AcDbLine
62
7
6
CONTINUOUS
10
4.4264829861
20
-11.9397244791
11
4.4264829861
21
-11.4397244791
0
LINE
5
248
100
AcDbEntity
8
0
100
AcDbLine
62
7
6
CONTINUOUS
10
4.4264829861
20
-10.9397244791
11
4.4264829861
21
-10.4397244791
0
LINE
5
249
100
AcDbEntity
8
0
100
AcDbLine
62
7
6
CONTINUOUS
10
4.4264829861
20
-9.9397244791
11
4.4264829861
21
-9.4397244791
0
LINE
5
24A
100
AcDbEntity
8
0
100
AcDbLine
62
7
6
CONTINUOUS
10
4.4264829861
20
-8.9397244791
11
4.4264829861
21
-8.4397244791
0
LINE
5
24B
100
AcDbEntity
8
0
100
AcDbLine
62
7
6
CONTINUOUS
10
4.4264829861
20
-7.9397244791
11
4.4264829861
21
-7.4397244791
0
LINE
5
24C
100
AcDbEntity
8
0
100
AcDbLine
62
7
6
CONTINUOUS
10
4.5764829861
20
-16.1397244791
11
4.5764829861
21
-17.7397244791
0
LINE
5
24D
100
AcDbEntity
8
0
100
AcDbLine
62
7
6
CONTINUOUS
10
4.6764829861
20
-6.9397244791
11
4.6764829861
21
-7.4397244791
0
LINE
5
24E
100
AcDbEntity
8
0
100
AcDbLine
62
7
6
CONTINUOUS
10
4.6764829861
20
-7.9397244791
11
4.6764829861
21
-8.4397244791
0
LINE
5
24F
100
AcDbEntity
8
0
100
AcDbLine
62
7
6
CONTINUOUS
10
4.6764829861
20
-8.9397244791
11
4.6764829861
21
-9.4397244791
0
LINE
5
250
100
AcDbEntity
8
0
100
AcDbLine
62
7
6
CONTINUOUS
10
4.6764829861
20
-9.9397244791
11
4.6764829861
21
-10.4397244791
0
LINE
5
251
100
AcDbEntity
8
0
100
AcDbLine
62
7
6
CONTINUOUS
10
4.6764829861
20
-10.9397244791
11
4.6764829861
21
-11.4397244791
0
LINE
5
252
100
AcDbEntity
8
0
100
AcDbLine
62
7
6
CONTINUOUS
10
4.6764829861
20
-11.9397244791
11
4.6764829861
21
-12.4397244791
0
LINE
5
253
100
AcDbEntity
8
0
100
AcDbLine
62
7
6
CONTINUOUS
10
4.9264829861
20
-2.9397244791
11
4.9264829861
21
-5.9397244791
0
LINE
5
254
100
AcDbEntity
8
0
100
AcDbLine
62
7
6
CONTINUOUS
10
5.0764829861
20
-27.9397244791
11
5.0764829861
21
-30.0468312603
0
LINE
5
255
100
AcDbEntity
8
0
100
AcDbLine
62
7
6
CONTINUOUS
10
5.3264829861
20
-19.9397244791
11
5.3264829861
21
-24.1397244791
0
LINE
5
256
100
AcDbEntity
8
0
100
AcDbLine
62
7
6
CONTINUOUS
10
5.6764829861
20
-32.6397244791
11
5.6764829861
21
-35.1397244791
0
LINE
5
257
100
AcDbEntity
8
0
100
AcDbLine
62
7
6
CONTINUOUS
10
5.8764829861
20
-27.9397244791
11
5.8764829861
21
-29.3397244791
0
LINE
5
258
100
AcDbEntity
8
0
100
AcDbLine
62
7
6
CONTINUOUS
10
6.0764829861
20
-21.9397244791
11
6.0764829861
21
-27.9397244791
0
LINE
5
259
100
AcDbEntity
8
0
100
AcDbLine
62
7
6
CONTINUOUS
10
6.0764829861
20
-30.1397244791
11
6.0764829861
21
-31.1397244791
0
LINE
5
25A
100
AcDbEntity
8
0
100
AcDbLine
62
7
6
CONTINUOUS
10
6.9264829861
20
32.0602755209
11
5.0764829861
21
11.0602755209
0
LINE
5
25B
100
AcDbEntity
8
0
100
AcDbLine
62
7
6
CONTINUOUS
10
6.8264829861
20
-21.9397244791
11
6.8264829861
21
-17.4397244791
0
LINE
5
25C
100
AcDbEntity
8
0
100
AcDbLine
62
7
6
CONTINUOUS
10
4.4264829861
20
-6.9397244791
11
4.9264829861
21
-5.9397244791
0
LINE
5
25D
100
AcDbEntity
8
0
100
AcDbLine
62
7
6
CONTINUOUS
10
4.0764829861
20
4.0602755209
11
12.0764829861
21
4.0602755209
0
LINE
5
25E
100
AcDbEntity
8
0
100
AcDbLine
62
7
6
CONTINUOUS
10
11.7264829861
20
-6.9397244791
11
11.2264829861
21
-5.9397244791
0
LINE
5
25F
100
AcDbEntity
8
0
100
AcDbLine
62
7
6
CONTINUOUS
10
9.3264829861
20
-21.9397244791
11
9.3264829861
21
-17.4397244791
0
LINE
5
260
100
AcDbEntity
8
0
100
AcDbLine
62
7
6
CONTINUOUS
10
10.0764829861
20
-21.9397244791
11
10.0764829861
21
-27.9397244791
0
LINE
5
261
100
AcDbEntity
8
0
100
AcDbLine
62
7
6
CONTINUOUS
10
10.0764829861
20
-30.1397244791
11
10.0764829861
21
-31.1397244791
0
LINE
5
262
100
AcDbEntity
8
0
100
AcDbLine
62
7
6
CONTINUOUS
10
10.2764829861
20
-27.9397244791
11
10.2764829861
21
-29.3397244791
0
LINE
5
263
100
AcDbEntity
8
0
100
AcDbLine
62
7
6
CONTINUOUS
10
10.4764829861
20
-32.6397244791
11
10.4764829861
21
-35.1397244791
0
LINE
5
264
100
AcDbEntity
8
0
100
AcDbLine
62
7
6
CONTINUOUS
10
10.8264829861
20
-19.9397244791
11
10.8264829861
21
-24.1397244791
0
LINE
5
265
100
AcDbEntity
8
0
100
AcDbLine
62
7
6
CONTINUOUS
10
9.2264829861
20
32.0602755209
11
11.0764829861
21
11.0602755209
0
LINE
5
266
100
AcDbEntity
8
0
100
AcDbLine
62
7
6
CONTINUOUS
10
11.0764829861
20
-27.9397244791
11
11.0764829861
21
-30.1397244791
0
LINE
5
267
100
AcDbEntity
8
0
100
AcDbLine
62
7
6
CONTINUOUS
10
11.2264829861
20
-2.9397244791
11
11.2264829861
21
-5.9397244791
0
LINE
5
268
100
AcDbEntity
8
0
100
AcDbLine
62
7
6
CONTINUOUS
10
11.4764829861
20
-6.9397244791
11
11.4764829861
21
-7.4397244791
0
LINE
5
269
100
AcDbEntity
8
0
100
AcDbLine
62
7
6
CONTINUOUS
10
11.4764829861
20
-7.9397244791
11
11.4764829861
21
-8.4397244791
0
LINE
5
26A
100
AcDbEntity
8
0
100
AcDbLine
62
7
6
CONTINUOUS
10
11.4764829861
20
-8.9397244791
11
11.4764829861
21
-9.4397244791
0
LINE
5
26B
100
AcDbEntity
8
0
100
AcDbLine
62
7
6
CONTINUOUS
10
11.4764829861
20
-9.9397244791
11
11.4764829861
21
-10.4397244791
0
LINE
5
26C
100
AcDbEntity
8
0
100
AcDbLine
62
7
6
CONTINUOUS
10
11.4764829861
20
-10.9397244791
11
11.4764829861
21
-11.4397244791
0
LINE
5
26D
100
AcDbEntity
8
0
100
AcDbLine
62
7
6
CONTINUOUS
10
11.4764829861
20
-11.9397244791
11
11.4764829861
21
-12.4397244791
0
LINE
5
26E
100
AcDbEntity
8
0
100
AcDbLine
62
7
6
CONTINUOUS
10
11.5764829861
20
-16.1397244791
11
11.5764829861
21
-17.7397244791
0
LINE
5
26F
100
AcDbEntity
8
0
100
AcDbLine
62
7
6
CONTINUOUS
10
11.7264829861
20
-2.9397244791
11
11.7264829861
21
-6.9397244791
0
LINE
5
270
100
AcDbEntity
8
0
100
AcDbLine
62
7
6
CONTINUOUS
10
11.7264829861
20
-27.9397244791
11
11.7264829861
21
-17.7397244791
0
LINE
5
271
100
AcDbEntity
8
0
100
AcDbLine
62
7
6
CONTINUOUS
10
11.7264829861
20
-16.1397244791
11
11.7264829861
21
-12.4397244791
0
LINE
5
272
100
AcDbEntity
8
0
100
AcDbLine
62
7
6
CONTINUOUS
10
11.7264829861
20
-11.9397244791
11
11.7264829861
21
-11.4397244791
0
LINE
5
273
100
AcDbEntity
8
0
100
AcDbLine
62
7
6
CONTINUOUS
10
11.7264829861
20
-10.9397244791
11
11.7264829861
21
-10.4397244791
0
LINE
5
274
100
AcDbEntity
8
0
100
AcDbLine
62
7
6
CONTINUOUS
10
11.7264829861
20
-9.9397244791
11
11.7264829861
21
-9.4397244791
0
LINE
5
275
100
AcDbEntity
8
0
100
AcDbLine
62
7
6
CONTINUOUS
10
11.7264829861
20
-8.9397244791
11
11.7264829861
21
-8.4397244791
0
LINE
5
276
100
AcDbEntity
8
0
100
AcDbLine
62
7
6
CONTINUOUS
10
11.7264829861
20
-7.9397244791
11
11.7264829861
21
-7.4397244791
0
LINE
5
277
100
AcDbEntity
8
0
100
AcDbLine
62
7
6
CONTINUOUS
10
12.0764829861
20
4.0602755209
11
12.0764829861
21
-0.9397244791
0
LINE
5
278
100
AcDbEntity
8
0
100
AcDbLine
62
9
6
CONTINUOUS
10
12.0764829861
20
-2.9397244791
11
12.0764829861
21
-0.9397244791
0
LINE
5
279
100
AcDbEntity
8
0
100
AcDbLine
62
7
6
CONTINUOUS
10
12.5764829861
20
-2.9397244791
11
12.5764829861
21
-0.9397244791
0
LINE
5
27A
100
AcDbEntity
8
0
100
AcDbLine
62
7
6
CONTINUOUS
10
12.7264829861
20
-17.9397244791
11
12.7264829861
21
-22.9395928334
0
LINE
5
27B
100
AcDbEntity
8
0
100
AcDbLine
62
7
6
CONTINUOUS
10
11.0764829861
20
11.0602755209
11
12.0764829861
21
4.0602755209
0
LINE
5
27C
100
AcDbEntity
8
0
100
AcDbLine
62
7
6
CONTINUOUS
10
6.0764829861
20
-31.1397244791
11
5.6764829861
21
-32.6397244791
0
LINE
5
27D
100
AcDbEntity
8
0
100
AcDbLine
62
7
6
CONTINUOUS
10
5.0764829861
20
11.0602755209
11
11.0764829861
21
11.0602755209
0
LINE
5
27E
100
AcDbEntity
8
0
100
AcDbLine
62
7
6
CONTINUOUS
10
-10.6733439371
20
11.2102755209
11
-8.4235170139
21
11.2102755209
0
LINE
5
27F
100
AcDbEntity
8
0
100
AcDbLine
62
7
6
CONTINUOUS
10
-5.4235170139
20
11.2102755209
11
-3.1736900908
21
11.2102755209
0
LINE
5
280
100
AcDbEntity
8
0
100
AcDbLine
62
7
6
CONTINUOUS
10
-3.1736900908
20
11.7102755209
11
-5.4235170139
21
11.7102755209
0
LINE
5
281
100
AcDbEntity
8
0
100
AcDbLine
62
7
6
CONTINUOUS
10
-8.4235170139
20
11.7102755209
11
-10.6733439371
21
11.7102755209
0
LINE
5
282
100
AcDbEntity
8
0
100
AcDbLine
62
7
6
CONTINUOUS
10
-3.1735170139
20
13.0602755209
11
-10.6735170139
21
13.0602755209
0
LINE
5
283
100
AcDbEntity
8
0
100
AcDbLine
62
7
6
CONTINUOUS
10
-3.5204768931
20
14.1602755209
11
-10.3265571347
21
14.1602755209
0
LINE
5
284
100
AcDbEntity
8
0
100
AcDbLine
62
7
6
CONTINUOUS
10
-3.5830901561
20
14.7602755209
11
-10.2639438718
21
14.7602755209
0
LINE
5
285
100
AcDbEntity
8
0
100
AcDbLine
62
7
6
CONTINUOUS
10
-10.2936161397
20
16.9602755209
11
-8.2235170139
21
16.9602755209
0
LINE
5
286
100
AcDbEntity
8
0
100
AcDbLine
62
7
6
CONTINUOUS
10
-5.6235170139
20
16.9602755209
11
-3.5534178881
21
16.9602755209
0
LINE
5
287
100
AcDbEntity
8
0
100
AcDbLine
62
7
6
CONTINUOUS
10
-3.6507749234
20
17.9602755209
11
-5.6235170139
21
17.9602755209
0
LINE
5
288
100
AcDbEntity
8
0
100
AcDbLine
62
7
6
CONTINUOUS
10
-8.2235170139
20
17.9602755209
11
-10.1962591045
21
17.9602755209
0
LINE
5
289
100
AcDbEntity
8
0
100
AcDbLine
62
7
6
CONTINUOUS
10
-4.1333456886
20
19.9602755209
11
-9.7136883393
21
19.9602755209
0
LINE
5
28A
100
AcDbEntity
8
0
100
AcDbLine
62
7
6
CONTINUOUS
10
-4.2411475602
20
20.9602755209
11
-9.6058864677
21
20.9602755209
0
LINE
5
28B
100
AcDbEntity
8
0
100
AcDbLine
62
7
6
CONTINUOUS
10
-9.7095696455
20
22.9602755209
11
-8.2235170139
21
22.9602755209
0
LINE
5
28C
100
AcDbEntity
8
0
100
AcDbLine
62
7
6
CONTINUOUS
10
-5.6235170139
20
22.9602755209
11
-4.1374643824
21
22.9602755209
0
LINE
5
28D
100
AcDbEntity
8
0
100
AcDbLine
62
7
6
CONTINUOUS
10
-4.2350309073
20
23.9602755209
11
-5.6235170139
21
23.9602755209
0
LINE
5
28E
100
AcDbEntity
8
0
100
AcDbLine
62
7
6
CONTINUOUS
10
-8.2235170139
20
23.9602755209
11
-9.6120031206
21
23.9602755209
0
LINE
5
28F
100
AcDbEntity
8
0
100
AcDbLine
62
7
6
CONTINUOUS
10
10.2764829861
20
-29.3397244791
11
9.1451121362
21
-30.1397244791
0
LINE
5
290
100
AcDbEntity
8
0
100
AcDbLine
62
7
6
CONTINUOUS
10
-4.7951905642
20
25.9602755209
11
-9.0518434636
21
25.9602755209
0
LINE
5
291
100
AcDbEntity
8
0
100
AcDbLine
62
7
6
CONTINUOUS
10
-4.9101639274
20
26.9602755209
11
-8.9368701005
21
26.9602755209
0
LINE
5
292
100
AcDbEntity
8
0
100
AcDbLine
62
7
6
CONTINUOUS
10
-9.1253591192
20
28.9602755209
11
-8.2235170139
21
28.9602755209
0
LINE
5
293
100
AcDbEntity
8
0
100
AcDbLine
62
7
6
CONTINUOUS
10
-5.6235170139
20
28.9602755209
11
-4.7216749087
21
28.9602755209
0
LINE
5
294
100
AcDbEntity
8
0
100
AcDbLine
62
7
6
CONTINUOUS
10
-4.8190433297
20
29.9602755209
11
-5.6235170139
21
29.9602755209
0
LINE
5
295
100
AcDbEntity
8
0
100
AcDbLine
62
7
6
CONTINUOUS
10
-8.2235170139
20
29.9602755209
11
-9.0279906981
21
29.9602755209
0
LINE
5
296
100
AcDbEntity
8
0
100
AcDbLine
62
7
6
CONTINUOUS
10
6.9264829861
20
32.0602755209
11
9.2264829861
21
32.0602755209
0
LINE
5
297
100
AcDbEntity
8
0
100
AcDbLine
62
7
6
CONTINUOUS
10
-5.0235170139
20
32.0602755209
11
-8.8235170139
21
32.0602755209
0
ARC
5
298
100
AcDbEntity
8
0
100
AcDbCircle
62
7
6
CONTINUOUS
10
-8.4235170139
20
11.4602755209
40
0.2500000000
100
AcDbArc
50
270.0000000000
51
90.0000000000
0
ARC
5
299
100
AcDbEntity
8
0
100
AcDbCircle
62
7
6
CONTINUOUS
10
-8.2235170139
20
29.4602755209
40
0.5000000000
100
AcDbArc
50
270.0000000000
51
90.0000000000
0
ARC
5
29A
100
AcDbEntity
8
0
100
AcDbCircle
62
7
6
CONTINUOUS
10
-8.2235170139
20
23.4602755209
40
0.5000000000
100
AcDbArc
50
270.0000000000
51
90.0000000000
0
ARC
5
29B
100
AcDbEntity
8
0
100
AcDbCircle
62
7
6
CONTINUOUS
10
-8.2235170139
20
17.4602755209
40
0.5000000000
100
AcDbArc
50
270.0000000000
51
90.0000000000
0
ARC
5
29C
100
AcDbEntity
8
0
100
AcDbCircle
62
7
6
CONTINUOUS
10
-5.4235170139
20
11.4602755209
40
0.2500000000
100
AcDbArc
50
90.0000000000
51
270.0000000000
0
ARC
5
29D
100
AcDbEntity
8
0
100
AcDbCircle
62
7
6
CONTINUOUS
10
-5.6235170139
20
29.4602755209
40
0.5000000000
100
AcDbArc
50
90.0000000000
51
270.0000000000
0
ARC
5
29E
100
AcDbEntity
8
0
100
AcDbCircle
62
7
6
CONTINUOUS
10
-5.6235170139
20
23.4602755209
40
0.5000000000
100
AcDbArc
50
90.0000000000
51
270.0000000000
0
ARC
5
29F
100
AcDbEntity
8
0
100
AcDbCircle
62
7
6
CONTINUOUS
10
-5.6235170139
20
17.4602755209
40
0.5000000000
100
AcDbArc
50
90.0000000000
51
270.0000000000
0
SPLINE
5
2A0
100
AcDbEntity
8
0
100
AcDbSpline
62
7
6
CONTINUOUS
70
0
71
3
72
17
73
13
74
11
42
0.0000001000
43
0.0000001000
44
0.0000000001
12
-0.9512636397
22
0.0000000000
32
0.0000000000
13
0.9512636397
23
0.0000000000
33
0.0000000000
40
0.0000000000
40
0.0000000000
40
0.0000000000
40
0.0000000000
40
0.1114055997
40
0.2108458653
40
0.3060832933
40
0.4025788369
40
0.5005939274
40
0.5984809328
40
0.6946957270
40
0.7891396425
40
0.8879754276
40
1.0000000000
40
1.0000000000
40
1.0000000000
40
1.0000000000
10
-7.9396370856
20
14.7602755209
30
0.0000000000
10
-7.9749624510
20
14.7602755209
30
0.0000000000
10
-8.0424659266
20
14.7532597059
30
0.0000000000
10
-8.1323142713
20
14.7106363419
30
0.0000000000
10
-8.1947595200
20
14.6394664154
30
0.0000000000
10
-8.2288814357
20
14.5527032381
30
0.0000000000
10
-8.2395858263
20
14.4597382359
30
0.0000000000
10
-8.2286363990
20
14.3668918566
30
0.0000000000
10
-8.1943987402
20
14.2805874401
30
0.0000000000
10
-8.1322186525
20
14.2099624837
30
0.0000000000
10
-8.0426840819
20
14.1673354678
30
0.0000000000
10
-7.9751587198
20
14.1602755209
30
0.0000000000
10
-7.9396370856
20
14.1602755209
30
0.0000000000
11
-7.9396370856
21
14.7602755209
31
0.0000000000
11
-8.0447301255
21
14.7466231973
31
0.0000000000
11
-8.1295311618
21
14.7047090964
31
0.0000000000
11
-8.1899153442
21
14.6371711956
31
0.0000000000
11
-8.2248175254
21
14.5522727981
31
0.0000000000
11
-8.2359570717
21
14.4597024416
31
0.0000000000
11
-8.2245666070
21
14.3672853881
31
0.0000000000
11
-8.1895209720
21
14.2827351344
31
0.0000000000
11
-8.1295404418
21
14.2158490180
31
0.0000000000
11
-8.0453022506
21
14.1740940356
31
0.0000000000
11
-7.9396370856
21
14.1602755209
31
0.0000000000
0
SPLINE
5
2A1
100
AcDbEntity
8
0
100
AcDbSpline
62
7
6
CONTINUOUS
70
0
71
3
72
19
73
15
74
13
42
0.0000001000
43
0.0000001000
44
0.0000000001
12
-1.5004091776
22
0.0000000000
32
0.0000000000
13
1.5004091776
23
0.0000000000
33
0.0000000000
40
0.0000000000
40
0.0000000000
40
0.0000000000
40
0.0000000000
40
0.1069324151
40
0.1985536388
40
0.2867720936
40
0.3798686841
40
0.4797377288
40
0.5806538215
40
0.6750914590
40
0.7556055952
40
0.8202566698
40
0.8783866029
40
0.9371297961
40
1.0000000000
40
1.0000000000
40
1.0000000000
40
1.0000000000
10
-7.9396370856
20
20.9602755209
30
0.0000000000
10
-7.9931178779
20
20.9602755209
30
0.0000000000
10
-8.0936741857
20
20.9513417481
30
0.0000000000
10
-8.2256140530
20
20.8840545288
30
0.0000000000
10
-8.3091910118
20
20.7713375986
30
0.0000000000
10
-8.3533891374
20
20.6364048213
30
0.0000000000
10
-8.3702394952
20
20.4896478211
30
0.0000000000
10
-8.3629909495
20
20.3415193778
30
0.0000000000
10
-8.3317233781
20
20.2061453257
30
0.0000000000
10
-8.2761270094
20
20.0979794459
30
0.0000000000
10
-8.2022373906
20
20.0256171502
30
0.0000000000
10
-8.1201834843
20
19.9841873812
30
0.0000000000
10
-8.0320385086
20
19.9637238709
30
0.0000000000
10
-7.9710807625
20
19.9602755209
30
0.0000000000
10
-7.9396370856
20
19.9602755209
30
0.0000000000
11
-7.9396370856
21
20.9602755209
31
0.0000000000
11
-8.0987587340
21
20.9397314871
31
0.0000000000
11
-8.2199972770
21
20.8749315566
31
0.0000000000
11
-8.3013005826
21
20.7704808861
31
0.0000000000
11
-8.3478399475
21
20.6387788662
31
0.0000000000
11
-8.3661116458
21
20.4900526123
31
0.0000000000
11
-8.3582031531
21
20.3388438536
31
0.0000000000
11
-8.3240946759
21
20.2013152653
31
0.0000000000
11
-8.2665773055
21
20.0950825280
31
0.0000000000
11
-8.1968521653
21
20.0276436700
31
0.0000000000
11
-8.1193514331
21
19.9876344768
31
0.0000000000
11
-8.0337545450
21
19.9666195905
31
0.0000000000
11
-7.9396370856
21
19.9602755209
31
0.0000000000
0
SPLINE
5
2A2
100
AcDbEntity
8
0
100
AcDbSpline
62
7
6
CONTINUOUS
70
0
71
3
72
19
73
15
74
13
42
0.0000001000
43
0.0000001000
44
0.0000000001
12
-1.5004091776
22
0.0000000000
32
0.0000000000
13
1.5004091776
23
-0.0000000000
33
0.0000000000
40
0.0000000000
40
0.0000000000
40
0.0000000000
40
0.0000000000
40
0.1069324151
40
0.1985536388
40
0.2867720936
40
0.3798686841
40
0.4797377288
40
0.5806538215
40
0.6750914590
40
0.7556055952
40
0.8202566698
40
0.8783866029
40
0.9371297961
40
1.0000000000
40
1.0000000000
40
1.0000000000
40
1.0000000000
10
-7.9396370856
20
26.9602755209
30
0.0000000000
10
-7.9931178779
20
26.9602755209
30
0.0000000000
10
-8.0936741857
20
26.9513417481
30
0.0000000000
10
-8.2256140530
20
26.8840545288
30
0.0000000000
10
-8.3091910118
20
26.7713375986
30
0.0000000000
10
-8.3533891374
20
26.6364048213
30
0.0000000000
10
-8.3702394952
20
26.4896478211
30
0.0000000000
10
-8.3629909495
20
26.3415193778
30
0.0000000000
10
-8.3317233781
20
26.2061453257
30
0.0000000000
10
-8.2761270094
20
26.0979794459
30
0.0000000000
10
-8.2022373906
20
26.0256171502
30
0.0000000000
10
-8.1201834843
20
25.9841873812
30
0.0000000000
10
-8.0320385086
20
25.9637238709
30
0.0000000000
10
-7.9710807625
20
25.9602755209
30
0.0000000000
10
-7.9396370856
20
25.9602755209
30
0.0000000000
11
-7.9396370856
21
26.9602755209
31
0.0000000000
11
-8.0987587340
21
26.9397314871
31
0.0000000000
11
-8.2199972770
21
26.8749315566
31
0.0000000000
11
-8.3013005826
21
26.7704808861
31
0.0000000000
11
-8.3478399475
21
26.6387788662
31
0.0000000000
11
-8.3661116458
21
26.4900526123
31
0.0000000000
11
-8.3582031531
21
26.3388438536
31
0.0000000000
11
-8.3240946759
21
26.2013152653
31
0.0000000000
11
-8.2665773055
21
26.0950825280
31
0.0000000000
11
-8.1968521653
21
26.0276436700
31
0.0000000000
11
-8.1193514331
21
25.9876344768
31
0.0000000000
11
-8.0337545450
21
25.9666195905
31
0.0000000000
11
-7.9396370856
21
25.9602755209
31
0.0000000000
0
SPLINE
5
2A3
100
AcDbEntity
8
0
100
AcDbSpline
62
7
6
CONTINUOUS
70
0
71
3
72
19
73
15
74
13
42
0.0000001000
43
0.0000001000
44
0.0000000001
12
1.5003120754
22
0.0000000000
32
0.0000000000
13
-1.5003120754
23
0.0000000000
33
0.0000000000
40
0.0000000000
40
0.0000000000
40
0.0000000000
40
0.0000000000
40
0.1096901779
40
0.2042717171
40
0.2952084977
40
0.3920991439
40
0.4966678658
40
0.6005448908
40
0.6926271928
40
0.7651270498
40
0.8246029059
40
0.8802977954
40
0.9382444085
40
1.0000000000
40
1.0000000000
40
1.0000000000
40
1.0000000000
10
-5.9073969423
20
25.9602755209
30
0.0000000000
10
-5.8525404428
20
25.9602755209
30
0.0000000000
10
-5.7489429056
20
25.9696256186
30
0.0000000000
10
-5.6142270810
20
26.0419118857
30
0.0000000000
10
-5.5316852285
20
26.1613972951
30
0.0000000000
10
-5.4896712596
20
26.3028306652
30
0.0000000000
10
-5.4760592373
20
26.4557226211
30
0.0000000000
10
-5.4879341963
20
26.6062799502
30
0.0000000000
10
-5.5240810301
20
26.7367783852
30
0.0000000000
10
-5.5813737429
20
26.8348732707
30
0.0000000000
10
-5.6517493808
20
26.8990424845
30
0.0000000000
10
-5.7304397760
20
26.9373985050
30
0.0000000000
10
-5.8165248704
20
26.9569407890
30
0.0000000000
10
-5.8765127224
20
26.9602755209
30
0.0000000000
10
-5.9073969423
20
26.9602755209
30
0.0000000000
11
-5.9073969423
21
25.9602755209
31
0.0000000000
11
-5.7442735187
21
25.9820440421
31
0.0000000000
11
-5.6204749487
21
26.0513985092
31
0.0000000000
11
-5.5399673641
21
26.1615467837
31
0.0000000000
11
-5.4953928457
21
26.2999102410
31
0.0000000000
11
-5.4804397954
21
26.4560817308
31
0.0000000000
11
-5.4936386558
21
26.6113697701
31
0.0000000000
11
-5.5329546024
21
26.7438095068
31
0.0000000000
11
-5.5894550636
21
26.8367564554
31
0.0000000000
11
-5.6556106605
21
26.8966384094
31
0.0000000000
11
-5.7304057713
21
26.9338931730
31
0.0000000000
11
-5.8149455062
21
26.9541724642
31
0.0000000000
11
-5.9073969423
21
26.9602755209
31
0.0000000000
0
SPLINE
5
2A4
100
AcDbEntity
8
0
100
AcDbSpline
62
7
6
CONTINUOUS
70
0
71
3
72
19
73
15
74
13
42
0.0000001000
43
0.0000001000
44
0.0000000001
12
1.5003120754
22
0.0000000000
32
0.0000000000
13
-1.5003120754
23
0.0000000000
33
0.0000000000
40
0.0000000000
40
0.0000000000
40
0.0000000000
40
0.0000000000
40
0.1096901779
40
0.2042717171
40
0.2952084977
40
0.3920991439
40
0.4966678658
40
0.6005448908
40
0.6926271928
40
0.7651270498
40
0.8246029059
40
0.8802977954
40
0.9382444085
40
1.0000000000
40
1.0000000000
40
1.0000000000
40
1.0000000000
10
-5.9073969423
20
19.9602755209
30
0.0000000000
10
-5.8525404428
20
19.9602755209
30
0.0000000000
10
-5.7489429056
20
19.9696256186
30
0.0000000000
10
-5.6142270810
20
20.0419118857
30
0.0000000000
10
-5.5316852285
20
20.1613972951
30
0.0000000000
10
-5.4896712596
20
20.3028306652
30
0.0000000000
10
-5.4760592373
20
20.4557226211
30
0.0000000000
10
-5.4879341963
20
20.6062799502
30
0.0000000000
10
-5.5240810301
20
20.7367783852
30
0.0000000000
10
-5.5813737429
20
20.8348732707
30
0.0000000000
10
-5.6517493808
20
20.8990424845
30
0.0000000000
10
-5.7304397760
20
20.9373985050
30
0.0000000000
10
-5.8165248704
20
20.9569407890
30
0.0000000000
10
-5.8765127224
20
20.9602755209
30
0.0000000000
10
-5.9073969423
20
20.9602755209
30
0.0000000000
11
-5.9073969423
21
19.9602755209
31
0.0000000000
11
-5.7442735187
21
19.9820440421
31
0.0000000000
11
-5.6204749487
21
20.0513985092
31
0.0000000000
11
-5.5399673641
21
20.1615467837
31
0.0000000000
11
-5.4953928457
21
20.2999102410
31
0.0000000000
11
-5.4804397954
21
20.4560817308
31
0.0000000000
11
-5.4936386558
21
20.6113697701
31
0.0000000000
11
-5.5329546024
21
20.7438095068
31
0.0000000000
11
-5.5894550636
21
20.8367564554
31
0.0000000000
11
-5.6556106605
21
20.8966384094
31
0.0000000000
11
-5.7304057713
21
20.9338931730
31
0.0000000000
11
-5.8149455062
21
20.9541724642
31
0.0000000000
11
-5.9073969423
21
20.9602755209
31
0.0000000000
0
SPLINE
5
2A5
100
AcDbEntity
8
0
100
AcDbSpline
62
7
6
CONTINUOUS
70
0
71
3
72
17
73
13
74
11
42
0.0000001000
43
0.0000001000
44
0.0000000001
12
0.9512711846
22
0.0000000000
32
0.0000000000
13
-0.9512711846
23
0.0000000000
33
0.0000000000
40
0.0000000000
40
0.0000000000
40
0.0000000000
40
0.0000000000
40
0.1114266102
40
0.2099093203
40
0.3038863209
40
0.3998083800
40
0.4985272848
40
0.5970903534
40
0.6942943313
40
0.7894216394
40
0.8887344103
40
1.0000000000
40
1.0000000000
40
1.0000000000
40
1.0000000000
10
-5.9073969423
20
14.1602755209
30
0.0000000000
10
-5.8720646345
20
14.1602755209
30
0.0000000000
10
-5.8048557828
20
14.1672681147
30
0.0000000000
10
-5.7156350766
20
14.2094214924
30
0.0000000000
10
-5.6533543026
20
14.2794544666
30
0.0000000000
10
-5.6186798539
20
14.3656163846
30
0.0000000000
10
-5.6074003912
20
14.4587966816
30
0.0000000000
10
-5.6180377346
20
14.5524469467
30
0.0000000000
10
-5.6522973484
20
14.6395807349
30
0.0000000000
10
-5.7149369121
20
14.7107782692
30
0.0000000000
10
-5.8047001218
20
14.7532765378
30
0.0000000000
10
-5.8721156925
20
14.7602755209
30
0.0000000000
10
-5.9073969423
20
14.7602755209
30
0.0000000000
11
-5.9073969423
21
14.1602755209
31
0.0000000000
11
-5.8022836612
21
14.1739337031
31
0.0000000000
11
-5.7182244317
21
14.2152942351
31
0.0000000000
11
-5.6582310075
21
14.2815718499
31
0.0000000000
11
-5.6228765560
21
14.3656922417
31
0.0000000000
11
-5.6110790955
21
14.4588567028
31
0.0000000000
11
-5.6221386817
21
14.5519623523
31
0.0000000000
11
-5.6573075882
21
14.6374805234
31
0.0000000000
11
-5.7177074041
21
14.7048647964
31
0.0000000000
11
-5.8024325316
21
14.7466603916
31
0.0000000000
11
-5.9073969423
21
14.7602755209
31
0.0000000000
0
SPLINE
5
2A6
100
AcDbEntity
8
0
100
AcDbSpline
62
7
6
CONTINUOUS
70
0
71
3
72
16
73
12
74
10
42
0.0000001000
43
0.0000001000
44
0.0000000001
12
-1.1496761633
22
0.0000000000
32
0.0000000000
13
1.1496761633
23
0.0000000000
33
0.0000000000
40
0.0000000000
40
0.0000000000
40
0.0000000000
40
0.0000000000
40
0.0666941280
40
0.1514860725
40
0.2660551724
40
0.4052009733
40
0.5551659437
40
0.6997676253
40
0.8258431829
40
0.9232571024
40
1.0000000000
40
1.0000000000
40
1.0000000000
40
1.0000000000
10
-9.7136883393
20
19.9602755209
30
0.0000000000
10
-9.7392472224
20
19.9602755209
30
0.0000000000
10
-9.7982893489
20
19.9884425943
30
0.0000000000
10
-9.8376058663
20
20.0875982317
30
0.0000000000
10
-9.8555593768
20
20.2155388981
30
0.0000000000
10
-9.8548179036
20
20.3710005465
30
0.0000000000
10
-9.8387436623
20
20.5364433030
30
0.0000000000
10
-9.8085894194
20
20.6953159551
30
0.0000000000
10
-9.7634241006
20
20.8291454013
30
0.0000000000
10
-9.7018956832
20
20.9297539549
30
0.0000000000
10
-9.6352962944
20
20.9602755209
30
0.0000000000
10
-9.6058864677
20
20.9602755209
30
0.0000000000
11
-9.7136883393
21
19.9602755209
31
0.0000000000
11
-9.7841304682
21
19.9905610787
31
0.0000000000
11
-9.8297889153
21
20.0766906066
31
0.0000000000
11
-9.8514169494
21
20.2066201719
31
0.0000000000
11
-9.8524787687
21
20.3665892584
31
0.0000000000
11
-9.8359014076
21
20.5382016017
31
0.0000000000
11
-9.8033204562
21
20.7012228182
31
0.0000000000
11
-9.7540585812
21
20.8375409350
31
0.0000000000
11
-9.6879892023
21
20.9279709993
31
0.0000000000
11
-9.6058864677
21
20.9602755209
31
0.0000000000
0
SPLINE
5
2A7
100
AcDbEntity
8
0
100
AcDbSpline
62
7
6
CONTINUOUS
70
0
71
3
72
16
73
12
74
10
42
0.0000001000
43
0.0000001000
44
0.0000000001
12
-1.2192424472
22
0.0000000000
32
0.0000000000
13
1.2192424472
23
0.0000000000
33
0.0000000000
40
0.0000000000
40
0.0000000000
40
0.0000000000
40
0.0000000000
40
0.0801209171
40
0.1664183309
40
0.2752349143
40
0.4054648433
40
0.5458022900
40
0.6824254569
40
0.8046454449
40
0.9062931676
40
1.0000000000
40
1.0000000000
40
1.0000000000
40
1.0000000000
10
-9.0518434636
20
25.9602755209
30
0.0000000000
10
-9.0844057380
20
25.9602755209
30
0.0000000000
10
-9.1552423702
20
25.9827260491
30
0.0000000000
10
-9.2152487270
20
26.0841635341
30
0.0000000000
10
-9.2405294860
20
26.2143813596
30
0.0000000000
10
-9.2439788789
20
26.3691972846
30
0.0000000000
10
-9.2279672792
20
26.5341661141
30
0.0000000000
10
-9.1937372009
20
26.6933189810
30
0.0000000000
10
-9.1396082392
20
26.8302660682
30
0.0000000000
10
-9.0563087519
20
26.9344370908
30
0.0000000000
10
-8.9749538830
20
26.9602755209
30
0.0000000000
10
-8.9368701005
20
26.9602755209
30
0.0000000000
11
-9.0518434636
21
25.9602755209
31
0.0000000000
11
-9.1446040683
21
25.9909053364
31
0.0000000000
11
-9.2049835279
21
26.0770739900
31
0.0000000000
11
-9.2354668757
21
26.2061983566
31
0.0000000000
11
-9.2408522570
21
26.3648888600
31
0.0000000000
11
-9.2245196909
21
26.5352129499
31
0.0000000000
11
-9.1878578658
21
26.6977051928
31
0.0000000000
11
-9.1290362556
21
26.8346202248
31
0.0000000000
11
-9.0460729971
21
26.9266883535
31
0.0000000000
11
-8.9368701005
21
26.9602755209
31
0.0000000000
0
SPLINE
5
2A8
100
AcDbEntity
8
0
100
AcDbSpline
62
7
6
CONTINUOUS
70
0
71
3
72
15
73
11
74
9
42
0.0000001000
43
0.0000001000
44
0.0000000001
12
0.6721860034
22
0.0000000000
32
0.0000000000
13
-0.6721860034
23
0.0000000000
33
0.0000000000
40
0.0000000000
40
0.0000000000
40
0.0000000000
40
0.0000000000
40
0.0764898234
40
0.1933112012
40
0.3463780500
40
0.5178260156
40
0.6858247175
40
0.8283513138
40
0.9322423381
40
1.0000000000
40
1.0000000000
40
1.0000000000
40
1.0000000000
10
-3.5830901561
20
14.7602755209
30
0.0000000000
10
-3.5659516932
20
14.7602755209
30
0.0000000000
10
-3.5256428707
20
14.7326165247
30
0.0000000000
10
-3.4925426189
20
14.6621339433
30
0.0000000000
10
-3.4648731387
20
14.5667366539
30
0.0000000000
10
-3.4488678525
20
14.4573975574
30
0.0000000000
10
-3.4432792828
20
14.3491128175
30
0.0000000000
10
-3.4522096444
20
14.2568127847
30
0.0000000000
10
-3.4694459632
20
14.1870541557
30
0.0000000000
10
-3.5052949758
20
14.1602755209
30
0.0000000000
10
-3.5204768931
20
14.1602755209
30
0.0000000000
11
-3.5830901561
21
14.7602755209
31
0.0000000000
11
-3.5374714279
21
14.7365589901
31
0.0000000000
11
-3.4976681979
21
14.6688686092
31
0.0000000000
11
-3.4682057611
21
14.5702877181
31
0.0000000000
11
-3.4505657682
21
14.4564008318
31
0.0000000000
11
-3.4459964183
21
14.3435669386
31
0.0000000000
11
-3.4557884108
21
14.2482642801
31
0.0000000000
11
-3.4811112096
21
14.1831831283
31
0.0000000000
11
-3.5204768931
21
14.1602755209
31
0.0000000000
0
SPLINE
5
2A9
100
AcDbEntity
8
0
100
AcDbSpline
62
7
6
CONTINUOUS
70
0
71
3
72
15
73
11
74
9
42
0.0000001000
43
0.0000001000
44
0.0000000001
12
-0.6721860034
22
0.0000000000
32
0.0000000000
13
0.6721860034
23
0.0000000000
33
0.0000000000
40
0.0000000000
40
0.0000000000
40
0.0000000000
40
0.0000000000
40
0.0677576619
40
0.1716486862
40
0.3141752825
40
0.4821739844
40
0.6536219500
40
0.8066887988
40
0.9235101766
40
1.0000000000
40
1.0000000000
40
1.0000000000
40
1.0000000000
10
-10.3265571347
20
14.1602755209
30
0.0000000000
10
-10.3417390521
20
14.1602755209
30
0.0000000000
10
-10.3775880647
20
14.1870541557
30
0.0000000000
10
-10.3948243835
20
14.2568127847
30
0.0000000000
10
-10.4037547451
20
14.3491128175
30
0.0000000000
10
-10.3981661754
20
14.4573975574
30
0.0000000000
10
-10.3821608892
20
14.5667366539
30
0.0000000000
10
-10.3544914090
20
14.6621339433
30
0.0000000000
10
-10.3213911572
20
14.7326165247
30
0.0000000000
10
-10.2810823347
20
14.7602755209
30
0.0000000000
10
-10.2639438718
20
14.7602755209
30
0.0000000000
11
-10.3265571347
21
14.1602755209
31
0.0000000000
11
-10.3659228183
21
14.1831831283
31
0.0000000000
11
-10.3912456171
21
14.2482642801
31
0.0000000000
11
-10.4010376095
21
14.3435669386
31
0.0000000000
11
-10.3964682597
21
14.4564008318
31
0.0000000000
11
-10.3788282667
21
14.5702877181
31
0.0000000000
11
-10.3493658300
21
14.6688686092
31
0.0000000000
11
-10.3095626000
21
14.7365589901
31
0.0000000000
11
-10.2639438718
21
14.7602755209
31
0.0000000000
0
SPLINE
5
2AA
100
AcDbEntity
8
0
100
AcDbSpline
62
7
6
CONTINUOUS
70
0
71
3
72
16
73
12
74
10
42
0.0000001000
43
0.0000001000
44
0.0000000001
12
1.1496761633
22
0.0000000000
32
0.0000000000
13
-1.1496761633
23
-0.0000000000
33
0.0000000000
40
0.0000000000
40
0.0000000000
40
0.0000000000
40
0.0000000000
40
0.0767428976
40
0.1741568171
40
0.3002323747
40
0.4448340563
40
0.5947990267
40
0.7339448276
40
0.8485139275
40
0.9333058720
40
1.0000000000
40
1.0000000000
40
1.0000000000
40
1.0000000000
10
-4.2411475602
20
20.9602755209
30
0.0000000000
10
-4.2117377335
20
20.9602755209
30
0.0000000000
10
-4.1451383447
20
20.9297539549
30
0.0000000000
10
-4.0836099273
20
20.8291454013
30
0.0000000000
10
-4.0384446085
20
20.6953159551
30
0.0000000000
10
-4.0082903655
20
20.5364433030
30
0.0000000000
10
-3.9922161242
20
20.3710005465
30
0.0000000000
10
-3.9914746511
20
20.2155388981
30
0.0000000000
10
-4.0094281616
20
20.0875982317
30
0.0000000000
10
-4.0487446790
20
19.9884425943
30
0.0000000000
10
-4.1077868055
20
19.9602755209
30
0.0000000000
10
-4.1333456886
20
19.9602755209
30
0.0000000000
11
-4.2411475602
21
20.9602755209
31
0.0000000000
11
-4.1590448256
21
20.9279709993
31
0.0000000000
11
-4.0929754466
21
20.8375409350
31
0.0000000000
11
-4.0437135717
21
20.7012228182
31
0.0000000000
11
-4.0111326203
21
20.5382016017
31
0.0000000000
11
-3.9945552592
21
20.3665892584
31
0.0000000000
11
-3.9956170785
21
20.2066201719
31
0.0000000000
11
-4.0172451125
21
20.0766906066
31
0.0000000000
11
-4.0629035597
21
19.9905610787
31
0.0000000000
11
-4.1333456886
21
19.9602755209
31
0.0000000000
0
SPLINE
5
2AB
100
AcDbEntity
8
0
100
AcDbSpline
62
7
6
CONTINUOUS
70
0
71
3
72
16
73
12
74
10
42
0.0000001000
43
0.0000001000
44
0.0000000001
12
1.2192424472
22
0.0000000000
32
0.0000000000
13
-1.2192424472
23
0.0000000000
33
0.0000000000
40
0.0000000000
40
0.0000000000
40
0.0000000000
40
0.0000000000
40
0.0937068324
40
0.1953545551
40
0.3175745431
40
0.4541977100
40
0.5945351567
40
0.7247650857
40
0.8335816691
40
0.9198790829
40
1.0000000000
40
1.0000000000
40
1.0000000000
40
1.0000000000
10
-4.9101639274
20
26.9602755209
30
0.0000000000
10
-4.8720801449
20
26.9602755209
30
0.0000000000
10
-4.7907252760
20
26.9344370908
30
0.0000000000
10
-4.7074257887
20
26.8302660682
30
0.0000000000
10
-4.6532968270
20
26.6933189810
30
0.0000000000
10
-4.6190667487
20
26.5341661141
30
0.0000000000
10
-4.6030551490
20
26.3691972846
30
0.0000000000
10
-4.6065045419
20
26.2143813596
30
0.0000000000
10
-4.6317853009
20
26.0841635341
30
0.0000000000
10
-4.6917916577
20
25.9827260491
30
0.0000000000
10
-4.7626282899
20
25.9602755209
30
0.0000000000
10
-4.7951905642
20
25.9602755209
30
0.0000000000
11
-4.9101639274
21
26.9602755209
31
0.0000000000
11
-4.8009610308
21
26.9266883535
31
0.0000000000
11
-4.7179977723
21
26.8346202248
31
0.0000000000
11
-4.6591761621
21
26.6977051928
31
0.0000000000
11
-4.6225143369
21
26.5352129499
31
0.0000000000
11
-4.6061817709
21
26.3648888600
31
0.0000000000
11
-4.6115671522
21
26.2061983566
31
0.0000000000
11
-4.6420505000
21
26.0770739900
31
0.0000000000
11
-4.7024299595
21
25.9909053364
31
0.0000000000
11
-4.7951905642
21
25.9602755209
31
0.0000000000
0
ENDSEC
0
SECTION
2
OBJECTS
0
DICTIONARY
5
2AC
100
AcDbDictionary
3
ACAD_GROUP
350
2AD
3
ACAD_MLINESTYLE
350
2AE
0
DICTIONARY
5
2AD
102
{ACAD_REACTORS
330
2AC
102
}
100
AcDbDictionary
0
DICTIONARY
5
2AE
102
{ACAD_REACTORS
330
2AC
102
}
100
AcDbDictionary
3
STANDARD
350
2AF
0
MLINESTYLE
5
2AF
102
{ACAD_REACTORS
330
2AE
102
}
100
AcDbMlineStyle
2
STANDARD
70
0
3

62
256
51
90.0
52
90.0
71
2
49
0.5
62
256
6
BYLAYER
49
-0.5
62
256
6
BYLAYER
0
ENDSEC
0
EOF
