  0
SECTION
  2
HEADER
  9
$ACADVER
  1
AC1024
  9
$DWGCODEPAGE
  3
ANSI_1252
  9
$EXTMAX
 10
420.0
 20
297.0
 30
0.0
  9
$EXTMIN
 10
0.0
 20
-0.0
 30
0.0
  9
$LIMMIN
 10
0.0
 20
-0.0
  9
$LIMMAX
 10
420.0
 20
297.0
  9
$VIEWCTR
 10
210.0
 20
148.5
  9
$VIEWSIZE
 40
297.0
  9
$CLAYER
  8
0
  9
$LTSCALE
 40
23.1
  9
$CELTYPE
  6
BYLAYER
  9
$DIMSCALE
 40
1.0
  9
$DIMASZ
 40
3.0
  9
$DIMEXO
 40
0.5
  9
$DIMDLI
 40
15.96
  9
$DIMEXE
 40
1.5
  9
$DIMCEN
 40
3.78
  9
$DIMLFAC
 40
1.0
  9
$DIMBLK
  1
_FILLED
  9
$DIMALT
 70
0
  9
$DIMALTF
 40
0.0393700787
  9
$DIMTXT
 40
3.0
  9
$DIMTOL
 70
1
  9
$DIMLIM
 70
0
  9
$DIMTFAC
 40
1.0
  9
$DIMTP
 40
0.01
  9
$DIMTM
 40
0.01
  9
$DIMGAP
 40
0.625
  9
$DIMDSEP
 70
44
  9
$AUNITS
 70
0
  9
$PDMODE
 70
3
  9
$PDSIZE
 40
3.0
  9
$HANDSEED
  5
7C0
  9
$TILEMODE
 70
1
  9
$MEASUREMENT
 70
1
  9
$INSUNITS
 70
4
  0
ENDSEC
  0
SECTION
  2
CLASSES
  0
CLASS
  1
ACDBDICTIONARYWDFLT
  2
AcDbDictionaryWithDefault
  3
AutoCAD 2000
 90
0
 91
1
280
0
281
0
  0
CLASS
  1
ACDBPLACEHOLDER
  2
AcDbPlaceHolder
  3
AutoCAD 2000
 90
0
 91
1
280
0
281
0
  0
CLASS
  1
LAYOUT
  2
AcDbLayout
  3
AutoCAD 2000
 90
0
 91
0
280
0
281
0
  0
ENDSEC
  0
SECTION
  2
TABLES
  0
TABLE
  2
VPORT
  5
8
100
AcDbSymbolTable
 70
2
  0
VPORT
  5
1F4
100
AcDbSymbolTableRecord
100
AcDbViewportTableRecord
  2
*ACTIVE
 70
0
 10
0.0
 20
0.0
 11
1.0
 21
1.0
 12
210.0
 22
148.5
 13
0.0
 23
0.0
 14
1.0
 24
1.0
 15
0.0
 25
0.0
 16
0.0
 26
0.0
 36
1.0
 17
0.0
 27
0.0
 37
0.0
 40
297.0
 41
1.4141414141
 42
50.0
 43
0.0
 44
0.0
 50
0.0
 51
0.0
 71
0
 72
100
 73
1
 74
1
 75
0
 76
0
 77
0
 78
0
  0
ENDTAB
  0
TABLE
  2
LTYPE
  5
5
100
AcDbSymbolTable
 70
6
  0
LTYPE
  5
14
100
AcDbSymbolTableRecord
100
AcDbLinetypeTableRecord
  2
BYBLOCK
 70
0
  3

 72
65
 73
0
 40
0.0
  0
LTYPE
  5
15
100
AcDbSymbolTableRecord
100
AcDbLinetypeTableRecord
  2
BYLAYER
 70
0
  3

 72
65
 73
0
 40
0.0
  0
LTYPE
  5
16
100
AcDbSymbolTableRecord
100
AcDbLinetypeTableRecord
  2
CONTINUOUS
 70
64
  3
Solid line
 72
65
 73
0
 40
0.0
  0
LTYPE
  5
1F5
100
AcDbSymbolTableRecord
100
AcDbLinetypeTableRecord
  2
CENTER
 70
64
  3
____ _ ____ _ ____ _ ____ _ ____ _ ____ _ ____
 72
65
 73
4
 40
0.6
 49
0.375
 74
0
 49
-0.075
 74
0
 49
0.075
 74
0
 49
-0.075
 74
0
  0
LTYPE
  5
1F6
100
AcDbSymbolTableRecord
100
AcDbLinetypeTableRecord
  2
HIDDEN
 70
64
  3
- - - - - - - - - - - - - - - - - - - -
 72
65
 73
2
 40
0.2
 49
0.1
 74
0
 49
-0.1
 74
0
  0
LTYPE
  5
1F7
100
AcDbSymbolTableRecord
100
AcDbLinetypeTableRecord
  2
PHANTOM
 70
64
  3
_____ _ _ _____ _ _ _____ _ _ _____
 72
65
 73
6
 40
0.8
 49
0.45
 74
0
 49
-0.05
 74
0
 49
0.1
 74
0
 49
-0.05
 74
0
 49
0.1
 74
0
 49
-0.05
 74
0
  0
LTYPE
  5
1F8
100
AcDbSymbolTableRecord
100
AcDbLinetypeTableRecord
  2
DOT
 70
64
  3
. . . . . . . . . . . . . . . . . . . .
 72
65
 73
2
 40
0.2
 49
0.1
 74
0
 49
-0.1
 74
0
  0
LTYPE
  5
1F9
100
AcDbSymbolTableRecord
100
AcDbLinetypeTableRecord
  2
DASHED
 70
64
  3
- - - - - - - - - - - - - - - - - - - -
 72
65
 73
2
 40
0.2
 49
0.1
 74
0
 49
-0.1
 74
0
  0
ENDTAB
  0
TABLE
  2
LAYER
  5
2
100
AcDbSymbolTable
 70
36
  0
LAYER
  5
10
100
AcDbSymbolTableRecord
100
AcDbLayerTableRecord
  2
0
 70
0
 62
7
  6
CONTINUOUS
370
-3
390
F
  0
LAYER
  5
1FA
100
AcDbSymbolTableRecord
100
AcDbLayerTableRecord
  2
DEFAULT_1
 70
0
 62
7
  6
CENTER
370
-3
390
F
  0
LAYER
  5
1FB
100
AcDbSymbolTableRecord
100
AcDbLayerTableRecord
  2
DEFAULT_2
 70
0
 62
7
  6
HIDDEN
370
-3
390
F
  0
LAYER
  5
1FC
100
AcDbSymbolTableRecord
100
AcDbLayerTableRecord
  2
DEFAULT_3
 70
0
 62
7
  6
PHANTOM
370
-3
390
F
  0
ENDTAB
  0
TABLE
  2
STYLE
  5
3
100
AcDbSymbolTable
 70
1
  0
STYLE
  5
11
100
AcDbSymbolTableRecord
100
AcDbTextStyleTableRecord
  2
STANDARD
 70
0
 40
0.0
 41
0.8
 50
0.0
 71
0
 42
0.2
  3
txt
  4

  0
STYLE
  5
1FD
100
AcDbSymbolTableRecord
100
AcDbTextStyleTableRecord
  2
TEXTSTYLE_1
 70
0
 40
0.0
 41
0.8
 50
0.0
 71
0
 42
0.2
  3
gdt
  4

  0
ENDTAB
  0
TABLE
  2
VIEW
  5
6
100
AcDbSymbolTable
 70
0
  0
ENDTAB
  0
TABLE
  2
UCS
  5
7
100
AcDbSymbolTable
 70
0
  0
ENDTAB
  0
TABLE
  2
APPID
  5
9
100
AcDbSymbolTable
 70
1
  0
APPID
  5
1FE
100
AcDbSymbolTableRecord
100
AcDbRegAppTableRecord
  2
ACAD
 70
0
  0
ENDTAB
  0
TABLE
  2
BLOCK_RECORD
  5
1
100
AcDbSymbolTable
 70
0
  0
BLOCK_RECORD
  5
1FF
100
AcDbSymbolTableRecord
100
AcDbBlockTableRecord
  2
*Model_Space
  0
BLOCK_RECORD
  5
200
100
AcDbSymbolTableRecord
100
AcDbBlockTableRecord
  2
*Paper_Space
  0
BLOCK_RECORD
  5
201
100
AcDbSymbolTableRecord
100
AcDbBlockTableRecord
  2
_FILLED
  0
ENDTAB
  0
TABLE
  2
DIMSTYLE
  5
A
100
AcDbSymbolTable
 70
1
100
AcDbDimStyleTable
 71
0
  0
DIMSTYLE
105
202
100
AcDbSymbolTableRecord
100
AcDbDimStyleTableRecord
  2
STANDARD
 70
0
  3

  4

 40
1.0
 41
3.0
 42
0.5
 43
0.38
 44
1.5
 45
0.0
 46
0.0
 47
0.01
 48
0.01
140
3.0
141
0.09
142
0.0
143
25.4
144
1.0
145
0.0
146
1.0
147
0.625
 71
1.0
 72
0.0
 73
0
 74
0
 75
0
 76
0
 77
1
 78
8
 79
2
170
0
171
1
172
0
173
0
174
0
175
0
176
0
177
0
178
0
270
2
179
2
271
2
272
2
273
2
274
2
275
0
280
0
281
0
282
0
283
1
284
8
285
0
286
0
287
3
288
0
340
11
278
44
341
201
342
201
343
201
344
201
  0
ENDTAB
  0
ENDSEC
  0
SECTION
  2
BLOCKS
  0
BLOCK
  5
20
100
AcDbEntity
  8
0
100
AcDbBlockBegin
  2
*Model_Space
 70
0
 10
0.0
 20
0.0
 30
0.0
  3
*Model_Space
  1

  0
ENDBLK
  5
21
100
AcDbEntity
  8
0
100
AcDbBlockEnd
  0
BLOCK
  5
1C
100
AcDbEntity
  8
0
100
AcDbBlockBegin
  2
*Paper_Space
 70
0
 10
0.0
 20
0.0
 30
0.0
  3
*Paper_Space
  1

  0
ENDBLK
  5
1D
100
AcDbEntity
  8
0
100
AcDbBlockEnd
  0
BLOCK
  5
203
100
AcDbEntity
  8
0
100
AcDbBlockBegin
  2
_FILLED
 70
64
 10
0.0
 20
0.0
  3
_FILLED
  1

  0
SOLID
  5
204
100
AcDbEntity
  8
0
  6
BYBLOCK
 62
0
100
AcDbTrace
 10
0.0
 20
0.0
 11
-1.0
 21
0.1333333333
 12
-1.0
 22
-0.1333333333
 13
-1.0
 23
-0.1333333333
  0
ENDBLK
  5
205
100
AcDbEntity
  8
0
  6
BYBLOCK
 62
0
100
AcDbBlockEnd
  0
ENDSEC
  0
SECTION
  2
ENTITIES
  0
LINE
  5
206
100
AcDbEntity
  8
0
100
AcDbLine
 62
7
  6
CONTINUOUS
 10
-158.2251649143
 20
150.2936576365
 11
-158.2233580107
 21
150.2740484885
  0
LINE
  5
207
100
AcDbEntity
  8
0
100
AcDbLine
 62
7
  6
CONTINUOUS
 10
-158.9252073535
 20
150.6639950929
 11
-158.9223605903
 21
150.6253781081
  0
LINE
  5
208
100
AcDbEntity
  8
0
100
AcDbLine
 62
7
  6
CONTINUOUS
 10
-158.2264027291
 20
150.3127718201
 11
-158.2251649143
 21
150.2936576365
  0
LINE
  5
209
100
AcDbEntity
  8
0
100
AcDbLine
 62
7
  6
CONTINUOUS
 10
-158.9274372871
 20
150.7092366161
 11
-158.9252073535
 21
150.6639950929
  0
LINE
  5
20A
100
AcDbEntity
  8
0
100
AcDbLine
 62
7
  6
CONTINUOUS
 10
-158.2270855631
 20
150.3313742761
 11
-158.2264027291
 21
150.3127718201
  0
LINE
  5
20B
100
AcDbEntity
  8
0
100
AcDbLine
 62
7
  6
CONTINUOUS
 10
-158.9284141855
 20
150.7534003709
 11
-158.9274372871
 21
150.7092366161
  0
LINE
  5
20C
100
AcDbEntity
  8
0
100
AcDbLine
 62
7
  6
CONTINUOUS
 10
-158.2272284619
 20
150.3494497673
 11
-158.2270855631
 21
150.3313742761
  0
LINE
  5
20D
100
AcDbEntity
  8
0
100
AcDbLine
 62
7
  6
CONTINUOUS
 10
-160.3365741527
 20
148.9925618845
 11
-160.3365741527
 21
94.2843274881
  0
LINE
  5
20E
100
AcDbEntity
  8
0
100
AcDbLine
 62
7
  6
CONTINUOUS
 10
-160.3365741527
 20
89.7933530225
 11
-160.3365741527
 21
26.5114401017
  0
LINE
  5
20F
100
AcDbEntity
  8
0
100
AcDbLine
 62
7
  6
CONTINUOUS
 10
-159.5081470279
 20
91.8640144021
 11
-159.5081470279
 21
90.9481161205
  0
LINE
  5
210
100
AcDbEntity
  8
0
100
AcDbLine
 62
7
  6
CONTINUOUS
 10
-157.7152538091
 20
151.3224914201
 11
-157.7152538091
 21
150.5059506081
  0
LINE
  5
211
100
AcDbEntity
  8
0
100
AcDbLine
 62
7
  6
CONTINUOUS
 10
-157.5583995595
 20
151.8503883761
 11
-157.5583995595
 21
151.0338475641
  0
LINE
  5
212
100
AcDbEntity
  8
0
100
AcDbLine
 62
7
  6
CONTINUOUS
 10
-157.2253043155
 20
143.6036844661
 11
-157.2253043155
 21
140.9907538681
  0
LINE
  5
213
100
AcDbEntity
  8
0
100
AcDbLine
 62
7
  6
CONTINUOUS
 10
-157.2253043155
 20
97.7140908381
 11
-157.2253043155
 21
95.1011602401
  0
LINE
  5
214
100
AcDbEntity
  8
0
100
AcDbLine
 62
7
  6
CONTINUOUS
 10
-157.2253043155
 20
84.6494378481
 11
-157.2253043155
 21
82.0365072497
  0
LINE
  5
215
100
AcDbEntity
  8
0
100
AcDbLine
 62
7
  6
CONTINUOUS
 10
-156.5181975343
 20
144.0118885221
 11
-156.5181975343
 21
141.3989579241
  0
LINE
  5
216
100
AcDbEntity
  8
0
100
AcDbLine
 62
7
  6
CONTINUOUS
 10
-156.5181975343
 20
98.1222948941
 11
-156.5181975343
 21
95.5093642961
  0
LINE
  5
217
100
AcDbEntity
  8
0
100
AcDbLine
 62
7
  6
CONTINUOUS
 10
-156.5181975343
 20
85.0576419037
 11
-156.5181975343
 21
82.4447113057
  0
LINE
  5
218
100
AcDbEntity
  8
0
100
AcDbLine
 62
7
  6
CONTINUOUS
 10
-156.0939334655
 20
149.8093680965
 11
-156.0939334655
 21
148.9928272845
  0
LINE
  5
219
100
AcDbEntity
  8
0
100
AcDbLine
 62
7
  6
CONTINUOUS
 10
-154.9625626155
 20
80.7302542709
 11
-154.9625626155
 21
83.3431848689
  0
LINE
  5
21A
100
AcDbEntity
  8
0
100
AcDbLine
 62
7
  6
CONTINUOUS
 10
-154.9625626155
 20
93.7949072613
 11
-154.9625626155
 21
96.4078378593
  0
LINE
  5
21B
100
AcDbEntity
  8
0
100
AcDbLine
 62
7
  6
CONTINUOUS
 10
-154.9625626155
 20
139.6845008893
 11
-154.9625626155
 21
142.2974314873
  0
LINE
  5
21C
100
AcDbEntity
  8
0
100
AcDbLine
 62
7
  6
CONTINUOUS
 10
-151.9927141347
 20
143.8491376997
 11
-151.9927141347
 21
144.1757540245
  0
LINE
  5
21D
100
AcDbEntity
  8
0
100
AcDbLine
 62
7
  6
CONTINUOUS
 10
-151.8512927783
 20
143.9308050509
 11
-151.8512927783
 21
143.7674968885
  0
LINE
  5
21E
100
AcDbEntity
  8
0
100
AcDbLine
 62
8
  6
CONTINUOUS
 10
-147.6086520911
 20
153.8912759553
 11
-147.6086520911
 21
153.4832045997
  0
LINE
  5
21F
100
AcDbEntity
  8
0
100
AcDbLine
 62
7
  6
CONTINUOUS
 10
-147.6086520911
 20
85.3035728577
 11
-147.6086520911
 21
86.1201136697
  0
LINE
  5
220
100
AcDbEntity
  8
0
100
AcDbLine
 62
7
  6
CONTINUOUS
 10
-146.5479919195
 20
155.3201228513
 11
-146.5479919195
 21
154.5035820393
  0
LINE
  5
221
100
AcDbEntity
  8
0
100
AcDbLine
 62
7
  6
CONTINUOUS
 10
-145.1337783571
 20
154.5037147393
 11
-145.1337783571
 21
153.6871739273
  0
LINE
  5
222
100
AcDbEntity
  8
0
100
AcDbLine
 62
8
  6
CONTINUOUS
 10
-58.5131976615
 20
205.3249870001
 11
-58.5131976615
 21
204.9169156445
  0
LINE
  5
223
100
AcDbEntity
  8
0
100
AcDbLine
 62
7
  6
CONTINUOUS
 10
-57.4525374899
 20
206.7538338961
 11
-57.4525374899
 21
205.9372930841
  0
LINE
  5
224
100
AcDbEntity
  8
0
100
AcDbLine
 62
7
  6
CONTINUOUS
 10
-56.0383239275
 20
205.9374257841
 11
-56.0383239275
 21
205.1208849725
  0
LINE
  5
225
100
AcDbEntity
  8
0
100
AcDbLine
 62
7
  6
CONTINUOUS
 10
-158.9281687759
 20
150.7964400621
 11
-158.9284141855
 21
150.7534003709
  0
LINE
  5
226
100
AcDbEntity
  8
0
100
AcDbLine
 62
7
  6
CONTINUOUS
 10
-158.2268473215
 20
150.3669847029
 11
-158.2272284619
 21
150.3494497673
  0
LINE
  5
227
100
AcDbEntity
  8
0
100
AcDbLine
 62
7
  6
CONTINUOUS
 10
-158.9267340975
 20
150.8383139721
 11
-158.9281687759
 21
150.7964400621
  0
LINE
  5
228
100
AcDbEntity
  8
0
100
AcDbLine
 62
7
  6
CONTINUOUS
 10
-158.2259587855
 20
150.3839672385
 11
-158.2268473215
 21
150.3669847029
  0
LINE
  5
229
100
AcDbEntity
  8
0
100
AcDbLine
 62
7
  6
CONTINUOUS
 10
-158.9241452155
 20
150.8789852073
 11
-158.9267340975
 21
150.8383139721
  0
LINE
  5
22A
100
AcDbEntity
  8
0
100
AcDbLine
 62
7
  6
CONTINUOUS
 10
-158.2245801267
 20
150.4003873569
 11
-158.2259587855
 21
150.3839672385
  0
LINE
  5
22B
100
AcDbEntity
  8
0
100
AcDbLine
 62
7
  6
CONTINUOUS
 10
-155.5636033795
 20
84.0165092413
 11
-155.5486393167
 21
84.1948890101
  0
LINE
  5
22C
100
AcDbEntity
  8
0
100
AcDbLine
 62
7
  6
CONTINUOUS
 10
-158.9204389035
 20
150.9184218697
 11
-158.9241452155
 21
150.8789852073
  0
LINE
  5
22D
100
AcDbEntity
  8
0
100
AcDbLine
 62
7
  6
CONTINUOUS
 10
-158.2227291155
 20
150.4162369209
 11
-158.2245801267
 21
150.4003873569
  0
LINE
  5
22E
100
AcDbEntity
  8
0
100
AcDbLine
 62
7
  6
CONTINUOUS
 10
-158.9156532979
 20
150.9565971661
 11
-158.9204389035
 21
150.9184218697
  0
LINE
  5
22F
100
AcDbEntity
  8
0
100
AcDbLine
 62
7
  6
CONTINUOUS
 10
-158.2204238735
 20
150.4315097033
 11
-158.2227291155
 21
150.4162369209
  0
LINE
  5
230
100
AcDbEntity
  8
0
100
AcDbLine
 62
7
  6
CONTINUOUS
 10
-156.4579709103
 20
144.3976984769
 11
-156.5181975343
 21
144.0118885221
  0
LINE
  5
231
100
AcDbEntity
  8
0
100
AcDbLine
 62
7
  6
CONTINUOUS
 10
-155.8110907531
 20
143.1136272789
 11
-155.7508641295
 21
143.4994372337
  0
LINE
  5
232
100
AcDbEntity
  8
0
100
AcDbLine
 62
7
  6
CONTINUOUS
 10
-156.4579709103
 20
98.5081048489
 11
-156.5181975343
 21
98.1222948941
  0
LINE
  5
233
100
AcDbEntity
  8
0
100
AcDbLine
 62
7
  6
CONTINUOUS
 10
-155.8110907531
 20
97.2240336509
 11
-155.7508641295
 21
97.6098436057
  0
LINE
  5
234
100
AcDbEntity
  8
0
100
AcDbLine
 62
7
  6
CONTINUOUS
 10
-156.4579709103
 20
85.4434518585
 11
-156.5181975343
 21
85.0576419037
  0
LINE
  5
235
100
AcDbEntity
  8
0
100
AcDbLine
 62
7
  6
CONTINUOUS
 10
-99.5358750251
 20
7.0782525693
 11
-99.5961016487
 21
6.6924426145
  0
LINE
  5
236
100
AcDbEntity
  8
0
100
AcDbLine
 62
7
  6
CONTINUOUS
 10
-158.9098275299
 20
150.9934894381
 11
-158.9156532979
 21
150.9565971661
  0
LINE
  5
237
100
AcDbEntity
  8
0
100
AcDbLine
 62
7
  6
CONTINUOUS
 10
-158.2176827219
 20
150.4462013901
 11
-158.2204238735
 21
150.4315097033
  0
LINE
  5
238
100
AcDbEntity
  8
0
100
AcDbLine
 62
7
  6
CONTINUOUS
 10
-157.1391838375
 20
144.0539307973
 11
-157.2253043155
 21
143.6036844661
  0
LINE
  5
239
100
AcDbEntity
  8
0
100
AcDbLine
 62
7
  6
CONTINUOUS
 10
-156.5181975343
 20
142.7054232229
 11
-156.4320770563
 21
143.1556695541
  0
LINE
  5
23A
100
AcDbEntity
  8
0
100
AcDbLine
 62
7
  6
CONTINUOUS
 10
-155.0486830935
 20
139.2342545581
 11
-154.9625626155
 21
139.6845008893
  0
LINE
  5
23B
100
AcDbEntity
  8
0
100
AcDbLine
 62
7
  6
CONTINUOUS
 10
-157.1391838375
 20
98.1643371693
 11
-157.2253043155
 21
97.7140908381
  0
LINE
  5
23C
100
AcDbEntity
  8
0
100
AcDbLine
 62
7
  6
CONTINUOUS
 10
-156.5181975343
 20
96.8158295949
 11
-156.4320770563
 21
97.2660759261
  0
LINE
  5
23D
100
AcDbEntity
  8
0
100
AcDbLine
 62
7
  6
CONTINUOUS
 10
-157.1391838375
 20
85.0996841793
 11
-157.2253043155
 21
84.6494378481
  0
LINE
  5
23E
100
AcDbEntity
  8
0
100
AcDbLine
 62
7
  6
CONTINUOUS
 10
-155.0486830935
 20
93.3446609301
 11
-154.9625626155
 21
93.7949072613
  0
LINE
  5
23F
100
AcDbEntity
  8
0
100
AcDbLine
 62
7
  6
CONTINUOUS
 10
-156.2707101607
 20
83.6083051853
 11
-156.2034285371
 21
83.9600601313
  0
LINE
  5
240
100
AcDbEntity
  8
0
100
AcDbLine
 62
7
  6
CONTINUOUS
 10
-155.0486830935
 20
80.2800079397
 11
-154.9625626155
 21
80.7302542709
  0
LINE
  5
241
100
AcDbEntity
  8
0
100
AcDbLine
 62
7
  6
CONTINUOUS
 10
-100.2170879519
 20
6.7344848897
 11
-100.3032084299
 21
6.2842385585
  0
LINE
  5
242
100
AcDbEntity
  8
0
100
AcDbLine
 62
7
  6
CONTINUOUS
 10
-98.1265872079
 20
4.5277392485
 11
-98.0404667299
 21
4.9779855797
  0
LINE
  5
243
100
AcDbEntity
  8
0
100
AcDbLine
 62
7
  6
CONTINUOUS
 10
-158.9030013431
 20
151.0290821229
 11
-158.9098275299
 21
150.9934894381
  0
LINE
  5
244
100
AcDbEntity
  8
0
100
AcDbLine
 62
7
  6
CONTINUOUS
 10
-158.2145240163
 20
150.4603095509
 11
-158.2176827219
 21
150.4462013901
  0
LINE
  5
245
100
AcDbEntity
  8
0
100
AcDbLine
 62
7
  6
CONTINUOUS
 10
-158.8952146999
 20
151.0633636413
 11
-158.9030013431
 21
151.0290821229
  0
LINE
  5
246
100
AcDbEntity
  8
0
100
AcDbLine
 62
7
  6
CONTINUOUS
 10
-158.2109659823
 20
150.4738335853
 11
-158.2145240163
 21
150.4603095509
  0
LINE
  5
247
100
AcDbEntity
  8
0
100
AcDbLine
 62
7
  6
CONTINUOUS
 10
-158.8865073883
 20
151.0963272201
 11
-158.8952146999
 21
151.0633636413
  0
LINE
  5
248
100
AcDbEntity
  8
0
100
AcDbLine
 62
7
  6
CONTINUOUS
 10
-158.8769186275
 20
151.1279706469
 11
-158.8865073883
 21
151.0963272201
  0
LINE
  5
249
100
AcDbEntity
  8
0
100
AcDbLine
 62
7
  6
CONTINUOUS
 10
-158.2070265447
 20
150.4867746417
 11
-158.2109659823
 21
150.4738335853
  0
LINE
  5
24A
100
AcDbEntity
  8
0
100
AcDbLine
 62
7
  6
CONTINUOUS
 10
-159.3885298803
 20
150.2326080549
 11
-159.3949211095
 21
150.2126889137
  0
LINE
  5
24B
100
AcDbEntity
  8
0
100
AcDbLine
 62
7
  6
CONTINUOUS
 10
-159.3852239707
 20
150.2425412517
 11
-159.3885298803
 21
150.2326080549
  0
LINE
  5
24C
100
AcDbEntity
  8
0
100
AcDbLine
 62
7
  6
CONTINUOUS
 10
-158.8664866879
 20
151.1582959721
 11
-158.8769186275
 21
151.1279706469
  0
LINE
  5
24D
100
AcDbEntity
  8
0
100
AcDbLine
 62
7
  6
CONTINUOUS
 10
-148.9944713899
 20
155.0391944321
 11
-149.1086520911
 21
154.7078167673
  0
LINE
  5
24E
100
AcDbEntity
  8
0
100
AcDbLine
 62
7
  6
CONTINUOUS
 10
-145.9015453099
 20
153.4830718997
 11
-145.9776657775
 21
153.2621534565
  0
LINE
  5
24F
100
AcDbEntity
  8
0
100
AcDbLine
 62
7
  6
CONTINUOUS
 10
-59.8990169603
 20
206.4729054769
 11
-60.0131976615
 21
206.1415278121
  0
LINE
  5
250
100
AcDbEntity
  8
0
100
AcDbLine
 62
7
  6
CONTINUOUS
 10
-56.8060908803
 20
204.9167829445
 11
-56.8822113479
 21
204.6958645013
  0
LINE
  5
251
100
AcDbEntity
  8
0
100
AcDbLine
 62
7
  6
CONTINUOUS
 10
-159.3817857075
 20
150.2524427997
 11
-159.3852239707
 21
150.2425412517
  0
LINE
  5
252
100
AcDbEntity
  8
0
100
AcDbLine
 62
7
  6
CONTINUOUS
 10
-158.2027231607
 20
150.4991355037
 11
-158.2070265447
 21
150.4867746417
  0
LINE
  5
253
100
AcDbEntity
  8
0
100
AcDbLine
 62
7
  6
CONTINUOUS
 10
-159.3781709723
 20
150.2623021501
 11
-159.3817857075
 21
150.2524427997
  0
LINE
  5
254
100
AcDbEntity
  8
0
100
AcDbLine
 62
7
  6
CONTINUOUS
 10
-158.8612607059
 20
151.1722050705
 11
-158.8664866879
 21
151.1582959721
  0
LINE
  5
255
100
AcDbEntity
  8
0
100
AcDbLine
 62
7
  6
CONTINUOUS
 10
-159.3743356475
 20
150.2721087529
 11
-159.3781709723
 21
150.2623021501
  0
LINE
  5
256
100
AcDbEntity
  8
0
100
AcDbLine
 62
7
  6
CONTINUOUS
 10
-158.1980726531
 20
150.5109204589
 11
-158.2027231607
 21
150.4991355037
  0
LINE
  5
257
100
AcDbEntity
  8
0
100
AcDbLine
 62
7
  6
CONTINUOUS
 10
-158.8495712763
 20
151.2008037513
 11
-158.8612607059
 21
151.1722050705
  0
LINE
  5
258
100
AcDbEntity
  8
0
100
AcDbLine
 62
7
  6
CONTINUOUS
 10
-159.3702356151
 20
150.2818520589
 11
-159.3743356475
 21
150.2721087529
  0
LINE
  5
259
100
AcDbEntity
  8
0
100
AcDbLine
 62
7
  6
CONTINUOUS
 10
-158.1930910519
 20
150.5221351377
 11
-158.1980726531
 21
150.5109204589
  0
LINE
  5
25A
100
AcDbEntity
  8
0
100
AcDbLine
 62
7
  6
CONTINUOUS
 10
-159.3658267575
 20
150.2915215181
 11
-159.3702356151
 21
150.2818520589
  0
LINE
  5
25B
100
AcDbEntity
  8
0
100
AcDbLine
 62
7
  6
CONTINUOUS
 10
-158.8370661987
 20
151.2282306273
 11
-158.8495712763
 21
151.2008037513
  0
LINE
  5
25C
100
AcDbEntity
  8
0
100
AcDbLine
 62
7
  6
CONTINUOUS
 10
-159.3610649559
 20
150.3011065813
 11
-159.3658267575
 21
150.2915215181
  0
LINE
  5
25D
100
AcDbEntity
  8
0
100
AcDbLine
 62
7
  6
CONTINUOUS
 10
-158.1877934443
 20
150.5327863341
 11
-158.1930910519
 21
150.5221351377
  0
LINE
  5
25E
100
AcDbEntity
  8
0
100
AcDbLine
 62
7
  6
CONTINUOUS
 10
-158.8237760383
 20
151.2544897265
 11
-158.8370661987
 21
151.2282306273
  0
LINE
  5
25F
100
AcDbEntity
  8
0
100
AcDbLine
 62
7
  6
CONTINUOUS
 10
-159.3559060927
 20
150.3105966993
 11
-159.3610649559
 21
150.3011065813
  0
LINE
  5
260
100
AcDbEntity
  8
0
100
AcDbLine
 62
7
  6
CONTINUOUS
 10
-158.1821938359
 20
150.5428818077
 11
-158.1877934443
 21
150.5327863341
  0
LINE
  5
261
100
AcDbEntity
  8
0
100
AcDbLine
 62
7
  6
CONTINUOUS
 10
-158.8097298771
 20
151.2795865973
 11
-158.8237760383
 21
151.2544897265
  0
LINE
  5
262
100
AcDbEntity
  8
0
100
AcDbLine
 62
7
  6
CONTINUOUS
 10
-147.8674225451
 20
153.6325896029
 11
-147.8254248427
 21
153.7039903425
  0
LINE
  5
263
100
AcDbEntity
  8
0
100
AcDbLine
 62
7
  6
CONTINUOUS
 10
-58.7719681155
 20
205.0663006477
 11
-58.7299704131
 21
205.1377013873
  0
LINE
  5
264
100
AcDbEntity
  8
0
100
AcDbLine
 62
7
  6
CONTINUOUS
 10
-159.3501590739
 20
150.3202343377
 11
-159.3559060927
 21
150.3105966993
  0
LINE
  5
265
100
AcDbEntity
  8
0
100
AcDbLine
 62
7
  6
CONTINUOUS
 10
-158.1763050255
 20
150.5524300689
 11
-158.1821938359
 21
150.5428818077
  0
LINE
  5
266
100
AcDbEntity
  8
0
100
AcDbLine
 62
7
  6
CONTINUOUS
 10
-158.7949551219
 20
151.3035280709
 11
-158.8097298771
 21
151.2795865973
  0
LINE
  5
267
100
AcDbEntity
  8
0
100
AcDbLine
 62
7
  6
CONTINUOUS
 10
-159.3439590887
 20
150.3297636625
 11
-159.3501590739
 21
150.3202343377
  0
LINE
  5
268
100
AcDbEntity
  8
0
100
AcDbLine
 62
7
  6
CONTINUOUS
 10
-158.7794773315
 20
151.3263219973
 11
-158.7949551219
 21
151.3035280709
  0
LINE
  5
269
100
AcDbEntity
  8
0
100
AcDbLine
 62
7
  6
CONTINUOUS
 10
-158.1701384959
 20
150.5614401537
 11
-158.1763050255
 21
150.5524300689
  0
LINE
  5
26A
100
AcDbEntity
  8
0
100
AcDbLine
 62
7
  6
CONTINUOUS
 10
-159.3373183803
 20
150.3391876017
 11
-159.3439590887
 21
150.3297636625
  0
LINE
  5
26B
100
AcDbEntity
  8
0
100
AcDbLine
 62
7
  6
CONTINUOUS
 10
-158.7633200675
 20
151.3479769613
 11
-158.7794773315
 21
151.3263219973
  0
LINE
  5
26C
100
AcDbEntity
  8
0
100
AcDbLine
 62
7
  6
CONTINUOUS
 10
-159.3302491907
 20
150.3485090821
 11
-159.3373183803
 21
150.3391876017
  0
LINE
  5
26D
100
AcDbEntity
  8
0
100
AcDbLine
 62
7
  6
CONTINUOUS
 10
-158.1637043243
 20
150.5699213869
 11
-158.1701384959
 21
150.5614401537
  0
LINE
  5
26E
100
AcDbEntity
  8
0
100
AcDbLine
 62
7
  6
CONTINUOUS
 10
-159.3227637619
 20
150.3577310317
 11
-159.3302491907
 21
150.3485090821
  0
LINE
  5
26F
100
AcDbEntity
  8
0
100
AcDbLine
 62
7
  6
CONTINUOUS
 10
-158.7465047711
 20
151.3685019805
 11
-158.7633200675
 21
151.3479769613
  0
LINE
  5
270
100
AcDbEntity
  8
0
100
AcDbLine
 62
7
  6
CONTINUOUS
 10
-158.1570111119
 20
150.5778831425
 11
-158.1637043243
 21
150.5699213869
  0
LINE
  5
271
100
AcDbEntity
  8
0
100
AcDbLine
 62
7
  6
CONTINUOUS
 10
-159.3148743371
 20
150.3668563769
 11
-159.3227637619
 21
150.3577310317
  0
LINE
  5
272
100
AcDbEntity
  8
0
100
AcDbLine
 62
7
  6
CONTINUOUS
 10
-156.8939334655
 20
144.3361986185
 11
-157.1391838375
 21
144.0539307973
  0
LINE
  5
273
100
AcDbEntity
  8
0
100
AcDbLine
 62
7
  6
CONTINUOUS
 10
-156.4320770563
 20
143.1556695541
 11
-156.1868266843
 21
143.4379373753
  0
LINE
  5
274
100
AcDbEntity
  8
0
100
AcDbLine
 62
7
  6
CONTINUOUS
 10
-155.2939334655
 20
138.9519867365
 11
-155.0486830935
 21
139.2342545581
  0
LINE
  5
275
100
AcDbEntity
  8
0
100
AcDbLine
 62
7
  6
CONTINUOUS
 10
-156.8939334655
 20
98.4466049905
 11
-157.1391838375
 21
98.1643371693
  0
LINE
  5
276
100
AcDbEntity
  8
0
100
AcDbLine
 62
7
  6
CONTINUOUS
 10
-156.4320770563
 20
97.2660759261
 11
-156.1868266843
 21
97.5483437477
  0
LINE
  5
277
100
AcDbEntity
  8
0
100
AcDbLine
 62
7
  6
CONTINUOUS
 10
-155.2939334655
 20
93.0623931085
 11
-155.0486830935
 21
93.3446609301
  0
LINE
  5
278
100
AcDbEntity
  8
0
100
AcDbLine
 62
7
  6
CONTINUOUS
 10
-156.8939334655
 20
85.3819520005
 11
-157.1391838375
 21
85.0996841793
  0
LINE
  5
279
100
AcDbEntity
  8
0
100
AcDbLine
 62
7
  6
CONTINUOUS
 10
-156.2034285371
 20
83.9600601313
 11
-156.0118266843
 21
84.1805818669
  0
LINE
  5
27A
100
AcDbEntity
  8
0
100
AcDbLine
 62
7
  6
CONTINUOUS
 10
-155.2939334655
 20
79.9977401185
 11
-155.0486830935
 21
80.2800079397
  0
LINE
  5
27B
100
AcDbEntity
  8
0
100
AcDbLine
 62
7
  6
CONTINUOUS
 10
-158.7290506699
 20
151.3879061925
 11
-158.7465047711
 21
151.3685019805
  0
LINE
  5
27C
100
AcDbEntity
  8
0
100
AcDbLine
 62
7
  6
CONTINUOUS
 10
-159.3065931575
 20
150.3758880461
 11
-159.3148743371
 21
150.3668563769
  0
LINE
  5
27D
100
AcDbEntity
  8
0
100
AcDbLine
 62
7
  6
CONTINUOUS
 10
-158.1500659355
 20
150.5853345981
 11
-158.1570111119
 21
150.5778831425
  0
LINE
  5
27E
100
AcDbEntity
  8
0
100
AcDbLine
 62
7
  6
CONTINUOUS
 10
-159.2979324663
 20
150.3848289661
 11
-159.3065931575
 21
150.3758880461
  0
LINE
  5
27F
100
AcDbEntity
  8
0
100
AcDbLine
 62
7
  6
CONTINUOUS
 10
-158.7109747143
 20
151.4061985313
 11
-158.7290506699
 21
151.3879061925
  0
LINE
  5
280
100
AcDbEntity
  8
0
100
AcDbLine
 62
7
  6
CONTINUOUS
 10
-159.2889045055
 20
150.3936820645
 11
-159.2979324663
 21
150.3848289661
  0
LINE
  5
281
100
AcDbEntity
  8
0
100
AcDbLine
 62
7
  6
CONTINUOUS
 10
-158.1428743211
 20
150.5922844969
 11
-158.1500659355
 21
150.5853345981
  0
LINE
  5
282
100
AcDbEntity
  8
0
100
AcDbLine
 62
7
  6
CONTINUOUS
 10
-159.2795215171
 20
150.4024502685
 11
-159.2889045055
 21
150.3936820645
  0
LINE
  5
283
100
AcDbEntity
  8
0
100
AcDbLine
 62
7
  6
CONTINUOUS
 10
-158.6922915507
 20
151.4233874077
 11
-158.7109747143
 21
151.4061985313
  0
LINE
  5
284
100
AcDbEntity
  8
0
100
AcDbLine
 62
7
  6
CONTINUOUS
 10
-159.2697957439
 20
150.4111365057
 11
-159.2795215171
 21
150.4024502685
  0
LINE
  5
285
100
AcDbEntity
  8
0
100
AcDbLine
 62
7
  6
CONTINUOUS
 10
-158.1354402459
 20
150.5987409109
 11
-158.1428743211
 21
150.5922844969
  0
LINE
  5
286
100
AcDbEntity
  8
0
100
AcDbLine
 62
7
  6
CONTINUOUS
 10
-148.6693122631
 20
155.3201228513
 11
-148.9944713899
 21
155.0391944321
  0
LINE
  5
287
100
AcDbEntity
  8
0
100
AcDbLine
 62
7
  6
CONTINUOUS
 10
-147.8254248427
 20
153.7039903425
 11
-147.6086520911
 21
153.8912759553
  0
LINE
  5
288
100
AcDbEntity
  8
0
100
AcDbLine
 62
7
  6
CONTINUOUS
 10
-145.9776657775
 20
153.2621534565
 11
-146.1944385287
 21
153.0748678437
  0
LINE
  5
289
100
AcDbEntity
  8
0
100
AcDbLine
 62
7
  6
CONTINUOUS
 10
-59.5738578335
 20
206.7538338961
 11
-59.8990169603
 21
206.4729054769
  0
LINE
  5
28A
100
AcDbEntity
  8
0
100
AcDbLine
 62
7
  6
CONTINUOUS
 10
-58.7299704131
 20
205.1377013873
 11
-58.5131976615
 21
205.3249870001
  0
LINE
  5
28B
100
AcDbEntity
  8
0
100
AcDbLine
 62
7
  6
CONTINUOUS
 10
-159.2597394283
 20
150.4197437033
 11
-159.2697957439
 21
150.4111365057
  0
LINE
  5
28C
100
AcDbEntity
  8
0
100
AcDbLine
 62
7
  6
CONTINUOUS
 10
-158.6730135279
 20
151.4394803905
 11
-158.6922915507
 21
151.4233874077
  0
LINE
  5
28D
100
AcDbEntity
  8
0
100
AcDbLine
 62
7
  6
CONTINUOUS
 10
-159.2493648119
 20
150.4282747889
 11
-159.2597394283
 21
150.4197437033
  0
LINE
  5
28E
100
AcDbEntity
  8
0
100
AcDbLine
 62
7
  6
CONTINUOUS
 10
-159.2386841379
 20
150.4367326901
 11
-159.2493648119
 21
150.4282747889
  0
LINE
  5
28F
100
AcDbEntity
  8
0
100
AcDbLine
 62
7
  6
CONTINUOUS
 10
-158.1277661587
 20
150.6047110169
 11
-158.1354402459
 21
150.5987409109
  0
LINE
  5
290
100
AcDbEntity
  8
0
100
AcDbLine
 62
7
  6
CONTINUOUS
 10
-159.2277096483
 20
150.4451203337
 11
-159.2386841379
 21
150.4367326901
  0
LINE
  5
291
100
AcDbEntity
  8
0
100
AcDbLine
 62
7
  6
CONTINUOUS
 10
-158.6531507367
 20
151.4544838993
 11
-158.6730135279
 21
151.4394803905
  0
LINE
  5
292
100
AcDbEntity
  8
0
100
AcDbLine
 62
7
  6
CONTINUOUS
 10
-159.2164535851
 20
150.4534406473
 11
-159.2277096483
 21
150.4451203337
  0
LINE
  5
293
100
AcDbEntity
  8
0
100
AcDbLine
 62
7
  6
CONTINUOUS
 10
157.7634236897
 20
-157.2070490823
 11
157.8614773813
 21
-157.1807831587
  0
LINE
  5
294
100
AcDbEntity
  8
0
100
AcDbLine
 62
7
  6
CONTINUOUS
 10
157.7308014089
 20
-157.2155947991
 11
157.7634236897
 21
-157.2070490823
  0
LINE
  5
295
100
AcDbEntity
  8
0
100
AcDbLine
 62
7
  6
CONTINUOUS
 10
157.6982325137
 20
-157.2239608663
 11
157.7308014089
 21
-157.2155947991
  0
LINE
  5
296
100
AcDbEntity
  8
0
100
AcDbLine
 62
7
  6
CONTINUOUS
 10
157.6657303501
 20
-157.2321023719
 11
157.6982325137
 21
-157.2239608663
  0
LINE
  5
297
100
AcDbEntity
  8
0
100
AcDbLine
 62
7
  6
CONTINUOUS
 10
157.6333082653
 20
-157.2399744031
 11
157.6657303501
 21
-157.2321023719
  0
LINE
  5
298
100
AcDbEntity
  8
0
100
AcDbLine
 62
7
  6
CONTINUOUS
 10
157.6009796053
 20
-157.2475320475
 11
157.6333082653
 21
-157.2399744031
  0
LINE
  5
299
100
AcDbEntity
  8
0
100
AcDbLine
 62
7
  6
CONTINUOUS
 10
157.5687577161
 20
-157.2547303931
 11
157.6009796053
 21
-157.2475320475
  0
LINE
  5
29A
100
AcDbEntity
  8
0
100
AcDbLine
 62
7
  6
CONTINUOUS
 10
159.2756909437
 20
-156.3641096467
 11
159.1805390745
 21
-156.3851354619
  0
LINE
  5
29B
100
AcDbEntity
  8
0
100
AcDbLine
 62
7
  6
CONTINUOUS
 10
159.1805390745
 20
-156.3851354619
 11
159.1327508353
 21
-156.3954334551
  0
LINE
  5
29C
100
AcDbEntity
  8
0
100
AcDbLine
 62
7
  6
CONTINUOUS
 10
157.5366559445
 20
-157.2615245275
 11
157.5687577161
 21
-157.2547303931
  0
LINE
  5
29D
100
AcDbEntity
  8
0
100
AcDbLine
 62
7
  6
CONTINUOUS
 10
159.1327508353
 20
-156.3954334551
 11
159.0847078305
 21
-156.4054735519
  0
LINE
  5
29E
100
AcDbEntity
  8
0
100
AcDbLine
 62
7
  6
CONTINUOUS
 10
159.0847078305
 20
-156.4054735519
 11
159.0363251389
 21
-156.4151697867
  0
LINE
  5
29F
100
AcDbEntity
  8
0
100
AcDbLine
 62
7
  6
CONTINUOUS
 10
157.5046876369
 20
-157.2678695379
 11
157.5366559445
 21
-157.2615245275
  0
LINE
  5
2A0
100
AcDbEntity
  8
0
100
AcDbLine
 62
7
  6
CONTINUOUS
 10
152.6375800121
 20
-98.0505448535
 11
153.0046231321
 21
-97.9792282591
  0
LINE
  5
2A1
100
AcDbEntity
  8
0
100
AcDbLine
 62
7
  6
CONTINUOUS
 10
95.7154841265
 20
-108.0819605427
 11
96.0825272465
 21
-108.0106439483
  0
LINE
  5
2A2
100
AcDbEntity
  8
0
100
AcDbLine
 62
7
  6
CONTINUOUS
 10
94.8495703661
 20
-105.1680460699
 11
94.4825272465
 21
-105.2393626643
  0
LINE
  5
2A3
100
AcDbEntity
  8
0
100
AcDbLine
 62
7
  6
CONTINUOUS
 10
152.2867299129
 20
-93.7963865103
 11
152.5734823505
 21
-93.7406704211
  0
LINE
  5
2A4
100
AcDbEntity
  8
0
100
AcDbLine
 62
7
  6
CONTINUOUS
 10
151.7716662517
 20
-92.5236997823
 11
151.4046231321
 21
-92.5950163767
  0
LINE
  5
2A5
100
AcDbEntity
  8
0
100
AcDbLine
 62
7
  6
CONTINUOUS
 10
152.6375800121
 20
-84.9858918631
 11
153.0046231321
 21
-84.9145752687
  0
LINE
  5
2A6
100
AcDbEntity
  8
0
100
AcDbLine
 62
7
  6
CONTINUOUS
 10
159.0363251389
 20
-156.4151697867
 11
158.9875178377
 21
-156.4244361931
  0
LINE
  5
2A7
100
AcDbEntity
  8
0
100
AcDbLine
 62
7
  6
CONTINUOUS
 10
157.4728661397
 20
-157.2737205123
 11
157.5046876369
 21
-157.2678695379
  0
LINE
  5
2A8
100
AcDbEntity
  8
0
100
AcDbLine
 62
7
  6
CONTINUOUS
 10
158.9875178377
 20
-156.4244361931
 11
158.9382010061
 21
-156.4331868067
  0
LINE
  5
2A9
100
AcDbEntity
  8
0
100
AcDbLine
 62
7
  6
CONTINUOUS
 10
157.4412047989
 20
-157.2790325383
 11
157.4728661397
 21
-157.2737205123
  0
LINE
  5
2AA
100
AcDbEntity
  8
0
100
AcDbLine
 62
7
  6
CONTINUOUS
 10
158.9382010061
 20
-156.4331868067
 11
158.8882897217
 21
-156.4413356607
  0
LINE
  5
2AB
100
AcDbEntity
  8
0
100
AcDbLine
 62
7
  6
CONTINUOUS
 10
157.4097169613
 20
-157.2837607035
 11
157.4412047989
 21
-157.2790325383
  0
LINE
  5
2AC
100
AcDbEntity
  8
0
100
AcDbLine
 62
7
  6
CONTINUOUS
 10
158.8882897217
 20
-156.4413356607
 11
158.8376990625
 21
-156.4487967903
  0
LINE
  5
2AD
100
AcDbEntity
  8
0
100
AcDbLine
 62
7
  6
CONTINUOUS
 10
153.0767861901
 20
-94.9640077147
 11
153.3359939817
 21
-94.9291505523
  0
LINE
  5
2AE
100
AcDbEntity
  8
0
100
AcDbLine
 62
7
  6
CONTINUOUS
 10
157.3784159733
 20
-157.2878600955
 11
157.4097169613
 21
-157.2837607035
  0
LINE
  5
2AF
100
AcDbEntity
  8
0
100
AcDbLine
 62
7
  6
CONTINUOUS
 10
158.8376990625
 20
-156.4487967903
 11
158.7863441073
 21
-156.4554842299
  0
LINE
  5
2B0
100
AcDbEntity
  8
0
100
AcDbLine
 62
7
  6
CONTINUOUS
 10
158.7863441073
 20
-156.4554842299
 11
158.7341399341
 21
-156.4613120135
  0
LINE
  5
2B1
100
AcDbEntity
  8
0
100
AcDbLine
 62
7
  6
CONTINUOUS
 10
157.3473151809
 20
-157.2912858015
 11
157.3784159733
 21
-157.2878600955
  0
LINE
  5
2B2
100
AcDbEntity
  8
0
100
AcDbLine
 62
7
  6
CONTINUOUS
 10
158.7341399341
 20
-156.4613120135
 11
158.6810016209
 21
-156.4661941763
  0
LINE
  5
2B3
100
AcDbEntity
  8
0
100
AcDbLine
 62
7
  6
CONTINUOUS
 10
157.3164279309
 20
-157.2939929099
 11
157.3473151809
 21
-157.2912858015
  0
LINE
  5
2B4
100
AcDbEntity
  8
0
100
AcDbLine
 62
7
  6
CONTINUOUS
 10
158.6810016209
 20
-156.4661941763
 11
158.6268442461
 21
-156.4700447519
  0
LINE
  5
2B5
100
AcDbEntity
  8
0
100
AcDbLine
 62
7
  6
CONTINUOUS
 10
157.2857675697
 20
-157.2959365083
 11
157.3164279309
 21
-157.2939929099
  0
LINE
  5
2B6
100
AcDbEntity
  8
0
100
AcDbLine
 62
7
  6
CONTINUOUS
 10
158.6268442461
 20
-156.4700447519
 11
158.5716147733
 21
-156.4727898247
  0
LINE
  5
2B7
100
AcDbEntity
  8
0
100
AcDbLine
 62
7
  6
CONTINUOUS
 10
157.2553474433
 20
-157.2970716835
 11
157.2857675697
 21
-157.2959365083
  0
LINE
  5
2B8
100
AcDbEntity
  8
0
100
AcDbLine
 62
7
  6
CONTINUOUS
 10
158.5716147733
 20
-156.4727898247
 11
158.5153877101
 21
-156.4744036759
  0
LINE
  5
2B9
100
AcDbEntity
  8
0
100
AcDbLine
 62
7
  6
CONTINUOUS
 10
157.2251808985
 20
-157.2973535239
 11
157.2553474433
 21
-157.2970716835
  0
LINE
  5
2BA
100
AcDbEntity
  8
0
100
AcDbLine
 62
7
  6
CONTINUOUS
 10
158.5153877101
 20
-156.4744036759
 11
158.4582694489
 21
-156.4748726375
  0
LINE
  5
2BB
100
AcDbEntity
  8
0
100
AcDbLine
 62
7
  6
CONTINUOUS
 10
158.4582694489
 20
-156.4748726375
 11
158.4003663829
 21
-156.4741830407
  0
LINE
  5
2BC
100
AcDbEntity
  8
0
100
AcDbLine
 62
7
  6
CONTINUOUS
 10
157.1952812813
 20
-157.2967371167
 11
157.2251808985
 21
-157.2973535239
  0
LINE
  5
2BD
100
AcDbEntity
  8
0
100
AcDbLine
 62
7
  6
CONTINUOUS
 10
153.3359939817
 20
-96.0192475999
 11
153.2499774757
 21
-96.0171661031
  0
LINE
  5
2BE
100
AcDbEntity
  8
0
100
AcDbLine
 62
7
  6
CONTINUOUS
 10
158.4003663829
 20
-156.4741830407
 11
158.3417849045
 21
-156.4723212163
  0
LINE
  5
2BF
100
AcDbEntity
  8
0
100
AcDbLine
 62
7
  6
CONTINUOUS
 10
158.3417849045
 20
-156.4723212163
 11
158.2826314069
 21
-156.4692734955
  0
LINE
  5
2C0
100
AcDbEntity
  8
0
100
AcDbLine
 62
7
  6
CONTINUOUS
 10
157.1656635129
 20
-157.2951929307
 11
157.1952812813
 21
-157.2967371167
  0
LINE
  5
2C1
100
AcDbEntity
  8
0
100
AcDbLine
 62
7
  6
CONTINUOUS
 10
158.2826314069
 20
-156.4692734955
 11
158.2230122829
 21
-156.4650262103
  0
LINE
  5
2C2
100
AcDbEntity
  8
0
100
AcDbLine
 62
7
  6
CONTINUOUS
 10
157.1363125629
 20
-157.2927508643
 11
157.1656635129
 21
-157.2951929307
  0
LINE
  5
2C3
100
AcDbEntity
  8
0
100
AcDbLine
 62
7
  6
CONTINUOUS
 10
158.2230122829
 20
-156.4650262103
 11
158.1630339249
 21
-156.4595656911
  0
LINE
  5
2C4
100
AcDbEntity
  8
0
100
AcDbLine
 62
7
  6
CONTINUOUS
 10
158.1630339249
 20
-156.4595656911
 11
158.1028027265
 21
-156.4528782699
  0
LINE
  5
2C5
100
AcDbEntity
  8
0
100
AcDbLine
 62
7
  6
CONTINUOUS
 10
157.1072150913
 20
-157.2894558115
 11
157.1363125629
 21
-157.2927508643
  0
LINE
  5
2C6
100
AcDbEntity
  8
0
100
AcDbLine
 62
7
  6
CONTINUOUS
 10
158.1028027265
 20
-156.4528782699
 11
158.0424250801
 21
-156.4449502775
  0
LINE
  5
2C7
100
AcDbEntity
  8
0
100
AcDbLine
 62
7
  6
CONTINUOUS
 10
157.0783577561
 20
-157.2853526659
 11
157.1072150913
 21
-157.2894558115
  0
LINE
  5
2C8
100
AcDbEntity
  8
0
100
AcDbLine
 62
7
  6
CONTINUOUS
 10
158.0424250801
 20
-156.4449502775
 11
157.9820073785
 21
-156.4357680455
  0
LINE
  5
2C9
100
AcDbEntity
  8
0
100
AcDbLine
 62
7
  6
CONTINUOUS
 10
157.0497272169
 20
-157.2804863223
 11
157.0783577561
 21
-157.2853526659
  0
LINE
  5
2CA
100
AcDbEntity
  8
0
100
AcDbLine
 62
7
  6
CONTINUOUS
 10
157.9820073785
 20
-156.4357680455
 11
157.9216560145
 21
-156.4253179047
  0
LINE
  5
2CB
100
AcDbEntity
  8
0
100
AcDbLine
 62
7
  6
CONTINUOUS
 10
165.9002719729
 20
-82.0922729543
 11
165.5217587557
 21
-82.0187277163
  0
LINE
  5
2CC
100
AcDbEntity
  8
0
100
AcDbLine
 62
7
  6
CONTINUOUS
 10
166.7932455381
 20
-79.0872986539
 11
167.1717587557
 21
-79.1608438919
  0
LINE
  5
2CD
100
AcDbEntity
  8
0
100
AcDbLine
 62
7
  6
CONTINUOUS
 10
157.9216560145
 20
-156.4253179047
 11
157.8614773813
 21
-156.4135861867
  0
LINE
  5
2CE
100
AcDbEntity
  8
0
100
AcDbLine
 62
7
  6
CONTINUOUS
 10
157.0213101329
 20
-157.2749016743
 11
157.0497272169
 21
-157.2804863223
  0
LINE
  5
2CF
100
AcDbEntity
  8
0
100
AcDbLine
 62
7
  6
CONTINUOUS
 10
157.8614773813
 20
-156.4135861867
 11
157.7980260381
 21
-156.3997719851
  0
LINE
  5
2D0
100
AcDbEntity
  8
0
100
AcDbLine
 62
7
  6
CONTINUOUS
 10
156.9930931629
 20
-157.2686436155
 11
157.0213101329
 21
-157.2749016743
  0
LINE
  5
2D1
100
AcDbEntity
  8
0
100
AcDbLine
 62
7
  6
CONTINUOUS
 10
157.7980260381
 20
-156.3997719851
 11
157.7348616713
 21
-156.3846260983
  0
LINE
  5
2D2
100
AcDbEntity
  8
0
100
AcDbLine
 62
7
  6
CONTINUOUS
 10
156.9650629661
 20
-157.2617570407
 11
156.9930931629
 21
-157.2686436155
  0
LINE
  5
2D3
100
AcDbEntity
  8
0
100
AcDbLine
 62
7
  6
CONTINUOUS
 10
157.7348616713
 20
-156.3846260983
 11
157.6719581917
 21
-156.3682695879
  0
LINE
  5
2D4
100
AcDbEntity
  8
0
100
AcDbLine
 62
7
  6
CONTINUOUS
 10
156.9372062017
 20
-157.2542868435
 11
156.9650629661
 21
-157.2617570407
  0
LINE
  5
2D5
100
AcDbEntity
  8
0
100
AcDbLine
 62
7
  6
CONTINUOUS
 10
157.6719581917
 20
-156.3682695879
 11
157.6092895105
 21
-156.3508235167
  0
LINE
  5
2D6
100
AcDbEntity
  8
0
100
AcDbLine
 62
7
  6
CONTINUOUS
 10
156.9095095285
 20
-157.2462779179
 11
156.9372062017
 21
-157.2542868435
  0
LINE
  5
2D7
100
AcDbEntity
  8
0
100
AcDbLine
 62
7
  6
CONTINUOUS
 10
157.6092895105
 20
-156.3508235167
 11
157.5468295393
 21
-156.3324089471
  0
LINE
  5
2D8
100
AcDbEntity
  8
0
100
AcDbLine
 62
7
  6
CONTINUOUS
 10
156.8819596053
 20
-157.2377751579
 11
156.9095095285
 21
-157.2462779179
  0
LINE
  5
2D9
100
AcDbEntity
  8
0
100
AcDbLine
 62
7
  6
CONTINUOUS
 10
157.5468295393
 20
-156.3324089471
 11
157.4845521889
 21
-156.3131469411
  0
LINE
  5
2DA
100
AcDbEntity
  8
0
100
AcDbLine
 62
7
  6
CONTINUOUS
 10
157.4845521889
 20
-156.3131469411
 11
157.4224313713
 21
-156.2931585615
  0
LINE
  5
2DB
100
AcDbEntity
  8
0
100
AcDbLine
 62
7
  6
CONTINUOUS
 10
156.8545430917
 20
-157.2288234579
 11
156.8819596053
 21
-157.2377751579
  0
LINE
  5
2DC
100
AcDbEntity
  8
0
100
AcDbLine
 62
7
  6
CONTINUOUS
 10
157.4224313713
 20
-156.2931585615
 11
157.3604409973
 21
-156.2725648699
  0
LINE
  5
2DD
100
AcDbEntity
  8
0
100
AcDbLine
 62
7
  6
CONTINUOUS
 10
157.3604409973
 20
-156.2725648699
 11
157.2985549781
 21
-156.2514869295
  0
LINE
  5
2DE
100
AcDbEntity
  8
0
100
AcDbLine
 62
7
  6
CONTINUOUS
 10
156.8272466465
 20
-157.2194677115
 11
156.8545430917
 21
-157.2288234579
  0
LINE
  5
2DF
100
AcDbEntity
  8
0
100
AcDbLine
 62
7
  6
CONTINUOUS
 10
157.2985549781
 20
-156.2514869295
 11
157.2367472253
 21
-156.2300458015
  0
LINE
  5
2E0
100
AcDbEntity
  8
0
100
AcDbLine
 62
7
  6
CONTINUOUS
 10
95.2825272465
 20
-107.9314686055
 11
95.7154841265
 21
-108.0819605427
  0
LINE
  5
2E1
100
AcDbEntity
  8
0
100
AcDbLine
 62
7
  6
CONTINUOUS
 10
95.2825272465
 20
-105.3185380075
 11
94.8495703661
 21
-105.1680460699
  0
LINE
  5
2E2
100
AcDbEntity
  8
0
100
AcDbLine
 62
7
  6
CONTINUOUS
 10
-1.9446551667
 20
-51.8034109175
 11
-1.5116982867
 21
-51.9539028551
  0
LINE
  5
2E3
100
AcDbEntity
  8
0
100
AcDbLine
 62
7
  6
CONTINUOUS
 10
-1.9446551667
 20
-49.1904803195
 11
-2.3776120467
 21
-49.0399883823
  0
LINE
  5
2E4
100
AcDbEntity
  8
0
100
AcDbLine
 62
7
  6
CONTINUOUS
 10
152.2046231321
 20
-97.9000529159
 11
152.6375800121
 21
-98.0505448535
  0
LINE
  5
2E5
100
AcDbEntity
  8
0
100
AcDbLine
 62
7
  6
CONTINUOUS
 10
153.2499774757
 20
-96.0171661031
 11
152.9117299129
 21
-95.8995942767
  0
LINE
  5
2E6
100
AcDbEntity
  8
0
100
AcDbLine
 62
7
  6
CONTINUOUS
 10
152.5734823505
 20
-93.7406704211
 11
152.9117299129
 21
-93.8582422471
  0
LINE
  5
2E7
100
AcDbEntity
  8
0
100
AcDbLine
 62
7
  6
CONTINUOUS
 10
152.2046231321
 20
-92.6741917199
 11
151.7716662517
 21
-92.5236997823
  0
LINE
  5
2E8
100
AcDbEntity
  8
0
100
AcDbLine
 62
7
  6
CONTINUOUS
 10
152.2046231321
 20
-84.8353999259
 11
152.6375800121
 21
-84.9858918631
  0
LINE
  5
2E9
100
AcDbEntity
  8
0
100
AcDbLine
 62
7
  6
CONTINUOUS
 10
-99.1718375799
 20
4.3246467701
 11
-98.7388806999
 21
4.1741548329
  0
LINE
  5
2EA
100
AcDbEntity
  8
0
100
AcDbLine
 62
7
  6
CONTINUOUS
 10
-99.1718375799
 20
6.9375773681
 11
-99.6047944599
 21
7.0880693057
  0
LINE
  5
2EB
100
AcDbEntity
  8
0
100
AcDbLine
 62
7
  6
CONTINUOUS
 10
152.4787730329
 20
-80.3573080355
 11
152.9117299129
 21
-80.5077999727
  0
LINE
  5
2EC
100
AcDbEntity
  8
0
100
AcDbLine
 62
7
  6
CONTINUOUS
 10
152.2046231321
 20
-79.6095387295
 11
151.7716662517
 21
-79.4590467923
  0
LINE
  5
2ED
100
AcDbEntity
  8
0
100
AcDbLine
 62
7
  6
CONTINUOUS
 10
157.2367472253
 20
-156.2300458015
 11
157.1132621633
 21
-156.1865582347
  0
LINE
  5
2EE
100
AcDbEntity
  8
0
100
AcDbLine
 62
7
  6
CONTINUOUS
 10
156.8000569289
 20
-157.2097528131
 11
156.8272466465
 21
-157.2194677115
  0
LINE
  5
2EF
100
AcDbEntity
  8
0
100
AcDbLine
 62
7
  6
CONTINUOUS
 10
156.7729605977
 20
-157.1997236563
 11
156.8000569289
 21
-157.2097528131
  0
LINE
  5
2F0
100
AcDbEntity
  8
0
100
AcDbLine
 62
7
  6
CONTINUOUS
 10
156.7459443121
 20
-157.1894251355
 11
156.7729605977
 21
-157.1997236563
  0
LINE
  5
2F1
100
AcDbEntity
  8
0
100
AcDbLine
 62
7
  6
CONTINUOUS
 10
156.7189947317
 20
-157.1789021447
 11
156.7459443121
 21
-157.1894251355
  0
LINE
  5
2F2
100
AcDbEntity
  8
0
100
AcDbLine
 62
7
  6
CONTINUOUS
 10
156.6920985145
 20
-157.1681995775
 11
156.7189947317
 21
-157.1789021447
  0
LINE
  5
2F3
100
AcDbEntity
  8
0
100
AcDbLine
 62
7
  6
CONTINUOUS
 10
156.6384128081
 20
-157.1464352911
 11
156.6920985145
 21
-157.1681995775
  0
LINE
  5
2F4
100
AcDbEntity
  8
0
100
AcDbLine
 62
7
  6
CONTINUOUS
 10
156.6115966365
 20
-157.1354633599
 11
156.6384128081
 21
-157.1464352911
  0
LINE
  5
2F5
100
AcDbEntity
  8
0
100
AcDbLine
 62
7
  6
CONTINUOUS
 10
-158.9223605903
 20
24.0619503661
 11
155.0330502565
 21
-157.1806504587
  0
LINE
  5
2F6
100
AcDbEntity
  8
0
100
AcDbLine
 62
7
  6
CONTINUOUS
 10
156.4471488849
 20
-157.0405655955
 11
156.6115841829
 21
-157.1354920723
  0
LINE
  5
2F7
100
AcDbEntity
  8
0
100
AcDbLine
 62
7
  6
CONTINUOUS
 10
-98.7008850087
 20
6.2706646981
 11
-98.3612562623
 21
6.0746011961
  0
LINE
  5
2F8
100
AcDbEntity
  8
0
100
AcDbLine
 62
7
  6
CONTINUOUS
 10
-1.4737025959
 20
-49.8573929895
 11
-1.1340738495
 21
-50.0534564915
  0
LINE
  5
2F9
100
AcDbEntity
  8
0
100
AcDbLine
 62
7
  6
CONTINUOUS
 10
155.0330502565
 20
-90.6325742899
 11
-158.9223605903
 21
90.6100265345
  0
LINE
  5
2FA
100
AcDbEntity
  8
0
100
AcDbLine
 62
7
  6
CONTINUOUS
 10
-158.2152538091
 20
90.6100928845
 11
-148.3157588723
 21
84.8952361017
  0
LINE
  5
2FB
100
AcDbEntity
  8
0
100
AcDbLine
 62
7
  6
CONTINUOUS
 10
144.4264485389
 20
-84.1012430455
 11
154.3259434753
 21
-89.8160998283
  0
LINE
  5
2FC
100
AcDbEntity
  8
0
100
AcDbLine
 62
7
  6
CONTINUOUS
 10
155.7401570377
 20
-90.2243702343
 11
155.4983741557
 21
-90.0847919471
  0
LINE
  5
2FD
100
AcDbEntity
  8
0
100
AcDbLine
 62
7
  6
CONTINUOUS
 10
143.8141424641
 20
-83.3396285663
 11
-147.6694033903
 21
84.9302407301
  0
LINE
  5
2FE
100
AcDbEntity
  8
0
100
AcDbLine
 62
7
  6
CONTINUOUS
 10
-146.4458209971
 20
84.7046510397
 11
143.4679592893
 21
-82.6590118839
  0
LINE
  5
2FF
100
AcDbEntity
  8
0
100
AcDbLine
 62
7
  6
CONTINUOUS
 10
-147.6086520911
 20
86.1201136697
 11
143.7193417577
 21
-82.0599573659
  0
LINE
  5
300
100
AcDbEntity
  8
0
100
AcDbLine
 62
8
  6
CONTINUOUS
 10
165.6396519745
 20
-81.5288740879
 11
165.1800325821
 21
-81.2635414603
  0
LINE
  5
301
100
AcDbEntity
  8
0
100
AcDbLine
 62
7
  6
CONTINUOUS
 10
167.5134849445
 20
-79.9162491119
 11
166.8063781633
 21
-79.5080450559
  0
LINE
  5
302
100
AcDbEntity
  8
0
100
AcDbLine
 62
7
  6
CONTINUOUS
 10
-155.3868266843
 20
97.4691684045
 11
-155.1982231711
 21
97.3420086309
  0
LINE
  5
303
100
AcDbEntity
  8
0
100
AcDbLine
 62
7
  6
CONTINUOUS
 10
152.9117299129
 20
-80.5077999727
 11
153.1003334261
 21
-80.6349597467
  0
LINE
  5
304
100
AcDbEntity
  8
0
100
AcDbLine
 62
7
  6
CONTINUOUS
 10
-157.7442762319
 20
150.5293075465
 11
-157.7604743995
 21
150.5414156341
  0
LINE
  5
305
100
AcDbEntity
  8
0
100
AcDbLine
 62
7
  6
CONTINUOUS
 10
-157.7279789647
 20
150.5164561285
 11
-157.7442762319
 21
150.5293075465
  0
LINE
  5
306
100
AcDbEntity
  8
0
100
AcDbLine
 62
7
  6
CONTINUOUS
 10
-99.6047944599
 20
4.6740362061
 11
-99.1718375799
 21
4.3246467701
  0
LINE
  5
307
100
AcDbEntity
  8
0
100
AcDbLine
 62
7
  6
CONTINUOUS
 10
-98.7388806999
 20
6.5881879321
 11
-99.1718375799
 21
6.9375773681
  0
LINE
  5
308
100
AcDbEntity
  8
0
100
AcDbLine
 62
7
  6
CONTINUOUS
 10
-2.3776120467
 20
-51.4540214815
 11
-1.9446551667
 21
-51.8034109175
  0
LINE
  5
309
100
AcDbEntity
  8
0
100
AcDbLine
 62
7
  6
CONTINUOUS
 10
-1.5116982867
 20
-49.5398697555
 11
-1.9446551667
 21
-49.1904803195
  0
LINE
  5
30A
100
AcDbEntity
  8
0
100
AcDbLine
 62
7
  6
CONTINUOUS
 10
-156.5268903455
 20
80.4263048973
 11
-156.0939334655
 21
80.0769154613
  0
LINE
  5
30B
100
AcDbEntity
  8
0
100
AcDbLine
 62
7
  6
CONTINUOUS
 10
-155.3868266843
 20
82.0773741005
 11
-155.7250742467
 21
82.3503345973
  0
LINE
  5
30C
100
AcDbEntity
  8
0
100
AcDbLine
 62
7
  6
CONTINUOUS
 10
-155.3868266843
 20
84.1187261301
 11
-155.0485791215
 21
83.8457656333
  0
LINE
  5
30D
100
AcDbEntity
  8
0
100
AcDbLine
 62
7
  6
CONTINUOUS
 10
-155.6609765855
 20
84.9533872213
 11
-156.0939334655
 21
85.3027766573
  0
LINE
  5
30E
100
AcDbEntity
  8
0
100
AcDbLine
 62
7
  6
CONTINUOUS
 10
-156.5268903455
 20
93.4909578877
 11
-156.0939334655
 21
93.1415684517
  0
LINE
  5
30F
100
AcDbEntity
  8
0
100
AcDbLine
 62
7
  6
CONTINUOUS
 10
94.8495703661
 20
-107.5820791695
 11
95.2825272465
 21
-107.9314686055
  0
LINE
  5
310
100
AcDbEntity
  8
0
100
AcDbLine
 62
7
  6
CONTINUOUS
 10
95.7154841265
 20
-105.6679274435
 11
95.2825272465
 21
-105.3185380075
  0
LINE
  5
311
100
AcDbEntity
  8
0
100
AcDbLine
 62
7
  6
CONTINUOUS
 10
-155.6609765855
 20
98.0180402117
 11
-156.0939334655
 21
98.3674296477
  0
LINE
  5
312
100
AcDbEntity
  8
0
100
AcDbLine
 62
7
  6
CONTINUOUS
 10
-156.5268903455
 20
139.3805515157
 11
-156.0939334655
 21
139.0311620797
  0
LINE
  5
313
100
AcDbEntity
  8
0
100
AcDbLine
 62
7
  6
CONTINUOUS
 10
-155.6609765855
 20
143.9076338397
 11
-156.0939334655
 21
144.2570232757
  0
LINE
  5
314
100
AcDbEntity
  8
0
100
AcDbLine
 62
7
  6
CONTINUOUS
 10
151.7716662517
 20
-97.5506634799
 11
152.2046231321
 21
-97.9000529159
  0
LINE
  5
315
100
AcDbEntity
  8
0
100
AcDbLine
 62
7
  6
CONTINUOUS
 10
152.9117299129
 20
-95.8995942767
 11
152.5734823505
 21
-95.6266337799
  0
LINE
  5
316
100
AcDbEntity
  8
0
100
AcDbLine
 62
7
  6
CONTINUOUS
 10
152.9117299129
 20
-93.8582422471
 11
153.2499774757
 21
-94.1312027439
  0
LINE
  5
317
100
AcDbEntity
  8
0
100
AcDbLine
 62
7
  6
CONTINUOUS
 10
152.6375800121
 20
-93.0235811559
 11
152.2046231321
 21
-92.6741917199
  0
LINE
  5
318
100
AcDbEntity
  8
0
100
AcDbLine
 62
7
  6
CONTINUOUS
 10
151.7716662517
 20
-84.4860104895
 11
152.2046231321
 21
-84.8353999259
  0
LINE
  5
319
100
AcDbEntity
  8
0
100
AcDbLine
 62
7
  6
CONTINUOUS
 10
-157.7152538091
 20
150.5059506081
 11
-157.7279789647
 21
150.5164561285
  0
LINE
  5
31A
100
AcDbEntity
  8
0
100
AcDbLine
 62
7
  6
CONTINUOUS
 10
-148.9944713899
 20
154.3764391025
 11
-148.6693122631
 21
154.0955106833
  0
LINE
  5
31B
100
AcDbEntity
  8
0
100
AcDbLine
 62
7
  6
CONTINUOUS
 10
-146.1944385287
 20
153.8912759553
 11
-145.9776657775
 21
153.7039903425
  0
LINE
  5
31C
100
AcDbEntity
  8
0
100
AcDbLine
 62
7
  6
CONTINUOUS
 10
-144.8716243147
 20
153.4831382497
 11
-144.9472341103
 21
153.5559536469
  0
LINE
  5
31D
100
AcDbEntity
  8
0
100
AcDbLine
 62
7
  6
CONTINUOUS
 10
-155.0485791215
 20
83.8457656333
 11
-155.0297896735
 21
83.8256360649
  0
LINE
  5
31E
100
AcDbEntity
  8
0
100
AcDbLine
 62
7
  6
CONTINUOUS
 10
-156.8939334655
 20
80.9214004577
 11
-156.5268903455
 21
80.4263048973
  0
LINE
  5
31F
100
AcDbEntity
  8
0
100
AcDbLine
 62
7
  6
CONTINUOUS
 10
-99.9718375799
 20
5.1691317665
 11
-99.6047944599
 21
4.6740362061
  0
LINE
  5
320
100
AcDbEntity
  8
0
100
AcDbLine
 62
7
  6
CONTINUOUS
 10
-155.7250742467
 20
82.3503345973
 11
-156.0118266843
 21
82.7371280041
  0
LINE
  5
321
100
AcDbEntity
  8
0
100
AcDbLine
 62
7
  6
CONTINUOUS
 10
-98.3718375799
 20
6.0930923717
 11
-98.7388806999
 21
6.5881879321
  0
LINE
  5
322
100
AcDbEntity
  8
0
100
AcDbLine
 62
7
  6
CONTINUOUS
 10
-155.2939334655
 20
84.4582916613
 11
-155.6609765855
 21
84.9533872213
  0
LINE
  5
323
100
AcDbEntity
  8
0
100
AcDbLine
 62
7
  6
CONTINUOUS
 10
-156.8939334655
 20
93.9860534481
 11
-156.5268903455
 21
93.4909578877
  0
LINE
  5
324
100
AcDbEntity
  8
0
100
AcDbLine
 62
7
  6
CONTINUOUS
 10
-155.2939334655
 20
97.5229446513
 11
-155.6609765855
 21
98.0180402117
  0
LINE
  5
325
100
AcDbEntity
  8
0
100
AcDbLine
 62
7
  6
CONTINUOUS
 10
-156.8939334655
 20
139.8756470761
 11
-156.5268903455
 21
139.3805515157
  0
LINE
  5
326
100
AcDbEntity
  8
0
100
AcDbLine
 62
7
  6
CONTINUOUS
 10
-155.2939334655
 20
143.4125382793
 11
-155.6609765855
 21
143.9076338397
  0
LINE
  5
327
100
AcDbEntity
  8
0
100
AcDbLine
 62
7
  6
CONTINUOUS
 10
-2.7446551667
 20
-50.9589259211
 11
-2.3776120467
 21
-51.4540214815
  0
LINE
  5
328
100
AcDbEntity
  8
0
100
AcDbLine
 62
7
  6
CONTINUOUS
 10
-1.1446551667
 20
-50.0349653159
 11
-1.5116982867
 21
-49.5398697555
  0
LINE
  5
329
100
AcDbEntity
  8
0
100
AcDbLine
 62
7
  6
CONTINUOUS
 10
94.4825272465
 20
-107.0869836091
 11
94.8495703661
 21
-107.5820791695
  0
LINE
  5
32A
100
AcDbEntity
  8
0
100
AcDbLine
 62
7
  6
CONTINUOUS
 10
96.0825272465
 20
-106.1630230039
 11
95.7154841265
 21
-105.6679274435
  0
LINE
  5
32B
100
AcDbEntity
  8
0
100
AcDbLine
 62
7
  6
CONTINUOUS
 10
3.9709695365
 20
62.1948810789
 11
3.9289718341
 21
62.2662818185
  0
LINE
  5
32C
100
AcDbEntity
  8
0
100
AcDbLine
 62
7
  6
CONTINUOUS
 10
-157.1391838375
 20
81.4868283313
 11
-156.8939334655
 21
80.9214004577
  0
LINE
  5
32D
100
AcDbEntity
  8
0
100
AcDbLine
 62
7
  6
CONTINUOUS
 10
-156.0118266843
 20
82.7371280041
 11
-156.2034285371
 21
83.1788685301
  0
LINE
  5
32E
100
AcDbEntity
  8
0
100
AcDbLine
 62
7
  6
CONTINUOUS
 10
-155.0486830935
 20
83.8928637877
 11
-155.2939334655
 21
84.4582916613
  0
LINE
  5
32F
100
AcDbEntity
  8
0
100
AcDbLine
 62
7
  6
CONTINUOUS
 10
-157.1391838375
 20
94.5514813213
 11
-156.8939334655
 21
93.9860534481
  0
LINE
  5
330
100
AcDbEntity
  8
0
100
AcDbLine
 62
7
  6
CONTINUOUS
 10
-155.0486830935
 20
96.9575167777
 11
-155.2939334655
 21
97.5229446513
  0
LINE
  5
331
100
AcDbEntity
  8
0
100
AcDbLine
 62
7
  6
CONTINUOUS
 10
-100.2170879519
 20
5.7345596401
 11
-99.9718375799
 21
5.1691317665
  0
LINE
  5
332
100
AcDbEntity
  8
0
100
AcDbLine
 62
7
  6
CONTINUOUS
 10
-157.1391838375
 20
140.4410749493
 11
-156.8939334655
 21
139.8756470761
  0
LINE
  5
333
100
AcDbEntity
  8
0
100
AcDbLine
 62
7
  6
CONTINUOUS
 10
-98.1265872079
 20
5.5276644985
 11
-98.3718375799
 21
6.0930923717
  0
LINE
  5
334
100
AcDbEntity
  8
0
100
AcDbLine
 62
7
  6
CONTINUOUS
 10
-155.0486830935
 20
142.8471104057
 11
-155.2939334655
 21
143.4125382793
  0
LINE
  5
335
100
AcDbEntity
  8
0
100
AcDbLine
 62
7
  6
CONTINUOUS
 10
-2.9899055387
 20
-50.3934980479
 11
-2.7446551667
 21
-50.9589259211
  0
LINE
  5
336
100
AcDbEntity
  8
0
100
AcDbLine
 62
7
  6
CONTINUOUS
 10
-0.8994047947
 20
-50.6003931895
 11
-1.1446551667
 21
-50.0349653159
  0
LINE
  5
337
100
AcDbEntity
  8
0
100
AcDbLine
 62
7
  6
CONTINUOUS
 10
-149.1086520911
 20
154.7078167673
 11
-148.9944713899
 21
154.3764391025
  0
LINE
  5
338
100
AcDbEntity
  8
0
100
AcDbLine
 62
7
  6
CONTINUOUS
 10
-145.9776657775
 20
153.7039903425
 11
-145.9015453099
 21
153.4830718997
  0
LINE
  5
339
100
AcDbEntity
  8
0
100
AcDbLine
 62
7
  6
CONTINUOUS
 10
-60.0131976615
 20
206.1415278121
 11
-59.8990169603
 21
205.8101501473
  0
LINE
  5
33A
100
AcDbEntity
  8
0
100
AcDbLine
 62
7
  6
CONTINUOUS
 10
-56.8822113479
 20
205.1377013873
 11
-56.8060908803
 21
204.9167829445
  0
LINE
  5
33B
100
AcDbEntity
  8
0
100
AcDbLine
 62
7
  6
CONTINUOUS
 10
0.7979855205
 20
62.4537001313
 11
0.9121662217
 21
62.1223224665
  0
LINE
  5
33C
100
AcDbEntity
  8
0
100
AcDbLine
 62
7
  6
CONTINUOUS
 10
2.0050923017
 20
62.0453633753
 11
2.0812127689
 21
61.8244449321
  0
LINE
  5
33D
100
AcDbEntity
  8
0
100
AcDbLine
 62
7
  6
CONTINUOUS
 10
5.2121990829
 20
63.2701082433
 11
5.0980183813
 21
63.6014859077
  0
LINE
  5
33E
100
AcDbEntity
  8
0
100
AcDbLine
 62
7
  6
CONTINUOUS
 10
-158.2179855951
 20
150.2334191653
 11
-158.2152538091
 21
150.2171740521
  0
LINE
  5
33F
100
AcDbEntity
  8
0
100
AcDbLine
 62
7
  6
CONTINUOUS
 10
-157.2253043155
 20
82.0365072497
 11
-157.1391838375
 21
81.4868283313
  0
LINE
  5
340
100
AcDbEntity
  8
0
100
AcDbLine
 62
7
  6
CONTINUOUS
 10
-156.2034285371
 20
83.1788685301
 11
-156.2707101607
 21
83.6083051853
  0
LINE
  5
341
100
AcDbEntity
  8
0
100
AcDbLine
 62
7
  6
CONTINUOUS
 10
-157.2253043155
 20
95.1011602401
 11
-157.1391838375
 21
94.5514813213
  0
LINE
  5
342
100
AcDbEntity
  8
0
100
AcDbLine
 62
7
  6
CONTINUOUS
 10
-154.9625626155
 20
83.3431848689
 11
-155.0486830935
 21
83.8928637877
  0
LINE
  5
343
100
AcDbEntity
  8
0
100
AcDbLine
 62
7
  6
CONTINUOUS
 10
-154.9625626155
 20
96.4078378593
 11
-155.0486830935
 21
96.9575167777
  0
LINE
  5
344
100
AcDbEntity
  8
0
100
AcDbLine
 62
7
  6
CONTINUOUS
 10
-157.2253043155
 20
140.9907538681
 11
-157.1391838375
 21
140.4410749493
  0
LINE
  5
345
100
AcDbEntity
  8
0
100
AcDbLine
 62
7
  6
CONTINUOUS
 10
-154.9625626155
 20
142.2974314873
 11
-155.0486830935
 21
142.8471104057
  0
LINE
  5
346
100
AcDbEntity
  8
0
100
AcDbLine
 62
7
  6
CONTINUOUS
 10
-100.3032084299
 20
6.2842385585
 11
-100.2170879519
 21
5.7345596401
  0
LINE
  5
347
100
AcDbEntity
  8
0
100
AcDbLine
 62
7
  6
CONTINUOUS
 10
-98.0404667299
 20
4.9779855797
 11
-98.1265872079
 21
5.5276644985
  0
LINE
  5
348
100
AcDbEntity
  8
0
100
AcDbLine
 62
7
  6
CONTINUOUS
 10
-3.0760260167
 20
-49.8438191291
 11
-2.9899055387
 21
-50.3934980479
  0
LINE
  5
349
100
AcDbEntity
  8
0
100
AcDbLine
 62
7
  6
CONTINUOUS
 10
-0.8132843167
 20
-51.1500721079
 11
-0.8994047947
 21
-50.6003931895
  0
LINE
  5
34A
100
AcDbEntity
  8
0
100
AcDbLine
 62
7
  6
CONTINUOUS
 10
-158.2209689183
 20
150.2539625317
 11
-158.2179855951
 21
150.2334191653
  0
LINE
  5
34B
100
AcDbEntity
  8
0
100
AcDbLine
 62
7
  6
CONTINUOUS
 10
-158.2233580107
 20
150.2740484885
 11
-158.2209689183
 21
150.2539625317
  0
LINE
  5
34C
100
AcDbEntity
  8
0
100
AcDbLine
 62
7
  6
CONTINUOUS
 10
1.2373253485
 20
63.0660062153
 11
1.2373253485
 21
62.2494654033
  0
LINE
  5
34D
100
AcDbEntity
  8
0
100
AcDbLine
 62
7
  6
CONTINUOUS
 10
2.6515389109
 20
63.8824143269
 11
2.6515389109
 21
63.0658735153
  0
LINE
  5
34E
100
AcDbEntity
  8
0
100
AcDbLine
 62
8
  6
CONTINUOUS
 10
3.7121990829
 20
62.0454960753
 11
3.7121990829
 21
62.4535674313
  0
LINE
  5
34F
100
AcDbEntity
  8
0
100
AcDbLine
 62
7
  6
CONTINUOUS
 10
-56.8822113479
 20
204.6958645013
 11
-57.0989840995
 21
204.5085788885
  0
LINE
  5
350
100
AcDbEntity
  8
0
100
AcDbLine
 62
7
  6
CONTINUOUS
 10
-159.2049281907
 20
150.4616965581
 11
-159.2164535851
 21
150.4534406473
  0
LINE
  5
351
100
AcDbEntity
  8
0
100
AcDbLine
 62
7
  6
CONTINUOUS
 10
-159.1931457079
 20
150.4698909941
 11
-159.2049281907
 21
150.4616965581
  0
LINE
  5
352
100
AcDbEntity
  8
0
100
AcDbLine
 62
7
  6
CONTINUOUS
 10
-158.1198530295
 20
150.6102008873
 11
-158.1277661587
 21
150.6047110169
  0
LINE
  5
353
100
AcDbEntity
  8
0
100
AcDbLine
 62
7
  6
CONTINUOUS
 10
-158.6327110875
 20
151.4684029121
 11
-158.6531507367
 21
151.4544838993
  0
LINE
  5
354
100
AcDbEntity
  8
0
100
AcDbLine
 62
7
  6
CONTINUOUS
 10
-159.1811183783
 20
150.4780268825
 11
-159.1931457079
 21
150.4698909941
  0
LINE
  5
355
100
AcDbEntity
  8
0
100
AcDbLine
 62
7
  6
CONTINUOUS
 10
-159.1644258575
 20
150.4889800381
 11
-159.1811183783
 21
150.4780268825
  0
LINE
  5
356
100
AcDbEntity
  8
0
100
AcDbLine
 62
7
  6
CONTINUOUS
 10
152.1117299129
 20
-80.4286246299
 11
152.4787730329
 21
-80.3573080355
  0
LINE
  5
357
100
AcDbEntity
  8
0
100
AcDbLine
 62
7
  6
CONTINUOUS
 10
151.7716662517
 20
-79.4590467923
 11
151.4046231321
 21
-79.5303633867
  0
LINE
  5
358
100
AcDbEntity
  8
0
100
AcDbLine
 62
7
  6
CONTINUOUS
 10
-155.3868266843
 20
143.3587620325
 11
-155.1982231711
 21
143.2316022589
  0
LINE
  5
359
100
AcDbEntity
  8
0
100
AcDbLine
 62
7
  6
CONTINUOUS
 10
-157.7152538091
 20
151.3224914201
 11
-157.7472965047
 21
151.3442781513
  0
LINE
  5
35A
100
AcDbEntity
  8
0
100
AcDbLine
 62
7
  6
CONTINUOUS
 10
-157.7604743995
 20
150.5414156341
 11
-157.7765506535
 21
150.5527811309
  0
LINE
  5
35B
100
AcDbEntity
  8
0
100
AcDbLine
 62
7
  6
CONTINUOUS
 10
152.6375800121
 20
-79.9589281659
 11
152.2046231321
 21
-79.6095387295
  0
LINE
  5
35C
100
AcDbEntity
  8
0
100
AcDbLine
 62
7
  6
CONTINUOUS
 10
153.2499774757
 20
-94.1312027439
 11
153.2687671433
 21
-94.1513325511
  0
LINE
  5
35D
100
AcDbEntity
  8
0
100
AcDbLine
 62
7
  6
CONTINUOUS
 10
94.2372768745
 20
-106.5215557355
 11
94.4825272465
 21
-107.0869836091
  0
LINE
  5
35E
100
AcDbEntity
  8
0
100
AcDbLine
 62
7
  6
CONTINUOUS
 10
96.3277776181
 20
-106.7284508771
 11
96.0825272465
 21
-106.1630230039
  0
LINE
  5
35F
100
AcDbEntity
  8
0
100
AcDbLine
 62
7
  6
CONTINUOUS
 10
-159.1473355195
 20
150.4998380677
 11
-159.1644258575
 21
150.4889800381
  0
LINE
  5
360
100
AcDbEntity
  8
0
100
AcDbLine
 62
7
  6
CONTINUOUS
 10
-159.1298779651
 20
150.5106082881
 11
-159.1473355195
 21
150.4998380677
  0
LINE
  5
361
100
AcDbEntity
  8
0
100
AcDbLine
 62
7
  6
CONTINUOUS
 10
-158.1117004183
 20
150.6152152977
 11
-158.1198530295
 21
150.6102008873
  0
LINE
  5
362
100
AcDbEntity
  8
0
100
AcDbLine
 62
7
  6
CONTINUOUS
 10
-158.6117004183
 20
151.4812406989
 11
-158.6327110875
 21
151.4684029121
  0
LINE
  5
363
100
AcDbEntity
  8
0
100
AcDbLine
 62
7
  6
CONTINUOUS
 10
-159.1120837959
 20
150.5212980173
 11
-159.1298779651
 21
150.5106082881
  0
LINE
  5
364
100
AcDbEntity
  8
0
100
AcDbLine
 62
7
  6
CONTINUOUS
 10
157.4174438189
 20
-33.2120724235
 11
157.4802671193
 21
-33.2253265639
  0
LINE
  5
365
100
AcDbEntity
  8
0
100
AcDbLine
 62
7
  6
CONTINUOUS
 10
157.3547531417
 20
-33.1982028587
 11
157.4174438189
 21
-33.2120724235
  0
LINE
  5
366
100
AcDbEntity
  8
0
100
AcDbLine
 62
7
  6
CONTINUOUS
 10
157.2921685629
 20
-33.1838409539
 11
157.3547531417
 21
-33.1982028587
  0
LINE
  5
367
100
AcDbEntity
  8
0
100
AcDbLine
 62
7
  6
CONTINUOUS
 10
157.2296635581
 20
-33.1691097943
 11
157.2921685629
 21
-33.1838409539
  0
LINE
  5
368
100
AcDbEntity
  8
0
100
AcDbLine
 62
7
  6
CONTINUOUS
 10
157.1047861713
 20
-33.1390320507
 11
157.2296635581
 21
-33.1691097943
  0
LINE
  5
369
100
AcDbEntity
  8
0
100
AcDbLine
 62
7
  6
CONTINUOUS
 10
157.6165620681
 20
-32.6520195763
 11
157.6594014817
 21
-32.6644889215
  0
LINE
  5
36A
100
AcDbEntity
  8
0
100
AcDbLine
 62
7
  6
CONTINUOUS
 10
152.2046231321
 20
-38.9458062979
 11
152.6375800121
 21
-39.0962982351
  0
LINE
  5
36B
100
AcDbEntity
  8
0
100
AcDbLine
 62
7
  6
CONTINUOUS
 10
152.4787730329
 20
-34.4677144075
 11
152.9117299129
 21
-34.6182063447
  0
LINE
  5
36C
100
AcDbEntity
  8
0
100
AcDbLine
 62
7
  6
CONTINUOUS
 10
152.2046231321
 20
-33.7199451019
 11
151.7716662517
 21
-33.5694531643
  0
LINE
  5
36D
100
AcDbEntity
  8
0
100
AcDbLine
 62
7
  6
CONTINUOUS
 10
-157.7924827299
 20
150.5634063169
 11
-157.8082490647
 21
150.5732950389
  0
LINE
  5
36E
100
AcDbEntity
  8
0
100
AcDbLine
 62
7
  6
CONTINUOUS
 10
-157.7472965047
 20
151.3442781513
 11
-157.7853574443
 21
151.3688235397
  0
LINE
  5
36F
100
AcDbEntity
  8
0
100
AcDbLine
 62
7
  6
CONTINUOUS
 10
-157.7765506535
 20
150.5527811309
 11
-157.7924827299
 21
150.5634063169
  0
LINE
  5
370
100
AcDbEntity
  8
0
100
AcDbLine
 62
7
  6
CONTINUOUS
 10
-144.9472341103
 20
153.5559536469
 11
-145.1337783571
 21
153.6871739273
  0
LINE
  5
371
100
AcDbEntity
  8
0
100
AcDbLine
 62
7
  6
CONTINUOUS
 10
0.9121662217
 20
62.1223224665
 11
1.2373253485
 21
61.8413940473
  0
LINE
  5
372
100
AcDbEntity
  8
0
100
AcDbLine
 62
7
  6
CONTINUOUS
 10
2.0812127689
 20
61.8244449321
 11
2.2979855205
 21
61.6371593193
  0
LINE
  5
373
100
AcDbEntity
  8
0
100
AcDbLine
 62
7
  6
CONTINUOUS
 10
3.9289718341
 20
62.2662818185
 11
3.7121990829
 21
62.4535674313
  0
LINE
  5
374
100
AcDbEntity
  8
0
100
AcDbLine
 62
7
  6
CONTINUOUS
 10
5.0980183813
 20
63.6014859077
 11
4.7728592545
 21
63.8824143269
  0
LINE
  5
375
100
AcDbEntity
  8
0
100
AcDbLine
 62
7
  6
CONTINUOUS
 10
151.4046231321
 20
-97.0555679195
 11
151.7716662517
 21
-97.5506634799
  0
LINE
  5
376
100
AcDbEntity
  8
0
100
AcDbLine
 62
7
  6
CONTINUOUS
 10
152.5734823505
 20
-95.6266337799
 11
152.2867299129
 21
-95.2398403735
  0
LINE
  5
377
100
AcDbEntity
  8
0
100
AcDbLine
 62
7
  6
CONTINUOUS
 10
153.0046231321
 20
-93.5186767163
 11
152.6375800121
 21
-93.0235811559
  0
LINE
  5
378
100
AcDbEntity
  8
0
100
AcDbLine
 62
7
  6
CONTINUOUS
 10
-2.3086926119
 20
-49.0498051183
 11
-2.3689192355
 21
-49.4356150731
  0
LINE
  5
379
100
AcDbEntity
  8
0
100
AcDbLine
 62
7
  6
CONTINUOUS
 10
-159.0939836135
 20
150.5319145725
 11
-159.1120837959
 21
150.5212980173
  0
LINE
  5
37A
100
AcDbEntity
  8
0
100
AcDbLine
 62
7
  6
CONTINUOUS
 10
-57.0989840995
 20
211.0399764829
 11
-156.0939334655
 21
153.8914086557
  0
LINE
  5
37B
100
AcDbEntity
  8
0
100
AcDbLine
 62
7
  6
CONTINUOUS
 10
-157.5396502735
 20
152.1001220817
 11
-158.7169403087
 21
151.4204870109
  0
LINE
  5
37C
100
AcDbEntity
  8
0
100
AcDbLine
 62
7
  6
CONTINUOUS
 10
-52.9420079487
 20
212.0047760465
 11
-53.1647280891
 21
211.8762024461
  0
LINE
  5
37D
100
AcDbEntity
  8
0
100
AcDbLine
 62
8
  6
CONTINUOUS
 10
-157.5583995595
 20
151.4130414509
 11
-157.7152538091
 21
151.3224914201
  0
LINE
  5
37E
100
AcDbEntity
  8
0
100
AcDbLine
 62
7
  6
CONTINUOUS
 10
-159.2151725415
 20
150.3164555533
 11
-159.9222793227
 21
149.9082514973
  0
LINE
  5
37F
100
AcDbEntity
  8
0
100
AcDbLine
 62
8
  6
CONTINUOUS
 10
-51.4421298499
 20
211.8562518949
 11
-51.7371283135
 21
211.6859529065
  0
LINE
  5
380
100
AcDbEntity
  8
0
100
AcDbLine
 62
7
  6
CONTINUOUS
 10
-158.9223605903
 20
149.8092353965
 11
-158.2152538091
 21
150.2174394521
  0
LINE
  5
381
100
AcDbEntity
  8
0
100
AcDbLine
 62
8
  6
CONTINUOUS
 10
-158.2152538091
 20
150.2171740521
 11
-157.7151388751
 21
150.5058842581
  0
LINE
  5
382
100
AcDbEntity
  8
0
100
AcDbLine
 62
7
  6
CONTINUOUS
 10
-153.4069276971
 20
146.6252437601
 11
-152.6998209159
 21
147.0334478161
  0
LINE
  5
383
100
AcDbEntity
  8
0
100
AcDbLine
 62
7
  6
CONTINUOUS
 10
-157.2253043155
 20
143.6036844661
 11
-156.5181975343
 21
144.0118885221
  0
LINE
  5
384
100
AcDbEntity
  8
0
100
AcDbLine
 62
7
  6
CONTINUOUS
 10
-156.5181975343
 20
142.7054232229
 11
-155.8110907531
 21
143.1136272789
  0
LINE
  5
385
100
AcDbEntity
  8
0
100
AcDbLine
 62
8
  6
CONTINUOUS
 10
-151.9927141347
 20
144.1757540245
 11
-151.8253679631
 21
144.2723609129
  0
LINE
  5
386
100
AcDbEntity
  8
0
100
AcDbLine
 62
7
  6
CONTINUOUS
 10
-157.2253043155
 20
140.9907538681
 11
-156.5181975343
 21
141.3989579241
  0
LINE
  5
387
100
AcDbEntity
  8
0
100
AcDbLine
 62
7
  6
CONTINUOUS
 10
-151.9927141347
 20
143.8491376997
 11
-151.8512927783
 21
143.9307785109
  0
LINE
  5
388
100
AcDbEntity
  8
0
100
AcDbLine
 62
7
  6
CONTINUOUS
 10
-159.0756080191
 20
150.5424652709
 11
-159.0939836135
 21
150.5319145725
  0
LINE
  5
389
100
AcDbEntity
  8
0
100
AcDbLine
 62
7
  6
CONTINUOUS
 10
-159.0569876139
 20
150.5529574301
 11
-159.0756080191
 21
150.5424652709
  0
LINE
  5
38A
100
AcDbEntity
  8
0
100
AcDbLine
 62
7
  6
CONTINUOUS
 10
-159.0381529995
 20
150.5633983673
 11
-159.0569876139
 21
150.5529574301
  0
LINE
  5
38B
100
AcDbEntity
  8
0
100
AcDbLine
 62
7
  6
CONTINUOUS
 10
-159.0191347767
 20
150.5737954005
 11
-159.0381529995
 21
150.5633983673
  0
LINE
  5
38C
100
AcDbEntity
  8
0
100
AcDbLine
 62
7
  6
CONTINUOUS
 10
-158.5900800695
 20
151.4930224905
 11
-158.6117004183
 21
151.4812406989
  0
LINE
  5
38D
100
AcDbEntity
  8
0
100
AcDbLine
 62
7
  6
CONTINUOUS
 10
-158.1032828827
 20
150.6197708529
 11
-158.1117004183
 21
150.6152152977
  0
LINE
  5
38E
100
AcDbEntity
  8
0
100
AcDbLine
 62
7
  6
CONTINUOUS
 10
-158.9806699127
 20
150.5944870229
 11
-159.0191347767
 21
150.5737954005
  0
LINE
  5
38F
100
AcDbEntity
  8
0
100
AcDbLine
 62
7
  6
CONTINUOUS
 10
-158.9223605903
 20
150.6253781081
 11
-158.9806699127
 21
150.5944870229
  0
LINE
  5
390
100
AcDbEntity
  8
0
100
AcDbLine
 62
7
  6
CONTINUOUS
 10
158.4582759877
 20
-33.2812480935
 11
158.5153919205
 21
-33.2742856623
  0
LINE
  5
391
100
AcDbEntity
  8
0
100
AcDbLine
 62
7
  6
CONTINUOUS
 10
243.0944228333
 20
-23.6254273227
 11
241.4367334769
 21
-23.8212213575
  0
LINE
  5
392
100
AcDbEntity
  8
0
100
AcDbLine
 62
7
  6
CONTINUOUS
 10
158.2802118777
 20
-32.7199329803
 11
158.3213006041
 21
-32.7153265571
  0
LINE
  5
393
100
AcDbEntity
  8
0
100
AcDbLine
 62
7
  6
CONTINUOUS
 10
158.4003751865
 20
-33.2870522619
 11
158.4582759877
 21
-33.2812480935
  0
LINE
  5
394
100
AcDbEntity
  8
0
100
AcDbLine
 62
7
  6
CONTINUOUS
 10
158.2380717117
 20
-32.7234843703
 11
158.2802118777
 21
-32.7199329803
  0
LINE
  5
395
100
AcDbEntity
  8
0
100
AcDbLine
 62
7
  6
CONTINUOUS
 10
158.3417957493
 20
-33.2916852395
 11
158.4003751865
 21
-33.2870522619
  0
LINE
  5
396
100
AcDbEntity
  8
0
100
AcDbLine
 62
7
  6
CONTINUOUS
 10
158.2826439105
 20
-33.2951340967
 11
158.3417957493
 21
-33.2916852395
  0
LINE
  5
397
100
AcDbEntity
  8
0
100
AcDbLine
 62
7
  6
CONTINUOUS
 10
158.1950401849
 20
-32.7259409511
 11
158.2380717117
 21
-32.7234843703
  0
LINE
  5
398
100
AcDbEntity
  8
0
100
AcDbLine
 62
7
  6
CONTINUOUS
 10
158.2230259029
 20
-33.2973859055
 11
158.2826439105
 21
-33.2951340967
  0
LINE
  5
399
100
AcDbEntity
  8
0
100
AcDbLine
 62
7
  6
CONTINUOUS
 10
158.1721698493
 20
-32.7267807299
 11
158.1950401849
 21
-32.7259409511
  0
LINE
  5
39A
100
AcDbEntity
  8
0
100
AcDbLine
 62
7
  6
CONTINUOUS
 10
158.1630479597
 20
-33.2984277367
 11
158.2230259029
 21
-33.2973859055
  0
LINE
  5
39B
100
AcDbEntity
  8
0
100
AcDbLine
 62
7
  6
CONTINUOUS
 10
158.1281862989
 20
-32.7275098903
 11
158.1721698493
 21
-32.7267807299
  0
LINE
  5
39C
100
AcDbEntity
  8
0
100
AcDbLine
 62
7
  6
CONTINUOUS
 10
158.1028163145
 20
-33.2982466623
 11
158.1630479597
 21
-33.2984277367
  0
LINE
  5
39D
100
AcDbEntity
  8
0
100
AcDbLine
 62
7
  6
CONTINUOUS
 10
158.0838110029
 20
-32.7270866563
 11
158.1281862989
 21
-32.7275098903
  0
LINE
  5
39E
100
AcDbEntity
  8
0
100
AcDbLine
 62
7
  6
CONTINUOUS
 10
158.0424372009
 20
-33.2968297531
 11
158.1028163145
 21
-33.2982466623
  0
LINE
  5
39F
100
AcDbEntity
  8
0
100
AcDbLine
 62
7
  6
CONTINUOUS
 10
158.0392062241
 20
-32.7255060179
 11
158.0838110029
 21
-32.7270866563
  0
LINE
  5
3A0
100
AcDbEntity
  8
0
100
AcDbLine
 62
7
  6
CONTINUOUS
 10
157.9820168517
 20
-33.2941640807
 11
158.0424372009
 21
-33.2968297531
  0
LINE
  5
3A1
100
AcDbEntity
  8
0
100
AcDbLine
 62
7
  6
CONTINUOUS
 10
157.9945278049
 20
-32.7227701927
 11
158.0392062241
 21
-32.7255060179
  0
LINE
  5
3A2
100
AcDbEntity
  8
0
100
AcDbLine
 62
7
  6
CONTINUOUS
 10
157.9216615009
 20
-33.2902367163
 11
157.9820168517
 21
-33.2941640807
  0
LINE
  5
3A3
100
AcDbEntity
  8
0
100
AcDbLine
 62
7
  6
CONTINUOUS
 10
157.8614773813
 20
-33.2850347311
 11
157.9216615009
 21
-33.2902367163
  0
LINE
  5
3A4
100
AcDbEntity
  8
0
100
AcDbLine
 62
7
  6
CONTINUOUS
 10
157.9499233353
 20
-32.7188879287
 11
157.9945278049
 21
-32.7227701927
  0
LINE
  5
3A5
100
AcDbEntity
  8
0
100
AcDbLine
 62
7
  6
CONTINUOUS
 10
157.7973013265
 20
-33.2780579223
 11
157.8614773813
 21
-33.2850347311
  0
LINE
  5
3A6
100
AcDbEntity
  8
0
100
AcDbLine
 62
7
  6
CONTINUOUS
 10
157.9055307549
 20
-32.7138737279
 11
157.9499233353
 21
-32.7188879287
  0
LINE
  5
3A7
100
AcDbEntity
  8
0
100
AcDbLine
 62
7
  6
CONTINUOUS
 10
161.3970112873
 20
-23.9166087659
 11
161.7796947197
 21
-23.9605521763
  0
LINE
  5
3A8
100
AcDbEntity
  8
0
100
AcDbLine
 62
7
  6
CONTINUOUS
 10
161.2639296545
 20
-22.4691351575
 11
160.6899045061
 21
-22.4032200419
  0
LINE
  5
3A9
100
AcDbEntity
  8
0
100
AcDbLine
 62
7
  6
CONTINUOUS
 10
157.7334170421
 20
-33.2697271795
 11
157.7973013265
 21
-33.2780579223
  0
LINE
  5
3AA
100
AcDbEntity
  8
0
100
AcDbLine
 62
7
  6
CONTINUOUS
 10
157.8614773813
 20
-32.7077470191
 11
157.9055307549
 21
-32.7138737279
  0
LINE
  5
3AB
100
AcDbEntity
  8
0
100
AcDbLine
 62
7
  6
CONTINUOUS
 10
157.6697980037
 20
-33.2601655875
 11
157.7334170421
 21
-33.2697271795
  0
LINE
  5
3AC
100
AcDbEntity
  8
0
100
AcDbLine
 62
7
  6
CONTINUOUS
 10
157.8175973009
 20
-32.7004815819
 11
157.8614773813
 21
-32.7077470191
  0
LINE
  5
3AD
100
AcDbEntity
  8
0
100
AcDbLine
 62
7
  6
CONTINUOUS
 10
157.6064176869
 20
-33.2494962307
 11
157.6697980037
 21
-33.2601655875
  0
LINE
  5
3AE
100
AcDbEntity
  8
0
100
AcDbLine
 62
7
  6
CONTINUOUS
 10
157.5432495669
 20
-33.2378421947
 11
157.6064176869
 21
-33.2494962307
  0
LINE
  5
3AF
100
AcDbEntity
  8
0
100
AcDbLine
 62
7
  6
CONTINUOUS
 10
157.7736587669
 20
-32.6920337827
 11
157.8175973009
 21
-32.7004815819
  0
LINE
  5
3B0
100
AcDbEntity
  8
0
100
AcDbLine
 62
7
  6
CONTINUOUS
 10
157.4802671193
 20
-33.2253265639
 11
157.5432495669
 21
-33.2378421947
  0
LINE
  5
3B1
100
AcDbEntity
  8
0
100
AcDbLine
 62
7
  6
CONTINUOUS
 10
157.7298030977
 20
-32.6824236103
 11
157.7736587669
 21
-32.6920337827
  0
LINE
  5
3B2
100
AcDbEntity
  8
0
100
AcDbLine
 62
7
  6
CONTINUOUS
 10
157.7027567285
 20
-32.6759030967
 11
157.7298030977
 21
-32.6824236103
  0
LINE
  5
3B3
100
AcDbEntity
  8
0
100
AcDbLine
 62
7
  6
CONTINUOUS
 10
157.6594014817
 20
-32.6644889215
 11
157.7027567285
 21
-32.6759030967
  0
LINE
  5
3B4
100
AcDbEntity
  8
0
100
AcDbLine
 62
7
  6
CONTINUOUS
 10
157.5743714073
 20
-32.6385427539
 11
157.6165620681
 21
-32.6520195763
  0
LINE
  5
3B5
100
AcDbEntity
  8
0
100
AcDbLine
 62
7
  6
CONTINUOUS
 10
-156.0939334655
 20
80.0769154613
 11
-155.6609765855
 21
79.9264235241
  0
LINE
  5
3B6
100
AcDbEntity
  8
0
100
AcDbLine
 62
7
  6
CONTINUOUS
 10
-155.0485791215
 20
81.9598022745
 11
-155.3868266843
 21
82.0773741005
  0
LINE
  5
3B7
100
AcDbEntity
  8
0
100
AcDbLine
 62
7
  6
CONTINUOUS
 10
-155.7250742467
 20
84.2362979565
 11
-155.3868266843
 21
84.1187261301
  0
LINE
  5
3B8
100
AcDbEntity
  8
0
100
AcDbLine
 62
7
  6
CONTINUOUS
 10
-156.0939334655
 20
85.3027766573
 11
-156.5268903455
 21
85.4532685949
  0
LINE
  5
3B9
100
AcDbEntity
  8
0
100
AcDbLine
 62
7
  6
CONTINUOUS
 10
157.5329553013
 20
-32.6241106675
 11
157.5743714073
 21
-32.6385427539
  0
LINE
  5
3BA
100
AcDbEntity
  8
0
100
AcDbLine
 62
7
  6
CONTINUOUS
 10
157.4924309573
 20
-32.6087791587
 11
157.5329553013
 21
-32.6241106675
  0
LINE
  5
3BB
100
AcDbEntity
  8
0
100
AcDbLine
 62
7
  6
CONTINUOUS
 10
161.7796947197
 20
-23.9605521763
 11
162.1041180685
 21
-24.0856924219
  0
LINE
  5
3BC
100
AcDbEntity
  8
0
100
AcDbLine
 62
7
  6
CONTINUOUS
 10
161.7505646781
 20
-22.6568455263
 11
161.2639296545
 21
-22.4691351575
  0
LINE
  5
3BD
100
AcDbEntity
  8
0
100
AcDbLine
 62
7
  6
CONTINUOUS
 10
157.4529057965
 20
-32.5926067671
 11
157.4924309573
 21
-32.6087791587
  0
LINE
  5
3BE
100
AcDbEntity
  8
0
100
AcDbLine
 62
7
  6
CONTINUOUS
 10
157.6862492273
 20
-31.5662902235
 11
157.6543706001
 21
-31.5530583283
  0
LINE
  5
3BF
100
AcDbEntity
  8
0
100
AcDbLine
 62
7
  6
CONTINUOUS
 10
157.4144765605
 20
-32.5756537919
 11
157.4529057965
 21
-32.5926067671
  0
LINE
  5
3C0
100
AcDbEntity
  8
0
100
AcDbLine
 62
7
  6
CONTINUOUS
 10
157.7185735149
 20
-31.5809472843
 11
157.6862492273
 21
-31.5662902235
  0
LINE
  5
3C1
100
AcDbEntity
  8
0
100
AcDbLine
 62
7
  6
CONTINUOUS
 10
157.3772287261
 20
-32.5579813815
 11
157.4144765605
 21
-32.5756537919
  0
LINE
  5
3C2
100
AcDbEntity
  8
0
100
AcDbLine
 62
7
  6
CONTINUOUS
 10
157.7512971193
 20
-31.5970431527
 11
157.7185735149
 21
-31.5809472843
  0
LINE
  5
3C3
100
AcDbEntity
  8
0
100
AcDbLine
 62
7
  6
CONTINUOUS
 10
157.7146934529
 20
-30.7666560031
 11
157.6543706001
 21
-30.7365175163
  0
LINE
  5
3C4
100
AcDbEntity
  8
0
100
AcDbLine
 62
7
  6
CONTINUOUS
 10
157.3412362181
 20
-32.5396506719
 11
157.3772287261
 21
-32.5579813815
  0
LINE
  5
3C5
100
AcDbEntity
  8
0
100
AcDbLine
 62
7
  6
CONTINUOUS
 10
157.7843665353
 20
-31.6145857271
 11
157.7512971193
 21
-31.5970431527
  0
LINE
  5
3C6
100
AcDbEntity
  8
0
100
AcDbLine
 62
7
  6
CONTINUOUS
 10
157.7757091449
 20
-30.7996820571
 11
157.7146934529
 21
-30.7666560031
  0
LINE
  5
3C7
100
AcDbEntity
  8
0
100
AcDbLine
 62
7
  6
CONTINUOUS
 10
157.3065613949
 20
-32.5207219967
 11
157.3412362181
 21
-32.5396506719
  0
LINE
  5
3C8
100
AcDbEntity
  8
0
100
AcDbLine
 62
7
  6
CONTINUOUS
 10
-157.8238289499
 20
150.5824527189
 11
-157.8392026767
 21
150.5908863381
  0
LINE
  5
3C9
100
AcDbEntity
  8
0
100
AcDbLine
 62
7
  6
CONTINUOUS
 10
157.8177209681
 20
-31.6335762935
 11
157.7843665353
 21
-31.6145857271
  0
LINE
  5
3CA
100
AcDbEntity
  8
0
100
AcDbLine
 62
7
  6
CONTINUOUS
 10
-157.8231114091
 20
151.3917449061
 11
-157.8605029615
 21
151.4130457349
  0
LINE
  5
3CB
100
AcDbEntity
  8
0
100
AcDbLine
 62
7
  6
CONTINUOUS
 10
148.1034038009
 20
-29.3926636291
 11
147.9619824449
 21
-29.3110228179
  0
LINE
  5
3CC
100
AcDbEntity
  8
0
100
AcDbLine
 62
7
  6
CONTINUOUS
 10
-151.8512927783
 20
143.7674968885
 11
-151.9927141347
 21
143.8491376997
  0
LINE
  5
3CD
100
AcDbEntity
  8
0
100
AcDbLine
 62
7
  6
CONTINUOUS
 10
147.9619824449
 20
-29.1477146555
 11
-151.8512927783
 21
143.9308050509
  0
LINE
  5
3CE
100
AcDbEntity
  8
0
100
AcDbLine
 62
7
  6
CONTINUOUS
 10
155.0330502565
 20
-31.4333654283
 11
149.5176173633
 21
-28.2493737923
  0
LINE
  5
3CF
100
AcDbEntity
  8
0
100
AcDbLine
 62
7
  6
CONTINUOUS
 10
-153.4069276971
 20
146.6252437601
 11
-158.9223605903
 21
149.8092353965
  0
LINE
  5
3D0
100
AcDbEntity
  8
0
100
AcDbLine
 62
7
  6
CONTINUOUS
 10
157.1543706001
 20
-32.4190837295
 11
156.8192416793
 21
-32.2256179215
  0
LINE
  5
3D1
100
AcDbEntity
  8
0
100
AcDbLine
 62
7
  6
CONTINUOUS
 10
-158.9223605903
 20
150.6253781081
 11
-158.2179086695
 21
150.2187066705
  0
LINE
  5
3D2
100
AcDbEntity
  8
0
100
AcDbLine
 62
7
  6
CONTINUOUS
 10
159.2756909437
 20
-33.0664470519
 11
158.5685841625
 21
-32.6582429963
  0
LINE
  5
3D3
100
AcDbEntity
  8
0
100
AcDbLine
 62
7
  6
CONTINUOUS
 10
-158.2152538091
 20
150.2174394521
 11
155.7401570377
 21
-31.0251613723
  0
LINE
  5
3D4
100
AcDbEntity
  8
0
100
AcDbLine
 62
7
  6
CONTINUOUS
 10
-157.7152538091
 20
150.5059506081
 11
-157.4064600855
 21
150.3276877861
  0
LINE
  5
3D5
100
AcDbEntity
  8
0
100
AcDbLine
 62
7
  6
CONTINUOUS
 10
157.6543706001
 20
-31.5530583283
 11
155.9311334465
 21
-30.5582546943
  0
LINE
  5
3D6
100
AcDbEntity
  8
0
100
AcDbLine
 62
7
  6
CONTINUOUS
 10
-156.0939334655
 20
149.8093680965
 11
153.6188366941
 21
-28.9840083927
  0
LINE
  5
3D7
100
AcDbEntity
  8
0
100
AcDbLine
 62
7
  6
CONTINUOUS
 10
-157.7152538091
 20
151.3224914201
 11
-157.5583995595
 21
151.2319413893
  0
LINE
  5
3D8
100
AcDbEntity
  8
0
100
AcDbLine
 62
7
  6
CONTINUOUS
 10
157.6543706001
 20
-30.7365175163
 11
157.4864748369
 21
-30.6395933551
  0
LINE
  5
3D9
100
AcDbEntity
  8
0
100
AcDbLine
 62
7
  6
CONTINUOUS
 10
-148.6693122631
 20
154.0955106833
 11
-147.2550987007
 21
153.2791025717
  0
LINE
  5
3DA
100
AcDbEntity
  8
0
100
AcDbLine
 62
7
  6
CONTINUOUS
 10
159.6292443345
 20
-23.8814576939
 11
161.0434578969
 21
-24.6978658059
  0
LINE
  5
3DB
100
AcDbEntity
  8
0
100
AcDbLine
 62
7
  6
CONTINUOUS
 10
157.8372867005
 20
-30.8355977603
 11
157.7757091449
 21
-30.7996820571
  0
LINE
  5
3DC
100
AcDbEntity
  8
0
100
AcDbLine
 62
7
  6
CONTINUOUS
 10
157.2732552809
 20
-32.5012541831
 11
157.3065613949
 21
-32.5207219967
  0
LINE
  5
3DD
100
AcDbEntity
  8
0
100
AcDbLine
 62
7
  6
CONTINUOUS
 10
-157.8082490647
 20
150.5732950389
 11
-157.8238289499
 21
150.5824527189
  0
LINE
  5
3DE
100
AcDbEntity
  8
0
100
AcDbLine
 62
7
  6
CONTINUOUS
 10
-157.7853574443
 20
151.3688235397
 11
-157.8231114091
 21
151.3917449061
  0
LINE
  5
3DF
100
AcDbEntity
  8
0
100
AcDbLine
 62
7
  6
CONTINUOUS
 10
157.8512923321
 20
-31.6540086979
 11
157.8177209681
 21
-31.6335762935
  0
LINE
  5
3E0
100
AcDbEntity
  8
0
100
AcDbLine
 62
7
  6
CONTINUOUS
 10
157.2413580021
 20
-32.4813039391
 11
157.2732552809
 21
-32.5012541831
  0
LINE
  5
3E1
100
AcDbEntity
  8
0
100
AcDbLine
 62
7
  6
CONTINUOUS
 10
157.8992821329
 20
-30.8743899335
 11
157.8372867005
 21
-30.8355977603
  0
LINE
  5
3E2
100
AcDbEntity
  8
0
100
AcDbLine
 62
7
  6
CONTINUOUS
 10
157.8850053865
 20
-31.6758685763
 11
157.8512923321
 21
-31.6540086979
  0
LINE
  5
3E3
100
AcDbEntity
  8
0
100
AcDbLine
 62
7
  6
CONTINUOUS
 10
157.9615394273
 20
-30.9160290995
 11
157.8992821329
 21
-30.8743899335
  0
LINE
  5
3E4
100
AcDbEntity
  8
0
100
AcDbLine
 62
7
  6
CONTINUOUS
 10
157.2108993945
 20
-32.4609253371
 11
157.2413580021
 21
-32.4813039391
  0
LINE
  5
3E5
100
AcDbEntity
  8
0
100
AcDbLine
 62
7
  6
CONTINUOUS
 10
152.9117299129
 20
-34.6182063447
 11
153.1003334261
 21
-34.7453661187
  0
LINE
  5
3E6
100
AcDbEntity
  8
0
100
AcDbLine
 62
7
  6
CONTINUOUS
 10
157.9187780353
 20
-31.6991326851
 11
157.8850053865
 21
-31.6758685763
  0
LINE
  5
3E7
100
AcDbEntity
  8
0
100
AcDbLine
 62
7
  6
CONTINUOUS
 10
158.0238918521
 20
-30.9604687575
 11
157.9615394273
 21
-30.9160290995
  0
LINE
  5
3E8
100
AcDbEntity
  8
0
100
AcDbLine
 62
7
  6
CONTINUOUS
 10
157.1818997409
 20
-32.4401693919
 11
157.2108993945
 21
-32.4609253371
  0
LINE
  5
3E9
100
AcDbEntity
  8
0
100
AcDbLine
 62
7
  6
CONTINUOUS
 10
157.9525218081
 20
-31.7237683551
 11
157.9187780353
 21
-31.6991326851
  0
LINE
  5
3EA
100
AcDbEntity
  8
0
100
AcDbLine
 62
7
  6
CONTINUOUS
 10
158.0861635861
 20
-31.0076450111
 11
158.0238918521
 21
-30.9604687575
  0
LINE
  5
3EB
100
AcDbEntity
  8
0
100
AcDbLine
 62
7
  6
CONTINUOUS
 10
157.1543706001
 20
-32.4190837295
 11
157.1818997409
 21
-32.4401693919
  0
LINE
  5
3EC
100
AcDbEntity
  8
0
100
AcDbLine
 62
7
  6
CONTINUOUS
 10
157.9861425265
 20
-31.7497331131
 11
157.9525218081
 21
-31.7237683551
  0
LINE
  5
3ED
100
AcDbEntity
  8
0
100
AcDbLine
 62
7
  6
CONTINUOUS
 10
151.7716662517
 20
-38.5964168619
 11
152.2046231321
 21
-38.9458062979
  0
LINE
  5
3EE
100
AcDbEntity
  8
0
100
AcDbLine
 62
7
  6
CONTINUOUS
 10
152.6375800121
 20
-34.0693345379
 11
152.2046231321
 21
-33.7199451019
  0
LINE
  5
3EF
100
AcDbEntity
  8
0
100
AcDbLine
 62
7
  6
CONTINUOUS
 10
165.5217587557
 20
-82.0187277163
 11
165.2688443097
 21
-81.7276390255
  0
LINE
  5
3F0
100
AcDbEntity
  8
0
100
AcDbLine
 62
7
  6
CONTINUOUS
 10
167.1717587557
 20
-79.1608438919
 11
167.4246732017
 21
-79.4519325827
  0
LINE
  5
3F1
100
AcDbEntity
  8
0
100
AcDbLine
 62
7
  6
CONTINUOUS
 10
151.4046231321
 20
-83.9909149295
 11
151.7716662517
 21
-84.4860104895
  0
LINE
  5
3F2
100
AcDbEntity
  8
0
100
AcDbLine
 62
7
  6
CONTINUOUS
 10
153.0046231321
 20
-80.4540237259
 11
152.6375800121
 21
-79.9589281659
  0
LINE
  5
3F3
100
AcDbEntity
  8
0
100
AcDbLine
 62
7
  6
CONTINUOUS
 10
-2.9899055387
 20
-49.3935727979
 11
-3.0760260167
 21
-49.8438191291
  0
LINE
  5
3F4
100
AcDbEntity
  8
0
100
AcDbLine
 62
7
  6
CONTINUOUS
 10
-0.8994047947
 20
-51.6003184391
 11
-0.8132843167
 21
-51.1500721079
  0
LINE
  5
3F5
100
AcDbEntity
  8
0
100
AcDbLine
 62
7
  6
CONTINUOUS
 10
0.9121662217
 20
62.7850777961
 11
0.7979855205
 21
62.4537001313
  0
LINE
  5
3F6
100
AcDbEntity
  8
0
100
AcDbLine
 62
7
  6
CONTINUOUS
 10
2.0812127689
 20
62.2662818185
 11
2.0050923017
 21
62.0453633753
  0
LINE
  5
3F7
100
AcDbEntity
  8
0
100
AcDbLine
 62
7
  6
CONTINUOUS
 10
5.0980183813
 20
62.9387305785
 11
5.2121990829
 21
63.2701082433
  0
LINE
  5
3F8
100
AcDbEntity
  8
0
100
AcDbLine
 62
7
  6
CONTINUOUS
 10
-57.0989840995
 20
204.5085788885
 11
-57.1926445563
 21
204.4608778153
  0
LINE
  5
3F9
100
AcDbEntity
  8
0
100
AcDbLine
 62
7
  6
CONTINUOUS
 10
-146.1944385287
 20
153.0748678437
 11
-146.2880989671
 21
153.0271667789
  0
LINE
  5
3FA
100
AcDbEntity
  8
0
100
AcDbLine
 62
7
  6
CONTINUOUS
 10
-158.5678089887
 20
151.5037691061
 11
-158.5900800695
 21
151.4930224905
  0
LINE
  5
3FB
100
AcDbEntity
  8
0
100
AcDbLine
 62
7
  6
CONTINUOUS
 10
158.8376948525
 20
-33.2096922047
 11
158.8882852561
 21
-33.1957279847
  0
LINE
  5
3FC
100
AcDbEntity
  8
0
100
AcDbLine
 62
7
  6
CONTINUOUS
 10
243.0835950833
 20
-22.3358715083
 11
244.8181592361
 21
-21.8703358559
  0
LINE
  5
3FD
100
AcDbEntity
  8
0
100
AcDbLine
 62
7
  6
CONTINUOUS
 10
158.4723156717
 20
-32.6873945523
 11
158.5061570277
 21
-32.6783443939
  0
LINE
  5
3FE
100
AcDbEntity
  8
0
100
AcDbLine
 62
7
  6
CONTINUOUS
 10
158.7863404393
 20
-33.2228814027
 11
158.8376948525
 21
-33.2096922047
  0
LINE
  5
3FF
100
AcDbEntity
  8
0
100
AcDbLine
 62
7
  6
CONTINUOUS
 10
158.7341371273
 20
-33.2352094647
 11
158.7863404393
 21
-33.2228814027
  0
LINE
  5
400
100
AcDbEntity
  8
0
100
AcDbLine
 62
7
  6
CONTINUOUS
 10
158.4368106245
 20
-32.6956841003
 11
158.4723156717
 21
-32.6873945523
  0
LINE
  5
401
100
AcDbEntity
  8
0
100
AcDbLine
 62
7
  6
CONTINUOUS
 10
158.6810000261
 20
-33.2465902771
 11
158.7341371273
 21
-33.2352094647
  0
LINE
  5
402
100
AcDbEntity
  8
0
100
AcDbLine
 62
7
  6
CONTINUOUS
 10
158.3997317293
 20
-32.7031449803
 11
158.4368106245
 21
-32.6956841003
  0
LINE
  5
403
100
AcDbEntity
  8
0
100
AcDbLine
 62
7
  6
CONTINUOUS
 10
152.6375800121
 20
-39.0962982351
 11
153.0046231321
 21
-39.0249816407
  0
LINE
  5
404
100
AcDbEntity
  8
0
100
AcDbLine
 62
7
  6
CONTINUOUS
 10
152.1117299129
 20
-34.5390310019
 11
152.4787730329
 21
-34.4677144075
  0
LINE
  5
405
100
AcDbEntity
  8
0
100
AcDbLine
 62
7
  6
CONTINUOUS
 10
151.7716662517
 20
-33.5694531643
 11
151.4046231321
 21
-33.6407697587
  0
LINE
  5
406
100
AcDbEntity
  8
0
100
AcDbLine
 62
7
  6
CONTINUOUS
 10
158.6268442461
 20
-33.2569377267
 11
158.6810000261
 21
-33.2465902771
  0
LINE
  5
407
100
AcDbEntity
  8
0
100
AcDbLine
 62
7
  6
CONTINUOUS
 10
158.3611868929
 20
-32.7097124839
 11
158.3997317293
 21
-32.7031449803
  0
LINE
  5
408
100
AcDbEntity
  8
0
100
AcDbLine
 62
7
  6
CONTINUOUS
 10
158.5716167509
 20
-33.2661778971
 11
158.6268442461
 21
-33.2569377267
  0
LINE
  5
409
100
AcDbEntity
  8
0
100
AcDbLine
 62
7
  6
CONTINUOUS
 10
158.5153919205
 20
-33.2742856623
 11
158.5716167509
 21
-33.2661778971
  0
LINE
  5
40A
100
AcDbEntity
  8
0
100
AcDbLine
 62
7
  6
CONTINUOUS
 10
158.3213006041
 20
-32.7153265571
 11
158.3611868929
 21
-32.7097124839
  0
LINE
  5
40B
100
AcDbEntity
  8
0
100
AcDbLine
 62
7
  6
CONTINUOUS
 10
161.0143278549
 20
-23.9605521763
 11
161.3970112873
 21
-23.9166087659
  0
LINE
  5
40C
100
AcDbEntity
  8
0
100
AcDbLine
 62
7
  6
CONTINUOUS
 10
160.6899045061
 20
-22.4032200419
 11
160.1158793577
 21
-22.4691351575
  0
LINE
  5
40D
100
AcDbEntity
  8
0
100
AcDbLine
 62
7
  6
CONTINUOUS
 10
241.4407676569
 20
-22.4474511919
 11
243.0835950833
 21
-22.3358715083
  0
LINE
  5
40E
100
AcDbEntity
  8
0
100
AcDbLine
 62
7
  6
CONTINUOUS
 10
241.4367334769
 20
-23.8212213575
 11
239.8874860781
 21
-23.6942512827
  0
LINE
  5
40F
100
AcDbEntity
  8
0
100
AcDbLine
 62
7
  6
CONTINUOUS
 10
239.9285859441
 20
-22.2024322347
 11
241.4407676569
 21
-22.4474511919
  0
LINE
  5
410
100
AcDbEntity
  8
0
100
AcDbLine
 62
7
  6
CONTINUOUS
 10
254.9957264025
 20
-30.6585619095
 11
254.6172131853
 21
-30.5850166715
  0
LINE
  5
411
100
AcDbEntity
  8
0
100
AcDbLine
 62
7
  6
CONTINUOUS
 10
255.8886999677
 20
-27.6535876091
 11
256.2672131853
 21
-27.7271328471
  0
LINE
  5
412
100
AcDbEntity
  8
0
100
AcDbLine
 62
7
  6
CONTINUOUS
 10
-156.0939334655
 20
93.1415684517
 11
-155.6609765855
 21
92.9910765141
  0
LINE
  5
413
100
AcDbEntity
  8
0
100
AcDbLine
 62
7
  6
CONTINUOUS
 10
-155.8197835643
 20
97.6196603421
 11
-155.3868266843
 21
97.4691684045
  0
LINE
  5
414
100
AcDbEntity
  8
0
100
AcDbLine
 62
7
  6
CONTINUOUS
 10
-156.0939334655
 20
98.3674296477
 11
-156.5268903455
 21
98.5179215849
  0
LINE
  5
415
100
AcDbEntity
  8
0
100
AcDbLine
 62
7
  6
CONTINUOUS
 10
-157.8974794747
 20
151.4327338001
 11
-157.9339914843
 21
151.4508210389
  0
LINE
  5
416
100
AcDbEntity
  8
0
100
AcDbLine
 62
7
  6
CONTINUOUS
 10
2.2979855205
 20
61.6371593193
 11
2.3916459597
 21
61.5894582545
  0
LINE
  5
417
100
AcDbEntity
  8
0
100
AcDbLine
 62
7
  6
CONTINUOUS
 10
-157.8392026767
 20
150.5908863381
 11
-157.8543516767
 21
150.5986043973
  0
LINE
  5
418
100
AcDbEntity
  8
0
100
AcDbLine
 62
7
  6
CONTINUOUS
 10
-157.8605029615
 20
151.4130457349
 11
-157.8974794747
 21
151.4327338001
  0
LINE
  5
419
100
AcDbEntity
  8
0
100
AcDbLine
 62
7
  6
CONTINUOUS
 10
163.1647782401
 20
-24.2897944499
 11
161.7505646781
 21
-23.4733863379
  0
LINE
  5
41A
100
AcDbEntity
  8
0
100
AcDbLine
 62
7
  6
CONTINUOUS
 10
-145.1337783571
 20
153.6871739273
 11
-146.5479919195
 21
154.5035820393
  0
LINE
  5
41B
100
AcDbEntity
  8
0
100
AcDbLine
 62
7
  6
CONTINUOUS
 10
163.1647782401
 20
-23.4732536379
 11
161.7505646781
 21
-22.6568455263
  0
LINE
  5
41C
100
AcDbEntity
  8
0
100
AcDbLine
 62
7
  6
CONTINUOUS
 10
-145.1337783571
 20
154.5037147393
 11
-146.5479919195
 21
155.3201228513
  0
LINE
  5
41D
100
AcDbEntity
  8
0
100
AcDbLine
 62
7
  6
CONTINUOUS
 10
163.3513224869
 20
-24.4210147307
 11
163.1647782401
 21
-24.2897944499
  0
LINE
  5
41E
100
AcDbEntity
  8
0
100
AcDbLine
 62
7
  6
CONTINUOUS
 10
158.1481716385
 20
-31.0574765879
 11
158.0861635861
 21
-31.0076450111
  0
LINE
  5
41F
100
AcDbEntity
  8
0
100
AcDbLine
 62
7
  6
CONTINUOUS
 10
158.0195411677
 20
-31.7769744951
 11
157.9861425265
 21
-31.7497331131
  0
LINE
  5
420
100
AcDbEntity
  8
0
100
AcDbLine
 62
7
  6
CONTINUOUS
 10
158.2097280069
 20
-31.1098652695
 11
158.1481716385
 21
-31.0574765879
  0
LINE
  5
421
100
AcDbEntity
  8
0
100
AcDbLine
 62
7
  6
CONTINUOUS
 10
158.0526149149
 20
-31.8054300879
 11
158.0195411677
 21
-31.7769744951
  0
LINE
  5
422
100
AcDbEntity
  8
0
100
AcDbLine
 62
7
  6
CONTINUOUS
 10
159.3040852073
 20
-23.6005292747
 11
159.6292443345
 21
-23.8814576939
  0
LINE
  5
423
100
AcDbEntity
  8
0
100
AcDbLine
 62
7
  6
CONTINUOUS
 10
162.1041180685
 20
-24.0856924219
 11
162.3208908197
 21
-24.2729780347
  0
LINE
  5
424
100
AcDbEntity
  8
0
100
AcDbLine
 62
7
  6
CONTINUOUS
 10
158.2473433957
 20
-31.1433642615
 11
158.2097280069
 21
-31.1098652695
  0
LINE
  5
425
100
AcDbEntity
  8
0
100
AcDbLine
 62
7
  6
CONTINUOUS
 10
158.0852583781
 20
-31.8350278135
 11
158.0526149149
 21
-31.8054300879
  0
LINE
  5
426
100
AcDbEntity
  8
0
100
AcDbLine
 62
7
  6
CONTINUOUS
 10
158.3077663425
 20
-31.1996287759
 11
158.2473433957
 21
-31.1433642615
  0
LINE
  5
427
100
AcDbEntity
  8
0
100
AcDbLine
 62
7
  6
CONTINUOUS
 10
158.1173649581
 20
-31.8656864727
 11
158.0852583781
 21
-31.8350278135
  0
LINE
  5
428
100
AcDbEntity
  8
0
100
AcDbLine
 62
7
  6
CONTINUOUS
 10
158.3677135345
 20
-31.2585490159
 11
158.3077663425
 21
-31.1996287759
  0
LINE
  5
429
100
AcDbEntity
  8
0
100
AcDbLine
 62
7
  6
CONTINUOUS
 10
158.1488283201
 20
-31.8973165415
 11
158.1173649581
 21
-31.8656864727
  0
LINE
  5
42A
100
AcDbEntity
  8
0
100
AcDbLine
 62
7
  6
CONTINUOUS
 10
158.4269907325
 20
-31.3199908307
 11
158.3677135345
 21
-31.2585490159
  0
LINE
  5
42B
100
AcDbEntity
  8
0
100
AcDbLine
 62
7
  6
CONTINUOUS
 10
158.1705835597
 20
-31.9201654631
 11
158.1488283201
 21
-31.8973165415
  0
LINE
  5
42C
100
AcDbEntity
  8
0
100
AcDbLine
 62
7
  6
CONTINUOUS
 10
158.4853973149
 20
-31.3837971379
 11
158.4269907325
 21
-31.3199908307
  0
LINE
  5
42D
100
AcDbEntity
  8
0
100
AcDbLine
 62
7
  6
CONTINUOUS
 10
158.2006830881
 20
-31.9531948763
 11
158.1705835597
 21
-31.9201654631
  0
LINE
  5
42E
100
AcDbEntity
  8
0
100
AcDbLine
 62
7
  6
CONTINUOUS
 10
-158.0945733967
 20
150.6238812605
 11
-158.1032828827
 21
150.6197708529
  0
LINE
  5
42F
100
AcDbEntity
  8
0
100
AcDbLine
 62
7
  6
CONTINUOUS
 10
-158.5448872723
 20
151.5134738725
 11
-158.5678089887
 21
151.5037691061
  0
LINE
  5
430
100
AcDbEntity
  8
0
100
AcDbLine
 62
7
  6
CONTINUOUS
 10
-59.0872228103
 20
206.9415442645
 11
-59.5738578335
 21
206.7538338961
  0
LINE
  5
431
100
AcDbEntity
  8
0
100
AcDbLine
 62
7
  6
CONTINUOUS
 10
-58.5131976615
 20
205.3249870001
 11
-58.1887743127
 21
205.4501272461
  0
LINE
  5
432
100
AcDbEntity
  8
0
100
AcDbLine
 62
7
  6
CONTINUOUS
 10
250.6683914357
 20
7.5246094929
 11
249.0115108489
 21
7.0574289425
  0
LINE
  5
433
100
AcDbEntity
  8
0
100
AcDbLine
 62
7
  6
CONTINUOUS
 10
-1.5116982867
 20
-51.9539028551
 11
-1.1446551667
 21
-51.8825862607
  0
LINE
  5
434
100
AcDbEntity
  8
0
100
AcDbLine
 62
7
  6
CONTINUOUS
 10
-2.3776120467
 20
-49.0399883823
 11
-2.7446551667
 21
-49.1113049767
  0
LINE
  5
435
100
AcDbEntity
  8
0
100
AcDbLine
 62
7
  6
CONTINUOUS
 10
185.1280624781
 20
1.5680686573
 11
187.8946195989
 21
1.7652074665
  0
LINE
  5
436
100
AcDbEntity
  8
0
100
AcDbLine
 62
7
  6
CONTINUOUS
 10
182.9778112369
 20
1.5081359985
 11
185.8350144517
 21
1.5457541085
  0
LINE
  5
437
100
AcDbEntity
  8
0
100
AcDbLine
 62
7
  6
CONTINUOUS
 10
182.3405758865
 20
1.5792210161
 11
185.1280624781
 21
1.5680686573
  0
LINE
  5
438
100
AcDbEntity
  8
0
100
AcDbLine
 62
7
  6
CONTINUOUS
 10
182.3405758865
 20
2.3957618281
 11
185.1280624781
 21
2.3846094689
  0
LINE
  5
439
100
AcDbEntity
  8
0
100
AcDbLine
 62
7
  6
CONTINUOUS
 10
180.1345844093
 20
1.6753678901
 11
182.9778112369
 21
1.5081359985
  0
LINE
  5
43A
100
AcDbEntity
  8
0
100
AcDbLine
 62
7
  6
CONTINUOUS
 10
179.5790176685
 20
1.7984770713
 11
182.3405758865
 21
1.5792210161
  0
LINE
  5
43B
100
AcDbEntity
  8
0
100
AcDbLine
 62
7
  6
CONTINUOUS
 10
179.5790176685
 20
2.6150178833
 11
182.3405758865
 21
2.3957618281
  0
LINE
  5
43C
100
AcDbEntity
  8
0
100
AcDbLine
 62
7
  6
CONTINUOUS
 10
177.3492339085
 20
2.0448676921
 11
180.1345844093
 21
1.6753678901
  0
LINE
  5
43D
100
AcDbEntity
  8
0
100
AcDbLine
 62
7
  6
CONTINUOUS
 10
176.8898098097
 20
2.2221511133
 11
179.5790176685
 21
1.7984770713
  0
LINE
  5
43E
100
AcDbEntity
  8
0
100
AcDbLine
 62
7
  6
CONTINUOUS
 10
176.8898098097
 20
3.0386919253
 11
179.5790176685
 21
2.6150178833
  0
LINE
  5
43F
100
AcDbEntity
  8
0
100
AcDbLine
 62
7
  6
CONTINUOUS
 10
174.6647660557
 20
2.6109302601
 11
177.3492339085
 21
2.0448676921
  0
LINE
  5
440
100
AcDbEntity
  8
0
100
AcDbLine
 62
7
  6
CONTINUOUS
 10
174.3181580817
 20
2.8431211521
 11
176.8898098097
 21
2.2221511133
  0
LINE
  5
441
100
AcDbEntity
  8
0
100
AcDbLine
 62
7
  6
CONTINUOUS
 10
174.3181580817
 20
3.6596619637
 11
176.8898098097
 21
3.0386919253
  0
LINE
  5
442
100
AcDbEntity
  8
0
100
AcDbLine
 62
7
  6
CONTINUOUS
 10
172.1226295229
 20
3.3648154857
 11
174.6647660557
 21
2.6109302601
  0
LINE
  5
443
100
AcDbEntity
  8
0
100
AcDbLine
 62
7
  6
CONTINUOUS
 10
239.8874860781
 20
-23.6942512827
 11
238.4771149457
 21
-23.2470113715
  0
LINE
  5
444
100
AcDbEntity
  8
0
100
AcDbLine
 62
7
  6
CONTINUOUS
 10
171.9072921293
 20
3.6509486373
 11
174.3181580817
 21
2.8431211521
  0
LINE
  5
445
100
AcDbEntity
  8
0
100
AcDbLine
 62
7
  6
CONTINUOUS
 10
171.9072921293
 20
4.4674894493
 11
174.3181580817
 21
3.6596619637
  0
LINE
  5
446
100
AcDbEntity
  8
0
100
AcDbLine
 62
7
  6
CONTINUOUS
 10
1.2373253485
 20
61.8413940473
 11
1.7239603717
 21
61.6536836789
  0
LINE
  5
447
100
AcDbEntity
  8
0
100
AcDbLine
 62
7
  6
CONTINUOUS
 10
3.7121990829
 20
62.4535674313
 11
3.3877757341
 21
62.5787076769
  0
LINE
  5
448
100
AcDbEntity
  8
0
100
AcDbLine
 62
7
  6
CONTINUOUS
 10
4.7728592545
 20
63.8824143269
 11
4.2862242313
 21
64.0701246957
  0
LINE
  5
449
100
AcDbEntity
  8
0
100
AcDbLine
 62
7
  6
CONTINUOUS
 10
169.7620753629
 20
4.2948832425
 11
172.1226295229
 21
3.3648154857
  0
LINE
  5
44A
100
AcDbEntity
  8
0
100
AcDbLine
 62
7
  6
CONTINUOUS
 10
169.6977387769
 20
4.6320539337
 11
171.9072921293
 21
3.6509486373
  0
LINE
  5
44B
100
AcDbEntity
  8
0
100
AcDbLine
 62
7
  6
CONTINUOUS
 10
169.6977387769
 20
5.4485947457
 11
171.9072921293
 21
4.4674894493
  0
LINE
  5
44C
100
AcDbEntity
  8
0
100
AcDbLine
 62
7
  6
CONTINUOUS
 10
-157.9339914843
 20
151.4508210389
 11
-157.9699929999
 21
151.4673233665
  0
LINE
  5
44D
100
AcDbEntity
  8
0
100
AcDbLine
 62
7
  6
CONTINUOUS
 10
-157.8543516767
 20
150.5986043973
 11
-157.8692586475
 21
150.6056168553
  0
LINE
  5
44E
100
AcDbEntity
  8
0
100
AcDbLine
 62
7
  6
CONTINUOUS
 10
167.6195509617
 20
5.3867731149
 11
169.7620753629
 21
4.2948832425
  0
LINE
  5
44F
100
AcDbEntity
  8
0
100
AcDbLine
 62
7
  6
CONTINUOUS
 10
167.7266407705
 20
5.7699445921
 11
169.6977387769
 21
4.6320539337
  0
LINE
  5
450
100
AcDbEntity
  8
0
100
AcDbLine
 62
7
  6
CONTINUOUS
 10
262.3462718529
 20
-97.5102419487
 11
262.3156944749
 21
-97.4848194987
  0
LINE
  5
451
100
AcDbEntity
  8
0
100
AcDbLine
 62
7
  6
CONTINUOUS
 10
163.4269322829
 20
-24.4938301279
 11
163.3513224869
 21
-24.4210147307
  0
LINE
  5
452
100
AcDbEntity
  8
0
100
AcDbLine
 62
7
  6
CONTINUOUS
 10
158.5427288977
 20
-31.4497888487
 11
158.4853973149
 21
-31.3837971379
  0
LINE
  5
453
100
AcDbEntity
  8
0
100
AcDbLine
 62
7
  6
CONTINUOUS
 10
158.2298254681
 20
-31.9868704515
 11
158.2006830881
 21
-31.9531948763
  0
LINE
  5
454
100
AcDbEntity
  8
0
100
AcDbLine
 62
7
  6
CONTINUOUS
 10
158.5987802445
 20
-31.5177664371
 11
158.5427288977
 21
-31.4497888487
  0
LINE
  5
455
100
AcDbEntity
  8
0
100
AcDbLine
 62
7
  6
CONTINUOUS
 10
158.2579239909
 20
-32.0210813511
 11
158.2298254681
 21
-31.9868704515
  0
LINE
  5
456
100
AcDbEntity
  8
0
100
AcDbLine
 62
7
  6
CONTINUOUS
 10
158.6533483717
 20
-31.5875121439
 11
158.5987802445
 21
-31.5177664371
  0
LINE
  5
457
100
AcDbEntity
  8
0
100
AcDbLine
 62
7
  6
CONTINUOUS
 10
158.2851316725
 20
-32.0560058267
 11
158.2579239909
 21
-32.0210813511
  0
LINE
  5
458
100
AcDbEntity
  8
0
100
AcDbLine
 62
7
  6
CONTINUOUS
 10
158.7062357441
 20
-31.6587927687
 11
158.6533483717
 21
-31.5875121439
  0
LINE
  5
459
100
AcDbEntity
  8
0
100
AcDbLine
 62
7
  6
CONTINUOUS
 10
151.4046231321
 20
-38.1013213015
 11
151.7716662517
 21
-38.5964168619
  0
LINE
  5
45A
100
AcDbEntity
  8
0
100
AcDbLine
 62
7
  6
CONTINUOUS
 10
153.0046231321
 20
-34.5644300979
 11
152.6375800121
 21
-34.0693345379
  0
LINE
  5
45B
100
AcDbEntity
  8
0
100
AcDbLine
 62
7
  6
CONTINUOUS
 10
158.3115530025
 20
-32.0917730263
 11
158.2851316725
 21
-32.0560058267
  0
LINE
  5
45C
100
AcDbEntity
  8
0
100
AcDbLine
 62
7
  6
CONTINUOUS
 10
158.7070141825
 20
-31.6598708991
 11
158.7062357441
 21
-31.6587927687
  0
LINE
  5
45D
100
AcDbEntity
  8
0
100
AcDbLine
 62
7
  6
CONTINUOUS
 10
158.7579239909
 20
-31.7323436619
 11
158.7070141825
 21
-31.6598708991
  0
LINE
  5
45E
100
AcDbEntity
  8
0
100
AcDbLine
 62
7
  6
CONTINUOUS
 10
158.3371086165
 20
-32.1282838595
 11
158.3115530025
 21
-32.0917730263
  0
LINE
  5
45F
100
AcDbEntity
  8
0
100
AcDbLine
 62
7
  6
CONTINUOUS
 10
151.1593727601
 20
-96.4901400459
 11
151.4046231321
 21
-97.0555679195
  0
LINE
  5
460
100
AcDbEntity
  8
0
100
AcDbLine
 62
7
  6
CONTINUOUS
 10
152.2867299129
 20
-95.2398403735
 11
152.0951280601
 21
-94.7980998471
  0
LINE
  5
461
100
AcDbEntity
  8
0
100
AcDbLine
 62
7
  6
CONTINUOUS
 10
153.2498735037
 20
-94.0841045899
 11
153.0046231321
 21
-93.5186767163
  0
LINE
  5
462
100
AcDbEntity
  8
0
100
AcDbLine
 62
7
  6
CONTINUOUS
 10
151.1593727601
 20
-83.4254870559
 11
151.4046231321
 21
-83.9909149295
  0
LINE
  5
463
100
AcDbEntity
  8
0
100
AcDbLine
 62
7
  6
CONTINUOUS
 10
94.1511563965
 20
-105.9718768171
 11
94.2372768745
 21
-106.5215557355
  0
LINE
  5
464
100
AcDbEntity
  8
0
100
AcDbLine
 62
7
  6
CONTINUOUS
 10
96.4138980961
 20
-107.2781297959
 11
96.3277776181
 21
-106.7284508771
  0
LINE
  5
465
100
AcDbEntity
  8
0
100
AcDbLine
 62
7
  6
CONTINUOUS
 10
-99.9718375799
 20
7.0167527113
 11
-100.2170879519
 21
6.7344848897
  0
LINE
  5
466
100
AcDbEntity
  8
0
100
AcDbLine
 62
7
  6
CONTINUOUS
 10
-98.3718375799
 20
4.2454714273
 11
-98.1265872079
 21
4.5277392485
  0
LINE
  5
467
100
AcDbEntity
  8
0
100
AcDbLine
 62
7
  6
CONTINUOUS
 10
-157.2253043155
 20
97.7140908381
 11
-156.5181975343
 21
98.1222948941
  0
LINE
  5
468
100
AcDbEntity
  8
0
100
AcDbLine
 62
7
  6
CONTINUOUS
 10
-156.5181975343
 20
96.8158295949
 11
-155.8110907531
 21
97.2240336509
  0
LINE
  5
469
100
AcDbEntity
  8
0
100
AcDbLine
 62
7
  6
CONTINUOUS
 10
-157.2253043155
 20
95.1011602401
 11
-156.5181975343
 21
95.5093642961
  0
LINE
  5
46A
100
AcDbEntity
  8
0
100
AcDbLine
 62
8
  6
CONTINUOUS
 10
-154.9625626155
 20
95.7537293893
 11
-155.1448648291
 21
95.6484885613
  0
LINE
  5
46B
100
AcDbEntity
  8
0
100
AcDbLine
 62
7
  6
CONTINUOUS
 10
-159.2151725415
 20
91.1172466917
 11
-159.9222793227
 21
90.7090426357
  0
LINE
  5
46C
100
AcDbEntity
  8
0
100
AcDbLine
 62
8
  6
CONTINUOUS
 10
-158.5432370215
 20
90.8288899121
 11
-158.9223605903
 21
90.6100265345
  0
LINE
  5
46D
100
AcDbEntity
  8
0
100
AcDbLine
 62
7
  6
CONTINUOUS
 10
-158.0855676115
 20
150.6275445249
 11
-158.0945733967
 21
150.6238812605
  0
LINE
  5
46E
100
AcDbEntity
  8
0
100
AcDbLine
 62
7
  6
CONTINUOUS
 10
-148.1826772399
 20
155.5078332197
 11
-148.6693122631
 21
155.3201228513
  0
LINE
  5
46F
100
AcDbEntity
  8
0
100
AcDbLine
 62
7
  6
CONTINUOUS
 10
-147.6086520911
 20
153.8912759553
 11
-147.2842287423
 21
154.0164162009
  0
LINE
  5
470
100
AcDbEntity
  8
0
100
AcDbLine
 62
7
  6
CONTINUOUS
 10
191.4153524421
 20
2.2300630581
 11
194.0523257817
 21
2.8661880429
  0
LINE
  5
471
100
AcDbEntity
  8
0
100
AcDbLine
 62
7
  6
CONTINUOUS
 10
190.5937412309
 20
2.1673235269
 11
193.1800549525
 21
2.7676572397
  0
LINE
  5
472
100
AcDbEntity
  8
0
100
AcDbLine
 62
7
  6
CONTINUOUS
 10
190.5937412309
 20
2.9838643389
 11
193.1800549525
 21
3.5841980513
  0
LINE
  5
473
100
AcDbEntity
  8
0
100
AcDbLine
 62
7
  6
CONTINUOUS
 10
188.6620783137
 20
1.7876413897
 11
191.4153524421
 21
2.2300630581
  0
LINE
  5
474
100
AcDbEntity
  8
0
100
AcDbLine
 62
7
  6
CONTINUOUS
 10
187.8946195989
 20
1.7652074665
 11
190.5937412309
 21
2.1673235269
  0
LINE
  5
475
100
AcDbEntity
  8
0
100
AcDbLine
 62
7
  6
CONTINUOUS
 10
187.8946195989
 20
2.5817482785
 11
190.5937412309
 21
2.9838643389
  0
LINE
  5
476
100
AcDbEntity
  8
0
100
AcDbLine
 62
7
  6
CONTINUOUS
 10
250.8194407885
 20
8.8433633885
 11
252.4771301449
 21
9.0391574233
  0
LINE
  5
477
100
AcDbEntity
  8
0
100
AcDbLine
 62
7
  6
CONTINUOUS
 10
252.2455269229
 20
7.6713098457
 11
250.6683914357
 21
7.5246094929
  0
LINE
  5
478
100
AcDbEntity
  8
0
100
AcDbLine
 62
7
  6
CONTINUOUS
 10
185.8350144517
 20
1.5457541085
 11
188.6620783137
 21
1.7876413897
  0
LINE
  5
479
100
AcDbEntity
  8
0
100
AcDbLine
 62
7
  6
CONTINUOUS
 10
185.1280624781
 20
2.3846094689
 11
187.8946195989
 21
2.5817482785
  0
LINE
  5
47A
100
AcDbEntity
  8
0
100
AcDbLine
 62
7
  6
CONTINUOUS
 10
252.4771301449
 20
9.0391574233
 11
254.0263775437
 21
8.9121873485
  0
LINE
  5
47B
100
AcDbEntity
  8
0
100
AcDbLine
 62
7
  6
CONTINUOUS
 10
253.7090306893
 20
7.4943779705
 11
252.2455269229
 21
7.6713098457
  0
LINE
  5
47C
100
AcDbEntity
  8
0
100
AcDbLine
 62
7
  6
CONTINUOUS
 10
-157.8839076683
 20
150.6119350405
 11
-157.8982842959
 21
150.6175715405
  0
LINE
  5
47D
100
AcDbEntity
  8
0
100
AcDbLine
 62
7
  6
CONTINUOUS
 10
-157.9699929999
 20
151.4673233665
 11
-158.0054417699
 21
151.4822604273
  0
LINE
  5
47E
100
AcDbEntity
  8
0
100
AcDbLine
 62
7
  6
CONTINUOUS
 10
-157.8692586475
 20
150.6056168553
 11
-157.8839076683
 21
150.6119350405
  0
LINE
  5
47F
100
AcDbEntity
  8
0
100
AcDbLine
 62
7
  6
CONTINUOUS
 10
238.5828646985
 20
-21.6066177059
 11
239.9285859441
 21
-22.2024322347
  0
LINE
  5
480
100
AcDbEntity
  8
0
100
AcDbLine
 62
7
  6
CONTINUOUS
 10
167.7266407705
 20
6.5864854041
 11
169.6977387769
 21
5.4485947457
  0
LINE
  5
481
100
AcDbEntity
  8
0
100
AcDbLine
 62
7
  6
CONTINUOUS
 10
238.0004954853
 20
-21.2726341403
 11
238.7076022665
 21
-21.6808381963
  0
LINE
  5
482
100
AcDbEntity
  8
0
100
AcDbLine
 62
8
  6
CONTINUOUS
 10
254.7351064041
 20
-30.0951630431
 11
254.2754870117
 21
-29.8298304155
  0
LINE
  5
483
100
AcDbEntity
  8
0
100
AcDbLine
 62
7
  6
CONTINUOUS
 10
256.6089393741
 20
-28.4825380671
 11
255.9018325929
 21
-28.0743340111
  0
LINE
  5
484
100
AcDbEntity
  8
0
100
AcDbLine
 62
7
  6
CONTINUOUS
 10
237.8757579173
 20
-21.1984136499
 11
238.0004954853
 21
-21.2726341403
  0
LINE
  5
485
100
AcDbEntity
  8
0
100
AcDbLine
 62
7
  6
CONTINUOUS
 10
238.4771149457
 20
-23.2470113715
 11
237.2333262229
 21
-22.4882874623
  0
LINE
  5
486
100
AcDbEntity
  8
0
100
AcDbLine
 62
7
  6
CONTINUOUS
 10
165.7281372877
 20
6.6236261245
 11
167.6195509617
 21
5.3867731149
  0
LINE
  5
487
100
AcDbEntity
  8
0
100
AcDbLine
 62
7
  6
CONTINUOUS
 10
166.0271324045
 20
7.0454925917
 11
167.7266407705
 21
5.7699445921
  0
LINE
  5
488
100
AcDbEntity
  8
0
100
AcDbLine
 62
7
  6
CONTINUOUS
 10
166.0271324045
 20
7.8620334037
 11
167.7266407705
 21
6.5864854041
  0
LINE
  5
489
100
AcDbEntity
  8
0
100
AcDbLine
 62
7
  6
CONTINUOUS
 10
164.1170381121
 20
7.9863450349
 11
165.7281372877
 21
6.6236261245
  0
LINE
  5
48A
100
AcDbEntity
  8
0
100
AcDbLine
 62
7
  6
CONTINUOUS
 10
-59.8990169603
 20
205.8101501473
 11
-59.5738578335
 21
205.5292217281
  0
LINE
  5
48B
100
AcDbEntity
  8
0
100
AcDbLine
 62
7
  6
CONTINUOUS
 10
-57.0989840995
 20
205.3249870001
 11
-56.8822113479
 21
205.1377013873
  0
LINE
  5
48C
100
AcDbEntity
  8
0
100
AcDbLine
 62
7
  6
CONTINUOUS
 10
-55.7761698851
 20
204.9168492945
 11
-55.8517796807
 21
204.9896646917
  0
LINE
  5
48D
100
AcDbEntity
  8
0
100
AcDbLine
 62
7
  6
CONTINUOUS
 10
164.6277825333
 20
8.4372558817
 11
166.0271324045
 21
7.0454925917
  0
LINE
  5
48E
100
AcDbEntity
  8
0
100
AcDbLine
 62
7
  6
CONTINUOUS
 10
164.6277825333
 20
9.2537966933
 11
166.0271324045
 21
7.8620334037
  0
LINE
  5
48F
100
AcDbEntity
  8
0
100
AcDbLine
 62
7
  6
CONTINUOUS
 10
158.8068802257
 20
-31.8059711267
 11
158.7579239909
 21
-31.7323436619
  0
LINE
  5
490
100
AcDbEntity
  8
0
100
AcDbLine
 62
7
  6
CONTINUOUS
 10
158.3617181185
 20
-32.1654277855
 11
158.3371086165
 21
-32.1282838595
  0
LINE
  5
491
100
AcDbEntity
  8
0
100
AcDbLine
 62
7
  6
CONTINUOUS
 10
158.8540355689
 20
-31.8809734383
 11
158.8068802257
 21
-31.8059711267
  0
LINE
  5
492
100
AcDbEntity
  8
0
100
AcDbLine
 62
7
  6
CONTINUOUS
 10
158.3853012517
 20
-32.2030832267
 11
158.3617181185
 21
-32.1654277855
  0
LINE
  5
493
100
AcDbEntity
  8
0
100
AcDbLine
 62
7
  6
CONTINUOUS
 10
158.8992235521
 20
-31.9570947439
 11
158.8540355689
 21
-31.8809734383
  0
LINE
  5
494
100
AcDbEntity
  8
0
100
AcDbLine
 62
7
  6
CONTINUOUS
 10
158.4077792381
 20
-32.2411183679
 11
158.3853012517
 21
-32.2030832267
  0
LINE
  5
495
100
AcDbEntity
  8
0
100
AcDbLine
 62
7
  6
CONTINUOUS
 10
158.9364113821
 20
-32.0232865315
 11
158.8992235521
 21
-31.9570947439
  0
LINE
  5
496
100
AcDbEntity
  8
0
100
AcDbLine
 62
7
  6
CONTINUOUS
 10
158.4290762605
 20
-32.2793923567
 11
158.4077792381
 21
-32.2411183679
  0
LINE
  5
497
100
AcDbEntity
  8
0
100
AcDbLine
 62
7
  6
CONTINUOUS
 10
158.4413806537
 20
-32.3026468367
 11
158.4290762605
 21
-32.2793923567
  0
LINE
  5
498
100
AcDbEntity
  8
0
100
AcDbLine
 62
7
  6
CONTINUOUS
 10
153.2498735037
 20
-81.0194515995
 11
153.0046231321
 21
-80.4540237259
  0
LINE
  5
499
100
AcDbEntity
  8
0
100
AcDbLine
 62
7
  6
CONTINUOUS
 10
-156.5181975343
 20
85.0576419037
 11
-157.2253043155
 21
84.6494378481
  0
LINE
  5
49A
100
AcDbEntity
  8
0
100
AcDbLine
 62
7
  6
CONTINUOUS
 10
-156.2707101607
 20
83.6083051853
 11
-155.5636033795
 21
84.0165092413
  0
LINE
  5
49B
100
AcDbEntity
  8
0
100
AcDbLine
 62
7
  6
CONTINUOUS
 10
-156.5181975343
 20
82.4447113057
 11
-157.2253043155
 21
82.0365072497
  0
LINE
  5
49C
100
AcDbEntity
  8
0
100
AcDbLine
 62
7
  6
CONTINUOUS
 10
-147.6086520911
 20
85.3035728577
 11
-146.9015453099
 21
85.7117769137
  0
LINE
  5
49D
100
AcDbEntity
  8
0
100
AcDbLine
 62
7
  6
CONTINUOUS
 10
-147.8157995059
 20
84.8457280513
 11
-147.1086927247
 21
85.2539321073
  0
LINE
  5
49E
100
AcDbEntity
  8
0
100
AcDbLine
 62
7
  6
CONTINUOUS
 10
-158.5213145699
 20
151.5221274677
 11
-158.5448872723
 21
151.5134738725
  0
LINE
  5
49F
100
AcDbEntity
  8
0
100
AcDbLine
 62
7
  6
CONTINUOUS
 10
-158.0762607579
 20
150.6307567821
 11
-158.0855676115
 21
150.6275445249
  0
LINE
  5
4A0
100
AcDbEntity
  8
0
100
AcDbLine
 62
7
  6
CONTINUOUS
 10
179.8713942593
 20
26.9691845233
 11
177.1722726269
 21
26.5670684629
  0
LINE
  5
4A1
100
AcDbEntity
  8
0
100
AcDbLine
 62
7
  6
CONTINUOUS
 10
250.1097822845
 20
27.4731588685
 11
250.4924657169
 21
27.5171022789
  0
LINE
  5
4A2
100
AcDbEntity
  8
0
100
AcDbLine
 62
7
  6
CONTINUOUS
 10
249.7853589357
 20
29.0304910029
 11
249.2113337873
 21
28.9645758873
  0
LINE
  5
4A3
100
AcDbEntity
  8
0
100
AcDbLine
 62
7
  6
CONTINUOUS
 10
181.9309994065
 20
27.1886378813
 11
179.1039355441
 21
26.9467506001
  0
LINE
  5
4A4
100
AcDbEntity
  8
0
100
AcDbLine
 62
7
  6
CONTINUOUS
 10
181.9309994065
 20
28.0051786933
 11
179.1039355441
 21
27.7632914121
  0
LINE
  5
4A5
100
AcDbEntity
  8
0
100
AcDbLine
 62
7
  6
CONTINUOUS
 10
182.6379513801
 20
27.1663233329
 11
179.8713942593
 21
26.9691845233
  0
LINE
  5
4A6
100
AcDbEntity
  8
0
100
AcDbLine
 62
7
  6
CONTINUOUS
 10
184.7882026209
 20
27.2262559913
 11
181.9309994065
 21
27.1886378813
  0
LINE
  5
4A7
100
AcDbEntity
  8
0
100
AcDbLine
 62
7
  6
CONTINUOUS
 10
184.7882026209
 20
28.0427968033
 11
181.9309994065
 21
28.0051786933
  0
LINE
  5
4A8
100
AcDbEntity
  8
0
100
AcDbLine
 62
7
  6
CONTINUOUS
 10
185.4254379717
 20
27.1551709737
 11
182.6379513801
 21
27.1663233329
  0
LINE
  5
4A9
100
AcDbEntity
  8
0
100
AcDbLine
 62
7
  6
CONTINUOUS
 10
187.6314294489
 20
27.0590241001
 11
184.7882026209
 21
27.2262559913
  0
LINE
  5
4AA
100
AcDbEntity
  8
0
100
AcDbLine
 62
7
  6
CONTINUOUS
 10
187.6314294489
 20
27.8755649121
 11
184.7882026209
 21
28.0427968033
  0
LINE
  5
4AB
100
AcDbEntity
  8
0
100
AcDbLine
 62
7
  6
CONTINUOUS
 10
188.1869961897
 20
26.9359149185
 11
185.4254379717
 21
27.1551709737
  0
LINE
  5
4AC
100
AcDbEntity
  8
0
100
AcDbLine
 62
7
  6
CONTINUOUS
 10
250.4924657169
 20
27.5171022789
 11
250.8751491493
 21
27.4731588685
  0
LINE
  5
4AD
100
AcDbEntity
  8
0
100
AcDbLine
 62
7
  6
CONTINUOUS
 10
190.4167799493
 20
26.6895242981
 11
187.6314294489
 21
27.0590241001
  0
LINE
  5
4AE
100
AcDbEntity
  8
0
100
AcDbLine
 62
7
  6
CONTINUOUS
 10
190.4167799493
 20
27.5060651097
 11
187.6314294489
 21
27.8755649121
  0
LINE
  5
4AF
100
AcDbEntity
  8
0
100
AcDbLine
 62
7
  6
CONTINUOUS
 10
190.8762040481
 20
26.5122408765
 11
188.1869961897
 21
26.9359149185
  0
LINE
  5
4B0
100
AcDbEntity
  8
0
100
AcDbLine
 62
7
  6
CONTINUOUS
 10
193.1012478025
 20
26.1234617297
 11
190.4167799493
 21
26.6895242981
  0
LINE
  5
4B1
100
AcDbEntity
  8
0
100
AcDbLine
 62
7
  6
CONTINUOUS
 10
193.1012478025
 20
26.9400025417
 11
190.4167799493
 21
27.5060651097
  0
LINE
  5
4B2
100
AcDbEntity
  8
0
100
AcDbLine
 62
7
  6
CONTINUOUS
 10
193.4478557761
 20
25.8912708381
 11
190.8762040481
 21
26.5122408765
  0
LINE
  5
4B3
100
AcDbEntity
  8
0
100
AcDbLine
 62
7
  6
CONTINUOUS
 10
195.6433843353
 20
25.3695765045
 11
193.1012478025
 21
26.1234617297
  0
LINE
  5
4B4
100
AcDbEntity
  8
0
100
AcDbLine
 62
7
  6
CONTINUOUS
 10
195.6433843353
 20
26.1861173165
 11
193.1012478025
 21
26.9400025417
  0
LINE
  5
4B5
100
AcDbEntity
  8
0
100
AcDbLine
 62
7
  6
CONTINUOUS
 10
254.0263775437
 20
8.9121873485
 11
255.4367486761
 21
8.4649474373
  0
LINE
  5
4B6
100
AcDbEntity
  8
0
100
AcDbLine
 62
7
  6
CONTINUOUS
 10
195.8587217289
 20
25.0834433525
 11
193.4478557761
 21
25.8912708381
  0
LINE
  5
4B7
100
AcDbEntity
  8
0
100
AcDbLine
 62
7
  6
CONTINUOUS
 10
-158.0402994919
 20
151.4956552929
 11
-158.0745319699
 21
151.5075341113
  0
LINE
  5
4B8
100
AcDbEntity
  8
0
100
AcDbLine
 62
7
  6
CONTINUOUS
 10
-156.0939334655
 20
139.0311620797
 11
-155.6609765855
 21
138.8806701421
  0
LINE
  5
4B9
100
AcDbEntity
  8
0
100
AcDbLine
 62
7
  6
CONTINUOUS
 10
-155.8197835643
 20
143.5092539701
 11
-155.3868266843
 21
143.3587620325
  0
LINE
  5
4BA
100
AcDbEntity
  8
0
100
AcDbLine
 62
7
  6
CONTINUOUS
 10
-156.0939334655
 20
144.2570232757
 11
-156.5268903455
 21
144.4075152129
  0
LINE
  5
4BB
100
AcDbEntity
  8
0
100
AcDbLine
 62
7
  6
CONTINUOUS
 10
-157.8982842959
 20
150.6175715405
 11
-157.9123756439
 21
150.6225400685
  0
LINE
  5
4BC
100
AcDbEntity
  8
0
100
AcDbLine
 62
7
  6
CONTINUOUS
 10
255.0274576253
 20
6.9976154573
 11
253.7090306893
 21
7.4943779705
  0
LINE
  5
4BD
100
AcDbEntity
  8
0
100
AcDbLine
 62
7
  6
CONTINUOUS
 10
-158.0054417699
 20
151.4822604273
 11
-158.0402994919
 21
151.4956552929
  0
LINE
  5
4BE
100
AcDbEntity
  8
0
100
AcDbLine
 62
7
  6
CONTINUOUS
 10
-146.5188618775
 20
154.0164162009
 11
-146.1944385287
 21
153.8912759553
  0
LINE
  5
4BF
100
AcDbEntity
  8
0
100
AcDbLine
 62
7
  6
CONTINUOUS
 10
-146.5479919195
 20
155.3201228513
 11
-147.0346269427
 21
155.5078332197
  0
LINE
  5
4C0
100
AcDbEntity
  8
0
100
AcDbLine
 62
7
  6
CONTINUOUS
 10
198.0039384953
 20
24.4395087477
 11
195.6433843353
 21
25.3695765045
  0
LINE
  5
4C1
100
AcDbEntity
  8
0
100
AcDbLine
 62
7
  6
CONTINUOUS
 10
198.0039384953
 20
25.2560495593
 11
195.6433843353
 21
26.1861173165
  0
LINE
  5
4C2
100
AcDbEntity
  8
0
100
AcDbLine
 62
7
  6
CONTINUOUS
 10
198.0682750813
 20
24.1023380561
 11
195.8587217289
 21
25.0834433525
  0
LINE
  5
4C3
100
AcDbEntity
  8
0
100
AcDbLine
 62
7
  6
CONTINUOUS
 10
200.1464628965
 20
23.3476188749
 11
198.0039384953
 21
24.4395087477
  0
LINE
  5
4C4
100
AcDbEntity
  8
0
100
AcDbLine
 62
7
  6
CONTINUOUS
 10
246.6033784205
 20
-22.2871970923
 11
245.8962716393
 21
-21.8789930367
  0
LINE
  5
4C5
100
AcDbEntity
  8
0
100
AcDbLine
 62
8
  6
CONTINUOUS
 10
234.2530312601
 20
-13.8222657803
 11
234.5854096401
 21
-14.0141437347
  0
LINE
  5
4C6
100
AcDbEntity
  8
0
100
AcDbLine
 62
7
  6
CONTINUOUS
 10
235.2896699213
 20
-14.1263988895
 11
234.5825631401
 21
-13.7181948339
  0
LINE
  5
4C7
100
AcDbEntity
  8
0
100
AcDbLine
 62
8
  6
CONTINUOUS
 10
248.5459806161
 20
-20.1138711047
 11
248.3210821385
 21
-19.9840399767
  0
LINE
  5
4C8
100
AcDbEntity
  8
0
100
AcDbLine
 62
8
  6
CONTINUOUS
 10
234.6623650637
 20
-12.0990304467
 11
234.4374665861
 21
-11.9691993191
  0
LINE
  5
4C9
100
AcDbEntity
  8
0
100
AcDbLine
 62
8
  6
CONTINUOUS
 10
202.1217539101
 20
6.6862645157
 11
201.6422790837
 21
6.9630594413
  0
LINE
  5
4CA
100
AcDbEntity
  8
0
100
AcDbLine
 62
8
  6
CONTINUOUS
 10
170.9409500925
 20
24.6865594125
 11
170.6863525241
 21
24.8335354605
  0
LINE
  5
4CB
100
AcDbEntity
  8
0
100
AcDbLine
 62
7
  6
CONTINUOUS
 10
184.6411447793
 20
27.2293277589
 11
184.7309296973
 21
27.1774960293
  0
LINE
  5
4CC
100
AcDbEntity
  8
0
100
AcDbLine
 62
7
  6
CONTINUOUS
 10
205.3662801197
 20
15.2649617957
 11
206.8705084681
 21
14.3965892541
  0
LINE
  5
4CD
100
AcDbEntity
  8
0
100
AcDbLine
 62
7
  6
CONTINUOUS
 10
237.3891426561
 20
-3.2214432523
 11
237.4338386457
 21
-3.2472456979
  0
LINE
  5
4CE
100
AcDbEntity
  8
0
100
AcDbLine
 62
7
  6
CONTINUOUS
 10
186.1553900573
 20
27.1715806789
 11
186.2602453153
 21
27.1110490269
  0
LINE
  5
4CF
100
AcDbEntity
  8
0
100
AcDbLine
 62
7
  6
CONTINUOUS
 10
205.2511780641
 20
16.1478169097
 11
206.7704767525
 21
15.2707444461
  0
LINE
  5
4D0
100
AcDbEntity
  8
0
100
AcDbLine
 62
7
  6
CONTINUOUS
 10
237.7265338109
 20
-2.5998069083
 11
237.7697616157
 21
-2.6247617891
  0
LINE
  5
4D1
100
AcDbEntity
  8
0
100
AcDbLine
 62
7
  6
CONTINUOUS
 10
167.4915130065
 20
23.4216663133
 11
167.5806542105
 21
23.3595874309
  0
LINE
  5
4D2
100
AcDbEntity
  8
0
100
AcDbLine
 62
7
  6
CONTINUOUS
 10
200.2745008517
 20
6.1292664885
 11
200.1853596477
 21
6.1913453709
  0
LINE
  5
4D3
100
AcDbEntity
  8
0
100
AcDbLine
 62
7
  6
CONTINUOUS
 10
198.8602872893
 20
5.3128583769
 11
198.9576299317
 21
5.2436936801
  0
LINE
  5
4D4
100
AcDbEntity
  8
0
100
AcDbLine
 62
7
  6
CONTINUOUS
 10
167.5806542105
 20
23.3595874309
 11
167.6483093717
 21
23.2890429621
  0
LINE
  5
4D5
100
AcDbEntity
  8
0
100
AcDbLine
 62
7
  6
CONTINUOUS
 10
162.8111291009
 20
9.4538892177
 11
164.1170381121
 21
7.9863450349
  0
LINE
  5
4D6
100
AcDbEntity
  8
0
100
AcDbLine
 62
7
  6
CONTINUOUS
 10
163.5521143257
 20
9.9218388241
 11
164.6277825333
 21
8.4372558817
  0
LINE
  5
4D7
100
AcDbEntity
  8
0
100
AcDbLine
 62
7
  6
CONTINUOUS
 10
163.5521143257
 20
10.7383796357
 11
164.6277825333
 21
9.2537966933
  0
LINE
  5
4D8
100
AcDbEntity
  8
0
100
AcDbLine
 62
7
  6
CONTINUOUS
 10
158.9774884841
 20
-32.1006916971
 11
158.9364113821
 21
-32.0232865315
  0
LINE
  5
4D9
100
AcDbEntity
  8
0
100
AcDbLine
 62
7
  6
CONTINUOUS
 10
158.4606180913
 20
-32.3409586031
 11
158.4413806537
 21
-32.3026468367
  0
LINE
  5
4DA
100
AcDbEntity
  8
0
100
AcDbLine
 62
7
  6
CONTINUOUS
 10
159.0161123897
 20
-32.1782791131
 11
158.9774884841
 21
-32.1006916971
  0
LINE
  5
4DB
100
AcDbEntity
  8
0
100
AcDbLine
 62
7
  6
CONTINUOUS
 10
158.4784725225
 20
-32.3790417187
 11
158.4606180913
 21
-32.3409586031
  0
LINE
  5
4DC
100
AcDbEntity
  8
0
100
AcDbLine
 62
7
  6
CONTINUOUS
 10
159.0521733321
 20
-32.2557560043
 11
159.0161123897
 21
-32.1782791131
  0
LINE
  5
4DD
100
AcDbEntity
  8
0
100
AcDbLine
 62
7
  6
CONTINUOUS
 10
158.4948993845
 20
-32.4167399531
 11
158.4784725225
 21
-32.3790417187
  0
LINE
  5
4DE
100
AcDbEntity
  8
0
100
AcDbLine
 62
7
  6
CONTINUOUS
 10
151.1593727601
 20
-37.5358934279
 11
151.4046231321
 21
-38.1013213015
  0
LINE
  5
4DF
100
AcDbEntity
  8
0
100
AcDbLine
 62
7
  6
CONTINUOUS
 10
153.2498735037
 20
-35.1298579715
 11
153.0046231321
 21
-34.5644300979
  0
LINE
  5
4E0
100
AcDbEntity
  8
0
100
AcDbLine
 62
7
  6
CONTINUOUS
 10
159.0855805761
 20
-32.3328349475
 11
159.0521733321
 21
-32.2557560043
  0
LINE
  5
4E1
100
AcDbEntity
  8
0
100
AcDbLine
 62
7
  6
CONTINUOUS
 10
158.5098650709
 20
-32.4539011603
 11
158.4948993845
 21
-32.4167399531
  0
LINE
  5
4E2
100
AcDbEntity
  8
0
100
AcDbLine
 62
7
  6
CONTINUOUS
 10
98.8180611525
 20
119.3981659309
 11
98.8180611525
 21
118.5816251193
  0
LINE
  5
4E3
100
AcDbEntity
  8
0
100
AcDbLine
 62
7
  6
CONTINUOUS
 10
100.2322747145
 20
120.2145740429
 11
100.2322747145
 21
119.3980332309
  0
LINE
  5
4E4
100
AcDbEntity
  8
0
100
AcDbLine
 62
8
  6
CONTINUOUS
 10
101.2929348865
 20
118.7857271469
 11
101.2929348865
 21
118.3776557913
  0
LINE
  5
4E5
100
AcDbEntity
  8
0
100
AcDbLine
 62
7
  6
CONTINUOUS
 10
-158.4970903727
 20
151.5297179613
 11
-158.5213145699
 21
151.5221274677
  0
LINE
  5
4E6
100
AcDbEntity
  8
0
100
AcDbLine
 62
7
  6
CONTINUOUS
 10
-158.0666478487
 20
150.6335123337
 11
-158.0762607579
 21
150.6307567821
  0
LINE
  5
4E7
100
AcDbEntity
  8
0
100
AcDbLine
 62
7
  6
CONTINUOUS
 10
176.3506614161
 20
26.5043289317
 11
173.7136880761
 21
25.8682039473
  0
LINE
  5
4E8
100
AcDbEntity
  8
0
100
AcDbLine
 62
7
  6
CONTINUOUS
 10
176.3506614161
 20
27.3208697437
 11
173.7136880761
 21
26.6847447589
  0
LINE
  5
4E9
100
AcDbEntity
  8
0
100
AcDbLine
 62
7
  6
CONTINUOUS
 10
177.1722726269
 20
26.5670684629
 11
174.5859589057
 21
25.9667347505
  0
LINE
  5
4EA
100
AcDbEntity
  8
0
100
AcDbLine
 62
7
  6
CONTINUOUS
 10
179.1039355441
 20
26.9467506001
 11
176.3506614161
 21
26.5043289317
  0
LINE
  5
4EB
100
AcDbEntity
  8
0
100
AcDbLine
 62
7
  6
CONTINUOUS
 10
179.1039355441
 20
27.7632914121
 11
176.3506614161
 21
27.3208697437
  0
LINE
  5
4EC
100
AcDbEntity
  8
0
100
AcDbLine
 62
7
  6
CONTINUOUS
 10
250.3593840841
 20
28.9645758873
 11
249.7853589357
 21
29.0304910029
  0
LINE
  5
4ED
100
AcDbEntity
  8
0
100
AcDbLine
 62
7
  6
CONTINUOUS
 10
1.7239603717
 20
61.6536836789
 11
2.2979855205
 21
61.5877685633
  0
LINE
  5
4EE
100
AcDbEntity
  8
0
100
AcDbLine
 62
7
  6
CONTINUOUS
 10
3.3877757341
 20
62.5787076769
 11
3.0050923017
 21
62.6226510873
  0
LINE
  5
4EF
100
AcDbEntity
  8
0
100
AcDbLine
 62
7
  6
CONTINUOUS
 10
4.2862242313
 20
64.0701246957
 11
3.7121990829
 21
64.1360398113
  0
LINE
  5
4F0
100
AcDbEntity
  8
0
100
AcDbLine
 62
7
  6
CONTINUOUS
 10
-158.0745319699
 20
151.5075341113
 11
-158.1081092131
 21
151.5179257093
  0
LINE
  5
4F1
100
AcDbEntity
  8
0
100
AcDbLine
 62
7
  6
CONTINUOUS
 10
-157.9123756439
 20
150.6225400685
 11
-157.9261704399
 21
150.6268553113
  0
LINE
  5
4F2
100
AcDbEntity
  8
0
100
AcDbLine
 62
7
  6
CONTINUOUS
 10
200.1464628965
 20
24.1641596869
 11
198.0039384953
 21
25.2560495593
  0
LINE
  5
4F3
100
AcDbEntity
  8
0
100
AcDbLine
 62
7
  6
CONTINUOUS
 10
200.0393730877
 20
22.9644473977
 11
198.0682750813
 21
24.1023380561
  0
LINE
  5
4F4
100
AcDbEntity
  8
0
100
AcDbLine
 62
7
  6
CONTINUOUS
 10
246.6033784205
 20
5.8716020649
 11
245.8962716393
 21
6.2798061209
  0
LINE
  5
4F5
100
AcDbEntity
  8
0
100
AcDbLine
 62
7
  6
CONTINUOUS
 10
202.0378765705
 20
22.1107658653
 11
200.1464628965
 21
23.3476188749
  0
LINE
  5
4F6
100
AcDbEntity
  8
0
100
AcDbLine
 62
7
  6
CONTINUOUS
 10
202.0378765705
 20
22.9273066773
 11
200.1464628965
 21
24.1641596869
  0
LINE
  5
4F7
100
AcDbEntity
  8
0
100
AcDbLine
 62
7
  6
CONTINUOUS
 10
-55.8517796807
 20
204.9896646917
 11
-56.0383239275
 21
205.1208849725
  0
LINE
  5
4F8
100
AcDbEntity
  8
0
100
AcDbLine
 62
7
  6
CONTINUOUS
 10
201.7388814537
 20
21.6888993981
 11
200.0393730877
 21
22.9644473977
  0
LINE
  5
4F9
100
AcDbEntity
  8
0
100
AcDbLine
 62
7
  6
CONTINUOUS
 10
236.7283694165
 20
-20.2659149155
 11
237.8757579173
 21
-21.1984136499
  0
LINE
  5
4FA
100
AcDbEntity
  8
0
100
AcDbLine
 62
7
  6
CONTINUOUS
 10
237.4354761977
 20
-20.6741189715
 11
238.5828646985
 21
-21.6066177059
  0
LINE
  5
4FB
100
AcDbEntity
  8
0
100
AcDbLine
 62
7
  6
CONTINUOUS
 10
203.6489757457
 20
20.7480469549
 11
202.0378765705
 21
22.1107658653
  0
LINE
  5
4FC
100
AcDbEntity
  8
0
100
AcDbLine
 62
7
  6
CONTINUOUS
 10
203.6489757457
 20
21.5645877669
 11
202.0378765705
 21
22.9273066773
  0
LINE
  5
4FD
100
AcDbEntity
  8
0
100
AcDbLine
 62
7
  6
CONTINUOUS
 10
237.2333262229
 20
-22.4882874623
 11
236.1805536125
 21
-21.4329843651
  0
LINE
  5
4FE
100
AcDbEntity
  8
0
100
AcDbLine
 62
7
  6
CONTINUOUS
 10
200.1853596477
 20
6.1913453709
 11
200.1177044865
 21
6.2618898397
  0
LINE
  5
4FF
100
AcDbEntity
  8
0
100
AcDbLine
 62
7
  6
CONTINUOUS
 10
198.9576299317
 20
5.2436936801
 11
199.0283816057
 21
5.1644891177
  0
LINE
  5
500
100
AcDbEntity
  8
0
100
AcDbLine
 62
7
  6
CONTINUOUS
 10
161.8305737273
 20
11.0035995225
 11
162.8111291009
 21
9.4538892177
  0
LINE
  5
501
100
AcDbEntity
  8
0
100
AcDbLine
 62
7
  6
CONTINUOUS
 10
101.5097076377
 20
118.5984415341
 11
101.5517053405
 21
118.5270407945
  0
LINE
  5
502
100
AcDbEntity
  8
0
100
AcDbLine
 62
7
  6
CONTINUOUS
 10
162.8182098389
 20
11.4742854761
 11
163.5521143257
 21
9.9218388241
  0
LINE
  5
503
100
AcDbEntity
  8
0
100
AcDbLine
 62
7
  6
CONTINUOUS
 10
162.8182098389
 20
12.2908262877
 11
163.5521143257
 21
10.7383796357
  0
LINE
  5
504
100
AcDbEntity
  8
0
100
AcDbLine
 62
7
  6
CONTINUOUS
 10
159.1162636509
 20
-32.4092384539
 11
159.0855805761
 21
-32.3328349475
  0
LINE
  5
505
100
AcDbEntity
  8
0
100
AcDbLine
 62
7
  6
CONTINUOUS
 10
159.1225748077
 20
-32.4257497139
 11
159.1162636509
 21
-32.4092384539
  0
LINE
  5
506
100
AcDbEntity
  8
0
100
AcDbLine
 62
7
  6
CONTINUOUS
 10
158.5233476845
 20
-32.4903801087
 11
158.5098650709
 21
-32.4539011603
  0
LINE
  5
507
100
AcDbEntity
  8
0
100
AcDbLine
 62
7
  6
CONTINUOUS
 10
159.1501592193
 20
-32.5017556687
 11
159.1225748077
 21
-32.4257497139
  0
LINE
  5
508
100
AcDbEntity
  8
0
100
AcDbLine
 62
7
  6
CONTINUOUS
 10
98.3787213241
 20
118.7858598473
 11
98.4929020253
 21
118.4544821825
  0
LINE
  5
509
100
AcDbEntity
  8
0
100
AcDbLine
 62
7
  6
CONTINUOUS
 10
99.6619485729
 20
118.1566046481
 11
99.5858281053
 21
118.3775230913
  0
LINE
  5
50A
100
AcDbEntity
  8
0
100
AcDbLine
 62
7
  6
CONTINUOUS
 10
102.7929348865
 20
119.6022679589
 11
102.6787541853
 21
119.9336456237
  0
LINE
  5
50B
100
AcDbEntity
  8
0
100
AcDbLine
 62
7
  6
CONTINUOUS
 10
159.1899045061
 20
-23.2691516099
 11
159.3040852073
 21
-23.6005292747
  0
LINE
  5
50C
100
AcDbEntity
  8
0
100
AcDbLine
 62
7
  6
CONTINUOUS
 10
162.3208908197
 20
-24.2729780347
 11
162.3970112873
 21
-24.4938964779
  0
LINE
  5
50D
100
AcDbEntity
  8
0
100
AcDbLine
 62
7
  6
CONTINUOUS
 10
158.5353374233
 20
-32.5260411127
 11
158.5233476845
 21
-32.4903801087
  0
LINE
  5
50E
100
AcDbEntity
  8
0
100
AcDbLine
 62
7
  6
CONTINUOUS
 10
159.1751216221
 20
-32.5771131987
 11
159.1501592193
 21
-32.5017556687
  0
LINE
  5
50F
100
AcDbEntity
  8
0
100
AcDbLine
 62
7
  6
CONTINUOUS
 10
158.5458365745
 20
-32.5607603431
 11
158.5353374233
 21
-32.5260411127
  0
LINE
  5
510
100
AcDbEntity
  8
0
100
AcDbLine
 62
7
  6
CONTINUOUS
 10
159.1974281497
 20
-32.6515667095
 11
159.1751216221
 21
-32.5771131987
  0
LINE
  5
511
100
AcDbEntity
  8
0
100
AcDbLine
 62
7
  6
CONTINUOUS
 10
98.4929020253
 20
119.1172375117
 11
98.3787213241
 21
118.7858598473
  0
LINE
  5
512
100
AcDbEntity
  8
0
100
AcDbLine
 62
7
  6
CONTINUOUS
 10
99.5858281053
 20
118.3775230913
 11
99.6619485729
 21
118.5984415341
  0
LINE
  5
513
100
AcDbEntity
  8
0
100
AcDbLine
 62
7
  6
CONTINUOUS
 10
102.6787541853
 20
119.2708902941
 11
102.7929348865
 21
119.6022679589
  0
LINE
  5
514
100
AcDbEntity
  8
0
100
AcDbLine
 62
7
  6
CONTINUOUS
 10
-111.6806166279
 20
64.1543563597
 11
-111.2642130051
 21
64.3947410545
  0
LINE
  5
515
100
AcDbEntity
  8
0
100
AcDbLine
 62
7
  6
CONTINUOUS
 10
-110.9735098471
 20
63.7461523037
 11
-110.5571062239
 21
63.9865369985
  0
LINE
  5
516
100
AcDbEntity
  8
0
100
AcDbLine
 62
7
  6
CONTINUOUS
 10
-158.1081092131
 20
151.5179257093
 11
-158.1410054803
 21
151.5268611629
  0
LINE
  5
517
100
AcDbEntity
  8
0
100
AcDbLine
 62
7
  6
CONTINUOUS
 10
-157.9261704399
 20
150.6268553113
 11
-157.9396590619
 21
150.6305327545
  0
LINE
  5
518
100
AcDbEntity
  8
0
100
AcDbLine
 62
7
  6
CONTINUOUS
 10
250.8751491493
 20
27.4731588685
 11
251.1995724981
 21
27.3480186229
  0
LINE
  5
519
100
AcDbEntity
  8
0
100
AcDbLine
 62
7
  6
CONTINUOUS
 10
250.8460191073
 20
28.7768655185
 11
250.3593840841
 21
28.9645758873
  0
LINE
  5
51A
100
AcDbEntity
  8
0
100
AcDbLine
 62
7
  6
CONTINUOUS
 10
255.2062613553
 20
6.8987742621
 11
254.4991545741
 21
7.3069783181
  0
LINE
  5
51B
100
AcDbEntity
  8
0
100
AcDbLine
 62
7
  6
CONTINUOUS
 10
255.4367486761
 20
8.4649474373
 11
256.6805373989
 21
7.7062235281
  0
LINE
  5
51C
100
AcDbEntity
  8
0
100
AcDbLine
 62
7
  6
CONTINUOUS
 10
256.1724797693
 20
6.1916958369
 11
255.0274576253
 21
6.9976154573
  0
LINE
  5
51D
100
AcDbEntity
  8
0
100
AcDbLine
 62
7
  6
CONTINUOUS
 10
255.5957015821
 20
8.3899184393
 11
255.9734306177
 21
8.1144275841
  0
LINE
  5
51E
100
AcDbEntity
  8
0
100
AcDbLine
 62
7
  6
CONTINUOUS
 10
98.4929020253
 20
118.4544821825
 11
98.8180611525
 21
118.1735537633
  0
LINE
  5
51F
100
AcDbEntity
  8
0
100
AcDbLine
 62
7
  6
CONTINUOUS
 10
99.8787213241
 20
117.9693190353
 11
99.6619485729
 21
118.1566046481
  0
LINE
  5
520
100
AcDbEntity
  8
0
100
AcDbLine
 62
7
  6
CONTINUOUS
 10
101.2929348865
 20
118.7857271469
 11
101.5097076377
 21
118.5984415341
  0
LINE
  5
521
100
AcDbEntity
  8
0
100
AcDbLine
 62
7
  6
CONTINUOUS
 10
102.6787541853
 20
119.9336456237
 11
102.3535950581
 21
120.2145740429
  0
LINE
  5
522
100
AcDbEntity
  8
0
100
AcDbLine
 62
7
  6
CONTINUOUS
 10
203.1382313249
 20
20.2971361085
 11
201.7388814537
 21
21.6888993981
  0
LINE
  5
523
100
AcDbEntity
  8
0
100
AcDbLine
 62
7
  6
CONTINUOUS
 10
204.9548847569
 20
19.2805027725
 11
203.6489757457
 21
20.7480469549
  0
LINE
  5
524
100
AcDbEntity
  8
0
100
AcDbLine
 62
7
  6
CONTINUOUS
 10
204.9548847569
 20
20.0970435841
 11
203.6489757457
 21
21.5645877669
  0
LINE
  5
525
100
AcDbEntity
  8
0
100
AcDbLine
 62
7
  6
CONTINUOUS
 10
167.6483093717
 20
23.2890429621
 11
167.6921319053
 21
23.2124797053
  0
LINE
  5
526
100
AcDbEntity
  8
0
100
AcDbLine
 62
7
  6
CONTINUOUS
 10
161.1905119449
 20
12.6115481405
 11
161.8305737273
 21
11.0035995225
  0
LINE
  5
527
100
AcDbEntity
  8
0
100
AcDbLine
 62
7
  6
CONTINUOUS
 10
158.5548591289
 20
-32.5944277083
 11
158.5458365745
 21
-32.5607603431
  0
LINE
  5
528
100
AcDbEntity
  8
0
100
AcDbLine
 62
7
  6
CONTINUOUS
 10
159.2170614229
 20
-32.7248684839
 11
159.1974281497
 21
-32.6515667095
  0
LINE
  5
529
100
AcDbEntity
  8
0
100
AcDbLine
 62
7
  6
CONTINUOUS
 10
159.2340209913
 20
-32.7967826035
 11
159.2170614229
 21
-32.7248684839
  0
LINE
  5
52A
100
AcDbEntity
  8
0
100
AcDbLine
 62
7
  6
CONTINUOUS
 10
158.5624300373
 20
-32.6269482475
 11
158.5548591289
 21
-32.5944277083
  0
LINE
  5
52B
100
AcDbEntity
  8
0
100
AcDbLine
 62
7
  6
CONTINUOUS
 10
165.2688443097
 20
-81.7276390255
 11
165.1800325665
 21
-81.2633224963
  0
LINE
  5
52C
100
AcDbEntity
  8
0
100
AcDbLine
 62
7
  6
CONTINUOUS
 10
151.0732522821
 20
-95.9404611275
 11
151.1593727601
 21
-96.4901400459
  0
LINE
  5
52D
100
AcDbEntity
  8
0
100
AcDbLine
 62
7
  6
CONTINUOUS
 10
152.0951280601
 20
-94.7980998471
 11
152.0278464365
 21
-94.3686631923
  0
LINE
  5
52E
100
AcDbEntity
  8
0
100
AcDbLine
 62
7
  6
CONTINUOUS
 10
151.0732522821
 20
-82.8758081371
 11
151.1593727601
 21
-83.4254870559
  0
LINE
  5
52F
100
AcDbEntity
  8
0
100
AcDbLine
 62
7
  6
CONTINUOUS
 10
153.3359939817
 20
-94.6337835083
 11
153.2498735037
 21
-94.0841045899
  0
LINE
  5
530
100
AcDbEntity
  8
0
100
AcDbLine
 62
7
  6
CONTINUOUS
 10
153.3359939817
 20
-81.5691305183
 11
153.2498735037
 21
-81.0194515995
  0
LINE
  5
531
100
AcDbEntity
  8
0
100
AcDbLine
 62
7
  6
CONTINUOUS
 10
151.0732522821
 20
-36.9862145095
 11
151.1593727601
 21
-37.5358934279
  0
LINE
  5
532
100
AcDbEntity
  8
0
100
AcDbLine
 62
7
  6
CONTINUOUS
 10
94.9184898013
 20
-105.1778628063
 11
94.8582631777
 21
-105.5636727611
  0
LINE
  5
533
100
AcDbEntity
  8
0
100
AcDbLine
 62
7
  6
CONTINUOUS
 10
1.2373253485
 20
63.0660062153
 11
0.9121662217
 21
62.7850777961
  0
LINE
  5
534
100
AcDbEntity
  8
0
100
AcDbLine
 62
8
  6
CONTINUOUS
 10
-106.4552202755
 20
61.6185686441
 11
-106.8716238983
 21
61.3781839493
  0
LINE
  5
535
100
AcDbEntity
  8
0
100
AcDbLine
 62
8
  6
CONTINUOUS
 10
-104.7580260799
 20
60.6387992897
 11
-105.1744297027
 21
60.3984145949
  0
LINE
  5
536
100
AcDbEntity
  8
0
100
AcDbLine
 62
7
  6
CONTINUOUS
 10
-159.0009487675
 20
91.1965787561
 11
-159.2151725415
 21
91.1172466917
  0
LINE
  5
537
100
AcDbEntity
  8
0
100
AcDbLine
 62
7
  6
CONTINUOUS
 10
-98.7388806999
 20
4.1741548329
 11
-98.3718375799
 21
4.2454714273
  0
LINE
  5
538
100
AcDbEntity
  8
0
100
AcDbLine
 62
7
  6
CONTINUOUS
 10
-99.6047944599
 20
7.0880693057
 11
-99.9718375799
 21
7.0167527113
  0
LINE
  5
539
100
AcDbEntity
  8
0
100
AcDbLine
 62
7
  6
CONTINUOUS
 10
-154.9625626155
 20
81.9577207777
 11
-155.0485791215
 21
81.9598022745
  0
LINE
  5
53A
100
AcDbEntity
  8
0
100
AcDbLine
 62
7
  6
CONTINUOUS
 10
-157.9396590619
 20
150.6305327545
 11
-157.9528335503
 21
150.6335884977
  0
LINE
  5
53B
100
AcDbEntity
  8
0
100
AcDbLine
 62
7
  6
CONTINUOUS
 10
-158.1410054803
 20
151.5268611629
 11
-158.1731992619
 21
151.5343733341
  0
LINE
  5
53C
100
AcDbEntity
  8
0
100
AcDbLine
 62
7
  6
CONTINUOUS
 10
99.9723817609
 20
117.9216179713
 11
99.8787213241
 21
117.9693190353
  0
LINE
  5
53D
100
AcDbEntity
  8
0
100
AcDbLine
 62
7
  6
CONTINUOUS
 10
-59.5738578335
 20
205.5292217281
 11
-58.1596442711
 21
204.7128136165
  0
LINE
  5
53E
100
AcDbEntity
  8
0
100
AcDbLine
 62
7
  6
CONTINUOUS
 10
248.7246987637
 20
27.5522533509
 11
250.1389123261
 21
26.7358452393
  0
LINE
  5
53F
100
AcDbEntity
  8
0
100
AcDbLine
 62
7
  6
CONTINUOUS
 10
252.2602326697
 20
27.1439165949
 11
250.8460191073
 21
27.9603247069
  0
LINE
  5
540
100
AcDbEntity
  8
0
100
AcDbLine
 62
7
  6
CONTINUOUS
 10
-56.0383239275
 20
205.1208849725
 11
-57.4525374899
 21
205.9372930841
  0
LINE
  5
541
100
AcDbEntity
  8
0
100
AcDbLine
 62
7
  6
CONTINUOUS
 10
252.2602326697
 20
27.9604574069
 11
250.8460191073
 21
28.7768655185
  0
LINE
  5
542
100
AcDbEntity
  8
0
100
AcDbLine
 62
7
  6
CONTINUOUS
 10
-56.0383239275
 20
205.9374257841
 11
-57.4525374899
 21
206.7538338961
  0
LINE
  5
543
100
AcDbEntity
  8
0
100
AcDbLine
 62
7
  6
CONTINUOUS
 10
262.5132809969
 20
28.4033206013
 11
261.3067764709
 21
29.0998208389
  0
LINE
  5
544
100
AcDbEntity
  8
0
100
AcDbLine
 62
7
  6
CONTINUOUS
 10
261.3061742157
 20
29.1003950465
 11
261.1382784525
 21
29.1973192077
  0
LINE
  5
545
100
AcDbEntity
  8
0
100
AcDbLine
 62
7
  6
CONTINUOUS
 10
261.0991057373
 20
30.6136289585
 11
261.8061742157
 21
30.2054470145
  0
LINE
  5
546
100
AcDbEntity
  8
0
100
AcDbLine
 62
7
  6
CONTINUOUS
 10
-51.4421298499
 20
211.8562518949
 11
-50.0565390003
 21
211.0563673237
  0
LINE
  5
547
100
AcDbEntity
  8
0
100
AcDbLine
 62
7
  6
CONTINUOUS
 10
259.7132467173
 20
32.2300764533
 11
262.5132809969
 21
30.6136510701
  0
LINE
  5
548
100
AcDbEntity
  8
0
100
AcDbLine
 62
7
  6
CONTINUOUS
 10
259.6848538721
 20
32.2465999941
 11
-50.0279162875
 21
211.0399764829
  0
LINE
  5
549
100
AcDbEntity
  8
0
100
AcDbLine
 62
7
  6
CONTINUOUS
 10
252.4467769165
 20
27.0126963141
 11
252.2602326697
 21
27.1439165949
  0
LINE
  5
54A
100
AcDbEntity
  8
0
100
AcDbLine
 62
7
  6
CONTINUOUS
 10
254.6172131853
 20
-30.5850166715
 11
254.3642987393
 21
-30.2939279807
  0
LINE
  5
54B
100
AcDbEntity
  8
0
100
AcDbLine
 62
7
  6
CONTINUOUS
 10
256.2672131853
 20
-27.7271328471
 11
256.5201276313
 21
-28.0182215379
  0
LINE
  5
54C
100
AcDbEntity
  8
0
100
AcDbLine
 62
7
  6
CONTINUOUS
 10
235.8064885925
 20
-19.0188174247
 11
236.7283694165
 21
-20.2659149155
  0
LINE
  5
54D
100
AcDbEntity
  8
0
100
AcDbLine
 62
7
  6
CONTINUOUS
 10
236.5135953737
 20
-19.4270214803
 11
237.4354761977
 21
-20.6741189715
  0
LINE
  5
54E
100
AcDbEntity
  8
0
100
AcDbLine
 62
7
  6
CONTINUOUS
 10
204.2138995325
 20
18.8125531661
 11
203.1382313249
 21
20.2971361085
  0
LINE
  5
54F
100
AcDbEntity
  8
0
100
AcDbLine
 62
7
  6
CONTINUOUS
 10
205.9354401309
 20
17.7307924673
 11
204.9548847569
 21
19.2805027725
  0
LINE
  5
550
100
AcDbEntity
  8
0
100
AcDbLine
 62
7
  6
CONTINUOUS
 10
205.9354401309
 20
18.5473332793
 11
204.9548847569
 21
20.0970435841
  0
LINE
  5
551
100
AcDbEntity
  8
0
100
AcDbLine
 62
7
  6
CONTINUOUS
 10
200.1177044865
 20
6.2618898397
 11
200.0738819525
 21
6.3384530965
  0
LINE
  5
552
100
AcDbEntity
  8
0
100
AcDbLine
 62
7
  6
CONTINUOUS
 10
199.0283816057
 20
5.1644891177
 11
199.0695449593
 21
5.0786001429
  0
LINE
  5
553
100
AcDbEntity
  8
0
100
AcDbLine
 62
7
  6
CONTINUOUS
 10
162.4384060589
 20
13.0684991013
 11
162.8182098389
 21
11.4742854761
  0
LINE
  5
554
100
AcDbEntity
  8
0
100
AcDbLine
 62
7
  6
CONTINUOUS
 10
162.4384060589
 20
13.8850399133
 11
162.8182098389
 21
12.2908262877
  0
LINE
  5
555
100
AcDbEntity
  8
0
100
AcDbLine
 62
7
  6
CONTINUOUS
 10
159.2483233029
 20
-32.8670885779
 11
159.2340209913
 21
-32.7967826035
  0
LINE
  5
556
100
AcDbEntity
  8
0
100
AcDbLine
 62
7
  6
CONTINUOUS
 10
158.5685841625
 20
-32.6582429963
 11
158.5624300373
 21
-32.6269482475
  0
LINE
  5
557
100
AcDbEntity
  8
0
100
AcDbLine
 62
7
  6
CONTINUOUS
 10
167.4246732017
 20
-79.4519325827
 11
167.5134849445
 21
-79.9162491119
  0
LINE
  5
558
100
AcDbEntity
  8
0
100
AcDbLine
 62
7
  6
CONTINUOUS
 10
160.9008264241
 20
14.2529080509
 11
161.1905119449
 21
12.6115481405
  0
LINE
  5
559
100
AcDbEntity
  8
0
100
AcDbLine
 62
7
  6
CONTINUOUS
 10
159.2600011997
 20
-32.9355845315
 11
159.2483233029
 21
-32.8670885779
  0
LINE
  5
55A
100
AcDbEntity
  8
0
100
AcDbLine
 62
7
  6
CONTINUOUS
 10
166.7385609881
 20
-79.0945500703
 11
166.8063781633
 21
-79.5080450559
  0
LINE
  5
55B
100
AcDbEntity
  8
0
100
AcDbLine
 62
7
  6
CONTINUOUS
 10
153.3359939817
 20
-35.6795368903
 11
153.2498735037
 21
-35.1298579715
  0
LINE
  5
55C
100
AcDbEntity
  8
0
100
AcDbLine
 62
7
  6
CONTINUOUS
 10
159.2691029613
 20
-33.0020898299
 11
159.2600011997
 21
-32.9355845315
  0
LINE
  5
55D
100
AcDbEntity
  8
0
100
AcDbLine
 62
7
  6
CONTINUOUS
 10
159.2756909437
 20
-33.0664470519
 11
159.2691029613
 21
-33.0020898299
  0
LINE
  5
55E
100
AcDbEntity
  8
0
100
AcDbLine
 62
7
  6
CONTINUOUS
 10
143.7193417577
 20
-82.8764981775
 11
143.7193417577
 21
-82.0599573659
  0
LINE
  5
55F
100
AcDbEntity
  8
0
100
AcDbLine
 62
7
  6
CONTINUOUS
 10
147.9619824449
 20
-29.3110228179
 11
147.9619824449
 21
-29.1477146555
  0
LINE
  5
560
100
AcDbEntity
  8
0
100
AcDbLine
 62
7
  6
CONTINUOUS
 10
148.1034038009
 20
-29.0660473043
 11
148.1034038009
 21
-29.3926636291
  0
LINE
  5
561
100
AcDbEntity
  8
0
100
AcDbLine
 62
7
  6
CONTINUOUS
 10
151.0732522821
 20
-34.3732839111
 11
151.0732522821
 21
-36.9862145095
  0
LINE
  5
562
100
AcDbEntity
  8
0
100
AcDbLine
 62
7
  6
CONTINUOUS
 10
151.0732522821
 20
-80.2628775391
 11
151.0732522821
 21
-82.8758081371
  0
LINE
  5
563
100
AcDbEntity
  8
0
100
AcDbLine
 62
7
  6
CONTINUOUS
 10
151.0732522821
 20
-93.3275305295
 11
151.0732522821
 21
-95.9404611275
  0
LINE
  5
564
100
AcDbEntity
  8
0
100
AcDbLine
 62
7
  6
CONTINUOUS
 10
151.7803590633
 20
-33.9650798555
 11
151.7803590633
 21
-36.5780104535
  0
LINE
  5
565
100
AcDbEntity
  8
0
100
AcDbLine
 62
7
  6
CONTINUOUS
 10
151.7803590633
 20
-79.8546734835
 11
151.7803590633
 21
-82.4676040815
  0
LINE
  5
566
100
AcDbEntity
  8
0
100
AcDbLine
 62
7
  6
CONTINUOUS
 10
151.7803590633
 20
-92.9193264735
 11
151.7803590633
 21
-95.5322570715
  0
LINE
  5
567
100
AcDbEntity
  8
0
100
AcDbLine
 62
7
  6
CONTINUOUS
 10
153.3359939817
 20
-97.2467141063
 11
153.3359939817
 21
-94.6337835083
  0
LINE
  5
568
100
AcDbEntity
  8
0
100
AcDbLine
 62
7
  6
CONTINUOUS
 10
153.3359939817
 20
-84.1820611163
 11
153.3359939817
 21
-81.5691305183
  0
LINE
  5
569
100
AcDbEntity
  8
0
100
AcDbLine
 62
7
  6
CONTINUOUS
 10
153.3359939817
 20
-38.2924674883
 11
153.3359939817
 21
-35.6795368903
  0
LINE
  5
56A
100
AcDbEntity
  8
0
100
AcDbLine
 62
7
  6
CONTINUOUS
 10
94.2372768745
 20
-105.5216304859
 11
94.1511563965
 21
-105.9718768171
  0
LINE
  5
56B
100
AcDbEntity
  8
0
100
AcDbLine
 62
7
  6
CONTINUOUS
 10
96.3277776181
 20
-107.7283761271
 11
96.4138980961
 21
-107.2781297959
  0
LINE
  5
56C
100
AcDbEntity
  8
0
100
AcDbLine
 62
7
  6
CONTINUOUS
 10
2.2979855205
 20
62.4535674313
 11
2.0812127689
 21
62.2662818185
  0
LINE
  5
56D
100
AcDbEntity
  8
0
100
AcDbLine
 62
7
  6
CONTINUOUS
 10
4.7728592545
 20
62.6578021593
 11
5.0980183813
 21
62.9387305785
  0
LINE
  5
56E
100
AcDbEntity
  8
0
100
AcDbLine
 62
7
  6
CONTINUOUS
 10
1.2373253485
 20
62.2494654033
 11
0.9751713061
 21
62.0454297253
  0
LINE
  5
56F
100
AcDbEntity
  8
0
100
AcDbLine
 62
7
  6
CONTINUOUS
 10
2.2979855205
 20
61.5877685633
 11
2.8720106689
 21
61.6536836789
  0
LINE
  5
570
100
AcDbEntity
  8
0
100
AcDbLine
 62
7
  6
CONTINUOUS
 10
3.0050923017
 20
62.6226510873
 11
2.6224088693
 21
62.5787076769
  0
LINE
  5
571
100
AcDbEntity
  8
0
100
AcDbLine
 62
7
  6
CONTINUOUS
 10
3.7121990829
 20
64.1360398113
 11
3.1381739341
 21
64.0701246957
  0
LINE
  5
572
100
AcDbEntity
  8
0
100
AcDbLine
 62
7
  6
CONTINUOUS
 10
-158.2046732139
 20
151.5404963917
 11
-158.2193447315
 21
151.5429250013
  0
LINE
  5
573
100
AcDbEntity
  8
0
100
AcDbLine
 62
7
  6
CONTINUOUS
 10
-157.9528335503
 20
150.6335884977
 11
-157.9656875975
 21
150.6360390505
  0
LINE
  5
574
100
AcDbEntity
  8
0
100
AcDbLine
 62
7
  6
CONTINUOUS
 10
-158.1731992619
 20
151.5343733341
 11
-158.2046732139
 21
151.5404963917
  0
LINE
  5
575
100
AcDbEntity
  8
0
100
AcDbLine
 62
7
  6
CONTINUOUS
 10
98.8180611525
 20
118.1735537633
 11
99.3046961757
 21
117.9858433949
  0
LINE
  5
576
100
AcDbEntity
  8
0
100
AcDbLine
 62
7
  6
CONTINUOUS
 10
100.9685115377
 20
118.9108673929
 11
101.2929348865
 21
118.7857271469
  0
LINE
  5
577
100
AcDbEntity
  8
0
100
AcDbLine
 62
7
  6
CONTINUOUS
 10
102.3535950581
 20
120.2145740429
 11
101.8669600349
 21
120.4022844113
  0
LINE
  5
578
100
AcDbEntity
  8
0
100
AcDbLine
 62
7
  6
CONTINUOUS
 10
262.5453004473
 20
28.3809150897
 11
262.5132809969
 21
28.4033206013
  0
LINE
  5
579
100
AcDbEntity
  8
0
100
AcDbLine
 62
7
  6
CONTINUOUS
 10
261.3061742157
 20
29.1003950465
 11
261.3586335585
 21
29.0625006453
  0
LINE
  5
57A
100
AcDbEntity
  8
0
100
AcDbLine
 62
7
  6
CONTINUOUS
 10
262.5889203305
 20
28.3487790073
 11
262.5453004473
 21
28.3809150897
  0
LINE
  5
57B
100
AcDbEntity
  8
0
100
AcDbLine
 62
7
  6
CONTINUOUS
 10
261.3586335585
 20
29.0625006453
 11
261.4116969709
 21
29.0213522617
  0
LINE
  5
57C
100
AcDbEntity
  8
0
100
AcDbLine
 62
7
  6
CONTINUOUS
 10
262.6307370989
 20
28.3160539737
 11
262.5889203305
 21
28.3487790073
  0
LINE
  5
57D
100
AcDbEntity
  8
0
100
AcDbLine
 62
7
  6
CONTINUOUS
 10
261.4116969709
 20
29.0213522617
 11
261.4651967521
 21
28.9769745945
  0
LINE
  5
57E
100
AcDbEntity
  8
0
100
AcDbLine
 62
7
  6
CONTINUOUS
 10
262.6707255449
 20
28.2828012185
 11
262.6307370989
 21
28.3160539737
  0
LINE
  5
57F
100
AcDbEntity
  8
0
100
AcDbLine
 62
7
  6
CONTINUOUS
 10
248.3995396369
 20
27.8331817701
 11
248.7246987637
 21
27.5522533509
  0
LINE
  5
580
100
AcDbEntity
  8
0
100
AcDbLine
 62
7
  6
CONTINUOUS
 10
251.1995724981
 20
27.3480186229
 11
251.4163452493
 21
27.1607330101
  0
LINE
  5
581
100
AcDbEntity
  8
0
100
AcDbLine
 62
7
  6
CONTINUOUS
 10
252.5223867121
 20
26.9398809169
 11
252.4467769165
 21
27.0126963141
  0
LINE
  5
582
100
AcDbEntity
  8
0
100
AcDbLine
 62
7
  6
CONTINUOUS
 10
255.9734306177
 20
8.1144275841
 11
257.0262032281
 21
7.0591244869
  0
LINE
  5
583
100
AcDbEntity
  8
0
100
AcDbLine
 62
7
  6
CONTINUOUS
 10
256.6805373989
 20
7.7062235281
 11
257.7333100093
 21
6.6509204309
  0
LINE
  5
584
100
AcDbEntity
  8
0
100
AcDbLine
 62
7
  6
CONTINUOUS
 10
257.1194949661
 20
5.0939352449
 11
256.1724797693
 21
6.1916958369
  0
LINE
  5
585
100
AcDbEntity
  8
0
100
AcDbLine
 62
7
  6
CONTINUOUS
 10
236.1805536125
 20
-21.4329843651
 11
235.3394783861
 21
-20.1018330619
  0
LINE
  5
586
100
AcDbEntity
  8
0
100
AcDbLine
 62
7
  6
CONTINUOUS
 10
204.9478040193
 20
17.2601065141
 11
204.2138995325
 21
18.8125531661
  0
LINE
  5
587
100
AcDbEntity
  8
0
100
AcDbLine
 62
7
  6
CONTINUOUS
 10
167.6921319053
 20
23.2124797053
 11
167.7106018501
 21
23.1325532177
  0
LINE
  5
588
100
AcDbEntity
  8
0
100
AcDbLine
 62
7
  6
CONTINUOUS
 10
162.3830069289
 20
13.9589255889
 11
162.4384060589
 21
13.0684991013
  0
LINE
  5
589
100
AcDbEntity
  8
0
100
AcDbLine
 62
7
  6
CONTINUOUS
 10
162.4190875133
 20
15.4942216701
 11
162.4384060589
 21
13.8850399133
  0
LINE
  5
58A
100
AcDbEntity
  8
0
100
AcDbLine
 62
7
  6
CONTINUOUS
 10
153.6188366941
 20
-29.8005492047
 11
153.6188366941
 21
-28.9840083927
  0
LINE
  5
58B
100
AcDbEntity
  8
0
100
AcDbLine
 62
7
  6
CONTINUOUS
 10
156.4472638189
 20
-156.3639769467
 11
156.4472638189
 21
-93.0820640255
  0
LINE
  5
58C
100
AcDbEntity
  8
0
100
AcDbLine
 62
8
  6
CONTINUOUS
 10
156.4472638189
 20
-90.8513657411
 11
156.4472638189
 21
-89.6058730079
  0
LINE
  5
58D
100
AcDbEntity
  8
0
100
AcDbLine
 62
7
  6
CONTINUOUS
 10
156.4472638189
 20
-88.5910895603
 11
156.4472638189
 21
-33.8828551639
  0
LINE
  5
58E
100
AcDbEntity
  8
0
100
AcDbLine
 62
7
  6
CONTINUOUS
 10
157.1543706001
 20
-155.9557728907
 11
157.1543706001
 21
-92.6738599699
  0
LINE
  5
58F
100
AcDbEntity
  8
0
100
AcDbLine
 62
7
  6
CONTINUOUS
 10
157.1543706001
 20
-88.1828855043
 11
157.1543706001
 21
-33.4746511079
  0
LINE
  5
590
100
AcDbEntity
  8
0
100
AcDbLine
 62
7
  6
CONTINUOUS
 10
157.6543706001
 20
-30.7365175163
 11
157.6543706001
 21
-31.5530583283
  0
LINE
  5
591
100
AcDbEntity
  8
0
100
AcDbLine
 62
7
  6
CONTINUOUS
 10
157.8614773813
 20
-157.1807831587
 11
157.8614773813
 21
-156.3642423467
  0
LINE
  5
592
100
AcDbEntity
  8
0
100
AcDbLine
 62
7
  6
CONTINUOUS
 10
159.2756909437
 20
-33.0664470519
 11
159.2756909437
 21
-156.3641096467
  0
LINE
  5
593
100
AcDbEntity
  8
0
100
AcDbLine
 62
8
  6
CONTINUOUS
 10
160.6899045061
 20
-24.0856924219
 11
160.6899045061
 21
-24.4937637779
  0
LINE
  5
594
100
AcDbEntity
  8
0
100
AcDbLine
 62
7
  6
CONTINUOUS
 10
160.6899045061
 20
-28.9840083927
 11
160.6899045061
 21
-29.8005492047
  0
LINE
  5
595
100
AcDbEntity
  8
0
100
AcDbLine
 62
7
  6
CONTINUOUS
 10
161.7505646781
 20
-22.6568455263
 11
161.7505646781
 21
-23.4733863379
  0
LINE
  5
596
100
AcDbEntity
  8
0
100
AcDbLine
 62
7
  6
CONTINUOUS
 10
162.3830069289
 20
14.7754664009
 11
162.3830069289
 21
13.9589255889
  0
LINE
  5
597
100
AcDbEntity
  8
0
100
AcDbLine
 62
7
  6
CONTINUOUS
 10
163.1647782401
 20
-23.4732536379
 11
163.1647782401
 21
-24.2897944499
  0
LINE
  5
598
100
AcDbEntity
  8
0
100
AcDbLine
 62
7
  6
CONTINUOUS
 10
166.3907843585
 20
22.5800976349
 11
166.3907843585
 21
23.3966384469
  0
LINE
  5
599
100
AcDbEntity
  8
0
100
AcDbLine
 62
7
  6
CONTINUOUS
 10
166.4308528349
 20
22.6051255013
 11
166.4308528349
 21
23.4216663133
  0
LINE
  5
59A
100
AcDbEntity
  8
0
100
AcDbLine
 62
8
  6
CONTINUOUS
 10
167.4915130065
 20
23.4216663133
 11
167.4915130065
 21
22.8072155269
  0
LINE
  5
59B
100
AcDbEntity
  8
0
100
AcDbLine
 62
7
  6
CONTINUOUS
 10
160.9659899629
 20
15.9023363577
 11
160.9008264241
 21
14.2529080509
  0
LINE
  5
59C
100
AcDbEntity
  8
0
100
AcDbLine
 62
7
  6
CONTINUOUS
 10
98.8180611525
 20
119.3981659309
 11
98.4929020253
 21
119.1172375117
  0
LINE
  5
59D
100
AcDbEntity
  8
0
100
AcDbLine
 62
7
  6
CONTINUOUS
 10
99.6619485729
 20
118.5984415341
 11
99.8787213241
 21
118.7857271469
  0
LINE
  5
59E
100
AcDbEntity
  8
0
100
AcDbLine
 62
7
  6
CONTINUOUS
 10
102.3535950581
 20
118.9899618749
 11
102.6787541853
 21
119.2708902941
  0
LINE
  5
59F
100
AcDbEntity
  8
0
100
AcDbLine
 62
7
  6
CONTINUOUS
 10
98.8180611525
 20
118.5816251193
 11
98.5559071097
 21
118.3775894413
  0
LINE
  5
5A0
100
AcDbEntity
  8
0
100
AcDbLine
 62
7
  6
CONTINUOUS
 10
99.3046961757
 20
117.9858433949
 11
99.8787213241
 21
117.9199282789
  0
LINE
  5
5A1
100
AcDbEntity
  8
0
100
AcDbLine
 62
7
  6
CONTINUOUS
 10
-158.2193447315
 20
151.5429250013
 11
-158.2499519343
 21
151.5470952669
  0
LINE
  5
5A2
100
AcDbEntity
  8
0
100
AcDbLine
 62
7
  6
CONTINUOUS
 10
-157.9656875975
 20
150.6360390505
 11
-157.9782165123
 21
150.6379011249
  0
LINE
  5
5A3
100
AcDbEntity
  8
0
100
AcDbLine
 62
7
  6
CONTINUOUS
 10
-57.4234074483
 20
205.4501272461
 11
-57.0989840995
 21
205.3249870001
  0
LINE
  5
5A4
100
AcDbEntity
  8
0
100
AcDbLine
 62
7
  6
CONTINUOUS
 10
262.7088660597
 20
28.2490807057
 11
262.6707255449
 21
28.2828012185
  0
LINE
  5
5A5
100
AcDbEntity
  8
0
100
AcDbLine
 62
7
  6
CONTINUOUS
 10
261.4651967521
 20
28.9769745945
 11
261.5189521093
 21
28.9294161805
  0
LINE
  5
5A6
100
AcDbEntity
  8
0
100
AcDbLine
 62
7
  6
CONTINUOUS
 10
262.7451445533
 20
28.2149507229
 11
262.7088660597
 21
28.2490807057
  0
LINE
  5
5A7
100
AcDbEntity
  8
0
100
AcDbLine
 62
7
  6
CONTINUOUS
 10
261.5189521093
 20
28.9294161805
 11
261.5727715565
 21
28.8787495869
  0
LINE
  5
5A8
100
AcDbEntity
  8
0
100
AcDbLine
 62
7
  6
CONTINUOUS
 10
261.5727715565
 20
28.8787495869
 11
261.6264556685
 21
28.8250709273
  0
LINE
  5
5A9
100
AcDbEntity
  8
0
100
AcDbLine
 62
7
  6
CONTINUOUS
 10
262.7795522901
 20
28.1804674989
 11
262.7451445533
 21
28.2149507229
  0
LINE
  5
5AA
100
AcDbEntity
  8
0
100
AcDbLine
 62
7
  6
CONTINUOUS
 10
261.6264556685
 20
28.8250709273
 11
261.6798001017
 21
28.7684987029
  0
LINE
  5
5AB
100
AcDbEntity
  8
0
100
AcDbLine
 62
7
  6
CONTINUOUS
 10
262.8120856573
 20
28.1456848537
 11
262.7795522901
 21
28.1804674989
  0
LINE
  5
5AC
100
AcDbEntity
  8
0
100
AcDbLine
 62
7
  6
CONTINUOUS
 10
235.1319494185
 20
-17.4866576335
 11
235.8064885925
 21
-19.0188174247
  0
LINE
  5
5AD
100
AcDbEntity
  8
0
100
AcDbLine
 62
7
  6
CONTINUOUS
 10
235.8390561997
 20
-17.8948616895
 11
236.5135953737
 21
-19.4270214803
  0
LINE
  5
5AE
100
AcDbEntity
  8
0
100
AcDbLine
 62
7
  6
CONTINUOUS
 10
206.5755019133
 20
16.1228438493
 11
205.9354401309
 21
17.7307924673
  0
LINE
  5
5AF
100
AcDbEntity
  8
0
100
AcDbLine
 62
7
  6
CONTINUOUS
 10
206.5755019133
 20
16.9393846613
 11
205.9354401309
 21
18.5473332793
  0
LINE
  5
5B0
100
AcDbEntity
  8
0
100
AcDbLine
 62
8
  6
CONTINUOUS
 10
168.9057265689
 20
24.2380744253
 11
168.9057265689
 21
24.8503805089
  0
LINE
  5
5B1
100
AcDbEntity
  8
0
100
AcDbLine
 62
8
  6
CONTINUOUS
 10
168.9490808029
 20
24.8735115481
 11
168.9490808029
 21
24.2149433861
  0
LINE
  5
5B2
100
AcDbEntity
  8
0
100
AcDbLine
 62
7
  6
CONTINUOUS
 10
152.7349532177
 20
-93.9604591363
 11
152.7499172805
 21
-93.7820793675
  0
LINE
  5
5B3
100
AcDbEntity
  8
0
100
AcDbLine
 62
7
  6
CONTINUOUS
 10
167.7106018501
 20
23.1325532177
 11
167.7030785849
 21
23.0520357081
  0
LINE
  5
5B4
100
AcDbEntity
  8
0
100
AcDbLine
 62
7
  6
CONTINUOUS
 10
151.8405856869
 20
-33.5792699007
 11
151.7803590633
 21
-33.9650798555
  0
LINE
  5
5B5
100
AcDbEntity
  8
0
100
AcDbLine
 62
7
  6
CONTINUOUS
 10
152.4874658445
 20
-34.8633410983
 11
152.5476924681
 21
-34.4775311435
  0
LINE
  5
5B6
100
AcDbEntity
  8
0
100
AcDbLine
 62
7
  6
CONTINUOUS
 10
-2.7446551667
 20
-49.1113049767
 11
-2.9899055387
 21
-49.3935727979
  0
LINE
  5
5B7
100
AcDbEntity
  8
0
100
AcDbLine
 62
7
  6
CONTINUOUS
 10
-1.1446551667
 20
-51.8825862607
 11
-0.8994047947
 21
-51.6003184391
  0
LINE
  5
5B8
100
AcDbEntity
  8
0
100
AcDbLine
 62
8
  6
CONTINUOUS
 10
-99.5961016487
 20
6.6924426145
 11
-99.1716537003
 21
6.9374711997
  0
LINE
  5
5B9
100
AcDbEntity
  8
0
100
AcDbLine
 62
7
  6
CONTINUOUS
 10
-99.5961016487
 20
6.6924426145
 11
-100.3032084299
 21
6.2842385585
  0
LINE
  5
5BA
100
AcDbEntity
  8
0
100
AcDbLine
 62
7
  6
CONTINUOUS
 10
100.2322747145
 20
120.2145740429
 11
98.8180611525
 21
119.3981659309
  0
LINE
  5
5BB
100
AcDbEntity
  8
0
100
AcDbLine
 62
7
  6
CONTINUOUS
 10
2.6515389109
 20
63.8824143269
 11
1.2373253485
 21
63.0660062153
  0
LINE
  5
5BC
100
AcDbEntity
  8
0
100
AcDbLine
 62
7
  6
CONTINUOUS
 10
100.2322747145
 20
119.3980332309
 11
98.8180611525
 21
118.5816251193
  0
LINE
  5
5BD
100
AcDbEntity
  8
0
100
AcDbLine
 62
7
  6
CONTINUOUS
 10
2.6515389109
 20
63.0658735153
 11
1.2373253485
 21
62.2494654033
  0
LINE
  5
5BE
100
AcDbEntity
  8
0
100
AcDbLine
 62
7
  6
CONTINUOUS
 10
3.3586456921
 20
61.8413940473
 11
4.7728592545
 21
62.6578021593
  0
LINE
  5
5BF
100
AcDbEntity
  8
0
100
AcDbLine
 62
7
  6
CONTINUOUS
 10
100.9393814957
 20
118.1735537633
 11
102.3535950581
 21
118.9899618749
  0
LINE
  5
5C0
100
AcDbEntity
  8
0
100
AcDbLine
 62
7
  6
CONTINUOUS
 10
-158.2499519343
 20
151.5470952669
 11
-158.2799522387
 21
151.5499733929
  0
LINE
  5
5C1
100
AcDbEntity
  8
0
100
AcDbLine
 62
7
  6
CONTINUOUS
 10
-157.9782165123
 20
150.6379011249
 11
-157.9904171639
 21
150.6391914153
  0
LINE
  5
5C2
100
AcDbEntity
  8
0
100
AcDbLine
 62
7
  6
CONTINUOUS
 10
100.5858281053
 20
118.9548108033
 11
100.9685115377
 21
118.9108673929
  0
LINE
  5
5C3
100
AcDbEntity
  8
0
100
AcDbLine
 62
7
  6
CONTINUOUS
 10
101.8669600349
 20
120.4022844113
 11
101.2929348865
 21
120.4681995269
  0
LINE
  5
5C4
100
AcDbEntity
  8
0
100
AcDbLine
 62
7
  6
CONTINUOUS
 10
-146.9015453099
 20
154.0603596117
 11
-146.5188618775
 21
154.0164162009
  0
LINE
  5
5C5
100
AcDbEntity
  8
0
100
AcDbLine
 62
7
  6
CONTINUOUS
 10
-147.0346269427
 20
155.5078332197
 11
-147.6086520911
 21
155.5737483353
  0
LINE
  5
5C6
100
AcDbEntity
  8
0
100
AcDbLine
 62
7
  6
CONTINUOUS
 10
-57.4525374899
 20
206.7538338961
 11
-57.9391725131
 21
206.9415442645
  0
LINE
  5
5C7
100
AcDbEntity
  8
0
100
AcDbLine
 62
7
  6
CONTINUOUS
 10
261.6798001017
 20
28.7684987029
 11
261.7325987589
 21
28.7091720081
  0
LINE
  5
5C8
100
AcDbEntity
  8
0
100
AcDbLine
 62
7
  6
CONTINUOUS
 10
262.8427458649
 20
28.1106538865
 11
262.8120856573
 21
28.1456848537
  0
LINE
  5
5C9
100
AcDbEntity
  8
0
100
AcDbLine
 62
7
  6
CONTINUOUS
 10
261.7325987589
 20
28.7091720081
 11
261.7846469713
 21
28.6472481837
  0
LINE
  5
5CA
100
AcDbEntity
  8
0
100
AcDbLine
 62
7
  6
CONTINUOUS
 10
262.8715385841
 20
28.0754227029
 11
262.8427458649
 21
28.1106538865
  0
LINE
  5
5CB
100
AcDbEntity
  8
0
100
AcDbLine
 62
7
  6
CONTINUOUS
 10
261.7846469713
 20
28.6472481837
 11
261.7955936205
 21
28.6337682013
  0
LINE
  5
5CC
100
AcDbEntity
  8
0
100
AcDbLine
 62
7
  6
CONTINUOUS
 10
261.7955936205
 20
28.6337682013
 11
261.8464395045
 21
28.5689687093
  0
LINE
  5
5CD
100
AcDbEntity
  8
0
100
AcDbLine
 62
7
  6
CONTINUOUS
 10
262.8984735357
 20
28.0400361881
 11
262.8715385841
 21
28.0754227029
  0
LINE
  5
5CE
100
AcDbEntity
  8
0
100
AcDbLine
 62
7
  6
CONTINUOUS
 10
261.8464395045
 20
28.5689687093
 11
261.8965078125
 21
28.5014694981
  0
LINE
  5
5CF
100
AcDbEntity
  8
0
100
AcDbLine
 62
7
  6
CONTINUOUS
 10
257.0262032281
 20
7.0591244869
 11
257.8672784545
 21
5.7279731837
  0
LINE
  5
5D0
100
AcDbEntity
  8
0
100
AcDbLine
 62
7
  6
CONTINUOUS
 10
257.7333100093
 20
6.6509204309
 11
258.5743852357
 21
5.3197691277
  0
LINE
  5
5D1
100
AcDbEntity
  8
0
100
AcDbLine
 62
7
  6
CONTINUOUS
 10
235.3394783861
 20
-20.1018330619
 11
234.7266231105
 21
-18.5209834563
  0
LINE
  5
5D2
100
AcDbEntity
  8
0
100
AcDbLine
 62
7
  6
CONTINUOUS
 10
205.3276077993
 20
15.6658928885
 11
204.9478040193
 21
17.2601065141
  0
LINE
  5
5D3
100
AcDbEntity
  8
0
100
AcDbLine
 62
7
  6
CONTINUOUS
 10
200.0738819525
 20
6.3384530965
 11
200.0554120081
 21
6.4183795841
  0
LINE
  5
5D4
100
AcDbEntity
  8
0
100
AcDbLine
 62
7
  6
CONTINUOUS
 10
151.8405856869
 20
-79.4688635287
 11
151.7803590633
 21
-79.8546734835
  0
LINE
  5
5D5
100
AcDbEntity
  8
0
100
AcDbLine
 62
7
  6
CONTINUOUS
 10
152.4874658445
 20
-80.7529347263
 11
152.5476924681
 21
-80.3671247715
  0
LINE
  5
5D6
100
AcDbEntity
  8
0
100
AcDbLine
 62
7
  6
CONTINUOUS
 10
151.8405856869
 20
-92.5335165187
 11
151.7803590633
 21
-92.9193264735
  0
LINE
  5
5D7
100
AcDbEntity
  8
0
100
AcDbLine
 62
7
  6
CONTINUOUS
 10
151.1593727601
 20
-33.9230375799
 11
151.0732522821
 21
-34.3732839111
  0
LINE
  5
5D8
100
AcDbEntity
  8
0
100
AcDbLine
 62
7
  6
CONTINUOUS
 10
151.7803590633
 20
-35.2715451543
 11
151.8664795413
 21
-34.8212988231
  0
LINE
  5
5D9
100
AcDbEntity
  8
0
100
AcDbLine
 62
7
  6
CONTINUOUS
 10
153.2498735037
 20
-38.7427138195
 11
153.3359939817
 21
-38.2924674883
  0
LINE
  5
5DA
100
AcDbEntity
  8
0
100
AcDbLine
 62
7
  6
CONTINUOUS
 10
151.1593727601
 20
-79.8126312079
 11
151.0732522821
 21
-80.2628775391
  0
LINE
  5
5DB
100
AcDbEntity
  8
0
100
AcDbLine
 62
7
  6
CONTINUOUS
 10
151.7803590633
 20
-81.1611387823
 11
151.8664795413
 21
-80.7108924511
  0
LINE
  5
5DC
100
AcDbEntity
  8
0
100
AcDbLine
 62
7
  6
CONTINUOUS
 10
162.7605789485
 20
17.0913211009
 11
162.4190875133
 21
15.4942216701
  0
LINE
  5
5DD
100
AcDbEntity
  8
0
100
AcDbLine
 62
7
  6
CONTINUOUS
 10
161.3849964237
 20
17.5343655865
 11
160.9659899629
 21
15.9023363577
  0
LINE
  5
5DE
100
AcDbEntity
  8
0
100
AcDbLine
 62
7
  6
CONTINUOUS
 10
100.7189097381
 20
120.4022844113
 11
100.2322747145
 21
120.2145740429
  0
LINE
  5
5DF
100
AcDbEntity
  8
0
100
AcDbLine
 62
7
  6
CONTINUOUS
 10
99.8787213241
 20
117.9199282789
 11
100.4527464725
 21
117.9858433949
  0
LINE
  5
5E0
100
AcDbEntity
  8
0
100
AcDbLine
 62
7
  6
CONTINUOUS
 10
100.2031446729
 20
118.9108673929
 11
100.5858281053
 21
118.9548108033
  0
LINE
  5
5E1
100
AcDbEntity
  8
0
100
AcDbLine
 62
7
  6
CONTINUOUS
 10
101.2929348865
 20
120.4681995269
 11
100.7189097381
 21
120.4022844113
  0
LINE
  5
5E2
100
AcDbEntity
  8
0
100
AcDbLine
 62
7
  6
CONTINUOUS
 10
-158.2799522387
 20
151.5499733929
 11
-158.3093338631
 21
151.5515878585
  0
LINE
  5
5E3
100
AcDbEntity
  8
0
100
AcDbLine
 62
7
  6
CONTINUOUS
 10
-157.9904171639
 20
150.6391914153
 11
-158.0022878983
 21
150.6399263809
  0
LINE
  5
5E4
100
AcDbEntity
  8
0
100
AcDbLine
 62
7
  6
CONTINUOUS
 10
262.9235640353
 20
28.0045358253
 11
262.8984735357
 21
28.0400361881
  0
LINE
  5
5E5
100
AcDbEntity
  8
0
100
AcDbLine
 62
7
  6
CONTINUOUS
 10
261.8965078125
 20
28.5014694981
 11
261.9455931973
 21
28.4314705841
  0
LINE
  5
5E6
100
AcDbEntity
  8
0
100
AcDbLine
 62
7
  6
CONTINUOUS
 10
261.9455931973
 20
28.4314705841
 11
261.9934918401
 21
28.3591945441
  0
LINE
  5
5E7
100
AcDbEntity
  8
0
100
AcDbLine
 62
7
  6
CONTINUOUS
 10
262.9468264997
 20
27.9689595589
 11
262.9235640353
 21
28.0045358253
  0
LINE
  5
5E8
100
AcDbEntity
  8
0
100
AcDbLine
 62
7
  6
CONTINUOUS
 10
261.9934918401
 20
28.3591945441
 11
262.0400048105
 21
28.2848831485
  0
LINE
  5
5E9
100
AcDbEntity
  8
0
100
AcDbLine
 62
7
  6
CONTINUOUS
 10
262.9639913201
 20
27.9407105569
 11
262.9468264997
 21
27.9689595589
  0
LINE
  5
5EA
100
AcDbEntity
  8
0
100
AcDbLine
 62
7
  6
CONTINUOUS
 10
262.0400048105
 20
28.2848831485
 11
262.0785715433
 21
28.2198551253
  0
LINE
  5
5EB
100
AcDbEntity
  8
0
100
AcDbLine
 62
7
  6
CONTINUOUS
 10
262.9842193229
 20
27.9047485145
 11
262.9639913201
 21
27.9407105569
  0
LINE
  5
5EC
100
AcDbEntity
  8
0
100
AcDbLine
 62
7
  6
CONTINUOUS
 10
262.0785715433
 20
28.2198551253
 11
262.1219215933
 21
28.1426282809
  0
LINE
  5
5ED
100
AcDbEntity
  8
0
100
AcDbLine
 62
7
  6
CONTINUOUS
 10
257.8481554741
 20
3.7279203665
 11
257.1194949661
 21
5.0939352449
  0
LINE
  5
5EE
100
AcDbEntity
  8
0
100
AcDbLine
 62
7
  6
CONTINUOUS
 10
254.4530855557
 20
-13.4850259323
 11
254.4292425565
 21
-13.4245497923
  0
LINE
  5
5EF
100
AcDbEntity
  8
0
100
AcDbLine
 62
7
  6
CONTINUOUS
 10
234.7207277881
 20
-15.7057234599
 11
235.1319494185
 21
-17.4866576335
  0
LINE
  5
5F0
100
AcDbEntity
  8
0
100
AcDbLine
 62
7
  6
CONTINUOUS
 10
206.8651874341
 20
14.4814839389
 11
206.5755019133
 21
16.1228438493
  0
LINE
  5
5F1
100
AcDbEntity
  8
0
100
AcDbLine
 62
7
  6
CONTINUOUS
 10
206.8651874341
 20
15.2980247509
 11
206.5755019133
 21
16.9393846613
  0
LINE
  5
5F2
100
AcDbEntity
  8
0
100
AcDbLine
 62
7
  6
CONTINUOUS
 10
199.0695449593
 20
5.0786001429
 11
199.0793761329
 21
4.9896653885
  0
LINE
  5
5F3
100
AcDbEntity
  8
0
100
AcDbLine
 62
7
  6
CONTINUOUS
 10
206.8705084681
 20
14.3965892541
 11
206.8651874341
 21
14.4814839389
  0
LINE
  5
5F4
100
AcDbEntity
  8
0
100
AcDbLine
 62
7
  6
CONTINUOUS
 10
205.3469263445
 20
14.0567111317
 11
205.3276077993
 21
15.6658928885
  0
LINE
  5
5F5
100
AcDbEntity
  8
0
100
AcDbLine
 62
7
  6
CONTINUOUS
 10
197.8429813513
 20
4.5194486037
 11
197.8429813513
 21
5.3359894157
  0
LINE
  5
5F6
100
AcDbEntity
  8
0
100
AcDbLine
 62
8
  6
CONTINUOUS
 10
198.8602872893
 20
4.7005522929
 11
198.8602872893
 21
5.3128583769
  0
LINE
  5
5F7
100
AcDbEntity
  8
0
100
AcDbLine
 62
8
  6
CONTINUOUS
 10
200.2344323753
 20
6.7165447057
 11
200.2344323753
 21
6.1542943549
  0
LINE
  5
5F8
100
AcDbEntity
  8
0
100
AcDbLine
 62
7
  6
CONTINUOUS
 10
205.3830069289
 20
13.9589255889
 11
205.3830069289
 21
14.7754664009
  0
LINE
  5
5F9
100
AcDbEntity
  8
0
100
AcDbLine
 62
7
  6
CONTINUOUS
 10
165.1800325665
 20
-81.2633224963
 11
165.2688443097
 21
-80.6964661115
  0
LINE
  5
5FA
100
AcDbEntity
  8
0
100
AcDbLine
 62
7
  6
CONTINUOUS
 10
167.5134849445
 20
-79.9162491119
 11
167.4246732017
 21
-80.4831054967
  0
LINE
  5
5FB
100
AcDbEntity
  8
0
100
AcDbLine
 62
7
  6
CONTINUOUS
 10
151.1593727601
 20
-92.8772841983
 11
151.0732522821
 21
-93.3275305295
  0
LINE
  5
5FC
100
AcDbEntity
  8
0
100
AcDbLine
 62
7
  6
CONTINUOUS
 10
153.2498735037
 20
-84.6323074475
 11
153.3359939817
 21
-84.1820611163
  0
LINE
  5
5FD
100
AcDbEntity
  8
0
100
AcDbLine
 62
7
  6
CONTINUOUS
 10
152.0278464365
 20
-94.3686631923
 11
152.0951280601
 21
-94.0169082459
  0
LINE
  5
5FE
100
AcDbEntity
  8
0
100
AcDbLine
 62
7
  6
CONTINUOUS
 10
153.2498735037
 20
-97.6969604375
 11
153.3359939817
 21
-97.2467141063
  0
LINE
  5
5FF
100
AcDbEntity
  8
0
100
AcDbLine
 62
7
  6
CONTINUOUS
 10
99.8787213241
 20
118.7857271469
 11
100.2031446729
 21
118.9108673929
  0
LINE
  5
600
100
AcDbEntity
  8
0
100
AcDbLine
 62
7
  6
CONTINUOUS
 10
100.4527464725
 20
117.9858433949
 11
100.9393814957
 21
118.1735537633
  0
LINE
  5
601
100
AcDbEntity
  8
0
100
AcDbLine
 62
7
  6
CONTINUOUS
 10
-158.3093338631
 20
151.5515878585
 11
-158.3380870839
 21
151.5519666161
  0
LINE
  5
602
100
AcDbEntity
  8
0
100
AcDbLine
 62
7
  6
CONTINUOUS
 10
-158.0022878983
 20
150.6399263809
 11
-158.0138284395
 21
150.6401220249
  0
LINE
  5
603
100
AcDbEntity
  8
0
100
AcDbLine
 62
7
  6
CONTINUOUS
 10
262.1219215933
 20
28.1426282809
 11
262.1633175393
 21
28.0642553185
  0
LINE
  5
604
100
AcDbEntity
  8
0
100
AcDbLine
 62
7
  6
CONTINUOUS
 10
263.0027664201
 20
27.8686131057
 11
262.9842193229
 21
27.9047485145
  0
LINE
  5
605
100
AcDbEntity
  8
0
100
AcDbLine
 62
7
  6
CONTINUOUS
 10
262.1633175393
 20
28.0642553185
 11
262.2026208253
 21
27.9850087009
  0
LINE
  5
606
100
AcDbEntity
  8
0
100
AcDbLine
 62
7
  6
CONTINUOUS
 10
263.0196436333
 20
27.8323355189
 11
263.0027664201
 21
27.8686131057
  0
LINE
  5
607
100
AcDbEntity
  8
0
100
AcDbLine
 62
7
  6
CONTINUOUS
 10
262.2026208253
 20
27.9850087009
 11
262.2399457185
 21
27.9046461845
  0
LINE
  5
608
100
AcDbEntity
  8
0
100
AcDbLine
 62
7
  6
CONTINUOUS
 10
262.2399457185
 20
27.9046461845
 11
262.2403361637
 21
27.9037762733
  0
LINE
  5
609
100
AcDbEntity
  8
0
100
AcDbLine
 62
7
  6
CONTINUOUS
 10
262.2403361637
 20
27.9037762733
 11
262.2756472481
 21
27.8222991517
  0
LINE
  5
60A
100
AcDbEntity
  8
0
100
AcDbLine
 62
7
  6
CONTINUOUS
 10
257.8672784545
 20
5.7279731837
 11
258.4801337301
 21
4.1471235781
  0
LINE
  5
60B
100
AcDbEntity
  8
0
100
AcDbLine
 62
7
  6
CONTINUOUS
 10
258.5743852357
 20
5.3197691277
 11
259.1872405113
 21
3.7389195221
  0
LINE
  5
60C
100
AcDbEntity
  8
0
100
AcDbLine
 62
7
  6
CONTINUOUS
 10
248.2853589357
 20
28.1645594349
 11
248.3995396369
 21
27.8331817701
  0
LINE
  5
60D
100
AcDbEntity
  8
0
100
AcDbLine
 62
7
  6
CONTINUOUS
 10
251.4163452493
 20
27.1607330101
 11
251.4924657169
 21
26.9398145669
  0
LINE
  5
60E
100
AcDbEntity
  8
0
100
AcDbLine
 62
7
  6
CONTINUOUS
 10
253.8899532917
 20
-14.3275394123
 11
253.8691342753
 21
-14.2546435851
  0
LINE
  5
60F
100
AcDbEntity
  8
0
100
AcDbLine
 62
7
  6
CONTINUOUS
 10
235.4278345693
 20
-16.1139275159
 11
235.8390561997
 21
-17.8948616895
  0
LINE
  5
610
100
AcDbEntity
  8
0
100
AcDbLine
 62
7
  6
CONTINUOUS
 10
234.7266231105
 20
-18.5209834563
 11
234.3540270677
 21
-16.7214906691
  0
LINE
  5
611
100
AcDbEntity
  8
0
100
AcDbLine
 62
7
  6
CONTINUOUS
 10
234.5825631401
 20
-13.7181948339
 11
234.7207277881
 21
-15.7057234599
  0
LINE
  5
612
100
AcDbEntity
  8
0
100
AcDbLine
 62
7
  6
CONTINUOUS
 10
235.2896699213
 20
-14.1263988895
 11
235.4278345693
 21
-16.1139275159
  0
LINE
  5
613
100
AcDbEntity
  8
0
100
AcDbLine
 62
7
  6
CONTINUOUS
 10
234.3540270677
 20
-16.7214906691
 11
234.2290097497
 21
-14.7387049735
  0
LINE
  5
614
100
AcDbEntity
  8
0
100
AcDbLine
 62
7
  6
CONTINUOUS
 10
206.8000238953
 20
13.6485964441
 11
206.8651874341
 21
15.2980247509
  0
LINE
  5
615
100
AcDbEntity
  8
0
100
AcDbLine
 62
7
  6
CONTINUOUS
 10
200.0554120081
 20
6.4183795841
 11
200.0629352729
 21
6.4988970937
  0
LINE
  5
616
100
AcDbEntity
  8
0
100
AcDbLine
 62
7
  6
CONTINUOUS
 10
159.3040852073
 20
-22.9377739455
 11
159.1899045061
 21
-23.2691516099
  0
LINE
  5
617
100
AcDbEntity
  8
0
100
AcDbLine
 62
7
  6
CONTINUOUS
 10
162.3970112873
 20
-24.4938964779
 11
162.3208908197
 21
-24.7148149211
  0
LINE
  5
618
100
AcDbEntity
  8
0
100
AcDbLine
 62
7
  6
CONTINUOUS
 10
167.7030785849
 20
23.0520357081
 11
167.6698230509
 21
22.9737198853
  0
LINE
  5
619
100
AcDbEntity
  8
0
100
AcDbLine
 62
7
  6
CONTINUOUS
 10
163.4571398697
 20
18.6494908525
 11
162.7605789485
 21
17.0913211009
  0
LINE
  5
61A
100
AcDbEntity
  8
0
100
AcDbLine
 62
7
  6
CONTINUOUS
 10
162.1513762709
 20
19.1237969089
 11
161.3849964237
 21
17.5343655865
  0
LINE
  5
61B
100
AcDbEntity
  8
0
100
AcDbLine
 62
7
  6
CONTINUOUS
 10
3.1381739341
 20
64.0701246957
 11
2.6515389109
 21
63.8824143269
  0
LINE
  5
61C
100
AcDbEntity
  8
0
100
AcDbLine
 62
7
  6
CONTINUOUS
 10
2.6224088693
 20
62.5787076769
 11
2.2979855205
 21
62.4535674313
  0
LINE
  5
61D
100
AcDbEntity
  8
0
100
AcDbLine
 62
7
  6
CONTINUOUS
 10
2.8720106689
 20
61.6536836789
 11
3.3586456921
 21
61.8413940473
  0
LINE
  5
61E
100
AcDbEntity
  8
0
100
AcDbLine
 62
7
  6
CONTINUOUS
 10
-155.6609765855
 20
79.9264235241
 11
-155.2939334655
 21
79.9977401185
  0
LINE
  5
61F
100
AcDbEntity
  8
0
100
AcDbLine
 62
7
  6
CONTINUOUS
 10
-156.0118266843
 20
84.1805818669
 11
-155.7250742467
 21
84.2362979565
  0
LINE
  5
620
100
AcDbEntity
  8
0
100
AcDbLine
 62
7
  6
CONTINUOUS
 10
-156.5268903455
 20
85.4532685949
 11
-156.8939334655
 21
85.3819520005
  0
LINE
  5
621
100
AcDbEntity
  8
0
100
AcDbLine
 62
7
  6
CONTINUOUS
 10
-155.6609765855
 20
92.9910765141
 11
-155.2939334655
 21
93.0623931085
  0
LINE
  5
622
100
AcDbEntity
  8
0
100
AcDbLine
 62
7
  6
CONTINUOUS
 10
-158.9664244487
 20
91.2024563193
 11
-159.0009487675
 21
91.1965787561
  0
LINE
  5
623
100
AcDbEntity
  8
0
100
AcDbLine
 62
7
  6
CONTINUOUS
 10
-158.3380870839
 20
151.5519666161
 11
-158.3662041239
 21
151.5511368069
  0
LINE
  5
624
100
AcDbEntity
  8
0
100
AcDbLine
 62
7
  6
CONTINUOUS
 10
-158.0138284395
 20
150.6401220249
 11
-158.0250397623
 21
150.6397936805
  0
LINE
  5
625
100
AcDbEntity
  8
0
100
AcDbLine
 62
7
  6
CONTINUOUS
 10
263.0348625057
 20
27.7959451613
 11
263.0196436333
 21
27.8323355189
  0
LINE
  5
626
100
AcDbEntity
  8
0
100
AcDbLine
 62
7
  6
CONTINUOUS
 10
262.2756472481
 20
27.8222991517
 11
262.3087872925
 21
27.7401318001
  0
LINE
  5
627
100
AcDbEntity
  8
0
100
AcDbLine
 62
7
  6
CONTINUOUS
 10
262.3087872925
 20
27.7401318001
 11
262.3396528973
 21
27.6575623041
  0
LINE
  5
628
100
AcDbEntity
  8
0
100
AcDbLine
 62
7
  6
CONTINUOUS
 10
263.0484348693
 20
27.7594696313
 11
263.0348625057
 21
27.7959451613
  0
LINE
  5
629
100
AcDbEntity
  8
0
100
AcDbLine
 62
7
  6
CONTINUOUS
 10
262.3396528973
 20
27.6575623041
 11
262.3681567849
 21
27.5748757557
  0
LINE
  5
62A
100
AcDbEntity
  8
0
100
AcDbLine
 62
7
  6
CONTINUOUS
 10
263.0603726089
 20
27.7229347121
 11
263.0484348693
 21
27.7594696313
  0
LINE
  5
62B
100
AcDbEntity
  8
0
100
AcDbLine
 62
7
  6
CONTINUOUS
 10
262.3681567849
 20
27.5748757557
 11
262.3942286225
 21
27.4923500845
  0
LINE
  5
62C
100
AcDbEntity
  8
0
100
AcDbLine
 62
7
  6
CONTINUOUS
 10
258.3428051605
 20
2.1230016469
 11
257.8481554741
 21
3.7279203665
  0
LINE
  5
62D
100
AcDbEntity
  8
0
100
AcDbLine
 62
7
  6
CONTINUOUS
 10
254.3642987393
 20
-30.2939279807
 11
254.2754869961
 21
-29.8296114515
  0
LINE
  5
62E
100
AcDbEntity
  8
0
100
AcDbLine
 62
7
  6
CONTINUOUS
 10
256.5201276313
 20
-28.0182215379
 11
256.6089393741
 21
-28.4825380671
  0
LINE
  5
62F
100
AcDbEntity
  8
0
100
AcDbLine
 62
7
  6
CONTINUOUS
 10
205.0054349093
 20
12.4596117009
 11
205.3469263445
 21
14.0567111317
  0
LINE
  5
630
100
AcDbEntity
  8
0
100
AcDbLine
 62
7
  6
CONTINUOUS
 10
199.0793761329
 20
4.9896653885
 11
199.0574586345
 21
4.9014525213
  0
LINE
  5
631
100
AcDbEntity
  8
0
100
AcDbLine
 62
7
  6
CONTINUOUS
 10
206.3810174345
 20
12.0165672153
 11
206.8000238953
 21
13.6485964441
  0
LINE
  5
632
100
AcDbEntity
  8
0
100
AcDbLine
 62
7
  6
CONTINUOUS
 10
-156.1868266843
 20
97.5483437477
 11
-155.8197835643
 21
97.6196603421
  0
LINE
  5
633
100
AcDbEntity
  8
0
100
AcDbLine
 62
7
  6
CONTINUOUS
 10
-156.5268903455
 20
98.5179215849
 11
-156.8939334655
 21
98.4466049905
  0
LINE
  5
634
100
AcDbEntity
  8
0
100
AcDbLine
 62
7
  6
CONTINUOUS
 10
-158.0250397623
 20
150.6397936805
 11
-158.0359239543
 21
150.6389558021
  0
LINE
  5
635
100
AcDbEntity
  8
0
100
AcDbLine
 62
7
  6
CONTINUOUS
 10
-158.3662041239
 20
151.5511368069
 11
-158.3936790107
 21
151.5491244797
  0
LINE
  5
636
100
AcDbEntity
  8
0
100
AcDbLine
 62
7
  6
CONTINUOUS
 10
-57.8060908803
 20
205.4940706565
 11
-57.4234074483
 21
205.4501272461
  0
LINE
  5
637
100
AcDbEntity
  8
0
100
AcDbLine
 62
7
  6
CONTINUOUS
 10
-57.9391725131
 20
206.9415442645
 11
-58.5131976615
 21
207.0074593801
  0
LINE
  5
638
100
AcDbEntity
  8
0
100
AcDbLine
 62
7
  6
CONTINUOUS
 10
262.3942286225
 20
27.4923500845
 11
262.4178153825
 21
27.4102522517
  0
LINE
  5
639
100
AcDbEntity
  8
0
100
AcDbLine
 62
7
  6
CONTINUOUS
 10
263.0706874209
 20
27.6863643945
 11
263.0603726089
 21
27.7229347121
  0
LINE
  5
63A
100
AcDbEntity
  8
0
100
AcDbLine
 62
7
  6
CONTINUOUS
 10
262.4178153825
 20
27.4102522517
 11
262.4388812461
 21
27.3288349397
  0
LINE
  5
63B
100
AcDbEntity
  8
0
100
AcDbLine
 62
7
  6
CONTINUOUS
 10
263.0793905745
 20
27.6497809185
 11
263.0706874209
 21
27.6863643945
  0
LINE
  5
63C
100
AcDbEntity
  8
0
100
AcDbLine
 62
7
  6
CONTINUOUS
 10
262.4388812461
 20
27.3288349397
 11
262.4574070949
 21
27.2483338093
  0
LINE
  5
63D
100
AcDbEntity
  8
0
100
AcDbLine
 62
7
  6
CONTINUOUS
 10
258.4801337301
 20
4.1471235781
 11
258.8527297729
 21
2.3476307909
  0
LINE
  5
63E
100
AcDbEntity
  8
0
100
AcDbLine
 62
7
  6
CONTINUOUS
 10
259.1872405113
 20
3.7389195221
 11
259.5598365541
 21
1.9394267349
  0
LINE
  5
63F
100
AcDbEntity
  8
0
100
AcDbLine
 62
7
  6
CONTINUOUS
 10
262.4574070949
 20
27.2483338093
 11
262.4675419173
 21
27.1993572105
  0
LINE
  5
640
100
AcDbEntity
  8
0
100
AcDbLine
 62
7
  6
CONTINUOUS
 10
263.0864926785
 20
27.6132048469
 11
263.0793905745
 21
27.6497809185
  0
LINE
  5
641
100
AcDbEntity
  8
0
100
AcDbLine
 62
7
  6
CONTINUOUS
 10
262.4675419173
 20
27.1993572105
 11
262.4821524661
 21
27.1198090757
  0
LINE
  5
642
100
AcDbEntity
  8
0
100
AcDbLine
 62
7
  6
CONTINUOUS
 10
255.8340154177
 20
-27.6608390255
 11
255.9018325929
 21
-28.0743340111
  0
LINE
  5
643
100
AcDbEntity
  8
0
100
AcDbLine
 62
7
  6
CONTINUOUS
 10
258.5928158917
 20
0.3136626625
 11
258.3428051605
 21
2.1230016469
  0
LINE
  5
644
100
AcDbEntity
  8
0
100
AcDbLine
 62
7
  6
CONTINUOUS
 10
263.0959315305
 20
27.5401493469
 11
263.0920034553
 21
27.5766551549
  0
LINE
  5
645
100
AcDbEntity
  8
0
100
AcDbLine
 62
7
  6
CONTINUOUS
 10
262.5040548117
 20
26.9635860953
 11
262.5113765805
 21
26.8873230245
  0
LINE
  5
646
100
AcDbEntity
  8
0
100
AcDbLine
 62
7
  6
CONTINUOUS
 10
262.5113765805
 20
26.8873230245
 11
262.5163183473
 21
26.8125432785
  0
LINE
  5
647
100
AcDbEntity
  8
0
100
AcDbLine
 62
7
  6
CONTINUOUS
 10
263.0982842361
 20
27.5037035881
 11
263.0959315305
 21
27.5401493469
  0
LINE
  5
648
100
AcDbEntity
  8
0
100
AcDbLine
 62
7
  6
CONTINUOUS
 10
258.8527297729
 20
2.3476307909
 11
258.9777470909
 21
0.3648450953
  0
LINE
  5
649
100
AcDbEntity
  8
0
100
AcDbLine
 62
7
  6
CONTINUOUS
 10
259.5598365541
 20
1.9394267349
 11
259.6848538721
 21
-0.0433589607
  0
LINE
  5
64A
100
AcDbEntity
  8
0
100
AcDbLine
 62
7
  6
CONTINUOUS
 10
245.8962716393
 20
6.6432738529
 11
245.8962716393
 21
6.2798061209
  0
LINE
  5
64B
100
AcDbEntity
  8
0
100
AcDbLine
 62
7
  6
CONTINUOUS
 10
245.8962716393
 20
-21.4204727047
 11
245.8962716393
 21
-21.8789930367
  0
LINE
  5
64C
100
AcDbEntity
  8
0
100
AcDbLine
 62
7
  6
CONTINUOUS
 10
246.6033784205
 20
7.0969291025
 11
246.6033784205
 21
5.8716020649
  0
LINE
  5
64D
100
AcDbEntity
  8
0
100
AcDbLine
 62
7
  6
CONTINUOUS
 10
246.6033784205
 20
-21.0618700551
 11
246.6033784205
 21
-22.2871970923
  0
LINE
  5
64E
100
AcDbEntity
  8
0
100
AcDbLine
 62
7
  6
CONTINUOUS
 10
247.3104852013
 20
-21.8789930367
 11
247.3104852013
 21
-20.6536659991
  0
LINE
  5
64F
100
AcDbEntity
  8
0
100
AcDbLine
 62
7
  6
CONTINUOUS
 10
247.3104852013
 20
6.2798061209
 11
247.3104852013
 21
7.5051331581
  0
LINE
  5
650
100
AcDbEntity
  8
0
100
AcDbLine
 62
8
  6
CONTINUOUS
 10
249.7853589357
 20
27.3480186229
 11
249.7853589357
 21
26.9399472669
  0
LINE
  5
651
100
AcDbEntity
  8
0
100
AcDbLine
 62
7
  6
CONTINUOUS
 10
250.8460191073
 20
28.7768655185
 11
250.8460191073
 21
27.9603247069
  0
LINE
  5
652
100
AcDbEntity
  8
0
100
AcDbLine
 62
7
  6
CONTINUOUS
 10
252.2602326697
 20
27.9604574069
 11
252.2602326697
 21
27.1439165949
  0
LINE
  5
653
100
AcDbEntity
  8
0
100
AcDbLine
 62
7
  6
CONTINUOUS
 10
254.7351064041
 20
-13.0394238111
 11
254.7351064041
 21
-12.9429115419
  0
LINE
  5
654
100
AcDbEntity
  8
0
100
AcDbLine
 62
7
  6
CONTINUOUS
 10
254.7351064041
 20
7.1707662261
 11
254.7351064041
 21
8.7331284197
  0
LINE
  5
655
100
AcDbEntity
  8
0
100
AcDbLine
 62
7
  6
CONTINUOUS
 10
160.4311340521
 20
-24.3443787743
 11
160.4731317549
 21
-24.2729780347
  0
LINE
  5
656
100
AcDbEntity
  8
0
100
AcDbLine
 62
7
  6
CONTINUOUS
 10
164.4970610389
 20
20.1425379833
 11
163.4571398697
 21
18.6494908525
  0
LINE
  5
657
100
AcDbEntity
  8
0
100
AcDbLine
 62
7
  6
CONTINUOUS
 10
163.2532964593
 20
20.6460892149
 11
162.1513762709
 21
19.1237969089
  0
LINE
  5
658
100
AcDbEntity
  8
0
100
AcDbLine
 62
7
  6
CONTINUOUS
 10
167.6698230509
 20
22.9737198853
 11
167.6119886985
 21
22.9003220929
  0
LINE
  5
659
100
AcDbEntity
  8
0
100
AcDbLine
 62
7
  6
CONTINUOUS
 10
262.4821524661
 20
27.1198090757
 11
262.4943204685
 21
27.0411479369
  0
LINE
  5
65A
100
AcDbEntity
  8
0
100
AcDbLine
 62
7
  6
CONTINUOUS
 10
263.0920034553
 20
27.5766551549
 11
263.0864926785
 21
27.6132048469
  0
LINE
  5
65B
100
AcDbEntity
  8
0
100
AcDbLine
 62
7
  6
CONTINUOUS
 10
262.4943204685
 20
27.0411479369
 11
262.5040548117
 21
26.9635860953
  0
LINE
  5
65C
100
AcDbEntity
  8
0
100
AcDbLine
 62
7
  6
CONTINUOUS
 10
262.5163183473
 20
26.8125432785
 11
262.5189232285
 21
26.7394148149
  0
LINE
  5
65D
100
AcDbEntity
  8
0
100
AcDbLine
 62
7
  6
CONTINUOUS
 10
263.0990674345
 20
27.4673328561
 11
263.0982842361
 21
27.5037035881
  0
LINE
  5
65E
100
AcDbEntity
  8
0
100
AcDbLine
 62
7
  6
CONTINUOUS
 10
262.5189232285
 20
26.7394148149
 11
262.5192437481
 21
26.6680877669
  0
LINE
  5
65F
100
AcDbEntity
  8
0
100
AcDbLine
 62
7
  6
CONTINUOUS
 10
258.5928158917
 20
-1.6612207983
 11
258.5928158917
 21
0.3136626625
  0
LINE
  5
660
100
AcDbEntity
  8
0
100
AcDbLine
 62
7
  6
CONTINUOUS
 10
259.6848538721
 20
27.3480186229
 11
259.6848538721
 21
28.1645594349
  0
LINE
  5
661
100
AcDbEntity
  8
0
100
AcDbLine
 62
7
  6
CONTINUOUS
 10
261.1493199665
 20
29.3890389025
 11
261.1493199665
 21
30.2055797145
  0
LINE
  5
662
100
AcDbEntity
  8
0
100
AcDbLine
 62
7
  6
CONTINUOUS
 10
262.5132809969
 20
-96.7663174839
 11
262.5132809969
 21
26.5313451109
  0
LINE
  5
663
100
AcDbEntity
  8
0
100
AcDbLine
 62
7
  6
CONTINUOUS
 10
263.0990674345
 20
-95.6612185995
 11
263.0990674345
 21
27.5889538417
  0
LINE
  5
664
100
AcDbEntity
  8
0
100
AcDbLine
 62
7
  6
CONTINUOUS
 10
263.9274945593
 20
26.5312124109
 11
263.9274945593
 21
-95.1333685599
  0
LINE
  5
665
100
AcDbEntity
  8
0
100
AcDbLine
 62
7
  6
CONTINUOUS
 10
264.6346013405
 20
26.9394164669
 11
264.6346013405
 21
-94.7251645043
  0
LINE
  5
666
100
AcDbEntity
  8
0
100
AcDbLine
 62
7
  6
CONTINUOUS
 10
263.0990674349
 20
-95.6612185995
 11
263.0985676237
 21
-95.6953490375
  0
LINE
  5
667
100
AcDbEntity
  8
0
100
AcDbLine
 62
7
  6
CONTINUOUS
 10
263.0982842361
 20
27.4309621241
 11
263.0990674345
 21
27.4673328561
  0
LINE
  5
668
100
AcDbEntity
  8
0
100
AcDbLine
 62
7
  6
CONTINUOUS
 10
262.5192437481
 20
26.6680877669
 11
262.5173405473
 21
26.5986936665
  0
LINE
  5
669
100
AcDbEntity
  8
0
100
AcDbLine
 62
7
  6
CONTINUOUS
 10
258.9777470909
 20
0.3648450953
 11
258.8527297729
 21
-1.7622825235
  0
LINE
  5
66A
100
AcDbEntity
  8
0
100
AcDbLine
 62
7
  6
CONTINUOUS
 10
259.6848538721
 20
-0.0433589607
 11
259.5598365541
 21
-2.1704865795
  0
LINE
  5
66B
100
AcDbEntity
  8
0
100
AcDbLine
 62
7
  6
CONTINUOUS
 10
262.5173405473
 20
26.5986936665
 11
262.5132809969
 21
26.5313451109
  0
LINE
  5
66C
100
AcDbEntity
  8
0
100
AcDbLine
 62
7
  6
CONTINUOUS
 10
200.0629352729
 20
6.4988970937
 11
200.0961908073
 21
6.5772129165
  0
LINE
  5
66D
100
AcDbEntity
  8
0
100
AcDbLine
 62
7
  6
CONTINUOUS
 10
165.2688443097
 20
-80.6964661115
 11
165.5217587557
 21
-80.1133686171
  0
LINE
  5
66E
100
AcDbEntity
  8
0
100
AcDbLine
 62
7
  6
CONTINUOUS
 10
167.4246732017
 20
-80.4831054967
 11
167.1717587557
 21
-81.0662029911
  0
LINE
  5
66F
100
AcDbEntity
  8
0
100
AcDbLine
 62
7
  6
CONTINUOUS
 10
204.3088739885
 20
10.9014419493
 11
205.0054349093
 21
12.4596117009
  0
LINE
  5
670
100
AcDbEntity
  8
0
100
AcDbLine
 62
7
  6
CONTINUOUS
 10
205.6146375873
 20
10.4271358929
 11
206.3810174345
 21
12.0165672153
  0
LINE
  5
671
100
AcDbEntity
  8
0
100
AcDbLine
 62
7
  6
CONTINUOUS
 10
165.8628613093
 20
21.5453642669
 11
164.4970610389
 21
20.1425379833
  0
LINE
  5
672
100
AcDbEntity
  8
0
100
AcDbLine
 62
7
  6
CONTINUOUS
 10
164.6737431405
 20
22.0777380337
 11
163.2532964593
 21
20.6460892149
  0
LINE
  5
673
100
AcDbEntity
  8
0
100
AcDbLine
 62
7
  6
CONTINUOUS
 10
-155.6609765855
 20
138.8806701421
 11
-155.2939334655
 21
138.9519867365
  0
LINE
  5
674
100
AcDbEntity
  8
0
100
AcDbLine
 62
7
  6
CONTINUOUS
 10
-158.0359239543
 20
150.6389558021
 11
-158.0464840555
 21
150.6376217709
  0
LINE
  5
675
100
AcDbEntity
  8
0
100
AcDbLine
 62
7
  6
CONTINUOUS
 10
-158.3936790107
 20
151.5491244797
 11
-158.4205074055
 21
151.5459543189
  0
LINE
  5
676
100
AcDbEntity
  8
0
100
AcDbLine
 62
7
  6
CONTINUOUS
 10
-147.2842287423
 20
154.0164162009
 11
-146.9015453099
 21
154.0603596117
  0
LINE
  5
677
100
AcDbEntity
  8
0
100
AcDbLine
 62
7
  6
CONTINUOUS
 10
-147.6086520911
 20
155.5737483353
 11
-148.1826772399
 21
155.5078332197
  0
LINE
  5
678
100
AcDbEntity
  8
0
100
AcDbLine
 62
7
  6
CONTINUOUS
 10
263.0985676237
 20
-95.6953490375
 11
263.0970693553
 21
-95.7294010707
  0
LINE
  5
679
100
AcDbEntity
  8
0
100
AcDbLine
 62
7
  6
CONTINUOUS
 10
263.0959315305
 20
27.3945163653
 11
263.0982842361
 21
27.4309621241
  0
LINE
  5
67A
100
AcDbEntity
  8
0
100
AcDbLine
 62
7
  6
CONTINUOUS
 10
263.0970693553
 20
-95.7294010707
 11
263.0945730961
 21
-95.7633920263
  0
LINE
  5
67B
100
AcDbEntity
  8
0
100
AcDbLine
 62
7
  6
CONTINUOUS
 10
263.0920034553
 20
27.3580105573
 11
263.0959315305
 21
27.3945163653
  0
LINE
  5
67C
100
AcDbEntity
  8
0
100
AcDbLine
 62
7
  6
CONTINUOUS
 10
258.3428051605
 20
-3.7592160291
 11
258.5928158917
 21
-1.6612207983
  0
LINE
  5
67D
100
AcDbEntity
  8
0
100
AcDbLine
 62
7
  6
CONTINUOUS
 10
263.0864926785
 20
27.3214608657
 11
263.0920034553
 21
27.3580105573
  0
LINE
  5
67E
100
AcDbEntity
  8
0
100
AcDbLine
 62
7
  6
CONTINUOUS
 10
254.2754869961
 20
-29.8296114515
 11
254.3642987393
 21
-29.2627550667
  0
LINE
  5
67F
100
AcDbEntity
  8
0
100
AcDbLine
 62
7
  6
CONTINUOUS
 10
256.6089393741
 20
-28.4825380671
 11
256.5201276313
 21
-29.0493944519
  0
LINE
  5
680
100
AcDbEntity
  8
0
100
AcDbLine
 62
7
  6
CONTINUOUS
 10
258.8527297729
 20
-1.7622825235
 11
258.4801337301
 21
-3.9919655451
  0
LINE
  5
681
100
AcDbEntity
  8
0
100
AcDbLine
 62
7
  6
CONTINUOUS
 10
259.5598365541
 20
-2.1704865795
 11
259.1872405113
 21
-4.4001696007
  0
LINE
  5
682
100
AcDbEntity
  8
0
100
AcDbLine
 62
7
  6
CONTINUOUS
 10
263.0793905745
 20
27.2848847937
 11
263.0864926785
 21
27.3214608657
  0
LINE
  5
683
100
AcDbEntity
  8
0
100
AcDbLine
 62
7
  6
CONTINUOUS
 10
199.0574586345
 20
4.9014525213
 11
199.0047209857
 21
4.8176986245
  0
LINE
  5
684
100
AcDbEntity
  8
0
100
AcDbLine
 62
7
  6
CONTINUOUS
 10
203.2689528193
 20
9.4083948185
 11
204.3088739885
 21
10.9014419493
  0
LINE
  5
685
100
AcDbEntity
  8
0
100
AcDbLine
 62
7
  6
CONTINUOUS
 10
151.4046231321
 20
-33.6407697587
 11
151.1593727601
 21
-33.9230375799
  0
LINE
  5
686
100
AcDbEntity
  8
0
100
AcDbLine
 62
7
  6
CONTINUOUS
 10
167.6119886985
 20
22.9003220929
 11
167.5315814829
 21
22.8343880961
  0
LINE
  5
687
100
AcDbEntity
  8
0
100
AcDbLine
 62
7
  6
CONTINUOUS
 10
167.5315814829
 20
22.8343880961
 11
165.8628613093
 21
21.5453642669
  0
LINE
  5
688
100
AcDbEntity
  8
0
100
AcDbLine
 62
7
  6
CONTINUOUS
 10
166.3907843585
 20
23.3966384469
 11
164.6737431405
 21
22.0777380337
  0
LINE
  5
689
100
AcDbEntity
  8
0
100
AcDbLine
 62
8
  6
CONTINUOUS
 10
-2.3689192355
 20
-49.4356150731
 11
-1.9444712871
 21
-49.1905864883
  0
LINE
  5
68A
100
AcDbEntity
  8
0
100
AcDbLine
 62
7
  6
CONTINUOUS
 10
-2.3689192355
 20
-49.4356150731
 11
-3.0760260167
 21
-49.8438191291
  0
LINE
  5
68B
100
AcDbEntity
  8
0
100
AcDbLine
 62
7
  6
CONTINUOUS
 10
-156.1868266843
 20
143.4379373753
 11
-155.8197835643
 21
143.5092539701
  0
LINE
  5
68C
100
AcDbEntity
  8
0
100
AcDbLine
 62
7
  6
CONTINUOUS
 10
-156.5268903455
 20
144.4075152129
 11
-156.8939334655
 21
144.3361986185
  0
LINE
  5
68D
100
AcDbEntity
  8
0
100
AcDbLine
 62
7
  6
CONTINUOUS
 10
-158.0464840555
 20
150.6376217709
 11
-158.0567238835
 21
150.6358037125
  0
LINE
  5
68E
100
AcDbEntity
  8
0
100
AcDbLine
 62
7
  6
CONTINUOUS
 10
-158.4205074055
 20
151.5459543189
 11
-158.4466864023
 21
151.5416493885
  0
LINE
  5
68F
100
AcDbEntity
  8
0
100
AcDbLine
 62
7
  6
CONTINUOUS
 10
263.0945730961
 20
-95.7633920263
 11
263.0910774393
 21
-95.7973391471
  0
LINE
  5
690
100
AcDbEntity
  8
0
100
AcDbLine
 62
7
  6
CONTINUOUS
 10
263.0910774393
 20
-95.7973391471
 11
263.0865791093
 21
-95.8312595647
  0
LINE
  5
691
100
AcDbEntity
  8
0
100
AcDbLine
 62
7
  6
CONTINUOUS
 10
257.8481554741
 20
-5.9352451203
 11
258.3428051605
 21
-3.7592160291
  0
LINE
  5
692
100
AcDbEntity
  8
0
100
AcDbLine
 62
7
  6
CONTINUOUS
 10
263.0706874209
 20
27.2483013181
 11
263.0793905745
 21
27.2848847937
  0
LINE
  5
693
100
AcDbEntity
  8
0
100
AcDbLine
 62
7
  6
CONTINUOUS
 10
258.4801337301
 20
-3.9919655451
 11
257.8672784545
 21
-6.2804027903
  0
LINE
  5
694
100
AcDbEntity
  8
0
100
AcDbLine
 62
7
  6
CONTINUOUS
 10
259.1872405113
 20
-4.4001696007
 11
258.5743852357
 21
-6.6886068463
  0
LINE
  5
695
100
AcDbEntity
  8
0
100
AcDbLine
 62
7
  6
CONTINUOUS
 10
263.0603726089
 20
27.2117310001
 11
263.0706874209
 21
27.2483013181
  0
LINE
  5
696
100
AcDbEntity
  8
0
100
AcDbLine
 62
7
  6
CONTINUOUS
 10
263.0484348693
 20
27.1751960813
 11
263.0603726089
 21
27.2117310001
  0
LINE
  5
697
100
AcDbEntity
  8
0
100
AcDbLine
 62
7
  6
CONTINUOUS
 10
248.3995396369
 20
28.4959370993
 11
248.2853589357
 21
28.1645594349
  0
LINE
  5
698
100
AcDbEntity
  8
0
100
AcDbLine
 62
7
  6
CONTINUOUS
 10
251.4924657169
 20
26.9398145669
 11
251.4163452493
 21
26.7188961237
  0
LINE
  5
699
100
AcDbEntity
  8
0
100
AcDbLine
 62
7
  6
CONTINUOUS
 10
204.5127173989
 20
8.9048435869
 11
205.6146375873
 21
10.4271358929
  0
LINE
  5
69A
100
AcDbEntity
  8
0
100
AcDbLine
 62
7
  6
CONTINUOUS
 10
200.0961908073
 20
6.5772129165
 11
200.1540251597
 21
6.6506107089
  0
LINE
  5
69B
100
AcDbEntity
  8
0
100
AcDbLine
 62
7
  6
CONTINUOUS
 10
151.8664795413
 20
-34.8212988231
 11
152.1117299129
 21
-34.5390310019
  0
LINE
  5
69C
100
AcDbEntity
  8
0
100
AcDbLine
 62
7
  6
CONTINUOUS
 10
94.4825272465
 20
-105.2393626643
 11
94.2372768745
 21
-105.5216304859
  0
LINE
  5
69D
100
AcDbEntity
  8
0
100
AcDbLine
 62
7
  6
CONTINUOUS
 10
153.0046231321
 20
-39.0249816407
 11
153.2498735037
 21
-38.7427138195
  0
LINE
  5
69E
100
AcDbEntity
  8
0
100
AcDbLine
 62
7
  6
CONTINUOUS
 10
96.0825272465
 20
-108.0106439483
 11
96.3277776181
 21
-107.7283761271
  0
LINE
  5
69F
100
AcDbEntity
  8
0
100
AcDbLine
 62
7
  6
CONTINUOUS
 10
-158.0567238835
 20
150.6358037125
 11
-158.0666478487
 21
150.6335123337
  0
LINE
  5
6A0
100
AcDbEntity
  8
0
100
AcDbLine
 62
7
  6
CONTINUOUS
 10
-158.4466864023
 20
151.5416493885
 11
-158.4722143035
 21
151.5362308921
  0
LINE
  5
6A1
100
AcDbEntity
  8
0
100
AcDbLine
 62
7
  6
CONTINUOUS
 10
-58.1887743127
 20
205.4501272461
 11
-57.8060908803
 21
205.4940706565
  0
LINE
  5
6A2
100
AcDbEntity
  8
0
100
AcDbLine
 62
7
  6
CONTINUOUS
 10
-58.5131976615
 20
207.0074593801
 11
-59.0872228103
 21
206.9415442645
  0
LINE
  5
6A3
100
AcDbEntity
  8
0
100
AcDbLine
 62
7
  6
CONTINUOUS
 10
263.0865791093
 20
-95.8312595647
 11
263.0810729653
 21
-95.8651702799
  0
LINE
  5
6A4
100
AcDbEntity
  8
0
100
AcDbLine
 62
7
  6
CONTINUOUS
 10
263.0810729653
 20
-95.8651702799
 11
263.0745520093
 21
-95.8990881375
  0
LINE
  5
6A5
100
AcDbEntity
  8
0
100
AcDbLine
 62
7
  6
CONTINUOUS
 10
257.1194949661
 20
-8.1425535139
 11
257.8481554741
 21
-5.9352451203
  0
LINE
  5
6A6
100
AcDbEntity
  8
0
100
AcDbLine
 62
7
  6
CONTINUOUS
 10
257.8672784545
 20
-6.2804027903
 11
257.0262032281
 21
-8.5826388795
  0
LINE
  5
6A7
100
AcDbEntity
  8
0
100
AcDbLine
 62
7
  6
CONTINUOUS
 10
258.5743852357
 20
-6.6886068463
 11
257.7333100093
 21
-8.9908429355
  0
LINE
  5
6A8
100
AcDbEntity
  8
0
100
AcDbLine
 62
7
  6
CONTINUOUS
 10
263.0348625057
 20
27.1387205513
 11
263.0484348693
 21
27.1751960813
  0
LINE
  5
6A9
100
AcDbEntity
  8
0
100
AcDbLine
 62
7
  6
CONTINUOUS
 10
263.0196436333
 20
27.1023301937
 11
263.0348625057
 21
27.1387205513
  0
LINE
  5
6AA
100
AcDbEntity
  8
0
100
AcDbLine
 62
7
  6
CONTINUOUS
 10
263.0027664201
 20
27.0660526065
 11
263.0196436333
 21
27.1023301937
  0
LINE
  5
6AB
100
AcDbEntity
  8
0
100
AcDbLine
 62
7
  6
CONTINUOUS
 10
262.9842193229
 20
27.0299171977
 11
263.0027664201
 21
27.0660526065
  0
LINE
  5
6AC
100
AcDbEntity
  8
0
100
AcDbLine
 62
7
  6
CONTINUOUS
 10
249.5265884817
 20
27.0893322705
 11
249.5685861845
 21
27.1607330101
  0
LINE
  5
6AD
100
AcDbEntity
  8
0
100
AcDbLine
 62
7
  6
CONTINUOUS
 10
165.5217587557
 20
-80.1133686171
 11
165.9002719729
 21
-79.6028013203
  0
LINE
  5
6AE
100
AcDbEntity
  8
0
100
AcDbLine
 62
7
  6
CONTINUOUS
 10
167.1717587557
 20
-81.0662029911
 11
166.7932455381
 21
-81.5767702879
  0
LINE
  5
6AF
100
AcDbEntity
  8
0
100
AcDbLine
 62
7
  6
CONTINUOUS
 10
201.9031525489
 20
8.0055685349
 11
203.2689528193
 21
9.4083948185
  0
LINE
  5
6B0
100
AcDbEntity
  8
0
100
AcDbLine
 62
7
  6
CONTINUOUS
 10
203.0922707177
 20
7.4731947681
 11
204.5127173989
 21
8.9048435869
  0
LINE
  5
6B1
100
AcDbEntity
  8
0
100
AcDbLine
 62
7
  6
CONTINUOUS
 10
199.0047209857
 20
4.8176986245
 11
198.9233973845
 21
4.7419518805
  0
LINE
  5
6B2
100
AcDbEntity
  8
0
100
AcDbLine
 62
7
  6
CONTINUOUS
 10
159.6292443345
 20
-22.6568455263
 11
159.3040852073
 21
-22.9377739455
  0
LINE
  5
6B3
100
AcDbEntity
  8
0
100
AcDbLine
 62
7
  6
CONTINUOUS
 10
160.4731317549
 20
-24.2729780347
 11
160.6899045061
 21
-24.0856924219
  0
LINE
  5
6B4
100
AcDbEntity
  8
0
100
AcDbLine
 62
7
  6
CONTINUOUS
 10
162.3208908197
 20
-24.7148149211
 11
162.1041180685
 21
-24.9021005339
  0
LINE
  5
6B5
100
AcDbEntity
  8
0
100
AcDbLine
 62
7
  6
CONTINUOUS
 10
200.1540251597
 20
6.6506107089
 11
200.2344323753
 21
6.7165447057
  0
LINE
  5
6B6
100
AcDbEntity
  8
0
100
AcDbLine
 62
7
  6
CONTINUOUS
 10
171.2337308749
 20
25.8647383445
 11
168.9490808029
 21
24.8735115481
  0
LINE
  5
6B7
100
AcDbEntity
  8
0
100
AcDbLine
 62
7
  6
CONTINUOUS
 10
172.1559292097
 20
25.1782750373
 11
169.9230325069
 21
24.2149433861
  0
LINE
  5
6B8
100
AcDbEntity
  8
0
100
AcDbLine
 62
7
  6
CONTINUOUS
 10
171.2337308749
 20
25.0481975325
 11
169.1350672597
 21
24.1476575381
  0
LINE
  5
6B9
100
AcDbEntity
  8
0
100
AcDbLine
 62
7
  6
CONTINUOUS
 10
173.7136880761
 20
26.6847447589
 11
171.2337308749
 21
25.8647383445
  0
LINE
  5
6BA
100
AcDbEntity
  8
0
100
AcDbLine
 62
7
  6
CONTINUOUS
 10
-158.4722143035
 20
151.5362308921
 11
-158.4970903727
 21
151.5297179613
  0
LINE
  5
6BB
100
AcDbEntity
  8
0
100
AcDbLine
 62
7
  6
CONTINUOUS
 10
263.0745520093
 20
-95.8990881375
 11
263.0670073973
 21
-95.9330298083
  0
LINE
  5
6BC
100
AcDbEntity
  8
0
100
AcDbLine
 62
7
  6
CONTINUOUS
 10
263.0670073973
 20
-95.9330298083
 11
263.0608921517
 21
-95.9576590947
  0
LINE
  5
6BD
100
AcDbEntity
  8
0
100
AcDbLine
 62
7
  6
CONTINUOUS
 10
263.0608921517
 20
-95.9576590947
 11
263.0516657769
 21
-95.9912567051
  0
LINE
  5
6BE
100
AcDbEntity
  8
0
100
AcDbLine
 62
7
  6
CONTINUOUS
 10
256.1724797693
 20
-10.3337145779
 11
257.1194949661
 21
-8.1425535139
  0
LINE
  5
6BF
100
AcDbEntity
  8
0
100
AcDbLine
 62
7
  6
CONTINUOUS
 10
254.3642987393
 20
-29.2627550667
 11
254.6172131853
 21
-28.6796575723
  0
LINE
  5
6C0
100
AcDbEntity
  8
0
100
AcDbLine
 62
7
  6
CONTINUOUS
 10
256.5201276313
 20
-29.0493944519
 11
256.2672131853
 21
-29.6324919463
  0
LINE
  5
6C1
100
AcDbEntity
  8
0
100
AcDbLine
 62
7
  6
CONTINUOUS
 10
257.0262032281
 20
-8.5826388795
 11
255.9734306177
 21
-10.8534473603
  0
LINE
  5
6C2
100
AcDbEntity
  8
0
100
AcDbLine
 62
7
  6
CONTINUOUS
 10
257.7333100093
 20
-8.9908429355
 11
256.6805373989
 21
-11.2616514159
  0
LINE
  5
6C3
100
AcDbEntity
  8
0
100
AcDbLine
 62
7
  6
CONTINUOUS
 10
255.0274576253
 20
-12.4616486263
 11
256.1724797693
 21
-10.3337145779
  0
LINE
  5
6C4
100
AcDbEntity
  8
0
100
AcDbLine
 62
7
  6
CONTINUOUS
 10
262.9639913201
 20
26.9939551553
 11
262.9842193229
 21
27.0299171977
  0
LINE
  5
6C5
100
AcDbEntity
  8
0
100
AcDbLine
 62
7
  6
CONTINUOUS
 10
255.9734306177
 20
-10.8534473603
 11
254.7296418949
 21
-13.0482191615
  0
LINE
  5
6C6
100
AcDbEntity
  8
0
100
AcDbLine
 62
7
  6
CONTINUOUS
 10
262.9468264997
 20
26.9657061533
 11
262.9639913201
 21
26.9939551553
  0
LINE
  5
6C7
100
AcDbEntity
  8
0
100
AcDbLine
 62
7
  6
CONTINUOUS
 10
262.9235640353
 20
26.9301298869
 11
262.9468264997
 21
26.9657061533
  0
LINE
  5
6C8
100
AcDbEntity
  8
0
100
AcDbLine
 62
7
  6
CONTINUOUS
 10
262.8984735357
 20
26.8946295241
 11
262.9235640353
 21
26.9301298869
  0
LINE
  5
6C9
100
AcDbEntity
  8
0
100
AcDbLine
 62
7
  6
CONTINUOUS
 10
262.8715385841
 20
26.8592430097
 11
262.8984735357
 21
26.8946295241
  0
LINE
  5
6CA
100
AcDbEntity
  8
0
100
AcDbLine
 62
7
  6
CONTINUOUS
 10
262.8427458649
 20
26.8240118257
 11
262.8715385841
 21
26.8592430097
  0
LINE
  5
6CB
100
AcDbEntity
  8
0
100
AcDbLine
 62
7
  6
CONTINUOUS
 10
151.4046231321
 20
-79.5303633867
 11
151.1593727601
 21
-79.8126312079
  0
LINE
  5
6CC
100
AcDbEntity
  8
0
100
AcDbLine
 62
7
  6
CONTINUOUS
 10
151.8664795413
 20
-80.7108924511
 11
152.1117299129
 21
-80.4286246299
  0
LINE
  5
6CD
100
AcDbEntity
  8
0
100
AcDbLine
 62
7
  6
CONTINUOUS
 10
153.0046231321
 20
-84.9145752687
 11
153.2498735037
 21
-84.6323074475
  0
LINE
  5
6CE
100
AcDbEntity
  8
0
100
AcDbLine
 62
7
  6
CONTINUOUS
 10
151.4046231321
 20
-92.5950163767
 11
151.1593727601
 21
-92.8772841983
  0
LINE
  5
6CF
100
AcDbEntity
  8
0
100
AcDbLine
 62
7
  6
CONTINUOUS
 10
152.0951280601
 20
-94.0169082459
 11
152.2867299129
 21
-93.7963865103
  0
LINE
  5
6D0
100
AcDbEntity
  8
0
100
AcDbLine
 62
7
  6
CONTINUOUS
 10
153.0046231321
 20
-97.9792282591
 11
153.2498735037
 21
-97.6969604375
  0
LINE
  5
6D1
100
AcDbEntity
  8
0
100
AcDbLine
 62
7
  6
CONTINUOUS
 10
248.7246987637
 20
28.7768655185
 11
248.3995396369
 21
28.4959370993
  0
LINE
  5
6D2
100
AcDbEntity
  8
0
100
AcDbLine
 62
7
  6
CONTINUOUS
 10
249.5685861845
 20
27.1607330101
 11
249.7853589357
 21
27.3480186229
  0
LINE
  5
6D3
100
AcDbEntity
  8
0
100
AcDbLine
 62
7
  6
CONTINUOUS
 10
200.2344323753
 20
6.7165447057
 11
201.9031525489
 21
8.0055685349
  0
LINE
  5
6D4
100
AcDbEntity
  8
0
100
AcDbLine
 62
7
  6
CONTINUOUS
 10
201.3752294997
 20
6.1542943549
 11
203.0922707177
 21
7.4731947681
  0
LINE
  5
6D5
100
AcDbEntity
  8
0
100
AcDbLine
 62
7
  6
CONTINUOUS
 10
198.9233973845
 20
4.7419518805
 11
198.8169330553
 21
4.6774212537
  0
LINE
  5
6D6
100
AcDbEntity
  8
0
100
AcDbLine
 62
7
  6
CONTINUOUS
 10
173.7136880761
 20
25.8682039473
 11
171.2337308749
 21
25.0481975325
  0
LINE
  5
6D7
100
AcDbEntity
  8
0
100
AcDbLine
 62
7
  6
CONTINUOUS
 10
174.5859589057
 20
25.9667347505
 11
172.1559292097
 21
25.1782750373
  0
LINE
  5
6D8
100
AcDbEntity
  8
0
100
AcDbLine
 62
7
  6
CONTINUOUS
 10
263.0516657769
 20
-95.9912567051
 11
263.0413592197
 21
-96.0250067351
  0
LINE
  5
6D9
100
AcDbEntity
  8
0
100
AcDbLine
 62
7
  6
CONTINUOUS
 10
263.0413592197
 20
-96.0250067351
 11
263.0299761373
 21
-96.0588531403
  0
LINE
  5
6DA
100
AcDbEntity
  8
0
100
AcDbLine
 62
7
  6
CONTINUOUS
 10
256.6805373989
 20
-11.2616514159
 11
255.4367486761
 21
-13.4564232175
  0
LINE
  5
6DB
100
AcDbEntity
  8
0
100
AcDbLine
 62
7
  6
CONTINUOUS
 10
253.7090306893
 20
-14.4806344783
 11
255.0274576253
 21
-12.4616486263
  0
LINE
  5
6DC
100
AcDbEntity
  8
0
100
AcDbLine
 62
7
  6
CONTINUOUS
 10
254.7296418949
 20
-13.0482191615
 11
253.3192707625
 21
-15.1238389211
  0
LINE
  5
6DD
100
AcDbEntity
  8
0
100
AcDbLine
 62
7
  6
CONTINUOUS
 10
255.4367486761
 20
-13.4564232175
 11
254.0263775437
 21
-15.5320429771
  0
LINE
  5
6DE
100
AcDbEntity
  8
0
100
AcDbLine
 62
7
  6
CONTINUOUS
 10
262.8120856573
 20
26.7889808585
 11
262.8427458649
 21
26.8240118257
  0
LINE
  5
6DF
100
AcDbEntity
  8
0
100
AcDbLine
 62
7
  6
CONTINUOUS
 10
262.7795522901
 20
26.7541982133
 11
262.8120856573
 21
26.7889808585
  0
LINE
  5
6E0
100
AcDbEntity
  8
0
100
AcDbLine
 62
7
  6
CONTINUOUS
 10
262.7451445533
 20
26.7197149893
 11
262.7795522901
 21
26.7541982133
  0
LINE
  5
6E1
100
AcDbEntity
  8
0
100
AcDbLine
 62
7
  6
CONTINUOUS
 10
262.7088660597
 20
26.6855850065
 11
262.7451445533
 21
26.7197149893
  0
LINE
  5
6E2
100
AcDbEntity
  8
0
100
AcDbLine
 62
7
  6
CONTINUOUS
 10
262.6707255449
 20
26.6518644937
 11
262.7088660597
 21
26.6855850065
  0
LINE
  5
6E3
100
AcDbEntity
  8
0
100
AcDbLine
 62
7
  6
CONTINUOUS
 10
251.4163452493
 20
26.7188961237
 11
251.1995724981
 21
26.5316105113
  0
LINE
  5
6E4
100
AcDbEntity
  8
0
100
AcDbLine
 62
7
  6
CONTINUOUS
 10
262.6307370989
 20
26.6186117385
 11
262.6707255449
 21
26.6518644937
  0
LINE
  5
6E5
100
AcDbEntity
  8
0
100
AcDbLine
 62
7
  6
CONTINUOUS
 10
262.5889203305
 20
26.5858867053
 11
262.6307370989
 21
26.6186117385
  0
LINE
  5
6E6
100
AcDbEntity
  8
0
100
AcDbLine
 62
7
  6
CONTINUOUS
 10
262.5453004473
 20
26.5537506225
 11
262.5889203305
 21
26.5858867053
  0
LINE
  5
6E7
100
AcDbEntity
  8
0
100
AcDbLine
 62
7
  6
CONTINUOUS
 10
262.5132809969
 20
26.5313451109
 11
262.5453004473
 21
26.5537506225
  0
LINE
  5
6E8
100
AcDbEntity
  8
0
100
AcDbLine
 62
7
  6
CONTINUOUS
 10
149.2248054121
 20
-27.7421536355
 11
148.5176986309
 21
-28.1503576911
  0
LINE
  5
6E9
100
AcDbEntity
  8
0
100
AcDbLine
 62
7
  6
CONTINUOUS
 10
149.5176173633
 20
-28.2493737923
 11
150.2247241445
 21
-27.8411697363
  0
LINE
  5
6EA
100
AcDbEntity
  8
0
100
AcDbLine
 62
8
  6
CONTINUOUS
 10
147.9619824449
 20
-29.1477146555
 11
148.1034038009
 21
-29.0660738443
  0
LINE
  5
6EB
100
AcDbEntity
  8
0
100
AcDbLine
 62
7
  6
CONTINUOUS
 10
147.9619824449
 20
-29.3110228179
 11
148.1034038009
 21
-29.2293820067
  0
LINE
  5
6EC
100
AcDbEntity
  8
0
100
AcDbLine
 62
7
  6
CONTINUOUS
 10
262.5132809969
 20
30.6136510701
 11
261.8061742157
 21
30.2054470145
  0
LINE
  5
6ED
100
AcDbEntity
  8
0
100
AcDbLine
 62
7
  6
CONTINUOUS
 10
155.0330502565
 20
-31.4333654283
 11
155.7401570377
 21
-31.0251613723
  0
LINE
  5
6EE
100
AcDbEntity
  8
0
100
AcDbLine
 62
7
  6
CONTINUOUS
 10
151.0732522821
 20
-34.3732839111
 11
151.7803590633
 21
-33.9650798555
  0
LINE
  5
6EF
100
AcDbEntity
  8
0
100
AcDbLine
 62
7
  6
CONTINUOUS
 10
160.6899045061
 20
-28.9840083927
 11
259.6848538721
 21
28.1645594349
  0
LINE
  5
6F0
100
AcDbEntity
  8
0
100
AcDbLine
 62
8
  6
CONTINUOUS
 10
157.6543706001
 20
-30.7365175163
 11
157.8614773813
 21
-30.6169573163
  0
LINE
  5
6F1
100
AcDbEntity
  8
0
100
AcDbLine
 62
8
  6
CONTINUOUS
 10
261.0990674345
 20
28.9808348465
 11
261.3061742157
 21
29.1003950465
  0
LINE
  5
6F2
100
AcDbEntity
  8
0
100
AcDbLine
 62
7
  6
CONTINUOUS
 10
160.6899045061
 20
-29.8005492047
 11
259.6848538721
 21
27.3480186229
  0
LINE
  5
6F3
100
AcDbEntity
  8
0
100
AcDbLine
 62
7
  6
CONTINUOUS
 10
151.7803590633
 20
-35.2715451543
 11
152.4874658445
 21
-34.8633410983
  0
LINE
  5
6F4
100
AcDbEntity
  8
0
100
AcDbLine
 62
7
  6
CONTINUOUS
 10
262.5132809969
 20
28.4033206013
 11
262.0925557613
 21
28.1604410925
  0
LINE
  5
6F5
100
AcDbEntity
  8
0
100
AcDbLine
 62
7
  6
CONTINUOUS
 10
156.9386353465
 20
-32.5436250407
 11
157.1543706001
 21
-32.4190837295
  0
LINE
  5
6F6
100
AcDbEntity
  8
0
100
AcDbLine
 62
7
  6
CONTINUOUS
 10
156.4472638189
 20
-33.8828551639
 11
157.1543706001
 21
-33.4746511079
  0
LINE
  5
6F7
100
AcDbEntity
  8
0
100
AcDbLine
 62
7
  6
CONTINUOUS
 10
151.0732522821
 20
-36.9862145095
 11
151.7803590633
 21
-36.5780104535
  0
LINE
  5
6F8
100
AcDbEntity
  8
0
100
AcDbLine
 62
7
  6
CONTINUOUS
 10
262.5132809969
 20
26.5313451109
 11
159.2756909437
 21
-33.0664470519
  0
LINE
  5
6F9
100
AcDbEntity
  8
0
100
AcDbLine
 62
7
  6
CONTINUOUS
 10
264.6346013405
 20
26.9394164669
 11
263.9274945593
 21
26.5312124109
  0
LINE
  5
6FA
100
AcDbEntity
  8
0
100
AcDbLine
 62
7
  6
CONTINUOUS
 10
251.1995724981
 20
26.5316105113
 11
251.1059121733
 21
26.4839094973
  0
LINE
  5
6FB
100
AcDbEntity
  8
0
100
AcDbLine
 62
7
  6
CONTINUOUS
 10
162.1041180685
 20
-24.9021005339
 11
162.0104575749
 21
-24.9498016231
  0
LINE
  5
6FC
100
AcDbEntity
  8
0
100
AcDbLine
 62
7
  6
CONTINUOUS
 10
196.5322829833
 20
3.6861944577
 11
198.8169330553
 21
4.6774212537
  0
LINE
  5
6FD
100
AcDbEntity
  8
0
100
AcDbLine
 62
7
  6
CONTINUOUS
 10
195.6100846485
 20
4.3726577645
 11
197.8429813513
 21
5.3359894157
  0
LINE
  5
6FE
100
AcDbEntity
  8
0
100
AcDbLine
 62
7
  6
CONTINUOUS
 10
195.6100846485
 20
3.5561169525
 11
197.8429813513
 21
4.5194486037
  0
LINE
  5
6FF
100
AcDbEntity
  8
0
100
AcDbLine
 62
7
  6
CONTINUOUS
 10
249.2113337873
 20
28.9645758873
 11
248.7246987637
 21
28.7768655185
  0
LINE
  5
700
100
AcDbEntity
  8
0
100
AcDbLine
 62
7
  6
CONTINUOUS
 10
249.7853589357
 20
27.3480186229
 11
250.1097822845
 21
27.4731588685
  0
LINE
  5
701
100
AcDbEntity
  8
0
100
AcDbLine
 62
7
  6
CONTINUOUS
 10
194.0523257817
 20
2.8661880429
 11
196.5322829833
 21
3.6861944577
  0
LINE
  5
702
100
AcDbEntity
  8
0
100
AcDbLine
 62
7
  6
CONTINUOUS
 10
193.1800549525
 20
3.5841980513
 11
195.6100846485
 21
4.3726577645
  0
LINE
  5
703
100
AcDbEntity
  8
0
100
AcDbLine
 62
7
  6
CONTINUOUS
 10
193.1800549525
 20
2.7676572397
 11
195.6100846485
 21
3.5561169525
  0
LINE
  5
704
100
AcDbEntity
  8
0
100
AcDbLine
 62
7
  6
CONTINUOUS
 10
263.0299761373
 20
-96.0588531403
 11
263.0175234513
 21
-96.0927377631
  0
LINE
  5
705
100
AcDbEntity
  8
0
100
AcDbLine
 62
7
  6
CONTINUOUS
 10
263.0175234513
 20
-96.0927377631
 11
263.0040114041
 21
-96.1266007491
  0
LINE
  5
706
100
AcDbEntity
  8
0
100
AcDbLine
 62
7
  6
CONTINUOUS
 10
263.0040114041
 20
-96.1266007491
 11
262.9894535629
 21
-96.1603809967
  0
LINE
  5
707
100
AcDbEntity
  8
0
100
AcDbLine
 62
7
  6
CONTINUOUS
 10
254.6172131853
 20
-28.6796575723
 11
254.9957264025
 21
-28.1690902755
  0
LINE
  5
708
100
AcDbEntity
  8
0
100
AcDbLine
 62
7
  6
CONTINUOUS
 10
256.2672131853
 20
-29.6324919463
 11
255.8886999677
 21
-30.1430592431
  0
LINE
  5
709
100
AcDbEntity
  8
0
100
AcDbLine
 62
7
  6
CONTINUOUS
 10
252.2455269229
 20
-16.3472918355
 11
253.7090306893
 21
-14.4806344783
  0
LINE
  5
70A
100
AcDbEntity
  8
0
100
AcDbLine
 62
7
  6
CONTINUOUS
 10
253.3192707625
 20
-15.1238389211
 11
251.7700233637
 21
-17.0395319687
  0
LINE
  5
70B
100
AcDbEntity
  8
0
100
AcDbLine
 62
7
  6
CONTINUOUS
 10
254.0263775437
 20
-15.5320429771
 11
252.4771301449
 21
-17.4477360247
  0
LINE
  5
70C
100
AcDbEntity
  8
0
100
AcDbLine
 62
7
  6
CONTINUOUS
 10
250.6683914357
 20
-18.0215133567
 11
252.2455269229
 21
-16.3472918355
  0
LINE
  5
70D
100
AcDbEntity
  8
0
100
AcDbLine
 62
7
  6
CONTINUOUS
 10
251.7700233637
 20
-17.0395319687
 11
250.1123340073
 21
-18.7576653259
  0
LINE
  5
70E
100
AcDbEntity
  8
0
100
AcDbLine
 62
7
  6
CONTINUOUS
 10
252.4771301449
 20
-17.4477360247
 11
250.8194407885
 21
-19.1658693819
  0
LINE
  5
70F
100
AcDbEntity
  8
0
100
AcDbLine
 62
7
  6
CONTINUOUS
 10
247.3104852013
 20
7.5051331581
 11
249.0858740793
 21
8.3286515345
  0
LINE
  5
710
100
AcDbEntity
  8
0
100
AcDbLine
 62
7
  6
CONTINUOUS
 10
249.0115108489
 20
7.0574289425
 11
247.3104852013
 21
6.2798061209
  0
LINE
  5
711
100
AcDbEntity
  8
0
100
AcDbLine
 62
7
  6
CONTINUOUS
 10
160.1158793577
 20
-22.4691351575
 11
159.6292443345
 21
-22.6568455263
  0
LINE
  5
712
100
AcDbEntity
  8
0
100
AcDbLine
 62
7
  6
CONTINUOUS
 10
160.6899045061
 20
-24.0856924219
 11
161.0143278549
 21
-23.9605521763
  0
LINE
  5
713
100
AcDbEntity
  8
0
100
AcDbLine
 62
7
  6
CONTINUOUS
 10
249.0858740793
 20
8.3286515345
 11
250.8194407885
 21
8.8433633885
  0
LINE
  5
714
100
AcDbEntity
  8
0
100
AcDbLine
 62
7
  6
CONTINUOUS
 10
262.9894535629
 20
-96.1603809967
 11
262.9738667721
 21
-96.1940166347
  0
LINE
  5
715
100
AcDbEntity
  8
0
100
AcDbLine
 62
7
  6
CONTINUOUS
 10
262.9738667721
 20
-96.1940166347
 11
262.9572710525
 21
-96.2274455163
  0
LINE
  5
716
100
AcDbEntity
  8
0
100
AcDbLine
 62
7
  6
CONTINUOUS
 10
262.9572710525
 20
-96.2274455163
 11
262.9469870185
 21
-96.2470999819
  0
LINE
  5
717
100
AcDbEntity
  8
0
100
AcDbLine
 62
7
  6
CONTINUOUS
 10
249.0115108489
 20
-19.4673264123
 11
250.6683914357
 21
-18.0215133567
  0
LINE
  5
718
100
AcDbEntity
  8
0
100
AcDbLine
 62
7
  6
CONTINUOUS
 10
250.1123340073
 20
-18.7576653259
 11
248.3787672981
 21
-20.2444869903
  0
LINE
  5
719
100
AcDbEntity
  8
0
100
AcDbLine
 62
7
  6
CONTINUOUS
 10
250.8194407885
 20
-19.1658693819
 11
249.0858740793
 21
-20.6526910463
  0
LINE
  5
71A
100
AcDbEntity
  8
0
100
AcDbLine
 62
7
  6
CONTINUOUS
 10
165.9002719729
 20
-79.6028013203
 11
166.3467587557
 21
-79.2424934647
  0
LINE
  5
71B
100
AcDbEntity
  8
0
100
AcDbLine
 62
7
  6
CONTINUOUS
 10
166.7932455381
 20
-81.5767702879
 11
166.3467587557
 21
-81.9370781439
  0
LINE
  5
71C
100
AcDbEntity
  8
0
100
AcDbLine
 62
7
  6
CONTINUOUS
 10
248.3787672981
 20
-20.2444869903
 11
247.3104852013
 21
-21.0171337311
  0
LINE
  5
71D
100
AcDbEntity
  8
0
100
AcDbLine
 62
7
  6
CONTINUOUS
 10
247.3104852013
 20
-20.6536659991
 11
249.0115108489
 21
-19.4673264123
  0
LINE
  5
71E
100
AcDbEntity
  8
0
100
AcDbLine
 62
7
  6
CONTINUOUS
 10
249.0858740793
 20
-20.6526910463
 11
247.3104852013
 21
-21.8789930367
  0
LINE
  5
71F
100
AcDbEntity
  8
0
100
AcDbLine
 62
7
  6
CONTINUOUS
 10
94.8582631777
 20
-105.5636727611
 11
94.1511563965
 21
-105.9718768171
  0
LINE
  5
720
100
AcDbEntity
  8
0
100
AcDbLine
 62
8
  6
CONTINUOUS
 10
94.8582631777
 20
-105.5636727611
 11
95.2827111261
 21
-105.3186441759
  0
LINE
  5
721
100
AcDbEntity
  8
0
100
AcDbLine
 62
7
  6
CONTINUOUS
 10
159.1805373201
 20
-33.1004895571
 11
159.2756909437
 21
-33.0664470519
  0
LINE
  5
722
100
AcDbEntity
  8
0
100
AcDbLine
 62
7
  6
CONTINUOUS
 10
159.1327482833
 20
-33.1172955255
 11
159.1805373201
 21
-33.1004895571
  0
LINE
  5
723
100
AcDbEntity
  8
0
100
AcDbLine
 62
7
  6
CONTINUOUS
 10
159.0847045773
 20
-33.1338431531
 11
159.1327482833
 21
-33.1172955255
  0
LINE
  5
724
100
AcDbEntity
  8
0
100
AcDbLine
 62
7
  6
CONTINUOUS
 10
158.5382637761
 20
-32.6686036607
 11
158.5685841625
 21
-32.6582429963
  0
LINE
  5
725
100
AcDbEntity
  8
0
100
AcDbLine
 62
7
  6
CONTINUOUS
 10
159.0363213113
 20
-33.1500463263
 11
159.0847045773
 21
-33.1338431531
  0
LINE
  5
726
100
AcDbEntity
  8
0
100
AcDbLine
 62
7
  6
CONTINUOUS
 10
158.9875135957
 20
-33.1658189319
 11
159.0363213113
 21
-33.1500463263
  0
LINE
  5
727
100
AcDbEntity
  8
0
100
AcDbLine
 62
7
  6
CONTINUOUS
 10
158.9381965405
 20
-33.1810748559
 11
158.9875135957
 21
-33.1658189319
  0
LINE
  5
728
100
AcDbEntity
  8
0
100
AcDbLine
 62
7
  6
CONTINUOUS
 10
158.5061570277
 20
-32.6783443939
 11
158.5382637761
 21
-32.6686036607
  0
LINE
  5
729
100
AcDbEntity
  8
0
100
AcDbLine
 62
7
  6
CONTINUOUS
 10
158.8882852561
 20
-33.1957279847
 11
158.9381965405
 21
-33.1810748559
  0
LINE
  5
72A
100
AcDbEntity
  8
0
100
AcDbLine
 62
7
  6
CONTINUOUS
 10
262.9469870185
 20
-96.2470999819
 11
262.9285011905
 21
-96.2806987975
  0
LINE
  5
72B
100
AcDbEntity
  8
0
100
AcDbLine
 62
7
  6
CONTINUOUS
 10
262.9285011905
 20
-96.2806987975
 11
262.9089770693
 21
-96.3141068619
  0
LINE
  5
72C
100
AcDbEntity
  8
0
100
AcDbLine
 62
7
  6
CONTINUOUS
 10
262.9089770693
 20
-96.3141068619
 11
262.8884034117
 21
-96.3473253307
  0
LINE
  5
72D
100
AcDbEntity
  8
0
100
AcDbLine
 62
7
  6
CONTINUOUS
 10
254.9957264025
 20
-28.1690902755
 11
255.4422131853
 21
-27.8087824199
  0
LINE
  5
72E
100
AcDbEntity
  8
0
100
AcDbLine
 62
7
  6
CONTINUOUS
 10
255.8886999677
 20
-30.1430592431
 11
255.4422131853
 21
-30.5033670991
  0
LINE
  5
72F
100
AcDbEntity
  8
0
100
AcDbLine
 62
7
  6
CONTINUOUS
 10
151.0732522821
 20
-80.2628775391
 11
151.7803590633
 21
-79.8546734835
  0
LINE
  5
730
100
AcDbEntity
  8
0
100
AcDbLine
 62
7
  6
CONTINUOUS
 10
151.7803590633
 20
-81.1611387823
 11
152.4874658445
 21
-80.7529347263
  0
LINE
  5
731
100
AcDbEntity
  8
0
100
AcDbLine
 62
7
  6
CONTINUOUS
 10
151.0732522821
 20
-82.8758081371
 11
151.7803590633
 21
-82.4676040815
  0
LINE
  5
732
100
AcDbEntity
  8
0
100
AcDbLine
 62
7
  6
CONTINUOUS
 10
246.6033784205
 20
-22.2871970923
 11
244.8279895425
 21
-23.1107154691
  0
LINE
  5
733
100
AcDbEntity
  8
0
100
AcDbLine
 62
7
  6
CONTINUOUS
 10
244.8181592361
 20
-21.8703358559
 11
246.6033784205
 21
-21.0618700551
  0
LINE
  5
734
100
AcDbEntity
  8
0
100
AcDbLine
 62
7
  6
CONTINUOUS
 10
244.8279895425
 20
-23.1107154691
 11
243.0944228333
 21
-23.6254273227
  0
LINE
  5
735
100
AcDbEntity
  8
0
100
AcDbLine
 62
7
  6
CONTINUOUS
 10
262.8884034117
 20
-96.3473253307
 11
262.8667682609
 21
-96.3803547743
  0
LINE
  5
736
100
AcDbEntity
  8
0
100
AcDbLine
 62
7
  6
CONTINUOUS
 10
262.8667682609
 20
-96.3803547743
 11
262.8440589917
 21
-96.4131951603
  0
LINE
  5
737
100
AcDbEntity
  8
0
100
AcDbLine
 62
7
  6
CONTINUOUS
 10
262.8440589917
 20
-96.4131951603
 11
262.8202623553
 21
-96.4458458435
  0
LINE
  5
738
100
AcDbEntity
  8
0
100
AcDbLine
 62
7
  6
CONTINUOUS
 10
262.8202623553
 20
-96.4458458435
 11
262.7953645249
 21
-96.4783055547
  0
LINE
  5
739
100
AcDbEntity
  8
0
100
AcDbLine
 62
7
  6
CONTINUOUS
 10
156.4472638189
 20
-88.5910895603
 11
157.1543706001
 21
-88.1828855043
  0
LINE
  5
73A
100
AcDbEntity
  8
0
100
AcDbLine
 62
7
  6
CONTINUOUS
 10
155.8258215745
 20
-89.9646239795
 11
156.5329283557
 21
-89.5564199239
  0
LINE
  5
73B
100
AcDbEntity
  8
0
100
AcDbLine
 62
7
  6
CONTINUOUS
 10
155.7401570377
 20
-90.2243702343
 11
155.0330502565
 21
-90.6325742899
  0
LINE
  5
73C
100
AcDbEntity
  8
0
100
AcDbLine
 62
7
  6
CONTINUOUS
 10
151.7803590633
 20
-92.9193264735
 11
151.0732522821
 21
-93.3275305295
  0
LINE
  5
73D
100
AcDbEntity
  8
0
100
AcDbLine
 62
7
  6
CONTINUOUS
 10
152.0278464365
 20
-94.3686631923
 11
152.7349532177
 21
-93.9604591363
  0
LINE
  5
73E
100
AcDbEntity
  8
0
100
AcDbLine
 62
7
  6
CONTINUOUS
 10
151.7803590633
 20
-95.5322570715
 11
151.0732522821
 21
-95.9404611275
  0
LINE
  5
73F
100
AcDbEntity
  8
0
100
AcDbLine
 62
7
  6
CONTINUOUS
 10
157.1543706001
 20
-92.6738599699
 11
156.4472638189
 21
-93.0820640255
  0
LINE
  5
740
100
AcDbEntity
  8
0
100
AcDbLine
 62
7
  6
CONTINUOUS
 10
254.7351064041
 20
-30.0951630431
 11
254.3433041717
 21
-30.2431064371
  0
LINE
  5
741
100
AcDbEntity
  8
0
100
AcDbLine
 62
7
  6
CONTINUOUS
 10
255.4422131853
 20
-27.8087824199
 11
255.8886999677
 21
-27.6535876091
  0
LINE
  5
742
100
AcDbEntity
  8
0
100
AcDbLine
 62
7
  6
CONTINUOUS
 10
255.4422131853
 20
-30.5033670991
 11
254.9957264025
 21
-30.6585619095
  0
LINE
  5
743
100
AcDbEntity
  8
0
100
AcDbLine
 62
7
  6
CONTINUOUS
 10
262.7953645249
 20
-96.4783055547
 11
262.7693511433
 21
-96.5105723911
  0
LINE
  5
744
100
AcDbEntity
  8
0
100
AcDbLine
 62
7
  6
CONTINUOUS
 10
262.7693511433
 20
-96.5105723911
 11
262.7422073713
 21
-96.5426438119
  0
LINE
  5
745
100
AcDbEntity
  8
0
100
AcDbLine
 62
7
  6
CONTINUOUS
 10
262.7422073713
 20
-96.5426438119
 11
262.7139179373
 21
-96.5745166335
  0
LINE
  5
746
100
AcDbEntity
  8
0
100
AcDbLine
 62
7
  6
CONTINUOUS
 10
262.7139179373
 20
-96.5745166335
 11
262.6844671861
 21
-96.6061870267
  0
LINE
  5
747
100
AcDbEntity
  8
0
100
AcDbLine
 62
7
  6
CONTINUOUS
 10
262.6844671861
 20
-96.6061870267
 11
262.6538391293
 21
-96.6376505171
  0
LINE
  5
748
100
AcDbEntity
  8
0
100
AcDbLine
 62
7
  6
CONTINUOUS
 10
262.6538391293
 20
-96.6376505171
 11
262.6220174957
 21
-96.6689019863
  0
LINE
  5
749
100
AcDbEntity
  8
0
100
AcDbLine
 62
7
  6
CONTINUOUS
 10
262.6220174957
 20
-96.6689019863
 11
262.5889857817
 21
-96.6999356763
  0
LINE
  5
74A
100
AcDbEntity
  8
0
100
AcDbLine
 62
7
  6
CONTINUOUS
 10
262.5889857817
 20
-96.6999356763
 11
262.5547273009
 21
-96.7307451931
  0
LINE
  5
74B
100
AcDbEntity
  8
0
100
AcDbLine
 62
7
  6
CONTINUOUS
 10
262.5547273009
 20
-96.7307451931
 11
262.5192252361
 21
-96.7613235155
  0
LINE
  5
74C
100
AcDbEntity
  8
0
100
AcDbLine
 62
7
  6
CONTINUOUS
 10
262.5192252361
 20
-96.7613235155
 11
262.5132809969
 21
-96.7663174839
  0
LINE
  5
74D
100
AcDbEntity
  8
0
100
AcDbLine
 62
7
  6
CONTINUOUS
 10
157.1543706001
 20
-155.9557728907
 11
156.4472638189
 21
-156.3639769467
  0
LINE
  5
74E
100
AcDbEntity
  8
0
100
AcDbLine
 62
7
  6
CONTINUOUS
 10
156.0329689893
 20
-157.2796665599
 11
156.7400757705
 21
-156.8714625039
  0
LINE
  5
74F
100
AcDbEntity
  8
0
100
AcDbLine
 62
7
  6
CONTINUOUS
 10
264.6346013405
 20
-94.7251645043
 11
263.9274945593
 21
-95.1333685599
  0
LINE
  5
750
100
AcDbEntity
  8
0
100
AcDbLine
 62
7
  6
CONTINUOUS
 10
159.2756909437
 20
-156.3641096467
 11
262.5132809969
 21
-96.7663174839
  0
LINE
  5
751
100
AcDbEntity
  8
0
100
AcDbLine
 62
7
  6
CONTINUOUS
 10
263.3060523149
 20
-96.5069029795
 11
264.0131590961
 21
-96.0986989235
  0
LINE
  5
752
100
AcDbEntity
  8
0
100
AcDbLine
 62
7
  6
CONTINUOUS
 10
158.8613961141
 20
-157.2797992599
 11
262.0989861673
 21
-97.6820070967
  0
LINE
  5
753
100
AcDbEntity
  8
0
100
AcDbLine
 62
7
  6
CONTINUOUS
 10
165.6396519745
 20
-81.5288740879
 11
165.2478497421
 21
-81.6768174819
  0
LINE
  5
754
100
AcDbEntity
  8
0
100
AcDbLine
 62
7
  6
CONTINUOUS
 10
166.3467587557
 20
-79.2424934647
 11
166.7932455381
 21
-79.0872986539
  0
LINE
  5
755
100
AcDbEntity
  8
0
100
AcDbLine
 62
7
  6
CONTINUOUS
 10
166.3467587557
 20
-81.9370781439
 11
165.9002719729
 21
-82.0922729543
  0
ARC
  5
756
100
AcDbEntity
  8
0
100
AcDbCircle
 62
7
  6
CONTINUOUS
 10
-157.2661419499
 20
26.6511618061
 40
3.0736096152
100
AcDbArc
 50
182.6054784857
 51
237.39452166
  0
ARC
  5
757
100
AcDbEntity
  8
0
100
AcDbCircle
 62
7
  6
CONTINUOUS
 10
0.9358909809
 20
-48.8340417235
 40
2.6188614644
100
AcDbArc
 50
193.3888567939
 51
226.6057666734
  0
ARC
  5
758
100
AcDbEntity
  8
0
100
AcDbCircle
 62
7
  6
CONTINUOUS
 10
-96.2912914323
 20
7.2940159645
 40
2.6188614644
100
AcDbArc
 50
193.3888567938
 51
226.6057666735
  0
ARC
  5
759
100
AcDbEntity
  8
0
100
AcDbCircle
 62
7
  6
CONTINUOUS
 10
-0.1547636479
 20
-49.4416224363
 40
2.2141637372
100
AcDbArc
 50
179.8445476447
 51
251.0578433853
  0
ARC
  5
75A
100
AcDbEntity
  8
0
100
AcDbCircle
 62
7
  6
CONTINUOUS
 10
-97.3819460611
 20
6.6864352517
 40
2.2141637372
100
AcDbArc
 50
179.8445476447
 51
251.0578433853
  0
ARC
  5
75B
100
AcDbEntity
  8
0
100
AcDbCircle
 62
7
  6
CONTINUOUS
 10
-53.5634501935
 20
204.2164210585
 40
7.6851095396
100
AcDbArc
 50
62.6096722366
 51
117.3903277634
  0
ARC
  5
75C
100
AcDbEntity
  8
0
100
AcDbCircle
 62
7
  6
CONTINUOUS
 10
-155.7309258483
 20
94.4939100449
 40
4.6104144228
100
AcDbArc
 50
182.6054784856
 51
237.39452166
  0
ARC
  5
75D
100
AcDbEntity
  8
0
100
AcDbCircle
 62
7
  6
CONTINUOUS
 10
-148.4584380283
 20
143.7712276513
 40
3.3966054084
100
AcDbArc
 50
138.0280552504
 51
177.3071707515
  0
ARC
  5
75E
100
AcDbEntity
  8
0
100
AcDbCircle
 62
7
  6
CONTINUOUS
 10
-154.3671633899
 20
144.4354017757
 40
3.0870494256
100
AcDbArc
 50
18.1445295695
 51
57.3089562681
  0
ARC
  5
75F
100
AcDbEntity
  8
0
100
AcDbCircle
 62
7
  6
CONTINUOUS
 10
-155.0631463371
 20
144.0360323201
 40
3.0736096152
100
AcDbArc
 50
2.6054784857
 51
57.39452166
  0
ARC
  5
760
100
AcDbEntity
  8
0
100
AcDbCircle
 62
7
  6
CONTINUOUS
 10
-155.0561142471
 20
151.2833794485
 40
2.5146963924
100
AcDbArc
 50
185.6947992512
 51
245.6253417064
  0
ARC
  5
761
100
AcDbEntity
  8
0
100
AcDbCircle
 62
7
  6
CONTINUOUS
 10
-153.2999675675
 20
143.2452952913
 40
2.5145727504
100
AcDbArc
 50
183.0014931991
 51
228.60977274
  0
ARC
  5
762
100
AcDbEntity
  8
0
100
AcDbCircle
 62
7
  6
CONTINUOUS
 10
-153.2999675675
 20
97.3557016633
 40
2.5145727504
100
AcDbArc
 50
183.0014931991
 51
228.60977274
  0
ARC
  5
763
100
AcDbEntity
  8
0
100
AcDbCircle
 62
7
  6
CONTINUOUS
 10
-146.1944385287
 20
155.3261691989
 40
2.305532862
100
AcDbArc
 50
242.6096722366
 51
297.3903277634
  0
ARC
  5
764
100
AcDbEntity
  8
0
100
AcDbCircle
 62
7
  6
CONTINUOUS
 10
-57.0989840995
 20
206.7598802441
 40
2.305532862
100
AcDbArc
 50
242.6096722366
 51
297.3903277634
  0
ARC
  5
765
100
AcDbEntity
  8
0
100
AcDbCircle
 62
7
  6
CONTINUOUS
 10
-154.3025379043
 20
142.7113253393
 40
2.2156674908
100
AcDbArc
 50
180.1526252261
 51
252.6690973185
  0
ARC
  5
766
100
AcDbEntity
  8
0
100
AcDbCircle
 62
7
  6
CONTINUOUS
 10
-154.3025379043
 20
96.8217317113
 40
2.2156674908
100
AcDbArc
 50
180.1526252261
 51
252.6690973185
  0
ARC
  5
767
100
AcDbEntity
  8
0
100
AcDbCircle
 62
7
  6
CONTINUOUS
 10
-154.3040419467
 20
141.3929505609
 40
2.2141637372
100
AcDbArc
 50
179.8445476447
 51
251.0578433855
  0
ARC
  5
768
100
AcDbEntity
  8
0
100
AcDbCircle
 62
7
  6
CONTINUOUS
 10
-154.3040419467
 20
95.5033569329
 40
2.2141637372
100
AcDbArc
 50
179.8445476447
 51
251.057843385
  0
ARC
  5
769
100
AcDbEntity
  8
0
100
AcDbCircle
 62
7
  6
CONTINUOUS
 10
-154.3040419467
 20
82.4387039429
 40
2.2141637372
100
AcDbArc
 50
179.8445476447
 51
251.0578433854
  0
ARC
  5
76A
100
AcDbEntity
  8
0
100
AcDbCircle
 62
7
  6
CONTINUOUS
 10
-155.3192983315
 20
151.8503883761
 40
2.183076584
100
AcDbArc
 50
110.7834207995
 51
249.2165792005
  0
ARC
  5
76B
100
AcDbEntity
  8
0
100
AcDbCircle
 62
7
  6
CONTINUOUS
 10
3.6934282653
 20
61.2133849305
 40
2.1253817028
100
AcDbArc
 50
50.8597552375
 51
119.3545704572
  0
ARC
  5
76C
100
AcDbEntity
  8
0
100
AcDbCircle
 62
7
  6
CONTINUOUS
 10
-147.5930947239
 20
152.6886318693
 40
2.0943457192
100
AcDbArc
 50
60.0653706233
 51
129.7203036825
  0
ARC
  5
76D
100
AcDbEntity
  8
0
100
AcDbCircle
 62
7
  6
CONTINUOUS
 10
-58.4976402943
 20
204.1223429141
 40
2.0943457192
100
AcDbArc
 50
60.0653706233
 51
129.7203036821
  0
ARC
  5
76E
100
AcDbEntity
  8
0
100
AcDbCircle
 62
7
  6
CONTINUOUS
 10
-153.5968628363
 20
84.1216819145
 40
1.9695506228
100
AcDbArc
 50
183.0610118494
 51
226.0996052927
  0
ARC
  5
76F
100
AcDbEntity
  8
0
100
AcDbCircle
 62
7
  6
CONTINUOUS
 10
3.0059661221
 20
60.2559135153
 40
1.5520085252
100
AcDbArc
 50
80.7138039722
 51
117.1355068787
  0
ARC
  5
770
100
AcDbEntity
  8
0
100
AcDbCircle
 62
7
  6
CONTINUOUS
 10
-57.8069647011
 20
203.1273330841
 40
1.5520085252
100
AcDbArc
 50
62.864493121
 51
99.286196018
  0
ARC
  5
771
100
AcDbEntity
  8
0
100
AcDbCircle
 62
7
  6
CONTINUOUS
 10
-146.9024191299
 20
151.6936220409
 40
1.5520085236
100
AcDbArc
 50
62.8644931126
 51
99.2861955959
  0
ARC
  5
772
100
AcDbEntity
  8
0
100
AcDbCircle
 62
7
  6
CONTINUOUS
 10
-52.3208900143
 20
210.6296079073
 40
1.5089317076
100
AcDbArc
 50
54.3824225248
 51
114.3071190461
  0
ARC
  5
773
100
AcDbEntity
  8
0
100
AcDbCircle
 62
7
  6
CONTINUOUS
 10
-145.8235411251
 20
85.5929187917
 40
1.0845514456
100
AcDbArc
 50
173.7011524742
 51
234.9866671324
  0
ARC
  5
774
100
AcDbEntity
  8
0
100
AcDbCircle
 62
7
  6
CONTINUOUS
 10
-158.8010939187
 20
149.3996767941
 40
1.005954472
100
AcDbArc
 50
54.3824225248
 51
114.3071190461
  0
ARC
  5
775
100
AcDbEntity
  8
0
100
AcDbCircle
 62
7
  6
CONTINUOUS
 10
-159.4744254175
 20
149.1324162781
 40
0.8734183948
100
AcDbArc
 50
50.7967147643
 51
189.2140369905
  0
ARC
  5
776
100
AcDbEntity
  8
0
100
AcDbCircle
 62
7
  6
CONTINUOUS
 10
-159.4744254175
 20
89.9332074165
 40
0.8734183948
100
AcDbArc
 50
50.7967147643
 51
189.2140369905
  0
ARC
  5
777
100
AcDbEntity
  8
0
100
AcDbCircle
 62
7
  6
CONTINUOUS
 10
-145.3661688971
 20
153.8914086557
 40
0.6549229752
100
AcDbArc
 50
290.7834207995
 51
69.2165792005
  0
ARC
  5
778
100
AcDbEntity
  8
0
100
AcDbCircle
 62
7
  6
CONTINUOUS
 10
-56.2707144679
 20
205.3251197005
 40
0.6549229752
100
AcDbArc
 50
290.7834207995
 51
69.2165792005
  0
ARC
  5
779
100
AcDbEntity
  8
0
100
AcDbCircle
 62
7
  6
CONTINUOUS
 10
-147.3772308647
 20
85.6512128845
 40
0.4795255452
100
AcDbArc
 50
304.0563507518
 51
7.2558296415
  0
ARC
  5
77A
100
AcDbEntity
  8
0
100
AcDbCircle
 62
7
  6
CONTINUOUS
 10
-148.0397264587
 20
85.2336456609
 40
0.4367091976
100
AcDbArc
 50
230.7967147643
 51
9.2140369905
  0
ARC
  5
77B
100
AcDbEntity
  8
0
100
AcDbCircle
 62
7
  6
CONTINUOUS
 10
153.3768316161
 20
-93.2217857303
 40
3.0736096152
100
AcDbArc
 50
2.6054784856
 51
57.39452166
  0
ARC
  5
77C
100
AcDbEntity
  8
0
100
AcDbCircle
 62
7
  6
CONTINUOUS
 10
154.0839383973
 20
-92.8135816743
 40
3.0736096152
100
AcDbArc
 50
2.6054784857
 51
57.39452166
  0
ARC
  5
77D
100
AcDbEntity
  8
0
100
AcDbCircle
 62
7
  6
CONTINUOUS
 10
163.4424832109
 20
-78.9131832195
 40
2.6756700856
100
AcDbArc
 50
311.4758474397
 51
348.529529093
  0
ARC
  5
77E
100
AcDbEntity
  8
0
100
AcDbCircle
 62
7
  6
CONTINUOUS
 10
98.1630733941
 20
-104.9620994111
 40
2.6188614644
100
AcDbArc
 50
193.3888567939
 51
226.6057666734
  0
ARC
  5
77F
100
AcDbEntity
  8
0
100
AcDbCircle
 62
7
  6
CONTINUOUS
 10
154.9985890297
 20
-80.6212667139
 40
2.5145727504
100
AcDbArc
 50
183.0014931991
 51
228.60977274
  0
ARC
  5
780
100
AcDbEntity
  8
0
100
AcDbCircle
 62
7
  6
CONTINUOUS
 10
164.4711460701
 20
-79.5361858275
 40
2.3100243616
100
AcDbArc
 50
300.3872207907
 51
11.0217895705
  0
ARC
  5
781
100
AcDbEntity
  8
0
100
AcDbCircle
 62
7
  6
CONTINUOUS
 10
164.5322340517
 20
-79.5181771035
 40
2.2741666824
100
AcDbArc
 50
288.3409903058
 51
0.2552695434
  0
ARC
  5
782
100
AcDbEntity
  8
0
100
AcDbCircle
 62
7
  6
CONTINUOUS
 10
153.9960186929
 20
-81.1552366663
 40
2.2156674908
100
AcDbArc
 50
180.1526252261
 51
252.6690973185
  0
ARC
  5
783
100
AcDbEntity
  8
0
100
AcDbCircle
 62
7
  6
CONTINUOUS
 10
97.0724187653
 20
-105.5696801239
 40
2.2141637372
100
AcDbArc
 50
179.8445476447
 51
251.0578433852
  0
ARC
  5
784
100
AcDbEntity
  8
0
100
AcDbCircle
 62
7
  6
CONTINUOUS
 10
153.9945146509
 20
-82.4736114443
 40
2.2141637372
100
AcDbArc
 50
179.8445476447
 51
251.0578433852
  0
ARC
  5
785
100
AcDbEntity
  8
0
100
AcDbCircle
 62
7
  6
CONTINUOUS
 10
153.9945146509
 20
-95.5382644347
 40
2.2141637372
100
AcDbArc
 50
179.8445476447
 51
251.0578433853
  0
ARC
  5
786
100
AcDbEntity
  8
0
100
AcDbCircle
 62
7
  6
CONTINUOUS
 10
154.7016937609
 20
-93.8552864631
 40
1.9695506228
100
AcDbArc
 50
183.0610118494
 51
226.0996052926
  0
ARC
  5
787
100
AcDbEntity
  8
0
100
AcDbCircle
 62
7
  6
CONTINUOUS
 10
145.2545578589
 20
-82.8066373255
 40
1.5368048076
100
AcDbArc
 50
182.6054784857
 51
237.3945216599
  0
ARC
  5
788
100
AcDbEntity
  8
0
100
AcDbCircle
 62
7
  6
CONTINUOUS
 10
155.7273139321
 20
-88.3645775899
 40
1.4385766396
100
AcDbArc
 50
304.0563508414
 51
7.2558295519
  0
ARC
  5
789
100
AcDbEntity
  8
0
100
AcDbCircle
 62
7
  6
CONTINUOUS
 10
155.1540407169
 20
-88.8008711511
 40
1.3101275924
100
AcDbArc
 50
230.7967147643
 51
9.2140369905
  0
ARC
  5
78A
100
AcDbEntity
  8
0
100
AcDbCircle
 62
7
  6
CONTINUOUS
 10
156.1743667953
 20
-156.0639463655
 40
0.98595586
100
AcDbArc
 50
305.0133328805
 51
6.2988475129
  0
ARC
  5
78B
100
AcDbEntity
  8
0
100
AcDbCircle
 62
7
  6
CONTINUOUS
 10
143.9760534737
 20
-81.8072501819
 40
0.9762814004
100
AcDbArc
 50
170.8352035503
 51
254.7549129332
  0
ARC
  5
78C
100
AcDbEntity
  8
0
100
AcDbCircle
 62
7
  6
CONTINUOUS
 10
158.4135422089
 20
-156.5039640407
 40
0.8734183948
100
AcDbArc
 50
230.7967147643
 51
9.2140369905
  0
ARC
  5
78D
100
AcDbEntity
  8
0
100
AcDbCircle
 62
7
  6
CONTINUOUS
 10
155.5851150841
 20
-156.5038313407
 40
0.8734183948
100
AcDbArc
 50
230.7967147643
 51
9.2140369905
  0
ARC
  5
78E
100
AcDbEntity
  8
0
100
AcDbCircle
 62
7
  6
CONTINUOUS
 10
171.7879299637
 20
13.0217924509
 40
10.976810952
100
AcDbArc
 50
119.4514658287
 51
172.9596792394
  0
ARC
  5
78F
100
AcDbEntity
  8
0
100
AcDbCircle
 62
7
  6
CONTINUOUS
 10
157.1543706001
 20
-22.1604529679
 40
7.6851095396
100
AcDbArc
 50
242.6096722366
 51
297.3903277634
  0
ARC
  5
790
100
AcDbEntity
  8
0
100
AcDbCircle
 62
7
  6
CONTINUOUS
 10
157.1543706001
 20
-22.9769937799
 40
7.6851095396
100
AcDbArc
 50
242.6096722366
 51
297.3903277634
  0
ARC
  5
791
100
AcDbEntity
  8
0
100
AcDbCircle
 62
7
  6
CONTINUOUS
 10
151.3548371949
 20
-29.3072920551
 40
3.3966054084
100
AcDbArc
 50
138.0280552503
 51
177.3071707515
  0
ARC
  5
792
100
AcDbEntity
  8
0
100
AcDbCircle
 62
7
  6
CONTINUOUS
 10
153.3768316161
 20
-34.0225768683
 40
3.0736096152
100
AcDbArc
 50
2.6054784857
 51
57.39452166
  0
ARC
  5
793
100
AcDbEntity
  8
0
100
AcDbCircle
 62
7
  6
CONTINUOUS
 10
154.0839383973
 20
-33.6143728127
 40
3.0736096152
100
AcDbArc
 50
2.6054784857
 51
57.39452166
  0
ARC
  5
794
100
AcDbEntity
  8
0
100
AcDbCircle
 62
7
  6
CONTINUOUS
 10
154.9985890297
 20
-34.7316730859
 40
2.5145727504
100
AcDbArc
 50
183.0014931991
 51
228.60977274
  0
ARC
  5
795
100
AcDbEntity
  8
0
100
AcDbCircle
 62
7
  6
CONTINUOUS
 10
162.1041180685
 20
-22.6507991783
 40
2.305532862
100
AcDbArc
 50
242.6096722366
 51
297.3903277634
  0
ARC
  5
796
100
AcDbEntity
  8
0
100
AcDbCircle
 62
7
  6
CONTINUOUS
 10
153.9960186929
 20
-35.2656430383
 40
2.2156674908
100
AcDbArc
 50
180.1526252261
 51
252.6690973185
  0
ARC
  5
797
100
AcDbEntity
  8
0
100
AcDbCircle
 62
7
  6
CONTINUOUS
 10
153.9945146509
 20
-36.5840178163
 40
2.2141637372
100
AcDbArc
 50
179.8445476447
 51
251.0578433852
  0
ARC
  5
798
100
AcDbEntity
  8
0
100
AcDbCircle
 62
7
  6
CONTINUOUS
 10
160.7054618737
 20
-25.2883365079
 40
2.0943457192
100
AcDbArc
 50
60.0653706233
 51
129.7203036821
  0
ARC
  5
799
100
AcDbEntity
  8
0
100
AcDbCircle
 62
7
  6
CONTINUOUS
 10
150.5367552085
 20
-28.8204162475
 40
1.8611448652
100
AcDbArc
 50
128.1727404735
 51
151.3282282672
  0
ARC
  5
79A
100
AcDbEntity
  8
0
100
AcDbCircle
 62
7
  6
CONTINUOUS
 10
161.3961374669
 20
-26.2833463387
 40
1.5520085256
100
AcDbArc
 50
62.8644931242
 51
99.2861961651
  0
ARC
  5
79B
100
AcDbEntity
  8
0
100
AcDbCircle
 62
7
  6
CONTINUOUS
 10
169.4381901089
 20
25.2737007433
 40
1.1644910016
100
AcDbArc
 50
242.7902014754
 51
294.6047167384
  0
ARC
  5
79C
100
AcDbEntity
  8
0
100
AcDbCircle
 62
7
  6
CONTINUOUS
 10
166.9644637545
 20
21.5719312205
 40
1.1628546924
100
AcDbArc
 50
72.705742903
 51
117.3148683237
  0
ARC
  5
79D
100
AcDbEntity
  8
0
100
AcDbCircle
 62
7
  6
CONTINUOUS
 10
166.9611829205
 20
22.3981329997
 40
1.1527664308
100
AcDbArc
 50
62.6096722366
 51
117.3903277634
  0
ARC
  5
79E
100
AcDbEntity
  8
0
100
AcDbCircle
 62
7
  6
CONTINUOUS
 10
149.6388840349
 20
-28.6589323947
 40
1.005954472
100
AcDbArc
 50
54.3824225248
 51
114.3071190461
  0
ARC
  5
79F
100
AcDbEntity
  8
0
100
AcDbCircle
 62
7
  6
CONTINUOUS
 10
148.9655525357
 20
-28.9261929103
 40
0.8734183948
100
AcDbArc
 50
50.7967147643
 51
189.2140369905
  0
ARC
  5
7A0
100
AcDbEntity
  8
0
100
AcDbCircle
 62
7
  6
CONTINUOUS
 10
169.2798328281
 20
24.2013922365
 40
0.7490936332
100
AcDbArc
 50
116.2019437835
 51
119.9610978952
  0
ARC
  5
7A1
100
AcDbEntity
  8
0
100
AcDbCircle
 62
7
  6
CONTINUOUS
 10
166.7632683545
 20
22.8448963445
 40
0.6657053964
100
AcDbArc
 50
119.9565616409
 51
124.0234930532
  0
ARC
  5
7A2
100
AcDbEntity
  8
0
100
AcDbCircle
 62
7
  6
CONTINUOUS
 10
166.7632683549
 20
22.0283555325
 40
0.6657053968
100
AcDbArc
 50
119.9565616422
 51
124.0234930517
  0
ARC
  5
7A3
100
AcDbEntity
  8
0
100
AcDbCircle
 62
7
  6
CONTINUOUS
 10
162.9323877001
 20
-24.0855597219
 40
0.6549229752
100
AcDbArc
 50
290.7834207995
 51
69.2165792005
  0
ARC
  5
7A4
100
AcDbEntity
  8
0
100
AcDbCircle
 62
7
  6
CONTINUOUS
 10
169.0219218389
 20
24.5442274669
 40
0.3274614876
100
AcDbArc
 50
110.7834207995
 51
249.2165792005
  0
ARC
  5
7A5
100
AcDbEntity
  8
0
100
AcDbCircle
 62
7
  6
CONTINUOUS
 10
263.1645956341
 20
-94.8874247163
 40
1.4789337896
100
AcDbArc
 50
305.0133328635
 51
6.2988475298
  0
ARC
  5
7A6
100
AcDbEntity
  8
0
100
AcDbCircle
 62
7
  6
CONTINUOUS
 10
262.6568993409
 20
-95.3520961019
 40
1.2892842772
100
AcDbArc
 50
268.4252972729
 51
9.7674908838
  0
ARC
  5
7A7
100
AcDbEntity
  8
0
100
AcDbCircle
 62
7
  6
CONTINUOUS
 10
261.5619098857
 20
-96.8874455411
 40
0.9590510924
100
AcDbArc
 50
304.056350819
 51
7.2558295744
  0
ARC
  5
7A8
100
AcDbEntity
  8
0
100
AcDbCircle
 62
7
  6
CONTINUOUS
 10
261.8841836621
 20
-15.9869105355
 40
27.6833282184
100
AcDbArc
 50
123.5033569919
 51
177.4157310673
  0
ARC
  5
7A9
100
AcDbEntity
  8
0
100
AcDbCircle
 62
7
  6
CONTINUOUS
 10
260.5539751149
 20
-15.2201563779
 40
25.2879699136
100
AcDbArc
 50
123.4816095529
 51
177.5210646102
  0
ARC
  5
7AA
100
AcDbEntity
  8
0
100
AcDbCircle
 62
7
  6
CONTINUOUS
 10
259.8468683337
 20
-14.8119523223
 40
25.2879699136
100
AcDbArc
 50
123.4816095529
 51
177.5210646102
  0
ARC
  5
7AB
100
AcDbEntity
  8
0
100
AcDbCircle
 62
7
  6
CONTINUOUS
 10
195.4270401889
 20
14.6744923925
 40
9.9816486404
100
AcDbArc
 50
300.2521436653
 51
355.8890402047
  0
ARC
  5
7AC
100
AcDbEntity
  8
0
100
AcDbCircle
 62
7
  6
CONTINUOUS
 10
240.9178914945
 20
-14.4951349095
 40
8.9053708348
100
AcDbArc
 50
248.2023009252
 51
303.9888252162
  0
ARC
  5
7AD
100
AcDbEntity
  8
0
100
AcDbCircle
 62
7
  6
CONTINUOUS
 10
251.1510291697
 20
0.3789779549
 40
7.6946171284
100
AcDbArc
 50
64.2067095188
 51
119.9418540187
  0
ARC
  5
7AE
100
AcDbEntity
  8
0
100
AcDbCircle
 62
7
  6
CONTINUOUS
 10
259.3218462553
 20
26.3216298541
 40
4.6104144228
100
AcDbArc
 50
2.6054784857
 51
57.39452166
  0
ARC
  5
7AF
100
AcDbEntity
  8
0
100
AcDbCircle
 62
7
  6
CONTINUOUS
 10
260.0289530365
 20
26.7298339101
 40
4.6104144228
100
AcDbArc
 50
2.6054784857
 51
57.39452166
  0
ARC
  5
7B0
100
AcDbEntity
  8
0
100
AcDbCircle
 62
7
  6
CONTINUOUS
 10
252.5379376401
 20
-27.4794721747
 40
2.6756700856
100
AcDbArc
 50
311.4758474397
 51
348.529529093
  0
ARC
  5
7B1
100
AcDbEntity
  8
0
100
AcDbCircle
 62
7
  6
CONTINUOUS
 10
253.5666004997
 20
-28.1024747827
 40
2.3100243616
100
AcDbArc
 50
300.3872207907
 51
11.0217895707
  0
ARC
  5
7B2
100
AcDbEntity
  8
0
100
AcDbCircle
 62
7
  6
CONTINUOUS
 10
253.6276884813
 20
-28.0844660587
 40
2.2741666824
100
AcDbArc
 50
288.3409903058
 51
0.2552695434
  0
ARC
  5
7B3
100
AcDbEntity
  8
0
100
AcDbCircle
 62
7
  6
CONTINUOUS
 10
249.8009163029
 20
26.1453745369
 40
2.0943457192
100
AcDbArc
 50
60.0653706233
 51
129.7203036821
  0
ARC
  5
7B4
100
AcDbEntity
  8
0
100
AcDbCircle
 62
7
  6
CONTINUOUS
 10
250.4915918973
 20
25.1503647089
 40
1.5520085228
100
AcDbArc
 50
62.8644931094
 51
99.2861954139
  0
ARC
  5
7B5
100
AcDbEntity
  8
0
100
AcDbCircle
 62
7
  6
CONTINUOUS
 10
198.3323667449
 20
3.4358570833
 40
1.188977984
100
AcDbArc
 50
75.4560177721
 51
114.3054926686
  0
ARC
  5
7B6
100
AcDbEntity
  8
0
100
AcDbCircle
 62
7
  6
CONTINUOUS
 10
198.3278237493
 20
4.2772320585
 40
1.1644910016
100
AcDbArc
 50
62.7902014754
 51
114.6047167384
  0
ARC
  5
7B7
100
AcDbEntity
  8
0
100
AcDbCircle
 62
7
  6
CONTINUOUS
 10
200.8022483129
 20
7.1364728333
 40
1.1370936652
100
AcDbArc
 50
242.3467408283
 51
300.2583409579
  0
ARC
  5
7B8
100
AcDbEntity
  8
0
100
AcDbCircle
 62
7
  6
CONTINUOUS
 10
258.6470346537
 20
29.6385707869
 40
2.5146963924
100
AcDbArc
 50
294.3746582936
 51
354.3052007488
  0
ARC
  5
7B9
100
AcDbEntity
  8
0
100
AcDbCircle
 62
7
  6
CONTINUOUS
 10
251.1995724981
 20
28.7829118665
 40
2.305532862
100
AcDbArc
 50
242.6096722366
 51
297.3903277634
  0
ARC
  5
7BA
100
AcDbEntity
  8
0
100
AcDbCircle
 62
7
  6
CONTINUOUS
 10
258.9102187381
 20
30.2055797145
 40
2.183076584
100
AcDbArc
 50
290.7834207995
 51
69.2165792005
  0
ARC
  5
7BB
100
AcDbEntity
  8
0
100
AcDbCircle
 62
7
  6
CONTINUOUS
 10
101.2741640689
 20
117.5455446461
 40
2.1253817028
100
AcDbArc
 50
50.8597552374
 51
119.3545704572
  0
ARC
  5
7BC
100
AcDbEntity
  8
0
100
AcDbCircle
 62
7
  6
CONTINUOUS
 10
100.5867019257
 20
116.5880732309
 40
1.5520085252
100
AcDbArc
 50
80.7138039793
 51
117.1355068789
  0
ARC
  5
7BD
100
AcDbEntity
  8
0
100
AcDbCircle
 62
7
  6
CONTINUOUS
 10
252.0278421297
 20
27.3481513229
 40
0.6549229752
100
AcDbArc
 50
290.7834207995
 51
69.2165792005
  0
ENDSEC
  0
SECTION
  2
OBJECTS
  0
DICTIONARY
  5
C
100
AcDbDictionary
280
0
281
1
  3
ACAD_GROUP
350
D
  3
ACAD_MLINESTYLE
350
17
  3
ACAD_LAYOUT
350
1A
  3
ACAD_PLOTSETTINGS
350
19
  3
ACAD_PLOTSTYLENAME
350
E
  0
DICTIONARY
  5
D
102
{ACAD_REACTORS
330
C
102
}
100
AcDbDictionary
280
0
281
1
  0
ACDBDICTIONARYWDFLT
  5
E
102
{ACAD_REACTORS
330
C
102
}
100
AcDbDictionary
281
1
  3
Normal
350
F
100
AcDbDictionaryWithDefault
340
F
  0
DICTIONARY
  5
17
102
{ACAD_REACTORS
330
C
102
}
100
AcDbDictionary
280
0
281
1
  3
Standard
350
18
  0
DICTIONARY
  5
19
102
{ACAD_REACTORS
330
C
102
}
100
AcDbDictionary
281
1
  0
DICTIONARY
  5
1A
102
{ACAD_REACTORS
330
C
102
}
100
AcDbDictionary
281
1
  3
Model
350
7BE
  3
Layout1
350
7BF
  0
ACDBPLACEHOLDER
  5
F
102
{ACAD_REACTORS
330
E
102
}
  0
MLINESTYLE
  5
18
102
{ACAD_REACTORS
330
17
102
}
100
AcDbMlineStyle
  2
STANDARD
 70
0
  3

 62
256
 51
90.0
 52
90.0
 71
2
 49
0.5
 62
256
  6
BYLAYER
 49
-0.5
 62
256
  6
BYLAYER
  0
LAYOUT
  5
7BE
102
{ACAD_REACTORS
330
1A
102
}
100
AcDbPlotSettings
  1

  2
none_device
  4
ISO_A3_(420.00_x_297.00_MM)
  6

 40
0.0
 41
0.0
 42
0.0
 43
0.0
 44
420.0
 45
297.0
 46
0.0
 47
0.0
 48
0.0
 49
0.0
140
0.0
141
0.0
142
1.0
143
1.0
 70
1024
 72
1
 73
0
 74
0
  7

 75
0
147
1.0
148
0.0
149
0.0
100
AcDbLayout
  1
Model
 70
0
 71
0
 10
0.0
 20
0.0
 11
420.0
 21
297.0
 12
0.0
 22
0.0
 32
0.0
 14
0.0
 24
0.0
 34
0.0
 15
0.0
 25
0.0
 35
0.0
146
0.0
 13
0.0
 23
0.0
 33
0.0
 16
1.0
 26
0.0
 36
0.0
 17
0.0
 27
1.0
 37
0.0
 76
0
330
1FF
345
0
346
0
  0
LAYOUT
  5
7BF
102
{ACAD_REACTORS
330
1A
102
}
100
AcDbPlotSettings
  1

  2
none_device
  4
ISO_A3_(420.00_x_297.00_MM)
  6

 40
0.0
 41
0.0
 42
0.0
 43
0.0
 44
420.0
 45
297.0
 46
0.0
 47
0.0
 48
0.0
 49
0.0
140
0.0
141
0.0
142
1.0
143
1.0
 70
0
 72
1
 73
0
 74
0
  7

 75
0
147
1.0
148
0.0
149
0.0
100
AcDbLayout
  1
Layout1
 70
0
 71
1
 10
0.0
 20
0.0
 11
420.0
 21
297.0
 12
0.0
 22
0.0
 32
0.0
 14
0.0
 24
0.0
 34
0.0
 15
0.0
 25
0.0
 35
0.0
146
0.0
 13
0.0
 23
0.0
 33
0.0
 16
1.0
 26
0.0
 36
0.0
 17
0.0
 27
1.0
 37
0.0
 76
0
330
200
345
0
346
0
  0
ENDSEC
  0
EOF
