  0
SECTION
  2
HEADER
  9
$ACADVER
  1
AC1021
  9
$DWGCODEPAGE
  3
ANSI_1252
  9
$EXTMAX
 10
558.8
 20
431.8
 30
0.0
  9
$EXTMIN
 10
0.0
 20
0.0
 30
0.0
  9
$LIMMIN
 10
0.0
 20
0.0
  9
$LIMMAX
 10
558.8
 20
431.8
  9
$VIEWCTR
 10
279.4
 20
215.9
  9
$VIEWSIZE
 40
431.8
  9
$CLAYER
  8
0
  9
$LTSCALE
 40
30.734
  9
$CELTYPE
  6
BYLAYER
  9
$DIMSCALE
 40
1.0
  9
$DIMASZ
 40
3.0
  9
$DIMEXO
 40
0.5
  9
$DIMDLI
 40
21.2344
  9
$DIMEXE
 40
1.5
  9
$DIMCEN
 40
5.0292
  9
$DIMLFAC
 40
1.0
  9
$DIMBLK
  1
_FILLED
  9
$DIMALT
 70
0
  9
$DIMALTF
 40
0.0393700787
  9
$DIMTXT
 40
3.0
  9
$DIMTOL
 70
1
  9
$DIMLIM
 70
0
  9
$DIMTFAC
 40
1.0
  9
$DIMTP
 40
0.01
  9
$DIMTM
 40
0.01
  9
$DIMGAP
 40
0.625
  9
$DIMDSEP
 70
44
  9
$AUNITS
 70
0
  9
$PDMODE
 70
3
  9
$PDSIZE
 40
3.0
  9
$HANDSEED
  5
342
  9
$TILEMODE
 70
1
  9
$MEASUREMENT
 70
1
  9
$INSUNITS
 70
4
  0
ENDSEC
  0
SECTION
  2
CLASSES
  0
CLASS
  1
ACDBDICTIONARYWDFLT
  2
AcDbDictionaryWithDefault
  3
AutoCAD 2000
 90
0
 91
1
280
0
281
0
  0
CLASS
  1
ACDBPLACEHOLDER
  2
AcDbPlaceHolder
  3
AutoCAD 2000
 90
0
 91
1
280
0
281
0
  0
CLASS
  1
LAYOUT
  2
AcDbLayout
  3
AutoCAD 2000
 90
0
 91
0
280
0
281
0
  0
ENDSEC
  0
SECTION
  2
TABLES
  0
TABLE
  2
VPORT
  5
8
100
AcDbSymbolTable
 70
2
  0
VPORT
  5
1F4
100
AcDbSymbolTableRecord
100
AcDbViewportTableRecord
  2
*ACTIVE
 70
0
 10
0.0
 20
0.0
 11
1.0
 21
1.0
 12
279.4
 22
215.9
 13
0.0
 23
0.0
 14
1.0
 24
1.0
 15
0.0
 25
0.0
 16
0.0
 26
0.0
 36
1.0
 17
0.0
 27
0.0
 37
0.0
 40
431.8
 41
1.2941176471
 42
50.0
 43
0.0
 44
0.0
 50
0.0
 51
0.0
 71
0
 72
100
 73
1
 74
1
 75
0
 76
0
 77
0
 78
0
  0
ENDTAB
  0
TABLE
  2
LTYPE
  5
5
100
AcDbSymbolTable
 70
6
  0
LTYPE
  5
14
100
AcDbSymbolTableRecord
100
AcDbLinetypeTableRecord
  2
BYBLOCK
 70
0
  3

 72
65
 73
0
 40
0.0
  0
LTYPE
  5
15
100
AcDbSymbolTableRecord
100
AcDbLinetypeTableRecord
  2
BYLAYER
 70
0
  3

 72
65
 73
0
 40
0.0
  0
LTYPE
  5
16
100
AcDbSymbolTableRecord
100
AcDbLinetypeTableRecord
  2
CONTINUOUS
 70
64
  3
Solid line
 72
65
 73
0
 40
0.0
  0
LTYPE
  5
1F5
100
AcDbSymbolTableRecord
100
AcDbLinetypeTableRecord
  2
CENTER
 70
64
  3
____ _ ____ _ ____ _ ____ _ ____ _ ____ _ ____
 72
65
 73
4
 40
0.6
 49
0.375
 74
0
 49
-0.075
 74
0
 49
0.075
 74
0
 49
-0.075
 74
0
  0
LTYPE
  5
1F6
100
AcDbSymbolTableRecord
100
AcDbLinetypeTableRecord
  2
HIDDEN
 70
64
  3
- - - - - - - - - - - - - - - - - - - -
 72
65
 73
2
 40
0.2
 49
0.1
 74
0
 49
-0.1
 74
0
  0
LTYPE
  5
1F7
100
AcDbSymbolTableRecord
100
AcDbLinetypeTableRecord
  2
PHANTOM
 70
64
  3
_____ _ _ _____ _ _ _____ _ _ _____
 72
65
 73
6
 40
0.8
 49
0.45
 74
0
 49
-0.05
 74
0
 49
0.1
 74
0
 49
-0.05
 74
0
 49
0.1
 74
0
 49
-0.05
 74
0
  0
LTYPE
  5
1F8
100
AcDbSymbolTableRecord
100
AcDbLinetypeTableRecord
  2
DOT
 70
64
  3
. . . . . . . . . . . . . . . . . . . .
 72
65
 73
2
 40
0.2
 49
0.1
 74
0
 49
-0.1
 74
0
  0
LTYPE
  5
1F9
100
AcDbSymbolTableRecord
100
AcDbLinetypeTableRecord
  2
DASHED
 70
64
  3
- - - - - - - - - - - - - - - - - - - -
 72
65
 73
2
 40
0.2
 49
0.1
 74
0
 49
-0.1
 74
0
  0
ENDTAB
  0
TABLE
  2
LAYER
  5
2
100
AcDbSymbolTable
 70
36
  0
LAYER
  5
10
100
AcDbSymbolTableRecord
100
AcDbLayerTableRecord
  2
0
 70
0
 62
7
  6
CONTINUOUS
370
-3
390
F
  0
LAYER
  5
1FA
100
AcDbSymbolTableRecord
100
AcDbLayerTableRecord
  2
DEFAULT_1
 70
0
 62
7
  6
CENTER
370
-3
390
F
  0
LAYER
  5
1FB
100
AcDbSymbolTableRecord
100
AcDbLayerTableRecord
  2
DEFAULT_2
 70
0
 62
7
  6
HIDDEN
370
-3
390
F
  0
LAYER
  5
1FC
100
AcDbSymbolTableRecord
100
AcDbLayerTableRecord
  2
DEFAULT_3
 70
0
 62
7
  6
PHANTOM
370
-3
390
F
  0
LAYER
  5
1FD
100
AcDbSymbolTableRecord
100
AcDbLayerTableRecord
  2
ASSI
 70
0
 62
7
  6
CONTINUOUS
370
-3
390
F
  0
LAYER
  5
1FE
100
AcDbSymbolTableRecord
100
AcDbLayerTableRecord
  2
COORDINATE
 70
0
 62
7
  6
CONTINUOUS
370
-3
390
F
  0
LAYER
  5
1FF
100
AcDbSymbolTableRecord
100
AcDbLayerTableRecord
  2
COORD_ORIGINE
 70
0
 62
7
  6
CONTINUOUS
370
-3
390
F
  0
LAYER
  5
200
100
AcDbSymbolTableRecord
100
AcDbLayerTableRecord
  2
COPY_PUBLISH
 70
0
 62
7
  6
CONTINUOUS
370
-3
390
F
  0
LAYER
  5
201
100
AcDbSymbolTableRecord
100
AcDbLayerTableRecord
  2
COSMETIC
 70
0
 62
7
  6
CONTINUOUS
370
-3
390
F
  0
LAYER
  5
202
100
AcDbSymbolTableRecord
100
AcDbLayerTableRecord
  2
COSMETICI
 70
0
 62
7
  6
CONTINUOUS
370
-3
390
F
  0
LAYER
  5
203
100
AcDbSymbolTableRecord
100
AcDbLayerTableRecord
  2
CURVE
 70
0
 62
7
  6
CONTINUOUS
370
-3
390
F
  0
LAYER
  5
204
100
AcDbSymbolTableRecord
100
AcDbLayerTableRecord
  2
DRAFT
 70
0
 62
7
  6
CONTINUOUS
370
-3
390
F
  0
LAYER
  5
205
100
AcDbSymbolTableRecord
100
AcDbLayerTableRecord
  2
IGES
 70
0
 62
7
  6
CONTINUOUS
370
-3
390
F
  0
LAYER
  5
206
100
AcDbSymbolTableRecord
100
AcDbLayerTableRecord
  2
IMPORT_IGES
 70
0
 62
7
  6
CONTINUOUS
370
-3
390
F
  0
LAYER
  5
207
100
AcDbSymbolTableRecord
100
AcDbLayerTableRecord
  2
NOTE
 70
0
 62
7
  6
CONTINUOUS
370
-3
390
F
  0
LAYER
  5
208
100
AcDbSymbolTableRecord
100
AcDbLayerTableRecord
  2
PIANI
 70
0
 62
7
  6
CONTINUOUS
370
-3
390
F
  0
LAYER
  5
209
100
AcDbSymbolTableRecord
100
AcDbLayerTableRecord
  2
PIANI_ORIGINE
 70
0
 62
7
  6
CONTINUOUS
370
-3
390
F
  0
LAYER
  5
20A
100
AcDbSymbolTableRecord
100
AcDbLayerTableRecord
  2
PUNTI
 70
0
 62
7
  6
CONTINUOUS
370
-3
390
F
  0
LAYER
  5
20B
100
AcDbSymbolTableRecord
100
AcDbLayerTableRecord
  2
RACCORDO
 70
0
 62
7
  6
CONTINUOUS
370
-3
390
F
  0
LAYER
  5
20C
100
AcDbSymbolTableRecord
100
AcDbLayerTableRecord
  2
SIMBOLI
 70
0
 62
7
  6
CONTINUOUS
370
-3
390
F
  0
LAYER
  5
20D
100
AcDbSymbolTableRecord
100
AcDbLayerTableRecord
  2
SMUSSO
 70
0
 62
7
  6
CONTINUOUS
370
-3
390
F
  0
LAYER
  5
20E
100
AcDbSymbolTableRecord
100
AcDbLayerTableRecord
  2
SNAPLINE
 70
0
 62
7
  6
CONTINUOUS
370
-3
390
F
  0
LAYER
  5
20F
100
AcDbSymbolTableRecord
100
AcDbLayerTableRecord
  2
SUPERFICI
 70
0
 62
7
  6
CONTINUOUS
370
-3
390
F
  0
LAYER
  5
210
100
AcDbSymbolTableRecord
100
AcDbLayerTableRecord
  2
TRASH
 70
0
 62
7
  6
CONTINUOUS
370
-3
390
F
  0
LAYER
  5
211
100
AcDbSymbolTableRecord
100
AcDbLayerTableRecord
  2
WHITE
 70
0
 62
7
  6
CONTINUOUS
370
-3
390
F
  0
ENDTAB
  0
TABLE
  2
STYLE
  5
3
100
AcDbSymbolTable
 70
1
  0
STYLE
  5
11
100
AcDbSymbolTableRecord
100
AcDbTextStyleTableRecord
  2
STANDARD
 70
0
 40
0.0
 41
0.8
 50
0.0
 71
0
 42
0.2
  3
txt
  4

  0
STYLE
  5
212
100
AcDbSymbolTableRecord
100
AcDbTextStyleTableRecord
  2
TEXTSTYLE_1
 70
0
 40
0.0
 41
0.8
 50
0.0
 71
0
 42
0.2
  3
gdt
  4

  0
ENDTAB
  0
TABLE
  2
VIEW
  5
6
100
AcDbSymbolTable
 70
0
  0
ENDTAB
  0
TABLE
  2
UCS
  5
7
100
AcDbSymbolTable
 70
0
  0
ENDTAB
  0
TABLE
  2
APPID
  5
9
100
AcDbSymbolTable
 70
1
  0
APPID
  5
213
100
AcDbSymbolTableRecord
100
AcDbRegAppTableRecord
  2
ACAD
 70
0
  0
ENDTAB
  0
TABLE
  2
BLOCK_RECORD
  5
1
100
AcDbSymbolTable
 70
0
  0
BLOCK_RECORD
  5
214
100
AcDbSymbolTableRecord
100
AcDbBlockTableRecord
  2
*Model_Space
  0
BLOCK_RECORD
  5
215
100
AcDbSymbolTableRecord
100
AcDbBlockTableRecord
  2
*Paper_Space
  0
ENDTAB
  0
TABLE
  2
DIMSTYLE
  5
A
100
AcDbSymbolTable
 70
1
100
AcDbDimStyleTable
 71
0
  0
DIMSTYLE
105
216
100
AcDbSymbolTableRecord
100
AcDbDimStyleTableRecord
  2
STANDARD
 70
0
  3

  4

 40
1.0
 41
3.0
 42
0.5
 43
0.38
 44
1.5
 45
0.0
 46
0.0
 47
0.01
 48
0.01
140
3.0
141
0.09
142
0.0
143
25.4
144
1.0
145
0.0
146
1.0
147
0.625
 71
1.0
 72
0.0
 73
0
 74
0
 75
0
 76
0
 77
1
 78
8
170
0
171
2
172
0
173
0
174
0
175
0
176
0
177
0
178
0
270
2
271
2
272
2
273
2
274
2
275
0
280
0
281
0
282
0
283
1
284
8
285
0
286
0
287
3
288
0
340
11
278
44
  0
ENDTAB
  0
ENDSEC
  0
SECTION
  2
BLOCKS
  0
BLOCK
  5
20
100
AcDbEntity
  8
0
100
AcDbBlockBegin
  2
*Model_Space
 70
0
 10
0.0
 20
0.0
 30
0.0
  3
*Model_Space
  1

  0
ENDBLK
  5
21
100
AcDbEntity
  8
0
100
AcDbBlockEnd
  0
BLOCK
  5
1C
100
AcDbEntity
  8
0
100
AcDbBlockBegin
  2
*Paper_Space
 70
0
 10
0.0
 20
0.0
 30
0.0
  3
*Paper_Space
  1

  0
ENDBLK
  5
1D
100
AcDbEntity
  8
0
100
AcDbBlockEnd
  0
ENDSEC
  0
SECTION
  2
ENTITIES
  0
LINE
  5
217
100
AcDbEntity
  8
0
100
AcDbLine
 62
7
  6
CONTINUOUS
 10
-300.0
 20
246.9750105615
 11
-300.0
 21
240.9556624327
  0
LINE
  5
218
100
AcDbEntity
  8
0
100
AcDbLine
 62
7
  6
CONTINUOUS
 10
-300.0
 20
-265.8236116251
 11
-300.0
 21
-190.5236116251
  0
LINE
  5
219
100
AcDbEntity
  8
0
100
AcDbLine
 62
7
  6
CONTINUOUS
 10
-300.0
 20
212.9763883749
 11
-300.0
 21
-185.0236116251
  0
LINE
  5
21A
100
AcDbEntity
  8
0
100
AcDbLine
 62
7
  6
CONTINUOUS
 10
-300.0
 20
-265.8236116251
 11
-300.0
 21
-267.0236116251
  0
LINE
  5
21B
100
AcDbEntity
  8
0
100
AcDbLine
 62
7
  6
CONTINUOUS
 10
-300.0
 20
219.2236116251
 11
-300.0
 21
240.9556624327
  0
LINE
  5
21C
100
AcDbEntity
  8
0
100
AcDbLine
 62
7
  6
CONTINUOUS
 10
-299.7
 20
239.6798918774
 11
-299.7
 21
-264.2161470714
  0
LINE
  5
21D
100
AcDbEntity
  8
0
100
AcDbLine
 62
7
  6
CONTINUOUS
 10
-298.5
 20
237.8632934547
 11
-298.5
 21
236.997268051
  0
LINE
  5
21E
100
AcDbEntity
  8
0
100
AcDbLine
 62
7
  6
CONTINUOUS
 10
-298.5
 20
-263.4161470714
 11
-298.5
 21
-264.2161470714
  0
LINE
  5
21F
100
AcDbEntity
  8
0
100
AcDbLine
 62
253
  6
CONTINUOUS
 10
-298.0
 20
236.997268051
 11
-298.0
 21
-263.4161470714
  0
LINE
  5
220
100
AcDbEntity
  8
0
100
AcDbLine
 62
253
  6
CONTINUOUS
 10
-298.0
 20
-267.0236116251
 11
-298.0
 21
-268.5236116251
  0
LINE
  5
221
100
AcDbEntity
  8
RACCORDO
100
AcDbLine
 62
7
  6
CONTINUOUS
 10
-297.5
 20
-268.5236116251
 11
-297.5
 21
-267.0236116251
  0
LINE
  5
222
100
AcDbEntity
  8
RACCORDO
100
AcDbLine
 62
253
  6
CONTINUOUS
 10
-294.5
 20
-268.5236116251
 11
-294.5
 21
-267.0236116251
  0
LINE
  5
223
100
AcDbEntity
  8
0
100
AcDbLine
 62
7
  6
CONTINUOUS
 10
-298.0
 20
-268.5236116251
 11
-297.5
 21
-268.5236116251
  0
LINE
  5
224
100
AcDbEntity
  8
0
100
AcDbLine
 62
7
  6
CONTINUOUS
 10
298.0
 20
-268.5236116251
 11
297.5
 21
-268.5236116251
  0
LINE
  5
225
100
AcDbEntity
  8
RACCORDO
100
AcDbLine
 62
7
  6
CONTINUOUS
 10
297.5
 20
-268.5236116251
 11
-297.5
 21
-268.5236116251
  0
LINE
  5
226
100
AcDbEntity
  8
0
100
AcDbLine
 62
7
  6
CONTINUOUS
 10
300.0
 20
-267.0236116251
 11
297.3217698845
 21
-267.0236116251
  0
LINE
  5
227
100
AcDbEntity
  8
RACCORDO
100
AcDbLine
 62
7
  6
CONTINUOUS
 10
297.3217698845
 20
-267.0236116251
 11
-297.3217698845
 21
-267.0236116251
  0
LINE
  5
228
100
AcDbEntity
  8
0
100
AcDbLine
 62
7
  6
CONTINUOUS
 10
-297.3217698845
 20
-267.0236116251
 11
-300.0
 21
-267.0236116251
  0
LINE
  5
229
100
AcDbEntity
  8
0
100
AcDbLine
 62
253
  6
CONTINUOUS
 10
298.9280700928
 20
-265.0236116251
 11
-298.9280700928
 21
-265.0236116251
  0
LINE
  5
22A
100
AcDbEntity
  8
0
100
AcDbLine
 62
7
  6
CONTINUOUS
 10
-257.0
 20
246.9763883749
 11
-257.0
 21
268.5236116251
  0
LINE
  5
22B
100
AcDbEntity
  8
0
100
AcDbLine
 62
7
  6
CONTINUOUS
 10
-255.0
 20
246.9763883749
 11
-255.0
 21
268.5236116251
  0
LINE
  5
22C
100
AcDbEntity
  8
0
100
AcDbLine
 62
7
  6
CONTINUOUS
 10
299.7
 20
-264.2161470714
 11
298.5
 21
-264.2161470714
  0
LINE
  5
22D
100
AcDbEntity
  8
0
100
AcDbLine
 62
7
  6
CONTINUOUS
 10
-299.7
 20
-264.2161470714
 11
-298.5
 21
-264.2161470714
  0
LINE
  5
22E
100
AcDbEntity
  8
0
100
AcDbLine
 62
7
  6
CONTINUOUS
 10
-299.7
 20
-263.4161470714
 11
-298.0
 21
-263.4161470714
  0
LINE
  5
22F
100
AcDbEntity
  8
0
100
AcDbLine
 62
7
  6
CONTINUOUS
 10
298.0
 20
-263.4161470714
 11
299.7
 21
-263.4161470714
  0
LINE
  5
230
100
AcDbEntity
  8
RACCORDO
100
AcDbLine
 62
7
  6
CONTINUOUS
 10
117.0
 20
-252.0236116251
 11
-117.0
 21
-252.0236116251
  0
LWPOLYLINE
  5
231
100
AcDbEntity
  8
0
100
AcDbPolyline
 62
7
  6
CONTINUOUS
 90
10
 70
0
 10
-300.0
 20
-265.8236116251
 10
-299.8809639747
 20
-265.8114319428
 10
-299.7618943006
 20
-265.7752892582
 10
-299.6427909776
 20
-265.7163201817
 10
-299.5236315731
 20
-265.6363833307
 10
-299.4044385197
 20
-265.5379177955
 10
-299.2852791152
 20
-265.4238051479
 10
-299.1661757922
 20
-265.2974377305
 10
-299.047106118
 20
-265.1626768873
 10
-298.9280700928
 20
-265.0236116251
  0
LWPOLYLINE
  5
232
100
AcDbEntity
  8
RACCORDO
100
AcDbPolyline
 62
253
  6
CONTINUOUS
 90
16
 70
0
 10
109.63601276
 20
-212.3287563054
 10
109.6236850832
 20
-212.3289694602
 10
109.6109618351
 20
-212.3290931871
 10
109.5980554064
 20
-212.3291254205
 10
109.5851812459
 20
-212.3290656219
 10
109.5725542635
 20
-212.3289147891
 10
109.5603852431
 20
-212.3286754397
 10
109.5488773236
 20
-212.3283515686
 10
109.5382226083
 20
-212.3279485819
 10
109.5285989577
 20
-212.3274732062
 10
109.5201670206
 20
-212.3269333765
 10
109.5130675524
 20
-212.3263381038
 10
109.5074190656
 20
-212.3256973245
 10
109.503315851
 20
-212.3250217347
 10
109.5008264041
 20
-212.3243226116
 10
109.4999922816
 20
-212.3236116253
  0
LWPOLYLINE
  5
233
100
AcDbEntity
  8
RACCORDO
100
AcDbPolyline
 62
253
  6
CONTINUOUS
 90
16
 70
0
 10
105.36398724
 20
-211.7184669449
 10
105.3763149168
 20
-211.7182537901
 10
105.3890381649
 20
-211.7181300632
 10
105.4019445936
 20
-211.7180978298
 10
105.4148187541
 20
-211.7181576284
 10
105.4274457365
 20
-211.7183084612
 10
105.4396147569
 20
-211.7185478106
 10
105.4511226764
 20
-211.7188716817
 10
105.4617773917
 20
-211.7192746684
 10
105.4714010423
 20
-211.7197500441
 10
105.4798329794
 20
-211.7202898737
 10
105.4869324476
 20
-211.7208851465
 10
105.4925809344
 20
-211.7215259258
 10
105.496684149
 20
-211.7222015155
 10
105.4991735959
 20
-211.7229006386
 10
105.5000077184
 20
-211.7236116249
  0
LWPOLYLINE
  5
234
100
AcDbEntity
  8
RACCORDO
100
AcDbPolyline
 62
253
  6
CONTINUOUS
 90
22
 70
0
 10
108.212005277
 20
-212.6339018626
 10
108.2066322879
 20
-212.6339809218
 10
108.2011233237
 20
-212.634433406
 10
108.1954767379
 20
-212.6352537976
 10
108.189663728
 20
-212.6363974013
 10
108.1837084477
 20
-212.6378975549
 10
108.1776861648
 20
-212.6398667913
 10
108.1715673907
 20
-212.6423028885
 10
108.1653689685
 20
-212.6451989624
 10
108.1592301937
 20
-212.6486650652
 10
108.153107045
 20
-212.6527185939
 10
108.1470192113
 20
-212.6573409244
 10
108.141195346
 20
-212.6625983004
 10
108.135588444
 20
-212.668547253
 10
108.1302089233
 20
-212.6751453906
 10
108.1253706659
 20
-212.6823261518
 10
108.1210689751
 20
-212.6901862426
 10
108.117271863
 20
-212.6986612692
 10
108.1142672218
 20
-212.7074557977
 10
108.1121541426
 20
-212.7164845542
 10
108.1108290861
 20
-212.7258671113
 10
108.1102902375
 20
-212.7356169022
  0
LWPOLYLINE
  5
235
100
AcDbEntity
  8
RACCORDO
100
AcDbPolyline
 62
253
  6
CONTINUOUS
 90
22
 70
0
 10
106.787994723
 20
-211.4133213877
 10
106.7933677121
 20
-211.4132423284
 10
106.7988766763
 20
-211.4127898443
 10
106.8045232621
 20
-211.4119694527
 10
106.810336272
 20
-211.4108258489
 10
106.8162915523
 20
-211.4093256954
 10
106.8223138352
 20
-211.407356459
 10
106.8284326093
 20
-211.4049203618
 10
106.8346310315
 20
-211.4020242879
 10
106.8407698063
 20
-211.3985581851
 10
106.846892955
 20
-211.3945046564
 10
106.8529807887
 20
-211.3898823258
 10
106.858804654
 20
-211.3846249499
 10
106.864411556
 20
-211.3786759973
 10
106.8697910767
 20
-211.3720778597
 10
106.8746293341
 20
-211.3648970984
 10
106.8789310249
 20
-211.3570370076
 10
106.882728137
 20
-211.3485619811
 10
106.8857327782
 20
-211.3397674526
 10
106.8878458574
 20
-211.330738696
 10
106.8891709139
 20
-211.3213561389
 10
106.8897097625
 20
-211.3116063481
  0
LWPOLYLINE
  5
236
100
AcDbEntity
  8
RACCORDO
100
AcDbPolyline
 62
253
  6
CONTINUOUS
 90
13
 70
0
 10
108.1102897589
 20
-213.854480903
 10
108.096359447
 20
-213.8546255125
 10
108.0824996669
 20
-213.8541675742
 10
108.0689796917
 20
-213.8531159852
 10
108.0560621928
 20
-213.8514911763
 10
108.0439981365
 20
-213.8493247149
 10
108.033021908
 20
-213.846658692
 10
108.0233467578
 20
-213.8435449042
 10
108.0151606584
 20
-213.8400438475
 10
108.0086226528
 20
-213.8362235419
 10
108.0038597637
 20
-213.8321582099
 10
108.0009645265
 20
-213.8279268346
 10
107.9999931911
 20
-213.8236116247
  0
LWPOLYLINE
  5
237
100
AcDbEntity
  8
RACCORDO
100
AcDbPolyline
 62
253
  6
CONTINUOUS
 90
13
 70
0
 10
-106.8897102411
 20
-213.854480903
 10
-106.903640553
 20
-213.8546255125
 10
-106.9175003331
 20
-213.8541675742
 10
-106.9310203083
 20
-213.8531159852
 10
-106.9439378072
 20
-213.8514911763
 10
-106.9560018635
 20
-213.8493247149
 10
-106.966978092
 20
-213.846658692
 10
-106.9766532422
 20
-213.8435449042
 10
-106.9848393416
 20
-213.8400438475
 10
-106.9913773472
 20
-213.8362235419
 10
-106.9961402363
 20
-213.8321582099
 10
-106.9990354735
 20
-213.8279268346
 10
-107.0000068089
 20
-213.8236116247
  0
LWPOLYLINE
  5
238
100
AcDbEntity
  8
RACCORDO
100
AcDbPolyline
 62
253
  6
CONTINUOUS
 90
13
 70
0
 10
106.8897102411
 20
-210.1927423473
 10
106.903640553
 20
-210.1925977378
 10
106.9175003331
 20
-210.1930556761
 10
106.9310203083
 20
-210.1941072651
 10
106.9439378072
 20
-210.195732074
 10
106.9560018635
 20
-210.1978985354
 10
106.966978092
 20
-210.2005645583
 10
106.9766532422
 20
-210.2036783461
 10
106.9848393416
 20
-210.2071794028
 10
106.9913773472
 20
-210.2109997084
 10
106.9961402363
 20
-210.2150650403
 10
106.9990354735
 20
-210.2192964157
 10
107.0000068089
 20
-210.2236116255
  0
LWPOLYLINE
  5
239
100
AcDbEntity
  8
RACCORDO
100
AcDbPolyline
 62
253
  6
CONTINUOUS
 90
13
 70
0
 10
108.110290236
 20
-212.7356169005
 10
108.0963602791
 20
-212.735672974
 10
108.0825010272
 20
-212.7354947441
 10
108.0689817096
 20
-212.7350856733
 10
108.0560649519
 20
-212.7344537081
 10
108.0440016744
 20
-212.733611125
 10
108.0330262179
 20
-212.732574292
 10
108.023351791
 20
-212.7313633506
 10
108.0151663288
 20
-212.7300018244
 10
108.0086288416
 20
-212.7285161627
 10
108.0038663264
 20
-212.7269352257
 10
108.0009712997
 20
-212.7252897247
 10
108.0
 20
-212.7236116251
  0
LWPOLYLINE
  5
23A
100
AcDbEntity
  8
RACCORDO
100
AcDbPolyline
 62
253
  6
CONTINUOUS
 90
13
 70
0
 10
-106.889709764
 20
-212.7356169005
 10
-106.9036397209
 20
-212.735672974
 10
-106.9174989728
 20
-212.7354947441
 10
-106.9310182904
 20
-212.7350856733
 10
-106.9439350481
 20
-212.7344537081
 10
-106.9559983256
 20
-212.733611125
 10
-106.9669737821
 20
-212.732574292
 10
-106.976648209
 20
-212.7313633506
 10
-106.9848336712
 20
-212.7300018244
 10
-106.9913711584
 20
-212.7285161627
 10
-106.9961336736
 20
-212.7269352257
 10
-106.9990287003
 20
-212.7252897247
 10
-107.0
 20
-212.7236116251
  0
LWPOLYLINE
  5
23B
100
AcDbEntity
  8
RACCORDO
100
AcDbPolyline
 62
253
  6
CONTINUOUS
 90
13
 70
0
 10
106.889709764
 20
-211.3116063498
 10
106.9036397209
 20
-211.3115502763
 10
106.9174989728
 20
-211.3117285061
 10
106.9310182904
 20
-211.312137577
 10
106.9439350481
 20
-211.3127695422
 10
106.9559983256
 20
-211.3136121253
 10
106.9669737821
 20
-211.3146489583
 10
106.976648209
 20
-211.3158598997
 10
106.9848336712
 20
-211.3172214258
 10
106.9913711584
 20
-211.3187070876
 10
106.9961336736
 20
-211.3202880246
 10
106.9990287003
 20
-211.3219335256
 10
107.0
 20
-211.3236116251
  0
LWPOLYLINE
  5
23C
100
AcDbEntity
  8
RACCORDO
100
AcDbPolyline
 62
253
  6
CONTINUOUS
 90
3
 70
0
 10
108.4140933589
 20
-212.6339018625
 10
108.2770185795
 20
-212.6341452941
 10
108.212005277
 20
-212.6339018626
  0
LWPOLYLINE
  5
23D
100
AcDbEntity
  8
RACCORDO
100
AcDbPolyline
 62
253
  6
CONTINUOUS
 90
3
 70
0
 10
-106.5859066411
 20
-212.6339018625
 10
-106.7229814205
 20
-212.6341452941
 10
-106.787994723
 20
-212.6339018626
  0
LWPOLYLINE
  5
23E
100
AcDbEntity
  8
RACCORDO
100
AcDbPolyline
 62
253
  6
CONTINUOUS
 90
3
 70
0
 10
106.5859066411
 20
-211.4133213878
 10
106.7229814205
 20
-211.4130779561
 10
106.787994723
 20
-211.4133213877
  0
LINE
  5
23F
100
AcDbEntity
  8
RACCORDO
100
AcDbLine
 62
253
  6
CONTINUOUS
 10
107.8051451187
 20
-214.1596274563
 11
107.1948548813
 21
-214.1596274563
  0
LINE
  5
240
100
AcDbEntity
  8
RACCORDO
100
AcDbLine
 62
253
  6
CONTINUOUS
 10
-107.1948548813
 20
-214.1596274563
 11
-107.8051451187
 21
-214.1596274563
  0
LINE
  5
241
100
AcDbEntity
  8
RACCORDO
100
AcDbLine
 62
7
  6
CONTINUOUS
 10
107.8
 20
-214.0236116251
 11
107.2
 21
-214.0236116251
  0
LINE
  5
242
100
AcDbEntity
  8
RACCORDO
100
AcDbLine
 62
7
  6
CONTINUOUS
 10
-107.2
 20
-214.0236116251
 11
-107.8
 21
-214.0236116251
  0
LINE
  5
243
100
AcDbEntity
  8
RACCORDO
100
AcDbLine
 62
7
  6
CONTINUOUS
 10
109.3
 20
-212.5236116251
 11
108.2
 21
-212.5236116251
  0
LINE
  5
244
100
AcDbEntity
  8
RACCORDO
100
AcDbLine
 62
7
  6
CONTINUOUS
 10
106.8
 20
-212.5236116251
 11
105.7
 21
-212.5236116251
  0
LINE
  5
245
100
AcDbEntity
  8
RACCORDO
100
AcDbLine
 62
7
  6
CONTINUOUS
 10
-105.7
 20
-212.5236116251
 11
-106.8
 21
-212.5236116251
  0
LINE
  5
246
100
AcDbEntity
  8
RACCORDO
100
AcDbLine
 62
7
  6
CONTINUOUS
 10
-108.2
 20
-212.5236116251
 11
-109.3
 21
-212.5236116251
  0
LINE
  5
247
100
AcDbEntity
  8
RACCORDO
100
AcDbLine
 62
7
  6
CONTINUOUS
 10
-109.3
 20
-211.5236116251
 11
-108.2
 21
-211.5236116251
  0
LINE
  5
248
100
AcDbEntity
  8
RACCORDO
100
AcDbLine
 62
7
  6
CONTINUOUS
 10
-106.8
 20
-211.5236116251
 11
-105.7
 21
-211.5236116251
  0
LINE
  5
249
100
AcDbEntity
  8
RACCORDO
100
AcDbLine
 62
7
  6
CONTINUOUS
 10
105.7
 20
-211.5236116251
 11
106.8
 21
-211.5236116251
  0
LINE
  5
24A
100
AcDbEntity
  8
RACCORDO
100
AcDbLine
 62
7
  6
CONTINUOUS
 10
108.2
 20
-211.5236116251
 11
109.3
 21
-211.5236116251
  0
LWPOLYLINE
  5
24B
100
AcDbEntity
  8
RACCORDO
100
AcDbPolyline
 62
253
  6
CONTINUOUS
 90
3
 70
0
 10
-108.7017371944
 20
-212.633687311
 10
-108.8513453063
 20
-212.6339018625
 10
-109.1631301486
 20
-212.6337455997
  0
LWPOLYLINE
  5
24C
100
AcDbEntity
  8
RACCORDO
100
AcDbPolyline
 62
253
  6
CONTINUOUS
 90
4
 70
0
 10
-106.0653630722
 20
-212.6336816514
 10
-106.2148100452
 20
-212.6338938539
 10
-106.2889305553
 20
-212.6336257466
 10
-106.4382680926
 20
-212.6342307729
  0
LWPOLYLINE
  5
24D
100
AcDbEntity
  8
RACCORDO
100
AcDbPolyline
 62
253
  6
CONTINUOUS
 90
4
 70
0
 10
108.9346369278
 20
-212.6336816514
 10
108.7851899548
 20
-212.6338938539
 10
108.7110694447
 20
-212.6336257466
 10
108.5617319074
 20
-212.6342307729
  0
LWPOLYLINE
  5
24E
100
AcDbEntity
  8
RACCORDO
100
AcDbPolyline
 62
253
  6
CONTINUOUS
 90
3
 70
0
 10
106.2982628056
 20
-212.633687311
 10
106.1486546937
 20
-212.6339018625
 10
105.8368698514
 20
-212.6337455997
  0
LWPOLYLINE
  5
24F
100
AcDbEntity
  8
RACCORDO
100
AcDbPolyline
 62
253
  6
CONTINUOUS
 90
4
 70
0
 10
106.0653630722
 20
-211.4135415988
 10
106.2148100452
 20
-211.4133293963
 10
106.2889305553
 20
-211.4135975037
 10
106.4382680926
 20
-211.4129924774
  0
LWPOLYLINE
  5
250
100
AcDbEntity
  8
RACCORDO
100
AcDbPolyline
 62
253
  6
CONTINUOUS
 90
3
 70
0
 10
108.7017371944
 20
-211.4135359393
 10
108.8513453063
 20
-211.4133213878
 10
109.1631301486
 20
-211.4134776505
  0
LWPOLYLINE
  5
251
100
AcDbEntity
  8
RACCORDO
100
AcDbPolyline
 62
253
  6
CONTINUOUS
 90
4
 70
0
 10
-108.212005277
 20
-212.6339018626
 10
-108.3413027855
 20
-212.6340719005
 10
-108.4094847044
 20
-212.6339018627
 10
-108.553830722
 20
-212.6341678251
  0
LWPOLYLINE
  5
252
100
AcDbEntity
  8
RACCORDO
100
AcDbPolyline
 62
253
  6
CONTINUOUS
 90
4
 70
0
 10
106.787994723
 20
-212.6339018626
 10
106.6586972145
 20
-212.6340719005
 10
106.5905152956
 20
-212.6339018627
 10
106.446169278
 20
-212.6341678251
  0
LWPOLYLINE
  5
253
100
AcDbEntity
  8
RACCORDO
100
AcDbPolyline
 62
253
  6
CONTINUOUS
 90
4
 70
0
 10
108.212005277
 20
-211.4133213877
 10
108.3413027855
 20
-211.4131513497
 10
108.4094847044
 20
-211.4133213876
 10
108.553830722
 20
-211.4130554252
  0
LINE
  5
254
100
AcDbEntity
  8
RACCORDO
100
AcDbLine
 62
253
  6
CONTINUOUS
 10
-109.1631301486
 20
-212.6337455997
 11
-109.3308707124
 21
-212.6339018626
  0
LINE
  5
255
100
AcDbEntity
  8
RACCORDO
100
AcDbLine
 62
253
  6
CONTINUOUS
 10
105.8368698514
 20
-212.6337455997
 11
105.6691292876
 21
-212.6339018626
  0
LINE
  5
256
100
AcDbEntity
  8
RACCORDO
100
AcDbLine
 62
253
  6
CONTINUOUS
 10
-105.8368698514
 20
-211.4134776505
 11
-105.6691292876
 21
-211.4133213877
  0
LINE
  5
257
100
AcDbEntity
  8
RACCORDO
100
AcDbLine
 62
253
  6
CONTINUOUS
 10
109.1631301486
 20
-211.4134776505
 11
109.3308707124
 21
-211.4133213877
  0
LINE
  5
258
100
AcDbEntity
  8
RACCORDO
100
AcDbLine
 62
253
  6
CONTINUOUS
 10
-105.9901949029
 20
-212.6338218561
 11
-106.0653630722
 21
-212.6336816514
  0
LINE
  5
259
100
AcDbEntity
  8
RACCORDO
100
AcDbLine
 62
253
  6
CONTINUOUS
 10
109.0098050971
 20
-212.6338218561
 11
108.9346369278
 21
-212.6336816514
  0
LWPOLYLINE
  5
25A
100
AcDbEntity
  8
RACCORDO
100
AcDbPolyline
 62
253
  6
CONTINUOUS
 90
3
 70
0
 10
-109.0098050971
 20
-211.4134013942
 10
-108.9346369278
 20
-211.4135415988
 10
-108.8598397239
 20
-211.413321387
  0
LINE
  5
25B
100
AcDbEntity
  8
RACCORDO
100
AcDbLine
 62
253
  6
CONTINUOUS
 10
105.9901949029
 20
-211.4134013942
 11
106.0653630722
 21
-211.4135415988
  0
LINE
  5
25C
100
AcDbEntity
  8
RACCORDO
100
AcDbLine
 62
253
  6
CONTINUOUS
 10
-105.6691292876
 20
-212.6339018626
 11
-105.9901949029
 21
-212.6338218561
  0
LINE
  5
25D
100
AcDbEntity
  8
RACCORDO
100
AcDbLine
 62
253
  6
CONTINUOUS
 10
109.3308707124
 20
-212.6339018626
 11
109.0098050971
 21
-212.6338218561
  0
LINE
  5
25E
100
AcDbEntity
  8
RACCORDO
100
AcDbLine
 62
253
  6
CONTINUOUS
 10
-109.3308707124
 20
-211.4133213877
 11
-109.0098050971
 21
-211.4134013942
  0
LINE
  5
25F
100
AcDbEntity
  8
RACCORDO
100
AcDbLine
 62
253
  6
CONTINUOUS
 10
105.6691292876
 20
-211.4133213877
 11
105.9901949029
 21
-211.4134013942
  0
LINE
  5
260
100
AcDbEntity
  8
RACCORDO
100
AcDbLine
 62
253
  6
CONTINUOUS
 10
-106.2239006289
 20
-211.4133076587
 11
-105.8368698514
 21
-211.4134776505
  0
LWPOLYLINE
  5
261
100
AcDbEntity
  8
RACCORDO
100
AcDbPolyline
 62
253
  6
CONTINUOUS
 90
3
 70
0
 10
-106.7245269209
 20
-211.4131265125
 10
-106.5905152956
 20
-211.4133213876
 10
-106.446169278
 20
-211.4130554252
  0
LINE
  5
262
100
AcDbEntity
  8
RACCORDO
100
AcDbLine
 62
253
  6
CONTINUOUS
 10
-106.4382680926
 20
-212.6342307729
 11
-106.5859066411
 21
-212.6339018625
  0
LINE
  5
263
100
AcDbEntity
  8
RACCORDO
100
AcDbLine
 62
253
  6
CONTINUOUS
 10
108.5617319074
 20
-212.6342307729
 11
108.4140933589
 21
-212.6339018625
  0
LINE
  5
264
100
AcDbEntity
  8
RACCORDO
100
AcDbLine
 62
253
  6
CONTINUOUS
 10
-108.5617319074
 20
-211.4129924774
 11
-108.4140933589
 21
-211.4133213878
  0
LINE
  5
265
100
AcDbEntity
  8
RACCORDO
100
AcDbLine
 62
253
  6
CONTINUOUS
 10
-108.553830722
 20
-212.6341678251
 11
-108.7017371944
 21
-212.633687311
  0
LINE
  5
266
100
AcDbEntity
  8
RACCORDO
100
AcDbLine
 62
253
  6
CONTINUOUS
 10
106.446169278
 20
-212.6341678251
 11
106.2982628056
 21
-212.633687311
  0
LWPOLYLINE
  5
267
100
AcDbEntity
  8
RACCORDO
100
AcDbPolyline
 62
253
  6
CONTINUOUS
 90
3
 70
0
 10
-108.8598397239
 20
-211.413321387
 10
-108.7110694447
 20
-211.4135975037
 10
-108.5617319074
 20
-211.4129924774
  0
LINE
  5
268
100
AcDbEntity
  8
RACCORDO
100
AcDbLine
 62
253
  6
CONTINUOUS
 10
-106.446169278
 20
-211.4130554252
 11
-106.2982628056
 21
-211.4135359393
  0
LINE
  5
269
100
AcDbEntity
  8
RACCORDO
100
AcDbLine
 62
253
  6
CONTINUOUS
 10
-108.344387564
 20
-211.4131113449
 11
-108.212005277
 21
-211.4133213877
  0
LWPOLYLINE
  5
26A
100
AcDbEntity
  8
RACCORDO
100
AcDbPolyline
 62
253
  6
CONTINUOUS
 90
13
 70
0
 10
-108.1102902273
 20
-212.7356168903
 10
-108.0963613578
 20
-212.7356727926
 10
-108.0825032742
 20
-212.7354944219
 10
-108.0689851617
 20
-212.7350852436
 10
-108.0560696018
 20
-212.7344532057
 10
-108.0440074717
 20
-212.7336105854
 10
-108.0330330712
 20
-212.7325737498
 10
-108.0233595716
 20
-212.7313628386
 10
-108.015174875
 20
-212.7300013728
 10
-108.0086379644
 20
-212.7285157974
 10
-108.0038758155
 20
-212.7269349681
 10
-108.0009809301
 20
-212.7252895913
 10
-108.0000095399
 20
-212.7236116266
  0
LWPOLYLINE
  5
26B
100
AcDbEntity
  8
RACCORDO
100
AcDbPolyline
 62
253
  6
CONTINUOUS
 90
13
 70
0
 10
106.8897097727
 20
-212.7356168903
 10
106.9036386422
 20
-212.7356727926
 10
106.9174967258
 20
-212.7354944219
 10
106.9310148383
 20
-212.7350852436
 10
106.9439303982
 20
-212.7344532057
 10
106.9559925283
 20
-212.7336105854
 10
106.9669669288
 20
-212.7325737498
 10
106.9766404284
 20
-212.7313628386
 10
106.984825125
 20
-212.7300013728
 10
106.9913620356
 20
-212.7285157974
 10
106.9961241845
 20
-212.7269349681
 10
106.9990190699
 20
-212.7252895913
 10
106.9999904601
 20
-212.7236116266
  0
LWPOLYLINE
  5
26C
100
AcDbEntity
  8
RACCORDO
100
AcDbPolyline
 62
253
  6
CONTINUOUS
 90
13
 70
0
 10
-106.8897097727
 20
-211.3116063599
 10
-106.9036386422
 20
-211.3115504577
 10
-106.9174967258
 20
-211.3117288283
 10
-106.9310148383
 20
-211.3121380067
 10
-106.9439303982
 20
-211.3127700445
 10
-106.9559925283
 20
-211.3136126649
 10
-106.9669669288
 20
-211.3146495005
 10
-106.9766404284
 20
-211.3158604116
 10
-106.984825125
 20
-211.3172218775
 10
-106.9913620356
 20
-211.3187074529
 10
-106.9961241845
 20
-211.3202882821
 10
-106.9990190699
 20
-211.321933659
 10
-106.9999904601
 20
-211.3236116237
  0
LWPOLYLINE
  5
26D
100
AcDbEntity
  8
RACCORDO
100
AcDbPolyline
 62
253
  6
CONTINUOUS
 90
13
 70
0
 10
-108.1102902302
 20
-213.8544823158
 10
-108.0963602784
 20
-213.8546265045
 10
-108.0825010316
 20
-213.8541681996
 10
-108.0689817187
 20
-213.8531163041
 10
-108.0560649651
 20
-213.8514912521
 10
-108.0440016909
 20
-213.8493246117
 10
-108.0330262365
 20
-213.8466584719
 10
-108.0233518105
 20
-213.8435446251
 10
-108.0151663476
 20
-213.8400435606
 10
-108.0086288581
 20
-213.8362232898
 10
-108.0038663391
 20
-213.832158025
 10
-108.0009713068
 20
-213.8279267379
 10
-108.0
 20
-213.8236116251
  0
LWPOLYLINE
  5
26E
100
AcDbEntity
  8
RACCORDO
100
AcDbPolyline
 62
253
  6
CONTINUOUS
 90
13
 70
0
 10
106.8897097698
 20
-213.8544823158
 10
106.9036397216
 20
-213.8546265045
 10
106.9174989684
 20
-213.8541681996
 10
106.9310182813
 20
-213.8531163041
 10
106.9439350349
 20
-213.8514912521
 10
106.9559983091
 20
-213.8493246117
 10
106.9669737635
 20
-213.8466584719
 10
106.9766481895
 20
-213.8435446251
 10
106.9848336524
 20
-213.8400435606
 10
106.9913711419
 20
-213.8362232898
 10
106.9961336609
 20
-213.832158025
 10
106.9990286932
 20
-213.8279267379
 10
107.0
 20
-213.8236116251
  0
LWPOLYLINE
  5
26F
100
AcDbEntity
  8
RACCORDO
100
AcDbPolyline
 62
253
  6
CONTINUOUS
 90
13
 70
0
 10
-106.8897097698
 20
-210.1927409344
 10
-106.9036397216
 20
-210.1925967457
 10
-106.9174989684
 20
-210.1930550506
 10
-106.9310182813
 20
-210.1941069461
 10
-106.9439350349
 20
-210.1957319982
 10
-106.9559983091
 20
-210.1978986386
 10
-106.9669737635
 20
-210.2005647784
 10
-106.9766481895
 20
-210.2036786252
 10
-106.9848336524
 20
-210.2071796897
 10
-106.9913711419
 20
-210.2109999605
 10
-106.9961336609
 20
-210.2150652253
 10
-106.9990286932
 20
-210.2192965124
 10
-107.0
 20
-210.2236116251
  0
LWPOLYLINE
  5
270
100
AcDbEntity
  8
RACCORDO
100
AcDbPolyline
 62
253
  6
CONTINUOUS
 90
16
 70
0
 10
-109.6360158292
 20
-212.3287567436
 10
-109.6236882063
 20
-212.3289698923
 10
-109.6109652122
 20
-212.3290936081
 10
-109.5980592017
 20
-212.3291258261
 10
-109.5851855844
 20
-212.3290660085
 10
-109.5725592292
 20
-212.3289151537
 10
-109.5603908779
 20
-212.3286757796
 10
-109.5488836279
 20
-212.3283518818
 10
-109.5382295427
 20
-212.3279488661
 10
-109.5286064456
 20
-212.3274734591
 10
-109.5201749522
 20
-212.3269335958
 10
-109.5130757896
 20
-212.3263382867
 10
-109.5074274472
 20
-212.3256974677
 10
-109.5033241996
 20
-212.3250218344
 10
-109.5008345325
 20
-212.3243226637
 10
-109.5
 20
-212.3236116251
  0
LWPOLYLINE
  5
271
100
AcDbEntity
  8
RACCORDO
100
AcDbPolyline
 62
253
  6
CONTINUOUS
 90
16
 70
0
 10
-105.3639841708
 20
-211.7184665067
 10
-105.3763117937
 20
-211.7182533579
 10
-105.3890347878
 20
-211.7181296421
 10
-105.4019407983
 20
-211.7180974242
 10
-105.4148144156
 20
-211.7181572418
 10
-105.4274407708
 20
-211.7183080966
 10
-105.4396091221
 20
-211.7185474706
 10
-105.4511163721
 20
-211.7188713685
 10
-105.4617704573
 20
-211.7192743842
 10
-105.4713935544
 20
-211.7197497911
 10
-105.4798250478
 20
-211.7202896545
 10
-105.4869242104
 20
-211.7208849636
 10
-105.4925725528
 20
-211.7215257826
 10
-105.4966758004
 20
-211.7222014159
 10
-105.4991654675
 20
-211.7229005866
 10
-105.5
 20
-211.7236116251
  0
LWPOLYLINE
  5
272
100
AcDbEntity
  8
RACCORDO
100
AcDbPolyline
 62
253
  6
CONTINUOUS
 90
19
 70
0
 10
-107.8051451187
 20
-214.1596274563
 10
-107.831131454
 20
-214.1585154152
 10
-107.8567524796
 20
-214.1552367786
 10
-107.8819380861
 20
-214.1498054268
 10
-107.9067301052
 20
-214.1422030488
 10
-107.9309468925
 20
-214.1324755758
 10
-107.9541898525
 20
-214.1207458867
 10
-107.9763916732
 20
-214.1070308207
 10
-107.9975011246
 20
-214.0913691425
 10
-108.0171629036
 20
-214.0739372407
 10
-108.0353672075
 20
-214.0547212665
 10
-108.0520421129
 20
-214.0338034657
 10
-108.0667739053
 20
-214.0115211357
 10
-108.0795593534
 20
-213.9879106978
 10
-108.090386921
 20
-213.9630069769
 10
-108.098879112
 20
-213.9371551341
 10
-108.104940006
 20
-213.9104897463
 10
-108.1087309367
 20
-213.8829273966
 10
-108.1102902375
 20
-213.8544823375
  0
LWPOLYLINE
  5
273
100
AcDbEntity
  8
RACCORDO
100
AcDbPolyline
 62
253
  6
CONTINUOUS
 90
19
 70
0
 10
-107.1948548813
 20
-209.887595794
 10
-107.168868546
 20
-209.888707835
 10
-107.1432475204
 20
-209.8919864716
 10
-107.1180619139
 20
-209.8974178235
 10
-107.0932698948
 20
-209.9050202014
 10
-107.0690531075
 20
-209.9147476744
 10
-107.0458101475
 20
-209.9264773636
 10
-107.0236083268
 20
-209.9401924296
 10
-107.0024988754
 20
-209.9558541078
 10
-106.9828370964
 20
-209.9732860095
 10
-106.9646327925
 20
-209.9925019838
 10
-106.9479578871
 20
-210.0134197846
 10
-106.9332260947
 20
-210.0357021146
 10
-106.9204406466
 20
-210.0593125524
 10
-106.909613079
 20
-210.0842162733
 10
-106.901120888
 20
-210.1100681162
 10
-106.895059994
 20
-210.1367335039
 10
-106.8912690633
 20
-210.1642958537
 10
-106.8897097625
 20
-210.1927409127
  0
LWPOLYLINE
  5
274
100
AcDbEntity
  8
RACCORDO
100
AcDbPolyline
 62
253
  6
CONTINUOUS
 90
19
 70
0
 10
-109.3308707124
 20
-212.6339018626
 10
-109.3591655667
 20
-212.6323828091
 10
-109.3866434686
 20
-212.6286163249
 10
-109.4132901142
 20
-212.6225614874
 10
-109.4392147555
 20
-212.6140508625
 10
-109.4642562732
 20
-212.6031801486
 10
-109.4879908998
 20
-212.5903360199
 10
-109.5103655525
 20
-212.5755211967
 10
-109.5313610593
 20
-212.5587485072
 10
-109.5506160643
 20
-212.5404735845
 10
-109.5680308011
 20
-212.5207854267
 10
-109.5836385045
 20
-212.499681433
 10
-109.5972952529
 20
-212.4775149864
 10
-109.6089665904
 20
-212.4543562913
 10
-109.6186338097
 20
-212.4302542748
 10
-109.6261951007
 20
-212.4055468886
 10
-109.6316098882
 20
-212.3803944746
 10
-109.6348884795
 20
-212.3547745677
 10
-109.6360158311
 20
-212.3287567439
  0
LWPOLYLINE
  5
275
100
AcDbEntity
  8
RACCORDO
100
AcDbPolyline
 62
253
  6
CONTINUOUS
 90
19
 70
0
 10
-105.6691292876
 20
-211.4133213877
 10
-105.6408344333
 20
-211.4148404412
 10
-105.6133565314
 20
-211.4186069254
 10
-105.5867098858
 20
-211.4246617629
 10
-105.5607852445
 20
-211.4331723878
 10
-105.5357437268
 20
-211.4440431017
 10
-105.5120091002
 20
-211.4568872304
 10
-105.4896344475
 20
-211.4717020535
 10
-105.4686389407
 20
-211.488474743
 10
-105.4493839357
 20
-211.5067496657
 10
-105.4319691989
 20
-211.5264378235
 10
-105.4163614955
 20
-211.5475418172
 10
-105.4027047471
 20
-211.5697082639
 10
-105.3910334096
 20
-211.5928669589
 10
-105.3813661903
 20
-211.6169689754
 10
-105.3738048993
 20
-211.6416763617
 10
-105.3683901118
 20
-211.6668287757
 10
-105.3651115205
 20
-211.6924486826
 10
-105.3639841689
 20
-211.7184665064
  0
LINE
  5
276
100
AcDbEntity
  8
0
100
AcDbLine
 62
7
  6
CONTINUOUS
 10
-299.0175310209
 20
-265.2853603192
 11
-298.9280700928
 21
-265.0236116251
  0
LWPOLYLINE
  5
277
100
AcDbEntity
  8
0
100
AcDbPolyline
 62
7
  6
CONTINUOUS
 90
4
 70
0
 10
-299.2855757678
 20
-266.0245035769
 10
-299.1962927541
 20
-265.7901463071
 10
-299.1069385747
 20
-265.5423350782
 10
-299.0175310209
 20
-265.2853603192
  0
LWPOLYLINE
  5
278
100
AcDbEntity
  8
0
100
AcDbPolyline
 62
7
  6
CONTINUOUS
 90
9
 70
0
 10
-300.0
 20
-267.0236116251
 10
-299.9105390719
 20
-267.0064095526
 10
-299.8211315181
 20
-266.9551721288
 10
-299.7317773387
 20
-266.870886532
 10
-299.642494325
 20
-266.7551471578
 10
-299.5532646857
 20
-266.6100047135
 10
-299.4640350464
 20
-266.4378251875
 10
-299.3748054071
 20
-266.2415430556
 10
-299.2855757678
 20
-266.0245035769
  0
LWPOLYLINE
  5
279
100
AcDbEntity
  8
RACCORDO
100
AcDbPolyline
 62
253
  6
CONTINUOUS
 90
16
 70
0
 10
-105.36398724
 20
-212.3287563054
 10
-105.3763149168
 20
-212.3289694602
 10
-105.3890381649
 20
-212.3290931871
 10
-105.4019445936
 20
-212.3291254205
 10
-105.4148187541
 20
-212.3290656219
 10
-105.4274457365
 20
-212.3289147891
 10
-105.4396147569
 20
-212.3286754397
 10
-105.4511226764
 20
-212.3283515686
 10
-105.4617773917
 20
-212.3279485819
 10
-105.4714010423
 20
-212.3274732062
 10
-105.4798329794
 20
-212.3269333765
 10
-105.4869324476
 20
-212.3263381038
 10
-105.4925809344
 20
-212.3256973245
 10
-105.496684149
 20
-212.3250217347
 10
-105.4991735959
 20
-212.3243226116
 10
-105.5000077184
 20
-212.3236116253
  0
LWPOLYLINE
  5
27A
100
AcDbEntity
  8
RACCORDO
100
AcDbPolyline
 62
253
  6
CONTINUOUS
 90
16
 70
0
 10
-109.63601276
 20
-211.7184669449
 10
-109.6236850832
 20
-211.7182537901
 10
-109.6109618351
 20
-211.7181300632
 10
-109.5980554064
 20
-211.7180978298
 10
-109.5851812459
 20
-211.7181576284
 10
-109.5725542635
 20
-211.7183084612
 10
-109.5603852431
 20
-211.7185478106
 10
-109.5488773236
 20
-211.7188716817
 10
-109.5382226083
 20
-211.7192746684
 10
-109.5285989577
 20
-211.7197500441
 10
-109.5201670206
 20
-211.7202898737
 10
-109.5130675524
 20
-211.7208851465
 10
-109.5074190656
 20
-211.7215259258
 10
-109.503315851
 20
-211.7222015155
 10
-109.5008264041
 20
-211.7229006386
 10
-109.4999922816
 20
-211.7236116249
  0
LWPOLYLINE
  5
27B
100
AcDbEntity
  8
RACCORDO
100
AcDbPolyline
 62
253
  6
CONTINUOUS
 90
22
 70
0
 10
-106.787994723
 20
-212.6339018626
 10
-106.7933677121
 20
-212.6339809218
 10
-106.7988766763
 20
-212.634433406
 10
-106.8045232621
 20
-212.6352537976
 10
-106.810336272
 20
-212.6363974013
 10
-106.8162915523
 20
-212.6378975549
 10
-106.8223138352
 20
-212.6398667913
 10
-106.8284326093
 20
-212.6423028885
 10
-106.8346310315
 20
-212.6451989624
 10
-106.8407698063
 20
-212.6486650652
 10
-106.846892955
 20
-212.6527185939
 10
-106.8529807887
 20
-212.6573409244
 10
-106.858804654
 20
-212.6625983004
 10
-106.864411556
 20
-212.668547253
 10
-106.8697910767
 20
-212.6751453906
 10
-106.8746293341
 20
-212.6823261518
 10
-106.8789310249
 20
-212.6901862426
 10
-106.882728137
 20
-212.6986612692
 10
-106.8857327782
 20
-212.7074557977
 10
-106.8878458574
 20
-212.7164845542
 10
-106.8891709139
 20
-212.7258671113
 10
-106.8897097625
 20
-212.7356169022
  0
LWPOLYLINE
  5
27C
100
AcDbEntity
  8
RACCORDO
100
AcDbPolyline
 62
253
  6
CONTINUOUS
 90
22
 70
0
 10
-108.212005277
 20
-211.4133213877
 10
-108.2066322879
 20
-211.4132423284
 10
-108.2011233237
 20
-211.4127898443
 10
-108.1954767379
 20
-211.4119694527
 10
-108.189663728
 20
-211.4108258489
 10
-108.1837084477
 20
-211.4093256954
 10
-108.1776861648
 20
-211.407356459
 10
-108.1715673907
 20
-211.4049203618
 10
-108.1653689685
 20
-211.4020242879
 10
-108.1592301937
 20
-211.3985581851
 10
-108.153107045
 20
-211.3945046564
 10
-108.1470192113
 20
-211.3898823258
 10
-108.141195346
 20
-211.3846249499
 10
-108.135588444
 20
-211.3786759973
 10
-108.1302089233
 20
-211.3720778597
 10
-108.1253706659
 20
-211.3648970984
 10
-108.1210689751
 20
-211.3570370076
 10
-108.117271863
 20
-211.3485619811
 10
-108.1142672218
 20
-211.3397674526
 10
-108.1121541426
 20
-211.330738696
 10
-108.1108290861
 20
-211.3213561389
 10
-108.1102902375
 20
-211.3116063481
  0
LWPOLYLINE
  5
27D
100
AcDbEntity
  8
RACCORDO
100
AcDbPolyline
 62
253
  6
CONTINUOUS
 90
13
 70
0
 10
-108.1102897589
 20
-210.1927423473
 10
-108.096359447
 20
-210.1925977378
 10
-108.0824996669
 20
-210.1930556761
 10
-108.0689796917
 20
-210.1941072651
 10
-108.0560621928
 20
-210.195732074
 10
-108.0439981365
 20
-210.1978985354
 10
-108.033021908
 20
-210.2005645583
 10
-108.0233467578
 20
-210.2036783461
 10
-108.0151606584
 20
-210.2071794028
 10
-108.0086226528
 20
-210.2109997084
 10
-108.0038597637
 20
-210.2150650403
 10
-108.0009645265
 20
-210.2192964157
 10
-107.9999931911
 20
-210.2236116255
  0
LWPOLYLINE
  5
27E
100
AcDbEntity
  8
RACCORDO
100
AcDbPolyline
 62
253
  6
CONTINUOUS
 90
13
 70
0
 10
-108.110290236
 20
-211.3116063498
 10
-108.0963602791
 20
-211.3115502763
 10
-108.0825010272
 20
-211.3117285061
 10
-108.0689817096
 20
-211.312137577
 10
-108.0560649519
 20
-211.3127695422
 10
-108.0440016744
 20
-211.3136121253
 10
-108.0330262179
 20
-211.3146489583
 10
-108.023351791
 20
-211.3158598997
 10
-108.0151663288
 20
-211.3172214258
 10
-108.0086288416
 20
-211.3187070876
 10
-108.0038663264
 20
-211.3202880246
 10
-108.0009712997
 20
-211.3219335256
 10
-108.0
 20
-211.3236116251
  0
LINE
  5
27F
100
AcDbEntity
  8
RACCORDO
100
AcDbLine
 62
253
  6
CONTINUOUS
 10
-106.2982628056
 20
-211.4135359393
 11
-106.2239006289
 21
-211.4133076587
  0
LINE
  5
280
100
AcDbEntity
  8
RACCORDO
100
AcDbLine
 62
253
  6
CONTINUOUS
 10
-108.4140933589
 20
-211.4133213878
 11
-108.344387564
 21
-211.4131113449
  0
LINE
  5
281
100
AcDbEntity
  8
RACCORDO
100
AcDbLine
 62
253
  6
CONTINUOUS
 10
-106.787994723
 20
-211.4133213877
 11
-106.7245269209
 21
-211.4131265125
  0
LINE
  5
282
100
AcDbEntity
  8
RACCORDO
100
AcDbLine
 62
7
  6
CONTINUOUS
 10
-107.8
 20
-210.0236116251
 11
-107.2
 21
-210.0236116251
  0
LINE
  5
283
100
AcDbEntity
  8
RACCORDO
100
AcDbLine
 62
7
  6
CONTINUOUS
 10
107.2
 20
-210.0236116251
 11
107.8
 21
-210.0236116251
  0
LINE
  5
284
100
AcDbEntity
  8
RACCORDO
100
AcDbLine
 62
253
  6
CONTINUOUS
 10
-107.8051451187
 20
-209.887595794
 11
-107.1948548813
 21
-209.887595794
  0
LINE
  5
285
100
AcDbEntity
  8
RACCORDO
100
AcDbLine
 62
253
  6
CONTINUOUS
 10
107.1948548813
 20
-209.887595794
 11
107.8051451187
 21
-209.887595794
  0
LINE
  5
286
100
AcDbEntity
  8
0
100
AcDbLine
 62
253
  6
CONTINUOUS
 10
299.7
 20
-190.5236116251
 11
300.0
 21
-190.5236116251
  0
LINE
  5
287
100
AcDbEntity
  8
0
100
AcDbLine
 62
253
  6
CONTINUOUS
 10
-299.7
 20
-190.5236116251
 11
-300.0
 21
-190.5236116251
  0
LINE
  5
288
100
AcDbEntity
  8
0
100
AcDbLine
 62
7
  6
CONTINUOUS
 10
-300.0
 20
-185.0236116251
 11
-299.7
 21
-185.0236116251
  0
LINE
  5
289
100
AcDbEntity
  8
0
100
AcDbLine
 62
7
  6
CONTINUOUS
 10
300.0
 20
-185.0236116251
 11
299.7
 21
-185.0236116251
  0
LWPOLYLINE
  5
28A
100
AcDbEntity
  8
RACCORDO
100
AcDbPolyline
 62
253
  6
CONTINUOUS
 90
3
 70
0
 10
106.4382680926
 20
-211.4129924774
 10
106.5132286259
 20
-211.4132125489
 10
106.5859066411
 20
-211.4133213878
  0
LINE
  5
28B
100
AcDbEntity
  8
RACCORDO
100
AcDbLine
 62
253
  6
CONTINUOUS
 10
108.553830722
 20
-211.4130554252
 11
108.7017371944
 21
-211.4135359393
  0
LWPOLYLINE
  5
28C
100
AcDbEntity
  8
RACCORDO
100
AcDbPolyline
 62
253
  6
CONTINUOUS
 90
13
 70
0
 10
108.1102902273
 20
-211.3116063599
 10
108.0963613578
 20
-211.3115504577
 10
108.0825032742
 20
-211.3117288283
 10
108.0689851617
 20
-211.3121380067
 10
108.0560696018
 20
-211.3127700445
 10
108.0440074717
 20
-211.3136126649
 10
108.0330330712
 20
-211.3146495005
 10
108.0233595716
 20
-211.3158604116
 10
108.015174875
 20
-211.3172218775
 10
108.0086379644
 20
-211.3187074529
 10
108.0038758155
 20
-211.3202882821
 10
108.0009809301
 20
-211.321933659
 10
108.0000095399
 20
-211.3236116237
  0
LWPOLYLINE
  5
28D
100
AcDbEntity
  8
RACCORDO
100
AcDbPolyline
 62
253
  6
CONTINUOUS
 90
13
 70
0
 10
108.1102902302
 20
-210.1927409344
 10
108.0963602784
 20
-210.1925967457
 10
108.0825010316
 20
-210.1930550506
 10
108.0689817187
 20
-210.1941069461
 10
108.0560649651
 20
-210.1957319982
 10
108.0440016909
 20
-210.1978986386
 10
108.0330262365
 20
-210.2005647784
 10
108.0233518105
 20
-210.2036786252
 10
108.0151663476
 20
-210.2071796897
 10
108.0086288581
 20
-210.2109999605
 10
108.0038663391
 20
-210.2150652253
 10
108.0009713068
 20
-210.2192965124
 10
108.0
 20
-210.2236116251
  0
LWPOLYLINE
  5
28E
100
AcDbEntity
  8
RACCORDO
100
AcDbPolyline
 62
253
  6
CONTINUOUS
 90
16
 70
0
 10
105.3639841708
 20
-212.3287567436
 10
105.3763117937
 20
-212.3289698923
 10
105.3890347878
 20
-212.3290936081
 10
105.4019407983
 20
-212.3291258261
 10
105.4148144156
 20
-212.3290660085
 10
105.4274407708
 20
-212.3289151537
 10
105.4396091221
 20
-212.3286757796
 10
105.4511163721
 20
-212.3283518818
 10
105.4617704573
 20
-212.3279488661
 10
105.4713935544
 20
-212.3274734591
 10
105.4798250478
 20
-212.3269335958
 10
105.4869242104
 20
-212.3263382867
 10
105.4925725528
 20
-212.3256974677
 10
105.4966758004
 20
-212.3250218344
 10
105.4991654675
 20
-212.3243226637
 10
105.5
 20
-212.3236116251
  0
LWPOLYLINE
  5
28F
100
AcDbEntity
  8
RACCORDO
100
AcDbPolyline
 62
253
  6
CONTINUOUS
 90
16
 70
0
 10
109.6360158292
 20
-211.7184665067
 10
109.6236882063
 20
-211.7182533579
 10
109.6109652122
 20
-211.7181296421
 10
109.5980592017
 20
-211.7180974242
 10
109.5851855844
 20
-211.7181572418
 10
109.5725592292
 20
-211.7183080966
 10
109.5603908779
 20
-211.7185474706
 10
109.5488836279
 20
-211.7188713685
 10
109.5382295427
 20
-211.7192743842
 10
109.5286064456
 20
-211.7197497911
 10
109.5201749522
 20
-211.7202896545
 10
109.5130757896
 20
-211.7208849636
 10
109.5074274472
 20
-211.7215257826
 10
109.5033241996
 20
-211.7222014159
 10
109.5008345325
 20
-211.7229005866
 10
109.5
 20
-211.7236116251
  0
LWPOLYLINE
  5
290
100
AcDbEntity
  8
RACCORDO
100
AcDbPolyline
 62
253
  6
CONTINUOUS
 90
19
 70
0
 10
107.1948548813
 20
-214.1596274563
 10
107.168868546
 20
-214.1585154152
 10
107.1432475204
 20
-214.1552367786
 10
107.1180619139
 20
-214.1498054268
 10
107.0932698948
 20
-214.1422030488
 10
107.0690531075
 20
-214.1324755758
 10
107.0458101475
 20
-214.1207458867
 10
107.0236083268
 20
-214.1070308207
 10
107.0024988754
 20
-214.0913691425
 10
106.9828370964
 20
-214.0739372407
 10
106.9646327925
 20
-214.0547212665
 10
106.9479578871
 20
-214.0338034657
 10
106.9332260947
 20
-214.0115211357
 10
106.9204406466
 20
-213.9879106978
 10
106.909613079
 20
-213.9630069769
 10
106.901120888
 20
-213.9371551341
 10
106.895059994
 20
-213.9104897463
 10
106.8912690633
 20
-213.8829273966
 10
106.8897097625
 20
-213.8544823375
  0
LWPOLYLINE
  5
291
100
AcDbEntity
  8
RACCORDO
100
AcDbPolyline
 62
253
  6
CONTINUOUS
 90
19
 70
0
 10
107.8051451187
 20
-209.887595794
 10
107.831131454
 20
-209.888707835
 10
107.8567524796
 20
-209.8919864716
 10
107.8819380861
 20
-209.8974178235
 10
107.9067301052
 20
-209.9050202014
 10
107.9309468925
 20
-209.9147476744
 10
107.9541898525
 20
-209.9264773636
 10
107.9763916732
 20
-209.9401924296
 10
107.9975011246
 20
-209.9558541078
 10
108.0171629036
 20
-209.9732860095
 10
108.0353672075
 20
-209.9925019838
 10
108.0520421129
 20
-210.0134197846
 10
108.0667739053
 20
-210.0357021146
 10
108.0795593534
 20
-210.0593125524
 10
108.090386921
 20
-210.0842162733
 10
108.098879112
 20
-210.1100681162
 10
108.104940006
 20
-210.1367335039
 10
108.1087309367
 20
-210.1642958537
 10
108.1102902375
 20
-210.1927409127
  0
LWPOLYLINE
  5
292
100
AcDbEntity
  8
RACCORDO
100
AcDbPolyline
 62
253
  6
CONTINUOUS
 90
19
 70
0
 10
105.6691292876
 20
-212.6339018626
 10
105.6408344333
 20
-212.6323828091
 10
105.6133565314
 20
-212.6286163249
 10
105.5867098858
 20
-212.6225614874
 10
105.5607852445
 20
-212.6140508625
 10
105.5357437268
 20
-212.6031801486
 10
105.5120091002
 20
-212.5903360199
 10
105.4896344475
 20
-212.5755211967
 10
105.4686389407
 20
-212.5587485072
 10
105.4493839357
 20
-212.5404735845
 10
105.4319691989
 20
-212.5207854267
 10
105.4163614955
 20
-212.499681433
 10
105.4027047471
 20
-212.4775149864
 10
105.3910334096
 20
-212.4543562913
 10
105.3813661903
 20
-212.4302542748
 10
105.3738048993
 20
-212.4055468886
 10
105.3683901118
 20
-212.3803944746
 10
105.3651115205
 20
-212.3547745677
 10
105.3639841689
 20
-212.3287567439
  0
LWPOLYLINE
  5
293
100
AcDbEntity
  8
RACCORDO
100
AcDbPolyline
 62
253
  6
CONTINUOUS
 90
19
 70
0
 10
109.3308707124
 20
-211.4133213877
 10
109.3591655667
 20
-211.4148404412
 10
109.3866434686
 20
-211.4186069254
 10
109.4132901142
 20
-211.4246617629
 10
109.4392147555
 20
-211.4331723878
 10
109.4642562732
 20
-211.4440431017
 10
109.4879908998
 20
-211.4568872304
 10
109.5103655525
 20
-211.4717020535
 10
109.5313610593
 20
-211.488474743
 10
109.5506160643
 20
-211.5067496657
 10
109.5680308011
 20
-211.5264378235
 10
109.5836385045
 20
-211.5475418172
 10
109.5972952529
 20
-211.5697082639
 10
109.6089665904
 20
-211.5928669589
 10
109.6186338097
 20
-211.6169689754
 10
109.6261951007
 20
-211.6416763617
 10
109.6316098882
 20
-211.6668287757
 10
109.6348884795
 20
-211.6924486826
 10
109.6360158311
 20
-211.7184665064
  0
LWPOLYLINE
  5
294
100
AcDbEntity
  8
0
100
AcDbPolyline
 62
7
  6
CONTINUOUS
 90
9
 70
0
 10
-299.2853800619
 20
239.2236116251
 10
-299.364844186
 20
239.455529725
 10
-299.4442773558
 20
239.6844499325
 10
-299.5236795712
 20
239.9072719582
 10
-299.6030301958
 20
240.1210493968
 10
-299.6823498661
 20
240.3227797134
 10
-299.7617004907
 20
240.5094965478
 10
-299.8411027061
 20
240.678636342
 10
-299.9205358758
 20
240.8280189595
  0
LINE
  5
295
100
AcDbEntity
  8
RACCORDO
100
AcDbLine
 62
7
  6
CONTINUOUS
 10
-117.0
 20
-172.0236116251
 11
117.0
 21
-172.0236116251
  0
LINE
  5
296
100
AcDbEntity
  8
0
100
AcDbLine
 62
7
  6
CONTINUOUS
 10
-298.0
 20
236.997268051
 11
-299.2853800619
 21
239.2236116251
  0
LWPOLYLINE
  5
297
100
AcDbEntity
  8
RACCORDO
100
AcDbPolyline
 62
253
  6
CONTINUOUS
 90
22
 70
0
 10
-108.1102902375
 20
-212.7356169022
 10
-108.1108029982
 20
-212.7259517761
 10
-108.1121135583
 20
-212.7166204496
 10
-108.114222497
 20
-212.707609725
 10
-108.1172328042
 20
-212.6987871048
 10
-108.1210432344
 20
-212.6902509779
 10
-108.1253637188
 20
-212.6823357568
 10
-108.1302302425
 20
-212.6751169024
 10
-108.135644276
 20
-212.6684860164
 10
-108.1412805321
 20
-212.6625146748
 10
-108.1471262733
 20
-212.657249389
 10
-108.1532315821
 20
-212.6526297659
 10
-108.1593644289
 20
-212.648583082
 10
-108.1655050361
 20
-212.6451276596
 10
-108.1716976011
 20
-212.6422468647
 10
-108.1777995552
 20
-212.6398259066
 10
-108.1837844245
 20
-212.6378718342
 10
-108.1896911237
 20
-212.6363873437
 10
-108.1954696841
 20
-212.6352550518
 10
-108.2011044305
 20
-212.634439511
 10
-108.2066157326
 20
-212.6339867104
 10
-108.212005277
 20
-212.6339018626
  0
LWPOLYLINE
  5
298
100
AcDbEntity
  8
RACCORDO
100
AcDbPolyline
 62
253
  6
CONTINUOUS
 90
22
 70
0
 10
-106.8897097625
 20
-211.3116063481
 10
-106.8891970018
 20
-211.3212714742
 10
-106.8878864417
 20
-211.3306028007
 10
-106.885777503
 20
-211.3396135253
 10
-106.8827671958
 20
-211.3484361455
 10
-106.8789567656
 20
-211.3569722724
 10
-106.8746362812
 20
-211.3648874935
 10
-106.8697697575
 20
-211.3721063479
 10
-106.864355724
 20
-211.3787372339
 10
-106.8587194679
 20
-211.3847085754
 10
-106.8528737267
 20
-211.3899738613
 10
-106.8467684179
 20
-211.3945934843
 10
-106.8406355711
 20
-211.3986401683
 10
-106.8344949639
 20
-211.4020955907
 10
-106.8283023989
 20
-211.4049763855
 10
-106.8222004448
 20
-211.4073973437
 10
-106.8162155755
 20
-211.4093514161
 10
-106.8103088763
 20
-211.4108359066
 10
-106.8045303159
 20
-211.4119681985
 10
-106.7988955695
 20
-211.4127837393
 10
-106.7933842674
 20
-211.4132365399
 10
-106.787994723
 20
-211.4133213877
  0
LWPOLYLINE
  5
299
100
AcDbEntity
  8
RACCORDO
100
AcDbPolyline
 62
253
  6
CONTINUOUS
 90
16
 70
0
 10
-107.8051447096
 20
-214.1596245902
 10
-107.8053578624
 20
-214.1472969168
 10
-107.8054815872
 20
-214.1345736851
 10
-107.8055138184
 20
-214.1216672836
 10
-107.8054540177
 20
-214.1087931583
 10
-107.8053031828
 20
-214.0961662167
 10
-107.8050638315
 20
-214.0839972398
 10
-107.8047399586
 20
-214.0724893638
 10
-107.8043369701
 20
-214.0618346894
 10
-107.8038615927
 20
-214.0522110747
 10
-107.8033217614
 20
-214.0437791663
 10
-107.802726487
 20
-214.0366797179
 10
-107.802085706
 20
-214.0310312403
 10
-107.8014101142
 20
-214.0269280234
 10
-107.800710989
 20
-214.024438562
 10
-107.8000000003
 20
-214.0236044127
  0
LWPOLYLINE
  5
29A
100
AcDbEntity
  8
RACCORDO
100
AcDbPolyline
 62
253
  6
CONTINUOUS
 90
16
 70
0
 10
-107.1948552904
 20
-209.8875986601
 10
-107.1946421376
 20
-209.8999263334
 10
-107.1945184128
 20
-209.9126495651
 10
-107.1944861816
 20
-209.9255559667
 10
-107.1945459823
 20
-209.9384300919
 10
-107.1946968172
 20
-209.9510570336
 10
-107.1949361685
 20
-209.9632260105
 10
-107.1952600414
 20
-209.9747338865
 10
-107.1956630299
 20
-209.9853885609
 10
-107.1961384073
 20
-209.9950121756
 10
-107.1966782386
 20
-210.0034440839
 10
-107.197273513
 20
-210.0105435323
 10
-107.197914294
 20
-210.0161920099
 10
-107.1985898858
 20
-210.0202952268
 10
-107.199289011
 20
-210.0227846882
 10
-107.1999999997
 20
-210.0236188376
  0
LWPOLYLINE
  5
29B
100
AcDbEntity
  8
RACCORDO
100
AcDbPolyline
 62
253
  6
CONTINUOUS
 90
13
 70
0
 10
-109.3308693945
 20
-212.6339014229
 10
-109.3310139724
 20
-212.6199711379
 10
-109.3305560064
 20
-212.6061113976
 10
-109.329504394
 20
-212.5925914721
 10
-109.3278795662
 20
-212.5796740293
 10
-109.3257130906
 20
-212.5676100319
 10
-109.323047058
 20
-212.5566338618
 10
-109.3199332647
 20
-212.5469587662
 10
-109.3164322062
 20
-212.5387727151
 10
-109.312611902
 20
-212.5322347486
 10
-109.3085465737
 20
-212.5274718878
 10
-109.3043152036
 20
-212.5245766666
 10
-109.2999999997
 20
-212.5236053338
  0
LWPOLYLINE
  5
29C
100
AcDbEntity
  8
RACCORDO
100
AcDbPolyline
 62
253
  6
CONTINUOUS
 90
13
 70
0
 10
-105.6691306055
 20
-211.4133218273
 10
-105.6689860276
 20
-211.4272521124
 10
-105.6694439936
 20
-211.4411118527
 10
-105.670495606
 20
-211.4546317782
 10
-105.6721204338
 20
-211.467549221
 10
-105.6742869094
 20
-211.4796132184
 10
-105.676952942
 20
-211.4905893885
 10
-105.6800667353
 20
-211.500264484
 10
-105.6835677938
 20
-211.5084505352
 10
-105.687388098
 20
-211.5149885016
 10
-105.6914534263
 20
-211.5197513624
 10
-105.6956847964
 20
-211.5226465837
 10
-105.7000000003
 20
-211.5236179165
  0
LWPOLYLINE
  5
29D
100
AcDbEntity
  8
RACCORDO
100
AcDbPolyline
 62
253
  6
CONTINUOUS
 90
13
 70
0
 10
-108.2120052747
 20
-212.6339018606
 10
-108.2120613482
 20
-212.6199719041
 10
-108.2118831184
 20
-212.6061126527
 10
-108.2114740477
 20
-212.5925933355
 10
-108.2108420826
 20
-212.5796765781
 10
-108.2099994997
 20
-212.567613301
 10
-108.2089626669
 20
-212.5566378446
 10
-108.2077517257
 20
-212.5469634178
 10
-108.2063901998
 20
-212.5387779556
 10
-108.2049045382
 20
-212.5322404682
 10
-108.2033236011
 20
-212.5274779527
 10
-108.2016780999
 20
-212.5245829255
 10
-108.2
 20
-212.5236116251
  0
LWPOLYLINE
  5
29E
100
AcDbEntity
  8
RACCORDO
100
AcDbPolyline
 62
253
  6
CONTINUOUS
 90
13
 70
0
 10
-106.7879947253
 20
-211.4133213896
 10
-106.7879386518
 20
-211.4272513461
 10
-106.7881168816
 20
-211.4411105976
 10
-106.7885259523
 20
-211.4546299148
 10
-106.7891579174
 20
-211.4675466721
 10
-106.7900005003
 20
-211.4796099493
 10
-106.7910373331
 20
-211.4905854057
 10
-106.7922482743
 20
-211.5002598324
 10
-106.7936098002
 20
-211.5084452947
 10
-106.7950954618
 20
-211.5149827821
 10
-106.7966763989
 20
-211.5197452976
 10
-106.7983219001
 20
-211.5226403248
 10
-106.8
 20
-211.5236116251
  0
LINE
  5
29F
100
AcDbEntity
  8
RACCORDO
100
AcDbLine
 62
7
  6
CONTINUOUS
 10
-120.0
 20
-249.0236116251
 11
-120.0
 21
-175.0236116251
  0
LINE
  5
2A0
100
AcDbEntity
  8
0
100
AcDbLine
 62
7
  6
CONTINUOUS
 10
-111.0
 20
-240.0236116251
 11
-111.0
 21
-215.5926768731
  0
LINE
  5
2A1
100
AcDbEntity
  8
0
100
AcDbLine
 62
7
  6
CONTINUOUS
 10
-111.0
 20
-208.4545463772
 11
-111.0
 21
-184.0236116251
  0
LINE
  5
2A2
100
AcDbEntity
  8
RACCORDO
100
AcDbLine
 62
253
  6
CONTINUOUS
 10
-109.6360158311
 20
-212.3287567439
 11
-109.6360158311
 21
-211.7184665064
  0
LINE
  5
2A3
100
AcDbEntity
  8
RACCORDO
100
AcDbLine
 62
7
  6
CONTINUOUS
 10
-109.5
 20
-212.3236116251
 11
-109.5
 21
-211.7236116251
  0
LINE
  5
2A4
100
AcDbEntity
  8
RACCORDO
100
AcDbLine
 62
7
  6
CONTINUOUS
 10
-108.0
 20
-213.8236116251
 11
-108.0
 21
-212.7236116251
  0
LINE
  5
2A5
100
AcDbEntity
  8
RACCORDO
100
AcDbLine
 62
7
  6
CONTINUOUS
 10
-108.0
 20
-211.3236116251
 11
-108.0
 21
-210.2236116251
  0
LINE
  5
2A6
100
AcDbEntity
  8
RACCORDO
100
AcDbLine
 62
7
  6
CONTINUOUS
 10
-107.0
 20
-210.2236116251
 11
-107.0
 21
-211.3236116251
  0
LINE
  5
2A7
100
AcDbEntity
  8
RACCORDO
100
AcDbLine
 62
7
  6
CONTINUOUS
 10
-107.0
 20
-212.7236116251
 11
-107.0
 21
-213.8236116251
  0
LINE
  5
2A8
100
AcDbEntity
  8
RACCORDO
100
AcDbLine
 62
7
  6
CONTINUOUS
 10
-105.5
 20
-211.7236116251
 11
-105.5
 21
-212.3236116251
  0
LINE
  5
2A9
100
AcDbEntity
  8
RACCORDO
100
AcDbLine
 62
253
  6
CONTINUOUS
 10
-105.3639841689
 20
-211.7184665064
 11
-105.3639841689
 21
-212.3287567439
  0
LINE
  5
2AA
100
AcDbEntity
  8
0
100
AcDbLine
 62
7
  6
CONTINUOUS
 10
-104.0
 20
-184.0236116251
 11
-104.0
 21
-208.4545463772
  0
LINE
  5
2AB
100
AcDbEntity
  8
0
100
AcDbLine
 62
7
  6
CONTINUOUS
 10
-104.0
 20
-215.5926768731
 11
-104.0
 21
-240.0236116251
  0
LINE
  5
2AC
100
AcDbEntity
  8
RACCORDO
100
AcDbLine
 62
253
  6
CONTINUOUS
 10
-108.1102368278
 20
-213.4204026283
 11
-108.1103663573
 21
-212.7936830724
  0
LINE
  5
2AD
100
AcDbEntity
  8
RACCORDO
100
AcDbLine
 62
253
  6
CONTINUOUS
 10
-106.8897631722
 20
-210.626820622
 11
-106.8896336427
 21
-211.2535401779
  0
LINE
  5
2AE
100
AcDbEntity
  8
RACCORDO
100
AcDbLine
 62
253
  6
CONTINUOUS
 10
-108.1103663573
 20
-212.7936830724
 11
-108.1102902375
 21
-212.7356169022
  0
LINE
  5
2AF
100
AcDbEntity
  8
RACCORDO
100
AcDbLine
 62
253
  6
CONTINUOUS
 10
-108.1102902375
 20
-211.3116063481
 11
-108.1102452176
 21
-210.6260443262
  0
LINE
  5
2B0
100
AcDbEntity
  8
RACCORDO
100
AcDbLine
 62
253
  6
CONTINUOUS
 10
-106.8896336427
 20
-211.2535401779
 11
-106.8897097625
 21
-211.3116063481
  0
LINE
  5
2B1
100
AcDbEntity
  8
RACCORDO
100
AcDbLine
 62
253
  6
CONTINUOUS
 10
-106.8897097625
 20
-212.7356169022
 11
-106.8897547824
 21
-213.4211789241
  0
LINE
  5
2B2
100
AcDbEntity
  8
RACCORDO
100
AcDbLine
 62
253
  6
CONTINUOUS
 10
-108.1102452176
 20
-210.6260443262
 11
-108.1102902375
 21
-210.1927409127
  0
LINE
  5
2B3
100
AcDbEntity
  8
RACCORDO
100
AcDbLine
 62
253
  6
CONTINUOUS
 10
-106.8897547824
 20
-213.4211789241
 11
-106.8897097625
 21
-213.8544823375
  0
LINE
  5
2B4
100
AcDbEntity
  8
RACCORDO
100
AcDbLine
 62
253
  6
CONTINUOUS
 10
-108.1102902375
 20
-213.8544823375
 11
-108.1102368278
 21
-213.4204026283
  0
LINE
  5
2B5
100
AcDbEntity
  8
RACCORDO
100
AcDbLine
 62
253
  6
CONTINUOUS
 10
-106.8897097625
 20
-210.1927409127
 11
-106.8897631722
 21
-210.626820622
  0
LWPOLYLINE
  5
2B6
100
AcDbEntity
  8
RACCORDO
100
AcDbPolyline
 62
253
  6
CONTINUOUS
 90
13
 70
0
 10
-108.2120052768
 20
-211.4133213879
 10
-108.2120613472
 20
-211.4272513221
 10
-108.2118831149
 20
-211.4411105494
 10
-108.2114740421
 20
-211.4546298415
 10
-108.2108420756
 20
-211.4675465737
 10
-108.2099994919
 20
-211.4796098264
 10
-108.2089626589
 20
-211.49058526
 10
-108.207751718
 20
-211.5002596664
 10
-108.2063901929
 20
-211.5084451114
 10
-108.2049045325
 20
-211.5149825852
 10
-108.2033235971
 20
-211.5197450912
 10
-108.2016780978
 20
-211.5226401134
 10
-108.2
 20
-211.5236114133
  0
LWPOLYLINE
  5
2B7
100
AcDbEntity
  8
RACCORDO
100
AcDbPolyline
 62
253
  6
CONTINUOUS
 90
13
 70
0
 10
-106.7879947232
 20
-212.6339018624
 10
-106.7879386528
 20
-212.6199719282
 10
-106.7881168851
 20
-212.6061127009
 10
-106.7885259579
 20
-212.5925934088
 10
-106.7891579244
 20
-212.5796766766
 10
-106.7900005081
 20
-212.5676134238
 10
-106.7910373411
 20
-212.5566379903
 10
-106.792248282
 20
-212.5469635838
 10
-106.7936098071
 20
-212.5387781388
 10
-106.7950954675
 20
-212.5322406651
 10
-106.7966764029
 20
-212.5274781591
 10
-106.7983219022
 20
-212.5245831369
 10
-106.8
 20
-212.5236118369
  0
LWPOLYLINE
  5
2B8
100
AcDbEntity
  8
RACCORDO
100
AcDbPolyline
 62
253
  6
CONTINUOUS
 90
13
 70
0
 10
-109.3308706957
 20
-211.4133213932
 10
-109.3310148845
 20
-211.4272513466
 10
-109.3305565795
 20
-211.4411105948
 10
-109.3295046838
 20
-211.4546299091
 10
-109.3278796314
 20
-211.4675466639
 10
-109.3257129906
 20
-211.479609939
 10
-109.3230468503
 20
-211.490585394
 10
-109.3199330029
 20
-211.5002598203
 10
-109.3164319378
 20
-211.508445283
 10
-109.3126116663
 20
-211.5149827718
 10
-109.3085464009
 20
-211.5197452897
 10
-109.3043151132
 20
-211.5226403204
 10
-109.3
 20
-211.5236116251
  0
LWPOLYLINE
  5
2B9
100
AcDbEntity
  8
RACCORDO
100
AcDbPolyline
 62
253
  6
CONTINUOUS
 90
16
 70
0
 10
-107.8051451173
 20
-209.8875958043
 10
-107.8053582659
 20
-209.8999234254
 10
-107.8054819816
 20
-209.9126464174
 10
-107.8055141996
 20
-209.9255524257
 10
-107.8054543819
 20
-209.9384260407
 10
-107.8053035272
 20
-209.9510523938
 10
-107.8050641532
 20
-209.9632207432
 10
-107.8047402555
 20
-209.9747279915
 10
-107.8043372399
 20
-209.9853820755
 10
-107.8038618331
 20
-209.9950051718
 10
-107.8033219698
 20
-210.0034366649
 10
-107.8027266609
 20
-210.0105358278
 10
-107.802085842
 20
-210.0161841711
 10
-107.8014102089
 20
-210.0202874204
 10
-107.8007110384
 20
-210.0227770898
 10
-107.8
 20
-210.0236116251
  0
LINE
  5
2BA
100
AcDbEntity
  8
0
100
AcDbLine
 62
7
  6
CONTINUOUS
 10
-298.9280700928
 20
-265.0236116251
 11
-298.0
 21
-263.4161470714
  0
LINE
  5
2BB
100
AcDbEntity
  8
0
100
AcDbLine
 62
7
  6
CONTINUOUS
 10
-299.9205358758
 20
240.8280189595
 11
-300.0
 21
240.9556624327
  0
LWPOLYLINE
  5
2BC
100
AcDbEntity
  8
RACCORDO
100
AcDbPolyline
 62
253
  6
CONTINUOUS
 90
13
 70
0
 10
-105.6691293043
 20
-212.633901857
 10
-105.6689851155
 20
-212.6199719037
 10
-105.6694434205
 20
-212.6061126554
 10
-105.6704953162
 20
-212.5925933412
 10
-105.6721203686
 20
-212.5796765864
 10
-105.6742870094
 20
-212.5676133113
 10
-105.6769531497
 20
-212.5566378563
 10
-105.6800669971
 20
-212.54696343
 10
-105.6835680622
 20
-212.5387779673
 10
-105.6873883337
 20
-212.5322404785
 10
-105.6914535991
 20
-212.5274779606
 10
-105.6956848868
 20
-212.5245829299
 10
-105.7
 20
-212.5236116251
  0
LWPOLYLINE
  5
2BD
100
AcDbEntity
  8
RACCORDO
100
AcDbPolyline
 62
253
  6
CONTINUOUS
 90
16
 70
0
 10
-107.1948548827
 20
-214.159627446
 10
-107.1946417341
 20
-214.1472998249
 10
-107.1945180184
 20
-214.1345768329
 10
-107.1944858004
 20
-214.1216708246
 10
-107.1945456181
 20
-214.1087972096
 10
-107.1946964728
 20
-214.0961708565
 10
-107.1949358468
 20
-214.0840025071
 10
-107.1952597445
 20
-214.0724952588
 10
-107.1956627601
 20
-214.0618411748
 10
-107.1961381669
 20
-214.0522180785
 10
-107.1966780302
 20
-214.0437865854
 10
-107.1972733391
 20
-214.0366874224
 10
-107.197914158
 20
-214.0310390791
 10
-107.1985897911
 20
-214.0269358299
 10
-107.1992889616
 20
-214.0244461605
 10
-107.2
 20
-214.0236116251
  0
LWPOLYLINE
  5
2BE
100
AcDbEntity
  8
RACCORDO
100
AcDbPolyline
 62
253
  6
CONTINUOUS
 90
19
 70
0
 10
-109.6360158311
 20
-211.7184665064
 10
-109.6348761038
 20
-211.6923670483
 10
-109.6315802789
 20
-211.6666818639
 10
-109.6261440259
 20
-211.6414808526
 10
-109.6185579472
 20
-211.6167466989
 10
-109.6088630265
 20
-211.5926349321
 10
-109.597160424
 20
-211.5694688635
 10
-109.5834652428
 20
-211.5472898038
 10
-109.5678155227
 20
-211.5261760113
 10
-109.5503650941
 20
-211.5064893397
 10
-109.5310863044
 20
-211.4882324563
 10
-109.5100740151
 20
-211.4714880166
 10
-109.4876837283
 20
-211.4567025335
 10
-109.4639180224
 20
-211.4438847833
 10
-109.4388464246
 20
-211.4330417629
 10
-109.4129362424
 20
-211.4245622781
 10
-109.3863631155
 20
-211.4185409954
 10
-109.3590032053
 20
-211.414808106
 10
-109.3308707124
 20
-211.4133213877
  0
LWPOLYLINE
  5
2BF
100
AcDbEntity
  8
RACCORDO
100
AcDbPolyline
 62
253
  6
CONTINUOUS
 90
19
 70
0
 10
-105.3639841689
 20
-212.3287567439
 10
-105.3651238962
 20
-212.3548562019
 10
-105.3684197211
 20
-212.3805413864
 10
-105.3738559741
 20
-212.4057423977
 10
-105.3814420528
 20
-212.4304765514
 10
-105.3911369735
 20
-212.4545883182
 10
-105.402839576
 20
-212.4777543868
 10
-105.4165347572
 20
-212.4999334465
 10
-105.4321844773
 20
-212.521047239
 10
-105.4496349059
 20
-212.5407339106
 10
-105.4689136956
 20
-212.558990794
 10
-105.4899259849
 20
-212.5757352337
 10
-105.5123162717
 20
-212.5905207168
 10
-105.5360819776
 20
-212.603338467
 10
-105.5611535754
 20
-212.6141814874
 10
-105.5870637576
 20
-212.6226609721
 10
-105.6136368845
 20
-212.6286822549
 10
-105.6409967947
 20
-212.6324151443
 10
-105.6691292876
 20
-212.6339018626
  0
LWPOLYLINE
  5
2C0
100
AcDbEntity
  8
RACCORDO
100
AcDbPolyline
 62
253
  6
CONTINUOUS
 90
19
 70
0
 10
-108.1102902375
 20
-210.1927409127
 10
-108.1086889041
 20
-210.1640999777
 10
-108.1048589464
 20
-210.1364018061
 10
-108.0987640055
 20
-210.1096607348
 10
-108.0902455277
 20
-210.0838129174
 10
-108.0794015781
 20
-210.0589732445
 10
-108.0666087525
 20
-210.0354280335
 10
-108.0518787989
 20
-210.0131943422
 10
-108.0352148568
 20
-209.9923260151
 10
-108.0170267337
 20
-209.9731544349
 10
-107.997382449
 20
-209.9557589065
 10
-107.976295283
 20
-209.9401282963
 10
-107.954127516
 20
-209.9264414508
 10
-107.9309471876
 20
-209.914740481
 10
-107.9068047708
 20
-209.905037677
 10
-107.8820548488
 20
-209.8974478103
 10
-107.8568637923
 20
-209.8920155599
 10
-107.8312039103
 20
-209.8887265199
 10
-107.8051451187
 20
-209.887595794
  0
LWPOLYLINE
  5
2C1
100
AcDbEntity
  8
RACCORDO
100
AcDbPolyline
 62
253
  6
CONTINUOUS
 90
19
 70
0
 10
-106.8897097625
 20
-213.8544823375
 10
-106.8913110959
 20
-213.8831232726
 10
-106.8951410536
 20
-213.9108214441
 10
-106.9012359945
 20
-213.9375625154
 10
-106.9097544723
 20
-213.9634103329
 10
-106.9205984219
 20
-213.9882500058
 10
-106.9333912475
 20
-214.0117952167
 10
-106.9481212011
 20
-214.0340289081
 10
-106.9647851432
 20
-214.0548972351
 10
-106.9829732663
 20
-214.0740688153
 10
-107.002617551
 20
-214.0914643437
 10
-107.023704717
 20
-214.107094954
 10
-107.045872484
 20
-214.1207817995
 10
-107.0690528124
 20
-214.1324827693
 10
-107.0931952292
 20
-214.1421855732
 10
-107.1179451512
 20
-214.14977544
 10
-107.1431362077
 20
-214.1552076903
 10
-107.1687960897
 20
-214.1584967304
 10
-107.1948548813
 20
-214.1596274563
  0
LWPOLYLINE
  5
2C2
100
AcDbEntity
  8
0
100
AcDbPolyline
 62
7
  6
CONTINUOUS
 90
6
 70
0
 10
-299.2853800619
 20
239.2236116251
 10
-299.3647980411
 20
239.3163250822
 10
-299.4442081384
 20
239.4078679108
 10
-299.5236103537
 20
239.4969994277
 10
-299.6029994325
 20
239.5825544731
 10
-299.6823806294
 20
239.6633090182
  0
LWPOLYLINE
  5
2C3
100
AcDbEntity
  8
0
100
AcDbPolyline
 62
7
  6
CONTINUOUS
 90
4
 70
0
 10
300.0
 20
239.9164319482
 10
299.9205820208
 20
239.8654068865
 10
299.8411719235
 20
239.8056772348
 10
299.7617697081
 20
239.7380278006
  0
LWPOLYLINE
  5
2C4
100
AcDbEntity
  8
0
100
AcDbPolyline
 62
7
  6
CONTINUOUS
 90
5
 70
0
 10
-299.6823806294
 20
239.6633090182
 10
-299.7617697081
 20
239.7380278006
 10
-299.8411719235
 20
239.8056772348
 10
-299.9205820208
 20
239.8654068865
 10
-300.0
 20
239.9164319482
  0
LWPOLYLINE
  5
2C5
100
AcDbEntity
  8
0
100
AcDbPolyline
 62
7
  6
CONTINUOUS
 90
7
 70
0
 10
299.7617697081
 20
239.7380278006
 10
299.6823806294
 20
239.6633090182
 10
299.6029994325
 20
239.5825544731
 10
299.5236103537
 20
239.4969994277
 10
299.4442081384
 20
239.4078679108
 10
299.3647980411
 20
239.3163250822
 10
299.2853800619
 20
239.2236116251
  0
LWPOLYLINE
  5
2C6
100
AcDbEntity
  8
0
100
AcDbPolyline
 62
7
  6
CONTINUOUS
 90
10
 70
0
 10
298.9280700928
 20
-265.0236116251
 10
299.047106118
 20
-265.1626768873
 10
299.1661757922
 20
-265.2974377305
 10
299.2852791152
 20
-265.4238051479
 10
299.4044385197
 20
-265.5379177955
 10
299.5236315731
 20
-265.6363833307
 10
299.6427909776
 20
-265.7163201817
 10
299.7618943006
 20
-265.7752892582
 10
299.8809639747
 20
-265.8114319428
 10
300.0
 20
-265.8236116251
  0
LWPOLYLINE
  5
2C7
100
AcDbEntity
  8
0
100
AcDbPolyline
 62
7
  6
CONTINUOUS
 90
5
 70
0
 10
299.642494325
 20
-266.7551471578
 10
299.7317773387
 20
-266.870886532
 10
299.8211315181
 20
-266.9551721288
 10
299.9105390719
 20
-267.0064095526
 10
300.0
 20
-267.0236116251
  0
LWPOLYLINE
  5
2C8
100
AcDbEntity
  8
RACCORDO
100
AcDbPolyline
 62
253
  6
CONTINUOUS
 90
22
 70
0
 10
106.8897097625
 20
-212.7356169022
 10
106.8891970018
 20
-212.7259517761
 10
106.8878864417
 20
-212.7166204496
 10
106.885777503
 20
-212.707609725
 10
106.8827671958
 20
-212.6987871048
 10
106.8789567656
 20
-212.6902509779
 10
106.8746362812
 20
-212.6823357568
 10
106.8697697575
 20
-212.6751169024
 10
106.864355724
 20
-212.6684860164
 10
106.8587194679
 20
-212.6625146748
 10
106.8528737267
 20
-212.657249389
 10
106.8467684179
 20
-212.6526297659
 10
106.8406355711
 20
-212.648583082
 10
106.8344949639
 20
-212.6451276596
 10
106.8283023989
 20
-212.6422468647
 10
106.8222004448
 20
-212.6398259066
 10
106.8162155755
 20
-212.6378718342
 10
106.8103088763
 20
-212.6363873437
 10
106.8045303159
 20
-212.6352550518
 10
106.7988955695
 20
-212.634439511
 10
106.7933842674
 20
-212.6339867104
 10
106.787994723
 20
-212.6339018626
  0
LWPOLYLINE
  5
2C9
100
AcDbEntity
  8
RACCORDO
100
AcDbPolyline
 62
253
  6
CONTINUOUS
 90
22
 70
0
 10
108.1102902375
 20
-211.3116063481
 10
108.1108029982
 20
-211.3212714742
 10
108.1121135583
 20
-211.3306028007
 10
108.114222497
 20
-211.3396135253
 10
108.1172328042
 20
-211.3484361455
 10
108.1210432344
 20
-211.3569722724
 10
108.1253637188
 20
-211.3648874935
 10
108.1302302425
 20
-211.3721063479
 10
108.135644276
 20
-211.3787372339
 10
108.1412805321
 20
-211.3847085754
 10
108.1471262733
 20
-211.3899738613
 10
108.1532315821
 20
-211.3945934843
 10
108.1593644289
 20
-211.3986401683
 10
108.1655050361
 20
-211.4020955907
 10
108.1716976011
 20
-211.4049763855
 10
108.1777995552
 20
-211.4073973437
 10
108.1837844245
 20
-211.4093514161
 10
108.1896911237
 20
-211.4108359066
 10
108.1954696841
 20
-211.4119681985
 10
108.2011044305
 20
-211.4127837393
 10
108.2066157326
 20
-211.4132365399
 10
108.212005277
 20
-211.4133213877
  0
LWPOLYLINE
  5
2CA
100
AcDbEntity
  8
RACCORDO
100
AcDbPolyline
 62
253
  6
CONTINUOUS
 90
16
 70
0
 10
107.1948552904
 20
-214.1596245902
 10
107.1946421376
 20
-214.1472969168
 10
107.1945184128
 20
-214.1345736851
 10
107.1944861816
 20
-214.1216672836
 10
107.1945459823
 20
-214.1087931583
 10
107.1946968172
 20
-214.0961662167
 10
107.1949361685
 20
-214.0839972398
 10
107.1952600414
 20
-214.0724893638
 10
107.1956630299
 20
-214.0618346894
 10
107.1961384073
 20
-214.0522110747
 10
107.1966782386
 20
-214.0437791663
 10
107.197273513
 20
-214.0366797179
 10
107.197914294
 20
-214.0310312403
 10
107.1985898858
 20
-214.0269280234
 10
107.199289011
 20
-214.024438562
 10
107.1999999997
 20
-214.0236044127
  0
LWPOLYLINE
  5
2CB
100
AcDbEntity
  8
RACCORDO
100
AcDbPolyline
 62
253
  6
CONTINUOUS
 90
16
 70
0
 10
107.8051447096
 20
-209.8875986601
 10
107.8053578624
 20
-209.8999263334
 10
107.8054815872
 20
-209.9126495651
 10
107.8055138184
 20
-209.9255559667
 10
107.8054540177
 20
-209.9384300919
 10
107.8053031828
 20
-209.9510570336
 10
107.8050638315
 20
-209.9632260105
 10
107.8047399586
 20
-209.9747338865
 10
107.8043369701
 20
-209.9853885609
 10
107.8038615927
 20
-209.9950121756
 10
107.8033217614
 20
-210.0034440839
 10
107.802726487
 20
-210.0105435323
 10
107.802085706
 20
-210.0161920099
 10
107.8014101142
 20
-210.0202952268
 10
107.800710989
 20
-210.0227846882
 10
107.8000000003
 20
-210.0236188376
  0
LWPOLYLINE
  5
2CC
100
AcDbEntity
  8
RACCORDO
100
AcDbPolyline
 62
253
  6
CONTINUOUS
 90
13
 70
0
 10
105.6691306055
 20
-212.6339014229
 10
105.6689860276
 20
-212.6199711379
 10
105.6694439936
 20
-212.6061113976
 10
105.670495606
 20
-212.5925914721
 10
105.6721204338
 20
-212.5796740293
 10
105.6742869094
 20
-212.5676100319
 10
105.676952942
 20
-212.5566338618
 10
105.6800667353
 20
-212.5469587662
 10
105.6835677938
 20
-212.5387727151
 10
105.687388098
 20
-212.5322347486
 10
105.6914534263
 20
-212.5274718878
 10
105.6956847964
 20
-212.5245766666
 10
105.7000000003
 20
-212.5236053338
  0
LWPOLYLINE
  5
2CD
100
AcDbEntity
  8
RACCORDO
100
AcDbPolyline
 62
253
  6
CONTINUOUS
 90
13
 70
0
 10
109.3308693945
 20
-211.4133218273
 10
109.3310139724
 20
-211.4272521124
 10
109.3305560064
 20
-211.4411118527
 10
109.329504394
 20
-211.4546317782
 10
109.3278795662
 20
-211.467549221
 10
109.3257130906
 20
-211.4796132184
 10
109.323047058
 20
-211.4905893885
 10
109.3199332647
 20
-211.500264484
 10
109.3164322062
 20
-211.5084505352
 10
109.312611902
 20
-211.5149885016
 10
109.3085465737
 20
-211.5197513624
 10
109.3043152036
 20
-211.5226465837
 10
109.2999999997
 20
-211.5236179165
  0
LWPOLYLINE
  5
2CE
100
AcDbEntity
  8
RACCORDO
100
AcDbPolyline
 62
253
  6
CONTINUOUS
 90
13
 70
0
 10
106.7879947253
 20
-212.6339018606
 10
106.7879386518
 20
-212.6199719041
 10
106.7881168816
 20
-212.6061126527
 10
106.7885259523
 20
-212.5925933355
 10
106.7891579174
 20
-212.5796765781
 10
106.7900005003
 20
-212.567613301
 10
106.7910373331
 20
-212.5566378446
 10
106.7922482743
 20
-212.5469634178
 10
106.7936098002
 20
-212.5387779556
 10
106.7950954618
 20
-212.5322404682
 10
106.7966763989
 20
-212.5274779527
 10
106.7983219001
 20
-212.5245829255
 10
106.8
 20
-212.5236116251
  0
LWPOLYLINE
  5
2CF
100
AcDbEntity
  8
RACCORDO
100
AcDbPolyline
 62
253
  6
CONTINUOUS
 90
13
 70
0
 10
108.2120052747
 20
-211.4133213896
 10
108.2120613482
 20
-211.4272513461
 10
108.2118831184
 20
-211.4411105976
 10
108.2114740477
 20
-211.4546299148
 10
108.2108420826
 20
-211.4675466721
 10
108.2099994997
 20
-211.4796099493
 10
108.2089626669
 20
-211.4905854057
 10
108.2077517257
 20
-211.5002598324
 10
108.2063901998
 20
-211.5084452947
 10
108.2049045382
 20
-211.5149827821
 10
108.2033236011
 20
-211.5197452976
 10
108.2016780999
 20
-211.5226403248
 10
108.2
 20
-211.5236116251
  0
LINE
  5
2D0
100
AcDbEntity
  8
0
100
AcDbLine
 62
7
  6
CONTINUOUS
 10
104.0
 20
-240.0236116251
 11
104.0
 21
-215.5926768731
  0
LINE
  5
2D1
100
AcDbEntity
  8
0
100
AcDbLine
 62
7
  6
CONTINUOUS
 10
104.0
 20
-208.4545463772
 11
104.0
 21
-184.0236116251
  0
LINE
  5
2D2
100
AcDbEntity
  8
RACCORDO
100
AcDbLine
 62
253
  6
CONTINUOUS
 10
105.3639841689
 20
-212.3287567439
 11
105.3639841689
 21
-211.7184665064
  0
LINE
  5
2D3
100
AcDbEntity
  8
RACCORDO
100
AcDbLine
 62
7
  6
CONTINUOUS
 10
105.5
 20
-212.3236116251
 11
105.5
 21
-211.7236116251
  0
LINE
  5
2D4
100
AcDbEntity
  8
RACCORDO
100
AcDbLine
 62
7
  6
CONTINUOUS
 10
107.0
 20
-213.8236116251
 11
107.0
 21
-212.7236116251
  0
LINE
  5
2D5
100
AcDbEntity
  8
RACCORDO
100
AcDbLine
 62
7
  6
CONTINUOUS
 10
107.0
 20
-211.3236116251
 11
107.0
 21
-210.2236116251
  0
LINE
  5
2D6
100
AcDbEntity
  8
RACCORDO
100
AcDbLine
 62
7
  6
CONTINUOUS
 10
108.0
 20
-210.2236116251
 11
108.0
 21
-211.3236116251
  0
LINE
  5
2D7
100
AcDbEntity
  8
RACCORDO
100
AcDbLine
 62
7
  6
CONTINUOUS
 10
108.0
 20
-212.7236116251
 11
108.0
 21
-213.8236116251
  0
LINE
  5
2D8
100
AcDbEntity
  8
RACCORDO
100
AcDbLine
 62
7
  6
CONTINUOUS
 10
109.5
 20
-211.7236116251
 11
109.5
 21
-212.3236116251
  0
LINE
  5
2D9
100
AcDbEntity
  8
RACCORDO
100
AcDbLine
 62
253
  6
CONTINUOUS
 10
109.6360158311
 20
-211.7184665064
 11
109.6360158311
 21
-212.3287567439
  0
LINE
  5
2DA
100
AcDbEntity
  8
RACCORDO
100
AcDbLine
 62
253
  6
CONTINUOUS
 10
106.8897631722
 20
-213.4204026283
 11
106.8896336427
 21
-212.7936830724
  0
LINE
  5
2DB
100
AcDbEntity
  8
RACCORDO
100
AcDbLine
 62
253
  6
CONTINUOUS
 10
108.1102368278
 20
-210.626820622
 11
108.1103663573
 21
-211.2535401779
  0
LINE
  5
2DC
100
AcDbEntity
  8
RACCORDO
100
AcDbLine
 62
253
  6
CONTINUOUS
 10
106.8896336427
 20
-212.7936830724
 11
106.8897097625
 21
-212.7356169022
  0
LINE
  5
2DD
100
AcDbEntity
  8
RACCORDO
100
AcDbLine
 62
253
  6
CONTINUOUS
 10
106.8897097625
 20
-211.3116063481
 11
106.8897547824
 21
-210.6260443262
  0
LINE
  5
2DE
100
AcDbEntity
  8
RACCORDO
100
AcDbLine
 62
253
  6
CONTINUOUS
 10
108.1103663573
 20
-211.2535401779
 11
108.1102902375
 21
-211.3116063481
  0
LINE
  5
2DF
100
AcDbEntity
  8
RACCORDO
100
AcDbLine
 62
253
  6
CONTINUOUS
 10
108.1102902375
 20
-212.7356169022
 11
108.1102452176
 21
-213.4211789241
  0
LINE
  5
2E0
100
AcDbEntity
  8
RACCORDO
100
AcDbLine
 62
253
  6
CONTINUOUS
 10
106.8897547824
 20
-210.6260443262
 11
106.8897097625
 21
-210.1927409127
  0
LINE
  5
2E1
100
AcDbEntity
  8
RACCORDO
100
AcDbLine
 62
253
  6
CONTINUOUS
 10
108.1102452176
 20
-213.4211789241
 11
108.1102902375
 21
-213.8544823375
  0
LINE
  5
2E2
100
AcDbEntity
  8
RACCORDO
100
AcDbLine
 62
253
  6
CONTINUOUS
 10
106.8897097625
 20
-213.8544823375
 11
106.8897631722
 21
-213.4204026283
  0
LINE
  5
2E3
100
AcDbEntity
  8
RACCORDO
100
AcDbLine
 62
253
  6
CONTINUOUS
 10
108.1102902375
 20
-210.1927409127
 11
108.1102368278
 21
-210.626820622
  0
LWPOLYLINE
  5
2E4
100
AcDbEntity
  8
RACCORDO
100
AcDbPolyline
 62
253
  6
CONTINUOUS
 90
13
 70
0
 10
106.7879947232
 20
-211.4133213879
 10
106.7879386528
 20
-211.4272513221
 10
106.7881168851
 20
-211.4411105494
 10
106.7885259579
 20
-211.4546298415
 10
106.7891579244
 20
-211.4675465737
 10
106.7900005081
 20
-211.4796098264
 10
106.7910373411
 20
-211.49058526
 10
106.792248282
 20
-211.5002596664
 10
106.7936098071
 20
-211.5084451114
 10
106.7950954675
 20
-211.5149825852
 10
106.7966764029
 20
-211.5197450912
 10
106.7983219022
 20
-211.5226401134
 10
106.8
 20
-211.5236114133
  0
LWPOLYLINE
  5
2E5
100
AcDbEntity
  8
RACCORDO
100
AcDbPolyline
 62
253
  6
CONTINUOUS
 90
13
 70
0
 10
108.2120052768
 20
-212.6339018624
 10
108.2120613472
 20
-212.6199719282
 10
108.2118831149
 20
-212.6061127009
 10
108.2114740421
 20
-212.5925934088
 10
108.2108420756
 20
-212.5796766766
 10
108.2099994919
 20
-212.5676134238
 10
108.2089626589
 20
-212.5566379903
 10
108.207751718
 20
-212.5469635838
 10
108.2063901929
 20
-212.5387781388
 10
108.2049045325
 20
-212.5322406651
 10
108.2033235971
 20
-212.5274781591
 10
108.2016780978
 20
-212.5245831369
 10
108.2
 20
-212.5236118369
  0
LWPOLYLINE
  5
2E6
100
AcDbEntity
  8
RACCORDO
100
AcDbPolyline
 62
253
  6
CONTINUOUS
 90
13
 70
0
 10
105.6691293043
 20
-211.4133213932
 10
105.6689851155
 20
-211.4272513466
 10
105.6694434205
 20
-211.4411105948
 10
105.6704953162
 20
-211.4546299091
 10
105.6721203686
 20
-211.4675466639
 10
105.6742870094
 20
-211.479609939
 10
105.6769531497
 20
-211.490585394
 10
105.6800669971
 20
-211.5002598203
 10
105.6835680622
 20
-211.508445283
 10
105.6873883337
 20
-211.5149827718
 10
105.6914535991
 20
-211.5197452897
 10
105.6956848868
 20
-211.5226403204
 10
105.7
 20
-211.5236116251
  0
LWPOLYLINE
  5
2E7
100
AcDbEntity
  8
RACCORDO
100
AcDbPolyline
 62
253
  6
CONTINUOUS
 90
16
 70
0
 10
107.1948548827
 20
-209.8875958043
 10
107.1946417341
 20
-209.8999234254
 10
107.1945180184
 20
-209.9126464174
 10
107.1944858004
 20
-209.9255524257
 10
107.1945456181
 20
-209.9384260407
 10
107.1946964728
 20
-209.9510523938
 10
107.1949358468
 20
-209.9632207432
 10
107.1952597445
 20
-209.9747279915
 10
107.1956627601
 20
-209.9853820755
 10
107.1961381669
 20
-209.9950051718
 10
107.1966780302
 20
-210.0034366649
 10
107.1972733391
 20
-210.0105358278
 10
107.197914158
 20
-210.0161841711
 10
107.1985897911
 20
-210.0202874204
 10
107.1992889616
 20
-210.0227770898
 10
107.2
 20
-210.0236116251
  0
LINE
  5
2E8
100
AcDbEntity
  8
0
100
AcDbLine
 62
7
  6
CONTINUOUS
 10
111.0
 20
-184.0236116251
 11
111.0
 21
-208.4545463772
  0
LINE
  5
2E9
100
AcDbEntity
  8
0
100
AcDbLine
 62
7
  6
CONTINUOUS
 10
111.0
 20
-215.5926768731
 11
111.0
 21
-240.0236116251
  0
LINE
  5
2EA
100
AcDbEntity
  8
RACCORDO
100
AcDbLine
 62
7
  6
CONTINUOUS
 10
120.0
 20
-175.0236116251
 11
120.0
 21
-249.0236116251
  0
LWPOLYLINE
  5
2EB
100
AcDbEntity
  8
RACCORDO
100
AcDbPolyline
 62
253
  6
CONTINUOUS
 90
13
 70
0
 10
109.3308706957
 20
-212.633901857
 10
109.3310148845
 20
-212.6199719037
 10
109.3305565795
 20
-212.6061126554
 10
109.3295046838
 20
-212.5925933412
 10
109.3278796314
 20
-212.5796765864
 10
109.3257129906
 20
-212.5676133113
 10
109.3230468503
 20
-212.5566378563
 10
109.3199330029
 20
-212.54696343
 10
109.3164319378
 20
-212.5387779673
 10
109.3126116663
 20
-212.5322404785
 10
109.3085464009
 20
-212.5274779606
 10
109.3043151132
 20
-212.5245829299
 10
109.3
 20
-212.5236116251
  0
LWPOLYLINE
  5
2EC
100
AcDbEntity
  8
RACCORDO
100
AcDbPolyline
 62
253
  6
CONTINUOUS
 90
16
 70
0
 10
107.8051451173
 20
-214.159627446
 10
107.8053582659
 20
-214.1472998249
 10
107.8054819816
 20
-214.1345768329
 10
107.8055141996
 20
-214.1216708246
 10
107.8054543819
 20
-214.1087972096
 10
107.8053035272
 20
-214.0961708565
 10
107.8050641532
 20
-214.0840025071
 10
107.8047402555
 20
-214.0724952588
 10
107.8043372399
 20
-214.0618411748
 10
107.8038618331
 20
-214.0522180785
 10
107.8033219698
 20
-214.0437865854
 10
107.8027266609
 20
-214.0366874224
 10
107.802085842
 20
-214.0310390791
 10
107.8014102089
 20
-214.0269358299
 10
107.8007110384
 20
-214.0244461605
 10
107.8
 20
-214.0236116251
  0
LWPOLYLINE
  5
2ED
100
AcDbEntity
  8
RACCORDO
100
AcDbPolyline
 62
253
  6
CONTINUOUS
 90
19
 70
0
 10
105.3639841689
 20
-211.7184665064
 10
105.3651238962
 20
-211.6923670483
 10
105.3684197211
 20
-211.6666818639
 10
105.3738559741
 20
-211.6414808526
 10
105.3814420528
 20
-211.6167466989
 10
105.3911369735
 20
-211.5926349321
 10
105.402839576
 20
-211.5694688635
 10
105.4165347572
 20
-211.5472898038
 10
105.4321844773
 20
-211.5261760113
 10
105.4496349059
 20
-211.5064893397
 10
105.4689136956
 20
-211.4882324563
 10
105.4899259849
 20
-211.4714880166
 10
105.5123162717
 20
-211.4567025335
 10
105.5360819776
 20
-211.4438847833
 10
105.5611535754
 20
-211.4330417629
 10
105.5870637576
 20
-211.4245622781
 10
105.6136368845
 20
-211.4185409954
 10
105.6409967947
 20
-211.414808106
 10
105.6691292876
 20
-211.4133213877
  0
LWPOLYLINE
  5
2EE
100
AcDbEntity
  8
RACCORDO
100
AcDbPolyline
 62
253
  6
CONTINUOUS
 90
19
 70
0
 10
109.6360158311
 20
-212.3287567439
 10
109.6348761038
 20
-212.3548562019
 10
109.6315802789
 20
-212.3805413864
 10
109.6261440259
 20
-212.4057423977
 10
109.6185579472
 20
-212.4304765514
 10
109.6088630265
 20
-212.4545883182
 10
109.597160424
 20
-212.4777543868
 10
109.5834652428
 20
-212.4999334465
 10
109.5678155227
 20
-212.521047239
 10
109.5503650941
 20
-212.5407339106
 10
109.5310863044
 20
-212.558990794
 10
109.5100740151
 20
-212.5757352337
 10
109.4876837283
 20
-212.5905207168
 10
109.4639180224
 20
-212.603338467
 10
109.4388464246
 20
-212.6141814874
 10
109.4129362424
 20
-212.6226609721
 10
109.3863631155
 20
-212.6286822549
 10
109.3590032053
 20
-212.6324151443
 10
109.3308707124
 20
-212.6339018626
  0
LWPOLYLINE
  5
2EF
100
AcDbEntity
  8
RACCORDO
100
AcDbPolyline
 62
253
  6
CONTINUOUS
 90
19
 70
0
 10
106.8897097625
 20
-210.1927409127
 10
106.8913110959
 20
-210.1640999777
 10
106.8951410536
 20
-210.1364018061
 10
106.9012359945
 20
-210.1096607348
 10
106.9097544723
 20
-210.0838129174
 10
106.9205984219
 20
-210.0589732445
 10
106.9333912475
 20
-210.0354280335
 10
106.9481212011
 20
-210.0131943422
 10
106.9647851432
 20
-209.9923260151
 10
106.9829732663
 20
-209.9731544349
 10
107.002617551
 20
-209.9557589065
 10
107.023704717
 20
-209.9401282963
 10
107.045872484
 20
-209.9264414508
 10
107.0690528124
 20
-209.914740481
 10
107.0931952292
 20
-209.905037677
 10
107.1179451512
 20
-209.8974478103
 10
107.1431362077
 20
-209.8920155599
 10
107.1687960897
 20
-209.8887265199
 10
107.1948548813
 20
-209.887595794
  0
LWPOLYLINE
  5
2F0
100
AcDbEntity
  8
RACCORDO
100
AcDbPolyline
 62
253
  6
CONTINUOUS
 90
19
 70
0
 10
108.1102902375
 20
-213.8544823375
 10
108.1086889041
 20
-213.8831232726
 10
108.1048589464
 20
-213.9108214441
 10
108.0987640055
 20
-213.9375625154
 10
108.0902455277
 20
-213.9634103329
 10
108.0794015781
 20
-213.9882500058
 10
108.0666087525
 20
-214.0117952167
 10
108.0518787989
 20
-214.0340289081
 10
108.0352148568
 20
-214.0548972351
 10
108.0170267337
 20
-214.0740688153
 10
107.997382449
 20
-214.0914643437
 10
107.976295283
 20
-214.107094954
 10
107.954127516
 20
-214.1207817995
 10
107.9309471876
 20
-214.1324827693
 10
107.9068047708
 20
-214.1421855732
 10
107.8820548488
 20
-214.14977544
 10
107.8568637923
 20
-214.1552076903
 10
107.8312039103
 20
-214.1584967304
 10
107.8051451187
 20
-214.1596274563
  0
LWPOLYLINE
  5
2F1
100
AcDbEntity
  8
0
100
AcDbPolyline
 62
7
  6
CONTINUOUS
 90
9
 70
0
 10
300.0
 20
240.9556624327
 10
299.9205358758
 20
240.8280189595
 10
299.8411027061
 20
240.678636342
 10
299.7617004907
 20
240.5094965478
 10
299.6823498661
 20
240.3227797134
 10
299.6030301958
 20
240.1210493968
 10
299.5236795712
 20
239.9072719582
 10
299.4442773558
 20
239.6844499325
 10
299.364844186
 20
239.455529725
  0
LINE
  5
2F2
100
AcDbEntity
  8
0
100
AcDbLine
 62
7
  6
CONTINUOUS
 10
298.0
 20
-263.4161470714
 11
298.9280700928
 21
-265.0236116251
  0
LINE
  5
2F3
100
AcDbEntity
  8
0
100
AcDbLine
 62
7
  6
CONTINUOUS
 10
299.2853800619
 20
239.2236116251
 11
298.0
 21
236.997268051
  0
LWPOLYLINE
  5
2F4
100
AcDbEntity
  8
0
100
AcDbPolyline
 62
7
  6
CONTINUOUS
 90
6
 70
0
 10
299.1962927541
 20
-265.7901463071
 10
299.2855757678
 20
-266.0245035769
 10
299.3748054071
 20
-266.2415430556
 10
299.4640350464
 20
-266.4378251875
 10
299.5532646857
 20
-266.6100047135
 10
299.642494325
 20
-266.7551471578
  0
LINE
  5
2F5
100
AcDbEntity
  8
0
100
AcDbLine
 62
7
  6
CONTINUOUS
 10
299.364844186
 20
239.455529725
 11
299.2853800619
 21
239.2236116251
  0
LINE
  5
2F6
100
AcDbEntity
  8
0
100
AcDbLine
 62
7
  6
CONTINUOUS
 10
-300.0
 20
212.9763883749
 11
-299.7
 21
212.9763883749
  0
LINE
  5
2F7
100
AcDbEntity
  8
0
100
AcDbLine
 62
7
  6
CONTINUOUS
 10
300.0
 20
212.9763883749
 11
299.7
 21
212.9763883749
  0
LWPOLYLINE
  5
2F8
100
AcDbEntity
  8
0
100
AcDbPolyline
 62
7
  6
CONTINUOUS
 90
4
 70
0
 10
298.9280700928
 20
-265.0236116251
 10
299.0175310209
 20
-265.2853603192
 10
299.1069385747
 20
-265.5423350782
 10
299.1962927541
 20
-265.7901463071
  0
LINE
  5
2F9
100
AcDbEntity
  8
0
100
AcDbLine
 62
7
  6
CONTINUOUS
 10
300.0
 20
219.2236116251
 11
299.7
 21
219.2236116251
  0
LINE
  5
2FA
100
AcDbEntity
  8
0
100
AcDbLine
 62
7
  6
CONTINUOUS
 10
-299.7
 20
219.2236116251
 11
-300.0
 21
219.2236116251
  0
LINE
  5
2FB
100
AcDbEntity
  8
0
100
AcDbLine
 62
7
  6
CONTINUOUS
 10
-299.7
 20
236.997268051
 11
-298.0
 21
236.997268051
  0
LINE
  5
2FC
100
AcDbEntity
  8
0
100
AcDbLine
 62
7
  6
CONTINUOUS
 10
298.0
 20
236.997268051
 11
299.7
 21
236.997268051
  0
LINE
  5
2FD
100
AcDbEntity
  8
0
100
AcDbLine
 62
253
  6
CONTINUOUS
 10
300.0
 20
239.2236116251
 11
299.7
 21
239.2236116251
  0
LINE
  5
2FE
100
AcDbEntity
  8
0
100
AcDbLine
 62
253
  6
CONTINUOUS
 10
299.2853800619
 20
239.2236116251
 11
-299.2853800619
 21
239.2236116251
  0
LINE
  5
2FF
100
AcDbEntity
  8
0
100
AcDbLine
 62
253
  6
CONTINUOUS
 10
-299.7
 20
239.2236116251
 11
-300.0
 21
239.2236116251
  0
LINE
  5
300
100
AcDbEntity
  8
0
100
AcDbLine
 62
253
  6
CONTINUOUS
 10
300.0
 20
240.9556624327
 11
-300.0
 21
240.9556624327
  0
LINE
  5
301
100
AcDbEntity
  8
0
100
AcDbLine
 62
253
  6
CONTINUOUS
 10
300.0
 20
246.44048999
 11
-300.0
 21
246.44048999
  0
LINE
  5
302
100
AcDbEntity
  8
0
100
AcDbLine
 62
7
  6
CONTINUOUS
 10
-300.0
 20
246.9763883749
 11
300.0
 21
246.9763883749
  0
LINE
  5
303
100
AcDbEntity
  8
0
100
AcDbLine
 62
7
  6
CONTINUOUS
 10
-255.0
 20
249.7236116251
 11
-257.0
 21
249.7236116251
  0
LINE
  5
304
100
AcDbEntity
  8
0
100
AcDbLine
 62
7
  6
CONTINUOUS
 10
-255.0
 20
254.7736116251
 11
-257.0
 21
254.7736116251
  0
LINE
  5
305
100
AcDbEntity
  8
0
100
AcDbLine
 62
7
  6
CONTINUOUS
 10
-255.0
 20
262.2736116251
 11
-257.0
 21
262.2736116251
  0
LINE
  5
306
100
AcDbEntity
  8
0
100
AcDbLine
 62
7
  6
CONTINUOUS
 10
-255.0
 20
266.8236116251
 11
-257.0
 21
266.8236116251
  0
LINE
  5
307
100
AcDbEntity
  8
0
100
AcDbLine
 62
7
  6
CONTINUOUS
 10
-255.0
 20
268.5236116251
 11
-257.0
 21
268.5236116251
  0
LINE
  5
308
100
AcDbEntity
  8
RACCORDO
100
AcDbLine
 62
253
  6
CONTINUOUS
 10
294.5
 20
-268.5236116251
 11
294.5
 21
-267.0236116251
  0
LINE
  5
309
100
AcDbEntity
  8
RACCORDO
100
AcDbLine
 62
7
  6
CONTINUOUS
 10
297.5
 20
-268.5236116251
 11
297.5
 21
-267.0236116251
  0
LINE
  5
30A
100
AcDbEntity
  8
0
100
AcDbLine
 62
253
  6
CONTINUOUS
 10
298.0
 20
236.997268051
 11
298.0
 21
-263.4161470714
  0
LINE
  5
30B
100
AcDbEntity
  8
0
100
AcDbLine
 62
253
  6
CONTINUOUS
 10
298.0
 20
-267.0236116251
 11
298.0
 21
-268.5236116251
  0
LINE
  5
30C
100
AcDbEntity
  8
0
100
AcDbLine
 62
7
  6
CONTINUOUS
 10
298.5
 20
-264.2161470714
 11
298.5
 21
-263.4161470714
  0
LINE
  5
30D
100
AcDbEntity
  8
0
100
AcDbLine
 62
7
  6
CONTINUOUS
 10
298.5
 20
236.997268051
 11
298.5
 21
237.8632934547
  0
LINE
  5
30E
100
AcDbEntity
  8
0
100
AcDbLine
 62
7
  6
CONTINUOUS
 10
299.7
 20
-264.2161470714
 11
299.7
 21
239.6798918774
  0
LINE
  5
30F
100
AcDbEntity
  8
0
100
AcDbLine
 62
7
  6
CONTINUOUS
 10
300.0
 20
246.9750105615
 11
300.0
 21
240.9556624327
  0
LINE
  5
310
100
AcDbEntity
  8
0
100
AcDbLine
 62
7
  6
CONTINUOUS
 10
300.0
 20
-185.0236116251
 11
300.0
 21
212.9763883749
  0
LINE
  5
311
100
AcDbEntity
  8
0
100
AcDbLine
 62
7
  6
CONTINUOUS
 10
300.0
 20
-190.5236116251
 11
300.0
 21
-265.8236116251
  0
LINE
  5
312
100
AcDbEntity
  8
0
100
AcDbLine
 62
7
  6
CONTINUOUS
 10
300.0
 20
-265.8236116251
 11
300.0
 21
-267.0236116251
  0
LINE
  5
313
100
AcDbEntity
  8
0
100
AcDbLine
 62
7
  6
CONTINUOUS
 10
300.0
 20
219.2236116251
 11
300.0
 21
240.9556624327
  0
CIRCLE
  5
314
100
AcDbEntity
  8
0
100
AcDbCircle
 62
7
  6
CONTINUOUS
 10
-107.5
 20
-212.0236116251
 40
5.0
  0
CIRCLE
  5
315
100
AcDbEntity
  8
0
100
AcDbCircle
 62
253
  6
CONTINUOUS
 10
-107.5
 20
-212.0236116251
 40
4.9675167785
  0
ARC
  5
316
100
AcDbEntity
  8
0
100
AcDbCircle
 62
7
  6
CONTINUOUS
 10
-107.5
 20
-240.0236116251
 40
3.5
100
AcDbArc
 50
180.0
 51
360.0
  0
ARC
  5
317
100
AcDbEntity
  8
0
100
AcDbCircle
 62
7
  6
CONTINUOUS
 10
-107.5
 20
-184.0236116251
 40
3.5
100
AcDbArc
 50
0.0
 51
180.0
  0
ARC
  5
318
100
AcDbEntity
  8
RACCORDO
100
AcDbCircle
 62
7
  6
CONTINUOUS
 10
-117.0
 20
-249.0236116251
 40
3.0
100
AcDbArc
 50
180.0
 51
270.0
  0
ARC
  5
319
100
AcDbEntity
  8
RACCORDO
100
AcDbCircle
 62
7
  6
CONTINUOUS
 10
-117.0
 20
-175.0236116251
 40
3.0
100
AcDbArc
 50
90.0
 51
180.0
  0
ARC
  5
31A
100
AcDbEntity
  8
0
100
AcDbCircle
 62
7
  6
CONTINUOUS
 10
-297.5
 20
-185.0236116251
 40
2.5
100
AcDbArc
 50
180.0
 51
202.5327393954
  0
ARC
  5
31B
100
AcDbEntity
  8
0
100
AcDbCircle
 62
7
  6
CONTINUOUS
 10
-298.0
 20
-190.5236116251
 40
2.0
100
AcDbArc
 50
148.3849411509
 51
180.0
  0
ARC
  5
31C
100
AcDbEntity
  8
0
100
AcDbCircle
 62
7
  6
CONTINUOUS
 10
-298.0
 20
-266.5236116251
 40
2.0
100
AcDbArc
 50
194.500170391
 51
270.0
  0
ARC
  5
31D
100
AcDbEntity
  8
RACCORDO
100
AcDbCircle
 62
7
  6
CONTINUOUS
 10
-105.7
 20
-212.3236116251
 40
0.2
100
AcDbArc
 50
270.0
 51
360.0
  0
ARC
  5
31E
100
AcDbEntity
  8
RACCORDO
100
AcDbCircle
 62
7
  6
CONTINUOUS
 10
-105.7
 20
-211.7236116251
 40
0.2
100
AcDbArc
 50
0.0
 51
90.0
  0
ARC
  5
31F
100
AcDbEntity
  8
RACCORDO
100
AcDbCircle
 62
7
  6
CONTINUOUS
 10
-107.2
 20
-210.2236116251
 40
0.2
100
AcDbArc
 50
0.0
 51
90.0
  0
ARC
  5
320
100
AcDbEntity
  8
RACCORDO
100
AcDbCircle
 62
7
  6
CONTINUOUS
 10
-107.8
 20
-210.2236116251
 40
0.2
100
AcDbArc
 50
90.0
 51
180.0
  0
ARC
  5
321
100
AcDbEntity
  8
RACCORDO
100
AcDbCircle
 62
7
  6
CONTINUOUS
 10
-109.3
 20
-211.7236116251
 40
0.2
100
AcDbArc
 50
90.0
 51
180.0
  0
ARC
  5
322
100
AcDbEntity
  8
RACCORDO
100
AcDbCircle
 62
7
  6
CONTINUOUS
 10
-109.3
 20
-212.3236116251
 40
0.2
100
AcDbArc
 50
180.0
 51
270.0
  0
ARC
  5
323
100
AcDbEntity
  8
RACCORDO
100
AcDbCircle
 62
7
  6
CONTINUOUS
 10
-107.8
 20
-213.8236116251
 40
0.2
100
AcDbArc
 50
180.0
 51
270.0
  0
ARC
  5
324
100
AcDbEntity
  8
RACCORDO
100
AcDbCircle
 62
7
  6
CONTINUOUS
 10
-107.2
 20
-213.8236116251
 40
0.2
100
AcDbArc
 50
270.0
 51
360.0
  0
ARC
  5
325
100
AcDbEntity
  8
RACCORDO
100
AcDbCircle
 62
7
  6
CONTINUOUS
 10
-106.8
 20
-211.3236116251
 40
0.2
100
AcDbArc
 50
180.0
 51
270.0
  0
ARC
  5
326
100
AcDbEntity
  8
RACCORDO
100
AcDbCircle
 62
7
  6
CONTINUOUS
 10
-108.2
 20
-211.3236116251
 40
0.2
100
AcDbArc
 50
270.0
 51
360.0
  0
ARC
  5
327
100
AcDbEntity
  8
RACCORDO
100
AcDbCircle
 62
7
  6
CONTINUOUS
 10
-106.8
 20
-212.7236116251
 40
0.2
100
AcDbArc
 50
90.0
 51
180.0
  0
ARC
  5
328
100
AcDbEntity
  8
RACCORDO
100
AcDbCircle
 62
7
  6
CONTINUOUS
 10
-108.2
 20
-212.7236116251
 40
0.2
100
AcDbArc
 50
0.0
 51
90.0
  0
ARC
  5
329
100
AcDbEntity
  8
0
100
AcDbCircle
 62
7
  6
CONTINUOUS
 10
-297.5
 20
212.9763883749
 40
2.5
100
AcDbArc
 50
151.8627222983
 51
180.0
  0
CIRCLE
  5
32A
100
AcDbEntity
  8
0
100
AcDbCircle
 62
7
  6
CONTINUOUS
 10
107.5
 20
-212.0236116251
 40
5.0
  0
CIRCLE
  5
32B
100
AcDbEntity
  8
0
100
AcDbCircle
 62
253
  6
CONTINUOUS
 10
107.5
 20
-212.0236116251
 40
4.9675167785
  0
ARC
  5
32C
100
AcDbEntity
  8
0
100
AcDbCircle
 62
7
  6
CONTINUOUS
 10
107.5
 20
-240.0236116251
 40
3.5
100
AcDbArc
 50
180.0
 51
360.0
  0
ARC
  5
32D
100
AcDbEntity
  8
0
100
AcDbCircle
 62
7
  6
CONTINUOUS
 10
107.5
 20
-184.0236116251
 40
3.5
100
AcDbArc
 50
0.0
 51
180.0
  0
ARC
  5
32E
100
AcDbEntity
  8
RACCORDO
100
AcDbCircle
 62
7
  6
CONTINUOUS
 10
117.0
 20
-175.0236116251
 40
3.0
100
AcDbArc
 50
0.0
 51
90.0
  0
ARC
  5
32F
100
AcDbEntity
  8
RACCORDO
100
AcDbCircle
 62
7
  6
CONTINUOUS
 10
117.0
 20
-249.0236116251
 40
3.0
100
AcDbArc
 50
270.0
 51
360.0
  0
ARC
  5
330
100
AcDbEntity
  8
0
100
AcDbCircle
 62
7
  6
CONTINUOUS
 10
297.5
 20
-185.0236116251
 40
2.5
100
AcDbArc
 50
331.8627222973
 51
360.0
  0
ARC
  5
331
100
AcDbEntity
  8
0
100
AcDbCircle
 62
7
  6
CONTINUOUS
 10
298.0
 20
-266.5236116251
 40
2.0
100
AcDbArc
 50
270.0
 51
345.499829609
  0
ARC
  5
332
100
AcDbEntity
  8
0
100
AcDbCircle
 62
7
  6
CONTINUOUS
 10
298.0
 20
-190.5236116251
 40
2.0
100
AcDbArc
 50
0.0
 51
22.5327393954
  0
ARC
  5
333
100
AcDbEntity
  8
RACCORDO
100
AcDbCircle
 62
7
  6
CONTINUOUS
 10
109.3
 20
-212.3236116251
 40
0.2
100
AcDbArc
 50
270.0
 51
360.0
  0
ARC
  5
334
100
AcDbEntity
  8
RACCORDO
100
AcDbCircle
 62
7
  6
CONTINUOUS
 10
109.3
 20
-211.7236116251
 40
0.2
100
AcDbArc
 50
0.0
 51
90.0
  0
ARC
  5
335
100
AcDbEntity
  8
RACCORDO
100
AcDbCircle
 62
7
  6
CONTINUOUS
 10
107.8
 20
-210.2236116251
 40
0.2
100
AcDbArc
 50
0.0
 51
90.0
  0
ARC
  5
336
100
AcDbEntity
  8
RACCORDO
100
AcDbCircle
 62
7
  6
CONTINUOUS
 10
107.2
 20
-210.2236116251
 40
0.2
100
AcDbArc
 50
90.0
 51
180.0
  0
ARC
  5
337
100
AcDbEntity
  8
RACCORDO
100
AcDbCircle
 62
7
  6
CONTINUOUS
 10
105.7
 20
-211.7236116251
 40
0.2
100
AcDbArc
 50
90.0
 51
180.0
  0
ARC
  5
338
100
AcDbEntity
  8
RACCORDO
100
AcDbCircle
 62
7
  6
CONTINUOUS
 10
105.7
 20
-212.3236116251
 40
0.2
100
AcDbArc
 50
180.0
 51
270.0
  0
ARC
  5
339
100
AcDbEntity
  8
RACCORDO
100
AcDbCircle
 62
7
  6
CONTINUOUS
 10
107.2
 20
-213.8236116251
 40
0.2
100
AcDbArc
 50
180.0
 51
270.0
  0
ARC
  5
33A
100
AcDbEntity
  8
RACCORDO
100
AcDbCircle
 62
7
  6
CONTINUOUS
 10
107.8
 20
-213.8236116251
 40
0.2
100
AcDbArc
 50
270.0
 51
360.0
  0
ARC
  5
33B
100
AcDbEntity
  8
RACCORDO
100
AcDbCircle
 62
7
  6
CONTINUOUS
 10
108.2
 20
-211.3236116251
 40
0.2
100
AcDbArc
 50
180.0
 51
270.0
  0
ARC
  5
33C
100
AcDbEntity
  8
RACCORDO
100
AcDbCircle
 62
7
  6
CONTINUOUS
 10
106.8
 20
-211.3236116251
 40
0.2
100
AcDbArc
 50
270.0
 51
360.0
  0
ARC
  5
33D
100
AcDbEntity
  8
RACCORDO
100
AcDbCircle
 62
7
  6
CONTINUOUS
 10
108.2
 20
-212.7236116251
 40
0.2
100
AcDbArc
 50
90.0
 51
180.0
  0
ARC
  5
33E
100
AcDbEntity
  8
RACCORDO
100
AcDbCircle
 62
7
  6
CONTINUOUS
 10
106.8
 20
-212.7236116251
 40
0.2
100
AcDbArc
 50
0.0
 51
90.0
  0
ARC
  5
33F
100
AcDbEntity
  8
0
100
AcDbCircle
 62
7
  6
CONTINUOUS
 10
297.5
 20
212.9763883749
 40
2.5
100
AcDbArc
 50
0.0
 51
28.1372777016
  0
ENDSEC
  0
SECTION
  2
OBJECTS
  0
DICTIONARY
  5
C
100
AcDbDictionary
280
0
281
1
  3
ACAD_GROUP
350
D
  3
ACAD_MLINESTYLE
350
17
  3
ACAD_LAYOUT
350
1A
  3
ACAD_PLOTSETTINGS
350
19
  3
ACAD_PLOTSTYLENAME
350
E
  0
DICTIONARY
  5
D
102
{ACAD_REACTORS
330
C
102
}
100
AcDbDictionary
280
0
281
1
  0
ACDBDICTIONARYWDFLT
  5
E
102
{ACAD_REACTORS
330
C
102
}
100
AcDbDictionary
281
1
  3
Normal
350
F
100
AcDbDictionaryWithDefault
340
F
  0
DICTIONARY
  5
17
102
{ACAD_REACTORS
330
C
102
}
100
AcDbDictionary
280
0
281
1
  3
Standard
350
18
  0
DICTIONARY
  5
19
102
{ACAD_REACTORS
330
C
102
}
100
AcDbDictionary
281
1
  0
DICTIONARY
  5
1A
102
{ACAD_REACTORS
330
C
102
}
100
AcDbDictionary
281
1
  3
Model
350
340
  3
Layout1
350
341
  0
ACDBPLACEHOLDER
  5
F
102
{ACAD_REACTORS
330
E
102
}
  0
MLINESTYLE
  5
18
102
{ACAD_REACTORS
330
17
102
}
100
AcDbMlineStyle
  2
STANDARD
 70
0
  3

 62
256
 51
90.0
 52
90.0
 71
2
 49
0.5
 62
256
  6
BYLAYER
 49
-0.5
 62
256
  6
BYLAYER
  0
LAYOUT
  5
340
102
{ACAD_REACTORS
330
1A
102
}
100
AcDbPlotSettings
  1

  2
none_device
  4
ANSI_C_(22.00_x_17.00_Inches)
  6

 40
0.0
 41
0.0
 42
0.0
 43
0.0
 44
558.8
 45
431.8
 46
0.0
 47
0.0
 48
0.0
 49
0.0
140
0.0
141
0.0
142
1.0
143
1.0
 70
1024
 72
1
 73
0
 74
0
  7

 75
0
147
1.0
148
0.0
149
0.0
100
AcDbLayout
  1
Model
 70
0
 71
0
 10
0.0
 20
0.0
 11
558.8
 21
431.8
 12
0.0
 22
0.0
 32
0.0
 14
0.0
 24
0.0
 34
0.0
 15
0.0
 25
0.0
 35
0.0
146
0.0
 13
0.0
 23
0.0
 33
0.0
 16
1.0
 26
0.0
 36
0.0
 17
0.0
 27
1.0
 37
0.0
 76
0
330
214
345
0
346
0
  0
LAYOUT
  5
341
102
{ACAD_REACTORS
330
1A
102
}
100
AcDbPlotSettings
  1

  2
none_device
  4
ANSI_C_(22.00_x_17.00_Inches)
  6

 40
0.0
 41
0.0
 42
0.0
 43
0.0
 44
558.8
 45
431.8
 46
0.0
 47
0.0
 48
0.0
 49
0.0
140
0.0
141
0.0
142
1.0
143
1.0
 70
0
 72
1
 73
0
 74
0
  7

 75
0
147
1.0
148
0.0
149
0.0
100
AcDbLayout
  1
Layout1
 70
0
 71
1
 10
0.0
 20
0.0
 11
558.8
 21
431.8
 12
0.0
 22
0.0
 32
0.0
 14
0.0
 24
0.0
 34
0.0
 15
0.0
 25
0.0
 35
0.0
146
0.0
 13
0.0
 23
0.0
 33
0.0
 16
1.0
 26
0.0
 36
0.0
 17
0.0
 27
1.0
 37
0.0
 76
0
330
215
345
0
346
0
  0
ENDSEC
  0
EOF
