  0
SECTION
  2
HEADER
  9
$ACADVER
  1
AC1021
  9
$DWGCODEPAGE
  3
ANSI_1252
  9
$EXTMAX
 10
558.8
 20
431.8
 30
0.0
  9
$EXTMIN
 10
0.0
 20
0.0
 30
0.0
  9
$LIMMIN
 10
0.0
 20
0.0
  9
$LIMMAX
 10
558.8
 20
431.8
  9
$VIEWCTR
 10
279.4
 20
215.9
  9
$VIEWSIZE
 40
431.8
  9
$CLAYER
  8
0
  9
$LTSCALE
 40
30.734
  9
$CELTYPE
  6
BYLAYER
  9
$DIMSCALE
 40
1.0
  9
$DIMASZ
 40
3.0
  9
$DIMEXO
 40
0.5
  9
$DIMDLI
 40
21.2344
  9
$DIMEXE
 40
1.5
  9
$DIMCEN
 40
5.0292
  9
$DIMLFAC
 40
1.0
  9
$DIMBLK
  1
_FILLED
  9
$DIMALT
 70
0
  9
$DIMALTF
 40
0.0393700787
  9
$DIMTXT
 40
3.0
  9
$DIMTOL
 70
1
  9
$DIMLIM
 70
0
  9
$DIMTFAC
 40
1.0
  9
$DIMTP
 40
0.01
  9
$DIMTM
 40
0.01
  9
$DIMGAP
 40
0.625
  9
$DIMDSEP
 70
44
  9
$AUNITS
 70
0
  9
$PDMODE
 70
3
  9
$PDSIZE
 40
3.0
  9
$HANDSEED
  5
343
  9
$TILEMODE
 70
1
  9
$MEASUREMENT
 70
1
  9
$INSUNITS
 70
4
  0
ENDSEC
  0
SECTION
  2
CLASSES
  0
CLASS
  1
ACDBDICTIONARYWDFLT
  2
AcDbDictionaryWithDefault
  3
AutoCAD 2000
 90
0
 91
1
280
0
281
0
  0
CLASS
  1
ACDBPLACEHOLDER
  2
AcDbPlaceHolder
  3
AutoCAD 2000
 90
0
 91
1
280
0
281
0
  0
CLASS
  1
LAYOUT
  2
AcDbLayout
  3
AutoCAD 2000
 90
0
 91
0
280
0
281
0
  0
ENDSEC
  0
SECTION
  2
TABLES
  0
TABLE
  2
VPORT
  5
8
100
AcDbSymbolTable
 70
2
  0
VPORT
  5
1F4
100
AcDbSymbolTableRecord
100
AcDbViewportTableRecord
  2
*ACTIVE
 70
0
 10
0.0
 20
0.0
 11
1.0
 21
1.0
 12
279.4
 22
215.9
 13
0.0
 23
0.0
 14
1.0
 24
1.0
 15
0.0
 25
0.0
 16
0.0
 26
0.0
 36
1.0
 17
0.0
 27
0.0
 37
0.0
 40
431.8
 41
1.2941176471
 42
50.0
 43
0.0
 44
0.0
 50
0.0
 51
0.0
 71
0
 72
100
 73
1
 74
1
 75
0
 76
0
 77
0
 78
0
  0
ENDTAB
  0
TABLE
  2
LTYPE
  5
5
100
AcDbSymbolTable
 70
6
  0
LTYPE
  5
14
100
AcDbSymbolTableRecord
100
AcDbLinetypeTableRecord
  2
BYBLOCK
 70
0
  3

 72
65
 73
0
 40
0.0
  0
LTYPE
  5
15
100
AcDbSymbolTableRecord
100
AcDbLinetypeTableRecord
  2
BYLAYER
 70
0
  3

 72
65
 73
0
 40
0.0
  0
LTYPE
  5
16
100
AcDbSymbolTableRecord
100
AcDbLinetypeTableRecord
  2
CONTINUOUS
 70
64
  3
Solid line
 72
65
 73
0
 40
0.0
  0
LTYPE
  5
1F5
100
AcDbSymbolTableRecord
100
AcDbLinetypeTableRecord
  2
CENTER
 70
64
  3
____ _ ____ _ ____ _ ____ _ ____ _ ____ _ ____
 72
65
 73
4
 40
0.6
 49
0.375
 74
0
 49
-0.075
 74
0
 49
0.075
 74
0
 49
-0.075
 74
0
  0
LTYPE
  5
1F6
100
AcDbSymbolTableRecord
100
AcDbLinetypeTableRecord
  2
HIDDEN
 70
64
  3
- - - - - - - - - - - - - - - - - - - -
 72
65
 73
2
 40
0.2
 49
0.1
 74
0
 49
-0.1
 74
0
  0
LTYPE
  5
1F7
100
AcDbSymbolTableRecord
100
AcDbLinetypeTableRecord
  2
PHANTOM
 70
64
  3
_____ _ _ _____ _ _ _____ _ _ _____
 72
65
 73
6
 40
0.8
 49
0.45
 74
0
 49
-0.05
 74
0
 49
0.1
 74
0
 49
-0.05
 74
0
 49
0.1
 74
0
 49
-0.05
 74
0
  0
LTYPE
  5
1F8
100
AcDbSymbolTableRecord
100
AcDbLinetypeTableRecord
  2
DOT
 70
64
  3
. . . . . . . . . . . . . . . . . . . .
 72
65
 73
2
 40
0.2
 49
0.1
 74
0
 49
-0.1
 74
0
  0
LTYPE
  5
1F9
100
AcDbSymbolTableRecord
100
AcDbLinetypeTableRecord
  2
DASHED
 70
64
  3
- - - - - - - - - - - - - - - - - - - -
 72
65
 73
2
 40
0.2
 49
0.1
 74
0
 49
-0.1
 74
0
  0
ENDTAB
  0
TABLE
  2
LAYER
  5
2
100
AcDbSymbolTable
 70
36
  0
LAYER
  5
10
100
AcDbSymbolTableRecord
100
AcDbLayerTableRecord
  2
0
 70
0
 62
7
  6
CONTINUOUS
370
-3
390
F
  0
LAYER
  5
1FA
100
AcDbSymbolTableRecord
100
AcDbLayerTableRecord
  2
DEFAULT_1
 70
0
 62
7
  6
CENTER
370
-3
390
F
  0
LAYER
  5
1FB
100
AcDbSymbolTableRecord
100
AcDbLayerTableRecord
  2
DEFAULT_2
 70
0
 62
7
  6
HIDDEN
370
-3
390
F
  0
LAYER
  5
1FC
100
AcDbSymbolTableRecord
100
AcDbLayerTableRecord
  2
DEFAULT_3
 70
0
 62
7
  6
PHANTOM
370
-3
390
F
  0
LAYER
  5
1FD
100
AcDbSymbolTableRecord
100
AcDbLayerTableRecord
  2
ASSI
 70
0
 62
7
  6
CONTINUOUS
370
-3
390
F
  0
LAYER
  5
1FE
100
AcDbSymbolTableRecord
100
AcDbLayerTableRecord
  2
COORDINATE
 70
0
 62
7
  6
CONTINUOUS
370
-3
390
F
  0
LAYER
  5
1FF
100
AcDbSymbolTableRecord
100
AcDbLayerTableRecord
  2
COORD_ORIGINE
 70
0
 62
7
  6
CONTINUOUS
370
-3
390
F
  0
LAYER
  5
200
100
AcDbSymbolTableRecord
100
AcDbLayerTableRecord
  2
COPY_PUBLISH
 70
0
 62
7
  6
CONTINUOUS
370
-3
390
F
  0
LAYER
  5
201
100
AcDbSymbolTableRecord
100
AcDbLayerTableRecord
  2
COSMETIC
 70
0
 62
7
  6
CONTINUOUS
370
-3
390
F
  0
LAYER
  5
202
100
AcDbSymbolTableRecord
100
AcDbLayerTableRecord
  2
COSMETICI
 70
0
 62
7
  6
CONTINUOUS
370
-3
390
F
  0
LAYER
  5
203
100
AcDbSymbolTableRecord
100
AcDbLayerTableRecord
  2
CURVE
 70
0
 62
7
  6
CONTINUOUS
370
-3
390
F
  0
LAYER
  5
204
100
AcDbSymbolTableRecord
100
AcDbLayerTableRecord
  2
DRAFT
 70
0
 62
7
  6
CONTINUOUS
370
-3
390
F
  0
LAYER
  5
205
100
AcDbSymbolTableRecord
100
AcDbLayerTableRecord
  2
IGES
 70
0
 62
7
  6
CONTINUOUS
370
-3
390
F
  0
LAYER
  5
206
100
AcDbSymbolTableRecord
100
AcDbLayerTableRecord
  2
IMPORT_IGES
 70
0
 62
7
  6
CONTINUOUS
370
-3
390
F
  0
LAYER
  5
207
100
AcDbSymbolTableRecord
100
AcDbLayerTableRecord
  2
NOTE
 70
0
 62
7
  6
CONTINUOUS
370
-3
390
F
  0
LAYER
  5
208
100
AcDbSymbolTableRecord
100
AcDbLayerTableRecord
  2
PIANI
 70
0
 62
7
  6
CONTINUOUS
370
-3
390
F
  0
LAYER
  5
209
100
AcDbSymbolTableRecord
100
AcDbLayerTableRecord
  2
PIANI_ORIGINE
 70
0
 62
7
  6
CONTINUOUS
370
-3
390
F
  0
LAYER
  5
20A
100
AcDbSymbolTableRecord
100
AcDbLayerTableRecord
  2
PUNTI
 70
0
 62
7
  6
CONTINUOUS
370
-3
390
F
  0
LAYER
  5
20B
100
AcDbSymbolTableRecord
100
AcDbLayerTableRecord
  2
RACCORDO
 70
0
 62
7
  6
CONTINUOUS
370
-3
390
F
  0
LAYER
  5
20C
100
AcDbSymbolTableRecord
100
AcDbLayerTableRecord
  2
SIMBOLI
 70
0
 62
7
  6
CONTINUOUS
370
-3
390
F
  0
LAYER
  5
20D
100
AcDbSymbolTableRecord
100
AcDbLayerTableRecord
  2
SMUSSO
 70
0
 62
7
  6
CONTINUOUS
370
-3
390
F
  0
LAYER
  5
20E
100
AcDbSymbolTableRecord
100
AcDbLayerTableRecord
  2
SNAPLINE
 70
0
 62
7
  6
CONTINUOUS
370
-3
390
F
  0
LAYER
  5
20F
100
AcDbSymbolTableRecord
100
AcDbLayerTableRecord
  2
SUPERFICI
 70
0
 62
7
  6
CONTINUOUS
370
-3
390
F
  0
LAYER
  5
210
100
AcDbSymbolTableRecord
100
AcDbLayerTableRecord
  2
TRASH
 70
0
 62
7
  6
CONTINUOUS
370
-3
390
F
  0
LAYER
  5
211
100
AcDbSymbolTableRecord
100
AcDbLayerTableRecord
  2
WHITE
 70
0
 62
7
  6
CONTINUOUS
370
-3
390
F
  0
ENDTAB
  0
TABLE
  2
STYLE
  5
3
100
AcDbSymbolTable
 70
1
  0
STYLE
  5
11
100
AcDbSymbolTableRecord
100
AcDbTextStyleTableRecord
  2
STANDARD
 70
0
 40
0.0
 41
0.8
 50
0.0
 71
0
 42
0.2
  3
txt
  4

  0
STYLE
  5
212
100
AcDbSymbolTableRecord
100
AcDbTextStyleTableRecord
  2
TEXTSTYLE_1
 70
0
 40
0.0
 41
0.8
 50
0.0
 71
0
 42
0.2
  3
gdt
  4

  0
ENDTAB
  0
TABLE
  2
VIEW
  5
6
100
AcDbSymbolTable
 70
0
  0
ENDTAB
  0
TABLE
  2
UCS
  5
7
100
AcDbSymbolTable
 70
0
  0
ENDTAB
  0
TABLE
  2
APPID
  5
9
100
AcDbSymbolTable
 70
1
  0
APPID
  5
213
100
AcDbSymbolTableRecord
100
AcDbRegAppTableRecord
  2
ACAD
 70
0
  0
ENDTAB
  0
TABLE
  2
BLOCK_RECORD
  5
1
100
AcDbSymbolTable
 70
0
  0
BLOCK_RECORD
  5
214
100
AcDbSymbolTableRecord
100
AcDbBlockTableRecord
  2
*Model_Space
  0
BLOCK_RECORD
  5
215
100
AcDbSymbolTableRecord
100
AcDbBlockTableRecord
  2
*Paper_Space
  0
ENDTAB
  0
TABLE
  2
DIMSTYLE
  5
A
100
AcDbSymbolTable
 70
1
100
AcDbDimStyleTable
 71
0
  0
DIMSTYLE
105
216
100
AcDbSymbolTableRecord
100
AcDbDimStyleTableRecord
  2
STANDARD
 70
0
  3

  4

 40
1.0
 41
3.0
 42
0.5
 43
0.38
 44
1.5
 45
0.0
 46
0.0
 47
0.01
 48
0.01
140
3.0
141
0.09
142
0.0
143
25.4
144
1.0
145
0.0
146
1.0
147
0.625
 71
1.0
 72
0.0
 73
0
 74
0
 75
0
 76
0
 77
1
 78
8
170
0
171
2
172
0
173
0
174
0
175
0
176
0
177
0
178
0
270
2
271
2
272
2
273
2
274
2
275
0
280
0
281
0
282
0
283
1
284
8
285
0
286
0
287
3
288
0
340
11
278
44
  0
ENDTAB
  0
ENDSEC
  0
SECTION
  2
BLOCKS
  0
BLOCK
  5
20
100
AcDbEntity
  8
0
100
AcDbBlockBegin
  2
*Model_Space
 70
0
 10
0.0
 20
0.0
 30
0.0
  3
*Model_Space
  1

  0
ENDBLK
  5
21
100
AcDbEntity
  8
0
100
AcDbBlockEnd
  0
BLOCK
  5
1C
100
AcDbEntity
  8
0
100
AcDbBlockBegin
  2
*Paper_Space
 70
0
 10
0.0
 20
0.0
 30
0.0
  3
*Paper_Space
  1

  0
ENDBLK
  5
1D
100
AcDbEntity
  8
0
100
AcDbBlockEnd
  0
ENDSEC
  0
SECTION
  2
ENTITIES
  0
LINE
  5
217
100
AcDbEntity
  8
0
100
AcDbLine
 62
7
  6
CONTINUOUS
 10
-150.0
 20
123.4875052808
 11
-150.0
 21
120.4778312164
  0
LINE
  5
218
100
AcDbEntity
  8
0
100
AcDbLine
 62
7
  6
CONTINUOUS
 10
-150.0
 20
-132.9118058126
 11
-150.0
 21
-95.2618058126
  0
LINE
  5
219
100
AcDbEntity
  8
0
100
AcDbLine
 62
7
  6
CONTINUOUS
 10
-150.0
 20
106.4881941874
 11
-150.0
 21
-92.5118058126
  0
LINE
  5
21A
100
AcDbEntity
  8
0
100
AcDbLine
 62
7
  6
CONTINUOUS
 10
-150.0
 20
-132.9118058126
 11
-150.0
 21
-133.5118058126
  0
LINE
  5
21B
100
AcDbEntity
  8
0
100
AcDbLine
 62
7
  6
CONTINUOUS
 10
-150.0
 20
109.6118058126
 11
-150.0
 21
120.4778312164
  0
LINE
  5
21C
100
AcDbEntity
  8
0
100
AcDbLine
 62
7
  6
CONTINUOUS
 10
-149.85
 20
119.8399459387
 11
-149.85
 21
-132.1080735357
  0
LINE
  5
21D
100
AcDbEntity
  8
0
100
AcDbLine
 62
7
  6
CONTINUOUS
 10
-149.25
 20
118.9316467274
 11
-149.25
 21
118.4986340255
  0
LINE
  5
21E
100
AcDbEntity
  8
0
100
AcDbLine
 62
7
  6
CONTINUOUS
 10
-149.25
 20
-131.7080735357
 11
-149.25
 21
-132.1080735357
  0
LINE
  5
21F
100
AcDbEntity
  8
0
100
AcDbLine
 62
253
  6
CONTINUOUS
 10
-149.0
 20
118.4986340255
 11
-149.0
 21
-131.7080735357
  0
LINE
  5
220
100
AcDbEntity
  8
0
100
AcDbLine
 62
253
  6
CONTINUOUS
 10
-149.0
 20
-133.5118058126
 11
-149.0
 21
-134.2618058126
  0
LINE
  5
221
100
AcDbEntity
  8
RACCORDO
100
AcDbLine
 62
7
  6
CONTINUOUS
 10
-148.75
 20
-134.2618058126
 11
-148.75
 21
-133.5118058126
  0
LINE
  5
222
100
AcDbEntity
  8
RACCORDO
100
AcDbLine
 62
253
  6
CONTINUOUS
 10
-147.25
 20
-134.2618058126
 11
-147.25
 21
-133.5118058126
  0
LINE
  5
223
100
AcDbEntity
  8
0
100
AcDbLine
 62
7
  6
CONTINUOUS
 10
-149.0
 20
-134.2618058126
 11
-148.75
 21
-134.2618058126
  0
LINE
  5
224
100
AcDbEntity
  8
0
100
AcDbLine
 62
7
  6
CONTINUOUS
 10
149.0
 20
-134.2618058126
 11
148.75
 21
-134.2618058126
  0
LINE
  5
225
100
AcDbEntity
  8
RACCORDO
100
AcDbLine
 62
7
  6
CONTINUOUS
 10
148.75
 20
-134.2618058126
 11
-148.75
 21
-134.2618058126
  0
LINE
  5
226
100
AcDbEntity
  8
0
100
AcDbLine
 62
7
  6
CONTINUOUS
 10
150.0
 20
-133.5118058126
 11
148.6608849422
 21
-133.5118058126
  0
LINE
  5
227
100
AcDbEntity
  8
RACCORDO
100
AcDbLine
 62
7
  6
CONTINUOUS
 10
148.6608849422
 20
-133.5118058126
 11
-148.6608849422
 21
-133.5118058126
  0
LINE
  5
228
100
AcDbEntity
  8
0
100
AcDbLine
 62
7
  6
CONTINUOUS
 10
-148.6608849422
 20
-133.5118058126
 11
-150.0
 21
-133.5118058126
  0
LINE
  5
229
100
AcDbEntity
  8
0
100
AcDbLine
 62
253
  6
CONTINUOUS
 10
149.4640350464
 20
-132.5118058126
 11
-149.4640350464
 21
-132.5118058126
  0
LINE
  5
22A
100
AcDbEntity
  8
0
100
AcDbLine
 62
7
  6
CONTINUOUS
 10
-128.5
 20
123.4881941874
 11
-128.5
 21
134.2618058126
  0
LINE
  5
22B
100
AcDbEntity
  8
0
100
AcDbLine
 62
7
  6
CONTINUOUS
 10
-127.5
 20
123.4881941874
 11
-127.5
 21
134.2618058126
  0
LINE
  5
22C
100
AcDbEntity
  8
0
100
AcDbLine
 62
7
  6
CONTINUOUS
 10
149.85
 20
-132.1080735357
 11
149.25
 21
-132.1080735357
  0
LINE
  5
22D
100
AcDbEntity
  8
0
100
AcDbLine
 62
7
  6
CONTINUOUS
 10
-149.85
 20
-132.1080735357
 11
-149.25
 21
-132.1080735357
  0
LINE
  5
22E
100
AcDbEntity
  8
0
100
AcDbLine
 62
7
  6
CONTINUOUS
 10
-149.85
 20
-131.7080735357
 11
-149.0
 21
-131.7080735357
  0
LINE
  5
22F
100
AcDbEntity
  8
0
100
AcDbLine
 62
7
  6
CONTINUOUS
 10
149.0
 20
-131.7080735357
 11
149.85
 21
-131.7080735357
  0
LINE
  5
230
100
AcDbEntity
  8
RACCORDO
100
AcDbLine
 62
7
  6
CONTINUOUS
 10
58.5
 20
-126.0118058126
 11
-58.5
 21
-126.0118058126
  0
LWPOLYLINE
  5
231
100
AcDbEntity
  8
0
100
AcDbPolyline
 62
7
  6
CONTINUOUS
 90
10
 70
0
 10
-150.0
 20
-132.9118058126
 10
-149.9404819874
 20
-132.9057159714
 10
-149.8809471503
 20
-132.8876446291
 10
-149.8213954888
 20
-132.8581600909
 10
-149.7618157865
 20
-132.8181916654
 10
-149.7022192599
 20
-132.7689588977
 10
-149.6426395576
 20
-132.7119025739
 10
-149.5830878961
 20
-132.6487188653
 10
-149.523553059
 20
-132.5813384437
 10
-149.4640350464
 20
-132.5118058126
  0
LWPOLYLINE
  5
232
100
AcDbEntity
  8
RACCORDO
100
AcDbPolyline
 62
253
  6
CONTINUOUS
 90
16
 70
0
 10
54.81800638
 20
-106.1643781527
 10
54.8118425416
 20
-106.1644847301
 10
54.8054809175
 20
-106.1645465936
 10
54.7990277032
 20
-106.1645627102
 10
54.7925906229
 20
-106.1645328109
 10
54.7862771317
 20
-106.1644573946
 10
54.7801926215
 20
-106.1643377198
 10
54.7744386618
 20
-106.1641757843
 10
54.7691113042
 20
-106.163974291
 10
54.7642994788
 20
-106.1637366031
 10
54.7600835103
 20
-106.1634666883
 10
54.7565337762
 20
-106.1631690519
 10
54.7537095328
 20
-106.1628486623
 10
54.7516579255
 20
-106.1625108674
 10
54.750413202
 20
-106.1621613058
 10
54.7499961408
 20
-106.1618058127
  0
LWPOLYLINE
  5
233
100
AcDbEntity
  8
RACCORDO
100
AcDbPolyline
 62
253
  6
CONTINUOUS
 90
16
 70
0
 10
52.68199362
 20
-105.8592334724
 10
52.6881574584
 20
-105.859126895
 10
52.6945190825
 20
-105.8590650316
 10
52.7009722968
 20
-105.8590489149
 10
52.7074093771
 20
-105.8590788142
 10
52.7137228683
 20
-105.8591542306
 10
52.7198073785
 20
-105.8592739053
 10
52.7255613382
 20
-105.8594358408
 10
52.7308886958
 20
-105.8596373342
 10
52.7357005212
 20
-105.859875022
 10
52.7399164897
 20
-105.8601449369
 10
52.7434662238
 20
-105.8604425732
 10
52.7462904672
 20
-105.8607629629
 10
52.7483420745
 20
-105.8611007578
 10
52.749586798
 20
-105.8614503193
 10
52.7500038592
 20
-105.8618058125
  0
LWPOLYLINE
  5
234
100
AcDbEntity
  8
RACCORDO
100
AcDbPolyline
 62
253
  6
CONTINUOUS
 90
22
 70
0
 10
54.1060026385
 20
-106.3169509313
 10
54.103316144
 20
-106.3169904609
 10
54.1005616618
 20
-106.317216703
 10
54.0977383689
 20
-106.3176268988
 10
54.094831864
 20
-106.3181987007
 10
54.0918542239
 20
-106.3189487774
 10
54.0888430824
 20
-106.3199333956
 10
54.0857836954
 20
-106.3211514442
 10
54.0826844842
 20
-106.3225994812
 10
54.0796150968
 20
-106.3243325326
 10
54.0765535225
 20
-106.3263592969
 10
54.0735096057
 20
-106.3286704622
 10
54.070597673
 20
-106.3312991502
 10
54.067794222
 20
-106.3342736265
 10
54.0651044617
 20
-106.3375726953
 10
54.062685333
 20
-106.3411630759
 10
54.0605344875
 20
-106.3450931213
 10
54.0586359315
 20
-106.3493306346
 10
54.0571336109
 20
-106.3537278988
 10
54.0560770713
 20
-106.3582422771
 10
54.0554145431
 20
-106.3629335557
 10
54.0551451187
 20
-106.3678084511
  0
LWPOLYLINE
  5
235
100
AcDbEntity
  8
RACCORDO
100
AcDbPolyline
 62
253
  6
CONTINUOUS
 90
22
 70
0
 10
53.3939973615
 20
-105.7066606938
 10
53.396683856
 20
-105.7066211642
 10
53.3994383382
 20
-105.7063949221
 10
53.4022616311
 20
-105.7059847264
 10
53.405168136
 20
-105.7054129245
 10
53.4081457761
 20
-105.7046628477
 10
53.4111569176
 20
-105.7036782295
 10
53.4142163046
 20
-105.7024601809
 10
53.4173155158
 20
-105.7010121439
 10
53.4203849032
 20
-105.6992790925
 10
53.4234464775
 20
-105.6972523282
 10
53.4264903943
 20
-105.6949411629
 10
53.429402327
 20
-105.6923124749
 10
53.432205778
 20
-105.6893379986
 10
53.4348955383
 20
-105.6860389298
 10
53.437314667
 20
-105.6824485492
 10
53.4394655125
 20
-105.6785185038
 10
53.4413640685
 20
-105.6742809906
 10
53.4428663891
 20
-105.6698837263
 10
53.4439229287
 20
-105.665369348
 10
53.4445854569
 20
-105.6606780695
 10
53.4448548813
 20
-105.655803174
  0
LWPOLYLINE
  5
236
100
AcDbEntity
  8
RACCORDO
100
AcDbPolyline
 62
253
  6
CONTINUOUS
 90
13
 70
0
 10
54.0551448794
 20
-106.9272404515
 10
54.0481797235
 20
-106.9273127563
 10
54.0412498334
 20
-106.9270837871
 10
54.0344898458
 20
-106.9265579926
 10
54.0280310964
 20
-106.9257455881
 10
54.0219990683
 20
-106.9246623574
 10
54.016510954
 20
-106.923329346
 10
54.0116733789
 20
-106.9217724521
 10
54.0075803292
 20
-106.9200219237
 10
54.0043113264
 20
-106.9181117709
 10
54.0019298819
 20
-106.916079105
 10
54.0004822633
 20
-106.9139634173
 10
53.9999965956
 20
-106.9118058124
  0
LWPOLYLINE
  5
237
100
AcDbEntity
  8
RACCORDO
100
AcDbPolyline
 62
253
  6
CONTINUOUS
 90
13
 70
0
 10
-53.4448551206
 20
-106.9272404515
 10
-53.4518202765
 20
-106.9273127563
 10
-53.4587501666
 20
-106.9270837871
 10
-53.4655101542
 20
-106.9265579926
 10
-53.4719689036
 20
-106.9257455881
 10
-53.4780009317
 20
-106.9246623574
 10
-53.483489046
 20
-106.923329346
 10
-53.4883266211
 20
-106.9217724521
 10
-53.4924196708
 20
-106.9200219237
 10
-53.4956886736
 20
-106.9181117709
 10
-53.4980701181
 20
-106.916079105
 10
-53.4995177367
 20
-106.9139634173
 10
-53.5000034044
 20
-106.9118058124
  0
LWPOLYLINE
  5
238
100
AcDbEntity
  8
RACCORDO
100
AcDbPolyline
 62
253
  6
CONTINUOUS
 90
13
 70
0
 10
53.4448551206
 20
-105.0963711736
 10
53.4518202765
 20
-105.0962988689
 10
53.4587501666
 20
-105.096527838
 10
53.4655101542
 20
-105.0970536325
 10
53.4719689036
 20
-105.097866037
 10
53.4780009317
 20
-105.0989492677
 10
53.483489046
 20
-105.1002822791
 10
53.4883266211
 20
-105.101839173
 10
53.4924196708
 20
-105.1035897014
 10
53.4956886736
 20
-105.1054998542
 10
53.4980701181
 20
-105.1075325202
 10
53.4995177367
 20
-105.1096482078
 10
53.5000034044
 20
-105.1118058128
  0
LWPOLYLINE
  5
239
100
AcDbEntity
  8
RACCORDO
100
AcDbPolyline
 62
253
  6
CONTINUOUS
 90
13
 70
0
 10
54.055145118
 20
-106.3678084503
 10
54.0481801395
 20
-106.367836487
 10
54.0412505136
 20
-106.3677473721
 10
54.0344908548
 20
-106.3675428367
 10
54.0280324759
 20
-106.367226854
 10
54.0220008372
 20
-106.3668055625
 10
54.0165131089
 20
-106.366287146
 10
54.0116758955
 20
-106.3656816753
 10
54.0075831644
 20
-106.3650009122
 10
54.0043144208
 20
-106.3642580813
 10
54.0019331632
 20
-106.3634676129
 10
54.0004856498
 20
-106.3626448624
 10
54.0
 20
-106.3618058126
  0
LWPOLYLINE
  5
23A
100
AcDbEntity
  8
RACCORDO
100
AcDbPolyline
 62
253
  6
CONTINUOUS
 90
13
 70
0
 10
-53.444854882
 20
-106.3678084503
 10
-53.4518198605
 20
-106.367836487
 10
-53.4587494864
 20
-106.3677473721
 10
-53.4655091452
 20
-106.3675428367
 10
-53.4719675241
 20
-106.367226854
 10
-53.4779991628
 20
-106.3668055625
 10
-53.4834868911
 20
-106.366287146
 10
-53.4883241045
 20
-106.3656816753
 10
-53.4924168356
 20
-106.3650009122
 10
-53.4956855792
 20
-106.3642580813
 10
-53.4980668368
 20
-106.3634676129
 10
-53.4995143502
 20
-106.3626448624
 10
-53.5
 20
-106.3618058126
  0
LWPOLYLINE
  5
23B
100
AcDbEntity
  8
RACCORDO
100
AcDbPolyline
 62
253
  6
CONTINUOUS
 90
13
 70
0
 10
53.444854882
 20
-105.6558031749
 10
53.4518198605
 20
-105.6557751382
 10
53.4587494864
 20
-105.6558642531
 10
53.4655091452
 20
-105.6560687885
 10
53.4719675241
 20
-105.6563847711
 10
53.4779991628
 20
-105.6568060626
 10
53.4834868911
 20
-105.6573244791
 10
53.4883241045
 20
-105.6579299498
 10
53.4924168356
 20
-105.6586107129
 10
53.4956855792
 20
-105.6593535438
 10
53.4980668368
 20
-105.6601440123
 10
53.4995143502
 20
-105.6609667628
 10
53.5
 20
-105.6618058126
  0
LWPOLYLINE
  5
23C
100
AcDbEntity
  8
RACCORDO
100
AcDbPolyline
 62
253
  6
CONTINUOUS
 90
3
 70
0
 10
54.2070466794
 20
-106.3169509312
 10
54.1385092897
 20
-106.3170726471
 10
54.1060026385
 20
-106.3169509313
  0
LWPOLYLINE
  5
23D
100
AcDbEntity
  8
RACCORDO
100
AcDbPolyline
 62
253
  6
CONTINUOUS
 90
3
 70
0
 10
-53.2929533206
 20
-106.3169509312
 10
-53.3614907103
 20
-106.3170726471
 10
-53.3939973615
 20
-106.3169509313
  0
LWPOLYLINE
  5
23E
100
AcDbEntity
  8
RACCORDO
100
AcDbPolyline
 62
253
  6
CONTINUOUS
 90
3
 70
0
 10
53.2929533206
 20
-105.7066606939
 10
53.3614907103
 20
-105.7065389781
 10
53.3939973615
 20
-105.7066606938
  0
LINE
  5
23F
100
AcDbEntity
  8
RACCORDO
100
AcDbLine
 62
253
  6
CONTINUOUS
 10
53.9025725594
 20
-107.0798137281
 11
53.5974274406
 21
-107.0798137281
  0
LINE
  5
240
100
AcDbEntity
  8
RACCORDO
100
AcDbLine
 62
253
  6
CONTINUOUS
 10
-53.5974274406
 20
-107.0798137281
 11
-53.9025725594
 21
-107.0798137281
  0
LINE
  5
241
100
AcDbEntity
  8
RACCORDO
100
AcDbLine
 62
7
  6
CONTINUOUS
 10
53.9
 20
-107.0118058126
 11
53.6
 21
-107.0118058126
  0
LINE
  5
242
100
AcDbEntity
  8
RACCORDO
100
AcDbLine
 62
7
  6
CONTINUOUS
 10
-53.6
 20
-107.0118058126
 11
-53.9
 21
-107.0118058126
  0
LINE
  5
243
100
AcDbEntity
  8
RACCORDO
100
AcDbLine
 62
7
  6
CONTINUOUS
 10
54.65
 20
-106.2618058126
 11
54.1
 21
-106.2618058126
  0
LINE
  5
244
100
AcDbEntity
  8
RACCORDO
100
AcDbLine
 62
7
  6
CONTINUOUS
 10
53.4
 20
-106.2618058126
 11
52.85
 21
-106.2618058126
  0
LINE
  5
245
100
AcDbEntity
  8
RACCORDO
100
AcDbLine
 62
7
  6
CONTINUOUS
 10
-52.85
 20
-106.2618058126
 11
-53.4
 21
-106.2618058126
  0
LINE
  5
246
100
AcDbEntity
  8
RACCORDO
100
AcDbLine
 62
7
  6
CONTINUOUS
 10
-54.1
 20
-106.2618058126
 11
-54.65
 21
-106.2618058126
  0
LINE
  5
247
100
AcDbEntity
  8
RACCORDO
100
AcDbLine
 62
7
  6
CONTINUOUS
 10
-54.65
 20
-105.7618058126
 11
-54.1
 21
-105.7618058126
  0
LINE
  5
248
100
AcDbEntity
  8
RACCORDO
100
AcDbLine
 62
7
  6
CONTINUOUS
 10
-53.4
 20
-105.7618058126
 11
-52.85
 21
-105.7618058126
  0
LINE
  5
249
100
AcDbEntity
  8
RACCORDO
100
AcDbLine
 62
7
  6
CONTINUOUS
 10
52.85
 20
-105.7618058126
 11
53.4
 21
-105.7618058126
  0
LINE
  5
24A
100
AcDbEntity
  8
RACCORDO
100
AcDbLine
 62
7
  6
CONTINUOUS
 10
54.1
 20
-105.7618058126
 11
54.65
 21
-105.7618058126
  0
LWPOLYLINE
  5
24B
100
AcDbEntity
  8
RACCORDO
100
AcDbPolyline
 62
253
  6
CONTINUOUS
 90
3
 70
0
 10
-54.3508685972
 20
-106.3168436555
 10
-54.4256726531
 20
-106.3169509312
 10
-54.5815650743
 20
-106.3168727999
  0
LWPOLYLINE
  5
24C
100
AcDbEntity
  8
RACCORDO
100
AcDbPolyline
 62
253
  6
CONTINUOUS
 90
4
 70
0
 10
-53.0326815361
 20
-106.3168408257
 10
-53.1074050226
 20
-106.316946927
 10
-53.1444652776
 20
-106.3168128733
 10
-53.2191340463
 20
-106.3171153864
  0
LWPOLYLINE
  5
24D
100
AcDbEntity
  8
RACCORDO
100
AcDbPolyline
 62
253
  6
CONTINUOUS
 90
4
 70
0
 10
54.4673184639
 20
-106.3168408257
 10
54.3925949774
 20
-106.316946927
 10
54.3555347224
 20
-106.3168128733
 10
54.2808659537
 20
-106.3171153864
  0
LWPOLYLINE
  5
24E
100
AcDbEntity
  8
RACCORDO
100
AcDbPolyline
 62
253
  6
CONTINUOUS
 90
3
 70
0
 10
53.1491314028
 20
-106.3168436555
 10
53.0743273469
 20
-106.3169509312
 10
52.9184349257
 20
-106.3168727999
  0
LWPOLYLINE
  5
24F
100
AcDbEntity
  8
RACCORDO
100
AcDbPolyline
 62
253
  6
CONTINUOUS
 90
4
 70
0
 10
53.0326815361
 20
-105.7067707994
 10
53.1074050226
 20
-105.7066646982
 10
53.1444652776
 20
-105.7067987518
 10
53.2191340463
 20
-105.7064962387
  0
LWPOLYLINE
  5
250
100
AcDbEntity
  8
RACCORDO
100
AcDbPolyline
 62
253
  6
CONTINUOUS
 90
3
 70
0
 10
54.3508685972
 20
-105.7067679696
 10
54.4256726531
 20
-105.7066606939
 10
54.5815650743
 20
-105.7067388253
  0
LWPOLYLINE
  5
251
100
AcDbEntity
  8
RACCORDO
100
AcDbPolyline
 62
253
  6
CONTINUOUS
 90
4
 70
0
 10
-54.1060026385
 20
-106.3169509313
 10
-54.1706513928
 20
-106.3170359503
 10
-54.2047423522
 20
-106.3169509313
 10
-54.276915361
 20
-106.3170839125
  0
LWPOLYLINE
  5
252
100
AcDbEntity
  8
RACCORDO
100
AcDbPolyline
 62
253
  6
CONTINUOUS
 90
4
 70
0
 10
53.3939973615
 20
-106.3169509313
 10
53.3293486072
 20
-106.3170359503
 10
53.2952576478
 20
-106.3169509313
 10
53.223084639
 20
-106.3170839125
  0
LWPOLYLINE
  5
253
100
AcDbEntity
  8
RACCORDO
100
AcDbPolyline
 62
253
  6
CONTINUOUS
 90
4
 70
0
 10
54.1060026385
 20
-105.7066606938
 10
54.1706513928
 20
-105.7065756749
 10
54.2047423522
 20
-105.7066606938
 10
54.276915361
 20
-105.7065277126
  0
LINE
  5
254
100
AcDbEntity
  8
RACCORDO
100
AcDbLine
 62
253
  6
CONTINUOUS
 10
-54.5815650743
 20
-106.3168727999
 11
-54.6654353562
 21
-106.3169509313
  0
LINE
  5
255
100
AcDbEntity
  8
RACCORDO
100
AcDbLine
 62
253
  6
CONTINUOUS
 10
52.9184349257
 20
-106.3168727999
 11
52.8345646438
 21
-106.3169509313
  0
LINE
  5
256
100
AcDbEntity
  8
RACCORDO
100
AcDbLine
 62
253
  6
CONTINUOUS
 10
-52.9184349257
 20
-105.7067388253
 11
-52.8345646438
 21
-105.7066606938
  0
LINE
  5
257
100
AcDbEntity
  8
RACCORDO
100
AcDbLine
 62
253
  6
CONTINUOUS
 10
54.5815650743
 20
-105.7067388253
 11
54.6654353562
 21
-105.7066606938
  0
LINE
  5
258
100
AcDbEntity
  8
RACCORDO
100
AcDbLine
 62
253
  6
CONTINUOUS
 10
-52.9950974515
 20
-106.316910928
 11
-53.0326815361
 21
-106.3168408257
  0
LINE
  5
259
100
AcDbEntity
  8
RACCORDO
100
AcDbLine
 62
253
  6
CONTINUOUS
 10
54.5049025485
 20
-106.316910928
 11
54.4673184639
 21
-106.3168408257
  0
LWPOLYLINE
  5
25A
100
AcDbEntity
  8
RACCORDO
100
AcDbPolyline
 62
253
  6
CONTINUOUS
 90
3
 70
0
 10
-54.5049025485
 20
-105.7067006971
 10
-54.4673184639
 20
-105.7067707994
 10
-54.4299198619
 20
-105.7066606935
  0
LINE
  5
25B
100
AcDbEntity
  8
RACCORDO
100
AcDbLine
 62
253
  6
CONTINUOUS
 10
52.9950974515
 20
-105.7067006971
 11
53.0326815361
 21
-105.7067707994
  0
LINE
  5
25C
100
AcDbEntity
  8
RACCORDO
100
AcDbLine
 62
253
  6
CONTINUOUS
 10
-52.8345646438
 20
-106.3169509313
 11
-52.9950974515
 21
-106.316910928
  0
LINE
  5
25D
100
AcDbEntity
  8
RACCORDO
100
AcDbLine
 62
253
  6
CONTINUOUS
 10
54.6654353562
 20
-106.3169509313
 11
54.5049025485
 21
-106.316910928
  0
LINE
  5
25E
100
AcDbEntity
  8
RACCORDO
100
AcDbLine
 62
253
  6
CONTINUOUS
 10
-54.6654353562
 20
-105.7066606938
 11
-54.5049025485
 21
-105.7067006971
  0
LINE
  5
25F
100
AcDbEntity
  8
RACCORDO
100
AcDbLine
 62
253
  6
CONTINUOUS
 10
52.8345646438
 20
-105.7066606938
 11
52.9950974515
 21
-105.7067006971
  0
LINE
  5
260
100
AcDbEntity
  8
RACCORDO
100
AcDbLine
 62
253
  6
CONTINUOUS
 10
-53.1119503145
 20
-105.7066538294
 11
-52.9184349257
 21
-105.7067388253
  0
LWPOLYLINE
  5
261
100
AcDbEntity
  8
RACCORDO
100
AcDbPolyline
 62
253
  6
CONTINUOUS
 90
3
 70
0
 10
-53.3622634604
 20
-105.7065632562
 10
-53.2952576478
 20
-105.7066606938
 10
-53.223084639
 20
-105.7065277126
  0
LINE
  5
262
100
AcDbEntity
  8
RACCORDO
100
AcDbLine
 62
253
  6
CONTINUOUS
 10
-53.2191340463
 20
-106.3171153864
 11
-53.2929533206
 21
-106.3169509312
  0
LINE
  5
263
100
AcDbEntity
  8
RACCORDO
100
AcDbLine
 62
253
  6
CONTINUOUS
 10
54.2808659537
 20
-106.3171153864
 11
54.2070466794
 21
-106.3169509312
  0
LINE
  5
264
100
AcDbEntity
  8
RACCORDO
100
AcDbLine
 62
253
  6
CONTINUOUS
 10
-54.2808659537
 20
-105.7064962387
 11
-54.2070466794
 21
-105.7066606939
  0
LINE
  5
265
100
AcDbEntity
  8
RACCORDO
100
AcDbLine
 62
253
  6
CONTINUOUS
 10
-54.276915361
 20
-106.3170839125
 11
-54.3508685972
 21
-106.3168436555
  0
LINE
  5
266
100
AcDbEntity
  8
RACCORDO
100
AcDbLine
 62
253
  6
CONTINUOUS
 10
53.223084639
 20
-106.3170839125
 11
53.1491314028
 21
-106.3168436555
  0
LWPOLYLINE
  5
267
100
AcDbEntity
  8
RACCORDO
100
AcDbPolyline
 62
253
  6
CONTINUOUS
 90
3
 70
0
 10
-54.4299198619
 20
-105.7066606935
 10
-54.3555347224
 20
-105.7067987518
 10
-54.2808659537
 20
-105.7064962387
  0
LINE
  5
268
100
AcDbEntity
  8
RACCORDO
100
AcDbLine
 62
253
  6
CONTINUOUS
 10
-53.223084639
 20
-105.7065277126
 11
-53.1491314028
 21
-105.7067679696
  0
LINE
  5
269
100
AcDbEntity
  8
RACCORDO
100
AcDbLine
 62
253
  6
CONTINUOUS
 10
-54.172193782
 20
-105.7065556725
 11
-54.1060026385
 21
-105.7066606938
  0
LWPOLYLINE
  5
26A
100
AcDbEntity
  8
RACCORDO
100
AcDbPolyline
 62
253
  6
CONTINUOUS
 90
13
 70
0
 10
-54.0551451137
 20
-106.3678084452
 10
-54.0481806789
 20
-106.3678363963
 10
-54.0412516371
 20
-106.367747211
 10
-54.0344925809
 20
-106.3675426218
 10
-54.0280348009
 20
-106.3672266029
 10
-54.0220037359
 20
-106.3668052927
 10
-54.0165165356
 20
-106.3662868749
 10
-54.0116797858
 20
-106.3656814193
 10
-54.0075874375
 20
-106.3650006864
 10
-54.0043189822
 20
-106.3642578987
 10
-54.0019379077
 20
-106.3634674841
 10
-54.0004904651
 20
-106.3626447956
 10
-54.0000047699
 20
-106.3618058133
  0
LWPOLYLINE
  5
26B
100
AcDbEntity
  8
RACCORDO
100
AcDbPolyline
 62
253
  6
CONTINUOUS
 90
13
 70
0
 10
53.4448548863
 20
-106.3678084452
 10
53.4518193211
 20
-106.3678363963
 10
53.4587483629
 20
-106.367747211
 10
53.4655074191
 20
-106.3675426218
 10
53.4719651991
 20
-106.3672266029
 10
53.4779962641
 20
-106.3668052927
 10
53.4834834644
 20
-106.3662868749
 10
53.4883202142
 20
-106.3656814193
 10
53.4924125625
 20
-106.3650006864
 10
53.4956810178
 20
-106.3642578987
 10
53.4980620923
 20
-106.3634674841
 10
53.4995095349
 20
-106.3626447956
 10
53.4999952301
 20
-106.3618058133
  0
LWPOLYLINE
  5
26C
100
AcDbEntity
  8
RACCORDO
100
AcDbPolyline
 62
253
  6
CONTINUOUS
 90
13
 70
0
 10
-53.4448548863
 20
-105.65580318
 10
-53.4518193211
 20
-105.6557752289
 10
-53.4587483629
 20
-105.6558644142
 10
-53.4655074191
 20
-105.6560690033
 10
-53.4719651991
 20
-105.6563850223
 10
-53.4779962641
 20
-105.6568063324
 10
-53.4834834644
 20
-105.6573247502
 10
-53.4883202142
 20
-105.6579302058
 10
-53.4924125625
 20
-105.6586109387
 10
-53.4956810178
 20
-105.6593537265
 10
-53.4980620923
 20
-105.6601441411
 10
-53.4995095349
 20
-105.6609668295
 10
-53.4999952301
 20
-105.6618058118
  0
LWPOLYLINE
  5
26D
100
AcDbEntity
  8
RACCORDO
100
AcDbPolyline
 62
253
  6
CONTINUOUS
 90
13
 70
0
 10
-54.0551451151
 20
-106.9272411579
 10
-54.0481801392
 20
-106.9273132523
 10
-54.0412505158
 20
-106.9270840998
 10
-54.0344908593
 20
-106.9265581521
 10
-54.0280324826
 20
-106.925745626
 10
-54.0220008455
 20
-106.9246623058
 10
-54.0165131183
 20
-106.9233292359
 10
-54.0116759052
 20
-106.9217723125
 10
-54.0075831738
 20
-106.9200217803
 10
-54.0043144291
 20
-106.9181116449
 10
-54.0019331695
 20
-106.9160790125
 10
-54.0004856534
 20
-106.9139633689
 10
-54.0
 20
-106.9118058126
  0
LWPOLYLINE
  5
26E
100
AcDbEntity
  8
RACCORDO
100
AcDbPolyline
 62
253
  6
CONTINUOUS
 90
13
 70
0
 10
53.4448548849
 20
-106.9272411579
 10
53.4518198608
 20
-106.9273132523
 10
53.4587494842
 20
-106.9270840998
 10
53.4655091407
 20
-106.9265581521
 10
53.4719675174
 20
-106.925745626
 10
53.4779991545
 20
-106.9246623058
 10
53.4834868817
 20
-106.9233292359
 10
53.4883240948
 20
-106.9217723125
 10
53.4924168262
 20
-106.9200217803
 10
53.4956855709
 20
-106.9181116449
 10
53.4980668305
 20
-106.9160790125
 10
53.4995143466
 20
-106.9139633689
 10
53.5
 20
-106.9118058126
  0
LWPOLYLINE
  5
26F
100
AcDbEntity
  8
RACCORDO
100
AcDbPolyline
 62
253
  6
CONTINUOUS
 90
13
 70
0
 10
-53.4448548849
 20
-105.0963704672
 10
-53.4518198608
 20
-105.0962983729
 10
-53.4587494842
 20
-105.0965275253
 10
-53.4655091407
 20
-105.0970534731
 10
-53.4719675174
 20
-105.0978659991
 10
-53.4779991545
 20
-105.0989493193
 10
-53.4834868817
 20
-105.1002823892
 10
-53.4883240948
 20
-105.1018393126
 10
-53.4924168262
 20
-105.1035898448
 10
-53.4956855709
 20
-105.1054999802
 10
-53.4980668305
 20
-105.1075326126
 10
-53.4995143466
 20
-105.1096482562
 10
-53.5
 20
-105.1118058126
  0
LWPOLYLINE
  5
270
100
AcDbEntity
  8
RACCORDO
100
AcDbPolyline
 62
253
  6
CONTINUOUS
 90
16
 70
0
 10
-54.8180079146
 20
-106.1643783718
 10
-54.8118441031
 20
-106.1644849462
 10
-54.8054826061
 20
-106.1645468041
 10
-54.7990296009
 20
-106.1645629131
 10
-54.7925927922
 20
-106.1645330042
 10
-54.7862796146
 20
-106.1644575768
 10
-54.7801954389
 20
-106.1643378898
 10
-54.774441814
 20
-106.1641759409
 10
-54.7691147713
 20
-106.1639744331
 10
-54.7643032228
 20
-106.1637367296
 10
-54.7600874761
 20
-106.1634667979
 10
-54.7565378948
 20
-106.1631691433
 10
-54.7537137236
 20
-106.1628487338
 10
-54.7516620998
 20
-106.1625109172
 10
-54.7504172662
 20
-106.1621613319
 10
-54.75
 20
-106.1618058126
  0
LWPOLYLINE
  5
271
100
AcDbEntity
  8
RACCORDO
100
AcDbPolyline
 62
253
  6
CONTINUOUS
 90
16
 70
0
 10
-52.6819920854
 20
-105.8592332533
 10
-52.6881558969
 20
-105.859126679
 10
-52.6945173939
 20
-105.8590648211
 10
-52.7009703991
 20
-105.8590487121
 10
-52.7074072078
 20
-105.8590786209
 10
-52.7137203854
 20
-105.8591540483
 10
-52.7198045611
 20
-105.8592737353
 10
-52.725558186
 20
-105.8594356842
 10
-52.7308852287
 20
-105.8596371921
 10
-52.7356967772
 20
-105.8598748956
 10
-52.7399125239
 20
-105.8601448272
 10
-52.7434621052
 20
-105.8604424818
 10
-52.7462862764
 20
-105.8607628913
 10
-52.7483379002
 20
-105.8611007079
 10
-52.7495827338
 20
-105.8614502933
 10
-52.75
 20
-105.8618058126
  0
LWPOLYLINE
  5
272
100
AcDbEntity
  8
RACCORDO
100
AcDbPolyline
 62
253
  6
CONTINUOUS
 90
19
 70
0
 10
-53.9025725594
 20
-107.0798137281
 10
-53.915565727
 20
-107.0792577076
 10
-53.9283762398
 20
-107.0776183893
 10
-53.9409690431
 20
-107.0749027134
 10
-53.9533650526
 20
-107.0711015244
 10
-53.9654734463
 20
-107.0662377879
 10
-53.9770949263
 20
-107.0603729434
 10
-53.9881958366
 20
-107.0535154103
 10
-53.9987505623
 20
-107.0456845712
 10
-54.0085814518
 20
-107.0369686204
 10
-54.0176836037
 20
-107.0273606332
 10
-54.0260210564
 20
-107.0169017328
 10
-54.0333869526
 20
-107.0057605678
 10
-54.0397796767
 20
-106.9939553489
 10
-54.0451934605
 20
-106.9815034885
 10
-54.049439556
 20
-106.9685775671
 10
-54.052470003
 20
-106.9552448732
 10
-54.0543654683
 20
-106.9414636983
 10
-54.0551451187
 20
-106.9272411688
  0
LWPOLYLINE
  5
273
100
AcDbEntity
  8
RACCORDO
100
AcDbPolyline
 62
253
  6
CONTINUOUS
 90
19
 70
0
 10
-53.5974274406
 20
-104.943797897
 10
-53.584434273
 20
-104.9443539175
 10
-53.5716237602
 20
-104.9459932358
 10
-53.5590309569
 20
-104.9487089118
 10
-53.5466349474
 20
-104.9525101007
 10
-53.5345265537
 20
-104.9573738372
 10
-53.5229050737
 20
-104.9632386818
 10
-53.5118041634
 20
-104.9700962148
 10
-53.5012494377
 20
-104.9779270539
 10
-53.4914185482
 20
-104.9866430048
 10
-53.4823163963
 20
-104.9962509919
 10
-53.4739789436
 20
-105.0067098923
 10
-53.4666130474
 20
-105.0178510573
 10
-53.4602203233
 20
-105.0296562762
 10
-53.4548065395
 20
-105.0421081367
 10
-53.450560444
 20
-105.0550340581
 10
-53.447529997
 20
-105.068366752
 10
-53.4456345317
 20
-105.0821479268
 10
-53.4448548813
 20
-105.0963704564
  0
LWPOLYLINE
  5
274
100
AcDbEntity
  8
RACCORDO
100
AcDbPolyline
 62
253
  6
CONTINUOUS
 90
19
 70
0
 10
-54.6654353562
 20
-106.3169509313
 10
-54.6795827833
 20
-106.3161914045
 10
-54.6933217343
 20
-106.3143081624
 10
-54.7066450571
 20
-106.3112807437
 10
-54.7196073777
 20
-106.3070254312
 10
-54.7321281366
 20
-106.3015900743
 10
-54.7439954499
 20
-106.2951680099
 10
-54.7551827763
 20
-106.2877605984
 10
-54.7656805297
 20
-106.2793742536
 10
-54.7753080322
 20
-106.2702367923
 10
-54.7840154006
 20
-106.2603927134
 10
-54.7918192522
 20
-106.2498407165
 10
-54.7986476264
 20
-106.2387574932
 10
-54.8044832952
 20
-106.2271781457
 10
-54.8093169048
 20
-106.2151271374
 10
-54.8130975503
 20
-106.2027734443
 10
-54.8158049441
 20
-106.1901972373
 10
-54.8174442398
 20
-106.1773872838
 10
-54.8180079156
 20
-106.1643783719
  0
LWPOLYLINE
  5
275
100
AcDbEntity
  8
RACCORDO
100
AcDbPolyline
 62
253
  6
CONTINUOUS
 90
19
 70
0
 10
-52.8345646438
 20
-105.7066606938
 10
-52.8204172167
 20
-105.7074202206
 10
-52.8066782657
 20
-105.7093034627
 10
-52.7933549429
 20
-105.7123308815
 10
-52.7803926223
 20
-105.7165861939
 10
-52.7678718634
 20
-105.7220215508
 10
-52.7560045501
 20
-105.7284436152
 10
-52.7448172237
 20
-105.7358510268
 10
-52.7343194703
 20
-105.7442373715
 10
-52.7246919678
 20
-105.7533748329
 10
-52.7159845994
 20
-105.7632189118
 10
-52.7081807478
 20
-105.7737709086
 10
-52.7013523736
 20
-105.7848541319
 10
-52.6955167048
 20
-105.7964334795
 10
-52.6906830952
 20
-105.8084844877
 10
-52.6869024497
 20
-105.8208381808
 10
-52.6841950559
 20
-105.8334143878
 10
-52.6825557602
 20
-105.8462243413
 10
-52.6819920844
 20
-105.8592332532
  0
LINE
  5
276
100
AcDbEntity
  8
0
100
AcDbLine
 62
7
  6
CONTINUOUS
 10
-149.5087655104
 20
-132.6426801596
 11
-149.4640350464
 21
-132.5118058126
  0
LWPOLYLINE
  5
277
100
AcDbEntity
  8
0
100
AcDbPolyline
 62
7
  6
CONTINUOUS
 90
4
 70
0
 10
-149.6427878839
 20
-133.0122517884
 10
-149.598146377
 20
-132.8950731535
 10
-149.5534692873
 20
-132.7711675391
 10
-149.5087655104
 20
-132.6426801596
  0
LWPOLYLINE
  5
278
100
AcDbEntity
  8
0
100
AcDbPolyline
 62
7
  6
CONTINUOUS
 90
9
 70
0
 10
-150.0
 20
-133.5118058126
 10
-149.9552695359
 20
-133.5032047763
 10
-149.9105657591
 20
-133.4775860644
 10
-149.8658886693
 20
-133.435443266
 10
-149.8212471625
 20
-133.3775735789
 10
-149.7766323429
 20
-133.3050023567
 10
-149.7320175232
 20
-133.2189125938
 10
-149.6874027035
 20
-133.1207715278
 10
-149.6427878839
 20
-133.0122517884
  0
LWPOLYLINE
  5
279
100
AcDbEntity
  8
RACCORDO
100
AcDbPolyline
 62
253
  6
CONTINUOUS
 90
16
 70
0
 10
-52.68199362
 20
-106.1643781527
 10
-52.6881574584
 20
-106.1644847301
 10
-52.6945190825
 20
-106.1645465936
 10
-52.7009722968
 20
-106.1645627102
 10
-52.7074093771
 20
-106.1645328109
 10
-52.7137228683
 20
-106.1644573946
 10
-52.7198073785
 20
-106.1643377198
 10
-52.7255613382
 20
-106.1641757843
 10
-52.7308886958
 20
-106.163974291
 10
-52.7357005212
 20
-106.1637366031
 10
-52.7399164897
 20
-106.1634666883
 10
-52.7434662238
 20
-106.1631690519
 10
-52.7462904672
 20
-106.1628486623
 10
-52.7483420745
 20
-106.1625108674
 10
-52.749586798
 20
-106.1621613058
 10
-52.7500038592
 20
-106.1618058127
  0
LWPOLYLINE
  5
27A
100
AcDbEntity
  8
RACCORDO
100
AcDbPolyline
 62
253
  6
CONTINUOUS
 90
16
 70
0
 10
-54.81800638
 20
-105.8592334724
 10
-54.8118425416
 20
-105.859126895
 10
-54.8054809175
 20
-105.8590650316
 10
-54.7990277032
 20
-105.8590489149
 10
-54.7925906229
 20
-105.8590788142
 10
-54.7862771317
 20
-105.8591542306
 10
-54.7801926215
 20
-105.8592739053
 10
-54.7744386618
 20
-105.8594358408
 10
-54.7691113042
 20
-105.8596373342
 10
-54.7642994788
 20
-105.859875022
 10
-54.7600835103
 20
-105.8601449369
 10
-54.7565337762
 20
-105.8604425732
 10
-54.7537095328
 20
-105.8607629629
 10
-54.7516579255
 20
-105.8611007578
 10
-54.750413202
 20
-105.8614503193
 10
-54.7499961408
 20
-105.8618058125
  0
LWPOLYLINE
  5
27B
100
AcDbEntity
  8
RACCORDO
100
AcDbPolyline
 62
253
  6
CONTINUOUS
 90
22
 70
0
 10
-53.3939973615
 20
-106.3169509313
 10
-53.396683856
 20
-106.3169904609
 10
-53.3994383382
 20
-106.317216703
 10
-53.4022616311
 20
-106.3176268988
 10
-53.405168136
 20
-106.3181987007
 10
-53.4081457761
 20
-106.3189487774
 10
-53.4111569176
 20
-106.3199333956
 10
-53.4142163046
 20
-106.3211514442
 10
-53.4173155158
 20
-106.3225994812
 10
-53.4203849032
 20
-106.3243325326
 10
-53.4234464775
 20
-106.3263592969
 10
-53.4264903943
 20
-106.3286704622
 10
-53.429402327
 20
-106.3312991502
 10
-53.432205778
 20
-106.3342736265
 10
-53.4348955383
 20
-106.3375726953
 10
-53.437314667
 20
-106.3411630759
 10
-53.4394655125
 20
-106.3450931213
 10
-53.4413640685
 20
-106.3493306346
 10
-53.4428663891
 20
-106.3537278988
 10
-53.4439229287
 20
-106.3582422771
 10
-53.4445854569
 20
-106.3629335557
 10
-53.4448548813
 20
-106.3678084511
  0
LWPOLYLINE
  5
27C
100
AcDbEntity
  8
RACCORDO
100
AcDbPolyline
 62
253
  6
CONTINUOUS
 90
22
 70
0
 10
-54.1060026385
 20
-105.7066606938
 10
-54.103316144
 20
-105.7066211642
 10
-54.1005616618
 20
-105.7063949221
 10
-54.0977383689
 20
-105.7059847264
 10
-54.094831864
 20
-105.7054129245
 10
-54.0918542239
 20
-105.7046628477
 10
-54.0888430824
 20
-105.7036782295
 10
-54.0857836954
 20
-105.7024601809
 10
-54.0826844842
 20
-105.7010121439
 10
-54.0796150968
 20
-105.6992790925
 10
-54.0765535225
 20
-105.6972523282
 10
-54.0735096057
 20
-105.6949411629
 10
-54.070597673
 20
-105.6923124749
 10
-54.067794222
 20
-105.6893379986
 10
-54.0651044617
 20
-105.6860389298
 10
-54.062685333
 20
-105.6824485492
 10
-54.0605344875
 20
-105.6785185038
 10
-54.0586359315
 20
-105.6742809906
 10
-54.0571336109
 20
-105.6698837263
 10
-54.0560770713
 20
-105.665369348
 10
-54.0554145431
 20
-105.6606780695
 10
-54.0551451187
 20
-105.655803174
  0
LWPOLYLINE
  5
27D
100
AcDbEntity
  8
RACCORDO
100
AcDbPolyline
 62
253
  6
CONTINUOUS
 90
13
 70
0
 10
-54.0551448794
 20
-105.0963711736
 10
-54.0481797235
 20
-105.0962988689
 10
-54.0412498334
 20
-105.096527838
 10
-54.0344898458
 20
-105.0970536325
 10
-54.0280310964
 20
-105.097866037
 10
-54.0219990683
 20
-105.0989492677
 10
-54.016510954
 20
-105.1002822791
 10
-54.0116733789
 20
-105.101839173
 10
-54.0075803292
 20
-105.1035897014
 10
-54.0043113264
 20
-105.1054998542
 10
-54.0019298819
 20
-105.1075325202
 10
-54.0004822633
 20
-105.1096482078
 10
-53.9999965956
 20
-105.1118058128
  0
LWPOLYLINE
  5
27E
100
AcDbEntity
  8
RACCORDO
100
AcDbPolyline
 62
253
  6
CONTINUOUS
 90
13
 70
0
 10
-54.055145118
 20
-105.6558031749
 10
-54.0481801395
 20
-105.6557751382
 10
-54.0412505136
 20
-105.6558642531
 10
-54.0344908548
 20
-105.6560687885
 10
-54.0280324759
 20
-105.6563847711
 10
-54.0220008372
 20
-105.6568060626
 10
-54.0165131089
 20
-105.6573244791
 10
-54.0116758955
 20
-105.6579299498
 10
-54.0075831644
 20
-105.6586107129
 10
-54.0043144208
 20
-105.6593535438
 10
-54.0019331632
 20
-105.6601440123
 10
-54.0004856498
 20
-105.6609667628
 10
-54.0
 20
-105.6618058126
  0
LINE
  5
27F
100
AcDbEntity
  8
RACCORDO
100
AcDbLine
 62
253
  6
CONTINUOUS
 10
-53.1491314028
 20
-105.7067679696
 11
-53.1119503145
 21
-105.7066538294
  0
LINE
  5
280
100
AcDbEntity
  8
RACCORDO
100
AcDbLine
 62
253
  6
CONTINUOUS
 10
-54.2070466794
 20
-105.7066606939
 11
-54.172193782
 21
-105.7065556725
  0
LINE
  5
281
100
AcDbEntity
  8
RACCORDO
100
AcDbLine
 62
253
  6
CONTINUOUS
 10
-53.3939973615
 20
-105.7066606938
 11
-53.3622634604
 21
-105.7065632562
  0
LINE
  5
282
100
AcDbEntity
  8
RACCORDO
100
AcDbLine
 62
7
  6
CONTINUOUS
 10
-53.9
 20
-105.0118058126
 11
-53.6
 21
-105.0118058126
  0
LINE
  5
283
100
AcDbEntity
  8
RACCORDO
100
AcDbLine
 62
7
  6
CONTINUOUS
 10
53.6
 20
-105.0118058126
 11
53.9
 21
-105.0118058126
  0
LINE
  5
284
100
AcDbEntity
  8
RACCORDO
100
AcDbLine
 62
253
  6
CONTINUOUS
 10
-53.9025725594
 20
-104.943797897
 11
-53.5974274406
 21
-104.943797897
  0
LINE
  5
285
100
AcDbEntity
  8
RACCORDO
100
AcDbLine
 62
253
  6
CONTINUOUS
 10
53.5974274406
 20
-104.943797897
 11
53.9025725594
 21
-104.943797897
  0
LINE
  5
286
100
AcDbEntity
  8
0
100
AcDbLine
 62
253
  6
CONTINUOUS
 10
-149.85
 20
-95.2618058126
 11
-150.0
 21
-95.2618058126
  0
LINE
  5
287
100
AcDbEntity
  8
0
100
AcDbLine
 62
253
  6
CONTINUOUS
 10
149.85
 20
-95.2618058126
 11
150.0
 21
-95.2618058126
  0
LINE
  5
288
100
AcDbEntity
  8
0
100
AcDbLine
 62
7
  6
CONTINUOUS
 10
-150.0
 20
-92.5118058126
 11
-149.85
 21
-92.5118058126
  0
LINE
  5
289
100
AcDbEntity
  8
0
100
AcDbLine
 62
7
  6
CONTINUOUS
 10
150.0
 20
-92.5118058126
 11
149.85
 21
-92.5118058126
  0
LWPOLYLINE
  5
28A
100
AcDbEntity
  8
RACCORDO
100
AcDbPolyline
 62
253
  6
CONTINUOUS
 90
3
 70
0
 10
53.2191340463
 20
-105.7064962387
 10
53.256614313
 20
-105.7066062744
 10
53.2929533206
 20
-105.7066606939
  0
LINE
  5
28B
100
AcDbEntity
  8
RACCORDO
100
AcDbLine
 62
253
  6
CONTINUOUS
 10
54.276915361
 20
-105.7065277126
 11
54.3508685972
 21
-105.7067679696
  0
LWPOLYLINE
  5
28C
100
AcDbEntity
  8
RACCORDO
100
AcDbPolyline
 62
253
  6
CONTINUOUS
 90
13
 70
0
 10
54.0551451137
 20
-105.65580318
 10
54.0481806789
 20
-105.6557752289
 10
54.0412516371
 20
-105.6558644142
 10
54.0344925809
 20
-105.6560690033
 10
54.0280348009
 20
-105.6563850223
 10
54.0220037359
 20
-105.6568063324
 10
54.0165165356
 20
-105.6573247502
 10
54.0116797858
 20
-105.6579302058
 10
54.0075874375
 20
-105.6586109387
 10
54.0043189822
 20
-105.6593537265
 10
54.0019379077
 20
-105.6601441411
 10
54.0004904651
 20
-105.6609668295
 10
54.0000047699
 20
-105.6618058118
  0
LWPOLYLINE
  5
28D
100
AcDbEntity
  8
RACCORDO
100
AcDbPolyline
 62
253
  6
CONTINUOUS
 90
13
 70
0
 10
54.0551451151
 20
-105.0963704672
 10
54.0481801392
 20
-105.0962983729
 10
54.0412505158
 20
-105.0965275253
 10
54.0344908593
 20
-105.0970534731
 10
54.0280324826
 20
-105.0978659991
 10
54.0220008455
 20
-105.0989493193
 10
54.0165131183
 20
-105.1002823892
 10
54.0116759052
 20
-105.1018393126
 10
54.0075831738
 20
-105.1035898448
 10
54.0043144291
 20
-105.1054999802
 10
54.0019331695
 20
-105.1075326126
 10
54.0004856534
 20
-105.1096482562
 10
54.0
 20
-105.1118058126
  0
LWPOLYLINE
  5
28E
100
AcDbEntity
  8
RACCORDO
100
AcDbPolyline
 62
253
  6
CONTINUOUS
 90
16
 70
0
 10
52.6819920854
 20
-106.1643783718
 10
52.6881558969
 20
-106.1644849462
 10
52.6945173939
 20
-106.1645468041
 10
52.7009703991
 20
-106.1645629131
 10
52.7074072078
 20
-106.1645330042
 10
52.7137203854
 20
-106.1644575768
 10
52.7198045611
 20
-106.1643378898
 10
52.725558186
 20
-106.1641759409
 10
52.7308852287
 20
-106.1639744331
 10
52.7356967772
 20
-106.1637367296
 10
52.7399125239
 20
-106.1634667979
 10
52.7434621052
 20
-106.1631691433
 10
52.7462862764
 20
-106.1628487338
 10
52.7483379002
 20
-106.1625109172
 10
52.7495827338
 20
-106.1621613319
 10
52.75
 20
-106.1618058126
  0
LWPOLYLINE
  5
28F
100
AcDbEntity
  8
RACCORDO
100
AcDbPolyline
 62
253
  6
CONTINUOUS
 90
16
 70
0
 10
54.8180079146
 20
-105.8592332533
 10
54.8118441031
 20
-105.859126679
 10
54.8054826061
 20
-105.8590648211
 10
54.7990296009
 20
-105.8590487121
 10
54.7925927922
 20
-105.8590786209
 10
54.7862796146
 20
-105.8591540483
 10
54.7801954389
 20
-105.8592737353
 10
54.774441814
 20
-105.8594356842
 10
54.7691147713
 20
-105.8596371921
 10
54.7643032228
 20
-105.8598748956
 10
54.7600874761
 20
-105.8601448272
 10
54.7565378948
 20
-105.8604424818
 10
54.7537137236
 20
-105.8607628913
 10
54.7516620998
 20
-105.8611007079
 10
54.7504172662
 20
-105.8614502933
 10
54.75
 20
-105.8618058126
  0
LWPOLYLINE
  5
290
100
AcDbEntity
  8
RACCORDO
100
AcDbPolyline
 62
253
  6
CONTINUOUS
 90
19
 70
0
 10
53.5974274406
 20
-107.0798137281
 10
53.584434273
 20
-107.0792577076
 10
53.5716237602
 20
-107.0776183893
 10
53.5590309569
 20
-107.0749027134
 10
53.5466349474
 20
-107.0711015244
 10
53.5345265537
 20
-107.0662377879
 10
53.5229050737
 20
-107.0603729434
 10
53.5118041634
 20
-107.0535154103
 10
53.5012494377
 20
-107.0456845712
 10
53.4914185482
 20
-107.0369686204
 10
53.4823163963
 20
-107.0273606332
 10
53.4739789436
 20
-107.0169017328
 10
53.4666130474
 20
-107.0057605678
 10
53.4602203233
 20
-106.9939553489
 10
53.4548065395
 20
-106.9815034885
 10
53.450560444
 20
-106.9685775671
 10
53.447529997
 20
-106.9552448732
 10
53.4456345317
 20
-106.9414636983
 10
53.4448548813
 20
-106.9272411688
  0
LWPOLYLINE
  5
291
100
AcDbEntity
  8
RACCORDO
100
AcDbPolyline
 62
253
  6
CONTINUOUS
 90
19
 70
0
 10
53.9025725594
 20
-104.943797897
 10
53.915565727
 20
-104.9443539175
 10
53.9283762398
 20
-104.9459932358
 10
53.9409690431
 20
-104.9487089118
 10
53.9533650526
 20
-104.9525101007
 10
53.9654734463
 20
-104.9573738372
 10
53.9770949263
 20
-104.9632386818
 10
53.9881958366
 20
-104.9700962148
 10
53.9987505623
 20
-104.9779270539
 10
54.0085814518
 20
-104.9866430048
 10
54.0176836037
 20
-104.9962509919
 10
54.0260210564
 20
-105.0067098923
 10
54.0333869526
 20
-105.0178510573
 10
54.0397796767
 20
-105.0296562762
 10
54.0451934605
 20
-105.0421081367
 10
54.049439556
 20
-105.0550340581
 10
54.052470003
 20
-105.068366752
 10
54.0543654683
 20
-105.0821479268
 10
54.0551451187
 20
-105.0963704564
  0
LWPOLYLINE
  5
292
100
AcDbEntity
  8
RACCORDO
100
AcDbPolyline
 62
253
  6
CONTINUOUS
 90
19
 70
0
 10
52.8345646438
 20
-106.3169509313
 10
52.8204172167
 20
-106.3161914045
 10
52.8066782657
 20
-106.3143081624
 10
52.7933549429
 20
-106.3112807437
 10
52.7803926223
 20
-106.3070254312
 10
52.7678718634
 20
-106.3015900743
 10
52.7560045501
 20
-106.2951680099
 10
52.7448172237
 20
-106.2877605984
 10
52.7343194703
 20
-106.2793742536
 10
52.7246919678
 20
-106.2702367923
 10
52.7159845994
 20
-106.2603927134
 10
52.7081807478
 20
-106.2498407165
 10
52.7013523736
 20
-106.2387574932
 10
52.6955167048
 20
-106.2271781457
 10
52.6906830952
 20
-106.2151271374
 10
52.6869024497
 20
-106.2027734443
 10
52.6841950559
 20
-106.1901972373
 10
52.6825557602
 20
-106.1773872838
 10
52.6819920844
 20
-106.1643783719
  0
LWPOLYLINE
  5
293
100
AcDbEntity
  8
RACCORDO
100
AcDbPolyline
 62
253
  6
CONTINUOUS
 90
19
 70
0
 10
54.6654353562
 20
-105.7066606938
 10
54.6795827833
 20
-105.7074202206
 10
54.6933217343
 20
-105.7093034627
 10
54.7066450571
 20
-105.7123308815
 10
54.7196073777
 20
-105.7165861939
 10
54.7321281366
 20
-105.7220215508
 10
54.7439954499
 20
-105.7284436152
 10
54.7551827763
 20
-105.7358510268
 10
54.7656805297
 20
-105.7442373715
 10
54.7753080322
 20
-105.7533748329
 10
54.7840154006
 20
-105.7632189118
 10
54.7918192522
 20
-105.7737709086
 10
54.7986476264
 20
-105.7848541319
 10
54.8044832952
 20
-105.7964334795
 10
54.8093169048
 20
-105.8084844877
 10
54.8130975503
 20
-105.8208381808
 10
54.8158049441
 20
-105.8334143878
 10
54.8174442398
 20
-105.8462243413
 10
54.8180079156
 20
-105.8592332532
  0
LWPOLYLINE
  5
294
100
AcDbEntity
  8
0
100
AcDbPolyline
 62
7
  6
CONTINUOUS
 90
9
 70
0
 10
-149.6426900309
 20
119.6118058126
 10
-149.682422093
 20
119.7277648625
 10
-149.7221386779
 20
119.8422249663
 10
-149.7618397856
 20
119.9536359791
 10
-149.8015150979
 20
120.0605246984
 10
-149.841174933
 20
120.1613898567
 10
-149.8808502454
 20
120.2547482739
 10
-149.920551353
 20
120.339318171
 10
-149.9602679379
 20
120.4140094797
  0
LINE
  5
295
100
AcDbEntity
  8
RACCORDO
100
AcDbLine
 62
7
  6
CONTINUOUS
 10
-58.5
 20
-86.0118058126
 11
58.5
 21
-86.0118058126
  0
LINE
  5
296
100
AcDbEntity
  8
0
100
AcDbLine
 62
7
  6
CONTINUOUS
 10
-149.0
 20
118.4986340255
 11
-149.6426900309
 21
119.6118058126
  0
LWPOLYLINE
  5
297
100
AcDbEntity
  8
RACCORDO
100
AcDbPolyline
 62
253
  6
CONTINUOUS
 90
22
 70
0
 10
-54.0551451187
 20
-106.3678084511
 10
-54.0554014991
 20
-106.3629758881
 10
-54.0560567792
 20
-106.3583102248
 10
-54.0571112485
 20
-106.3538048625
 10
-54.0586164021
 20
-106.3493935524
 10
-54.0605216172
 20
-106.3451254889
 10
-54.0626818594
 20
-106.3411678784
 10
-54.0651151212
 20
-106.3375584512
 10
-54.067822138
 20
-106.3342430082
 10
-54.0706402661
 20
-106.3312573374
 10
-54.0735631366
 20
-106.3286246945
 10
-54.076615791
 20
-106.326314883
 10
-54.0796822145
 20
-106.324291541
 10
-54.082752518
 20
-106.3225638298
 10
-54.0858488006
 20
-106.3211234324
 10
-54.0888997776
 20
-106.3199129533
 10
-54.0918922123
 20
-106.3189359171
 10
-54.0948455618
 20
-106.3181936718
 10
-54.097734842
 20
-106.3176275259
 10
-54.1005522152
 20
-106.3172197555
 10
-54.1033078663
 20
-106.3169933552
 10
-54.1060026385
 20
-106.3169509313
  0
LWPOLYLINE
  5
298
100
AcDbEntity
  8
RACCORDO
100
AcDbPolyline
 62
253
  6
CONTINUOUS
 90
22
 70
0
 10
-53.4448548813
 20
-105.655803174
 10
-53.4445985009
 20
-105.6606357371
 10
-53.4439432208
 20
-105.6653014003
 10
-53.4428887515
 20
-105.6698067627
 10
-53.4413835979
 20
-105.6742180727
 10
-53.4394783828
 20
-105.6784861362
 10
-53.4373181406
 20
-105.6824437468
 10
-53.4348848788
 20
-105.686053174
 10
-53.432177862
 20
-105.6893686169
 10
-53.4293597339
 20
-105.6923542877
 10
-53.4264368634
 20
-105.6949869306
 10
-53.423384209
 20
-105.6972967422
 10
-53.4203177855
 20
-105.6993200841
 10
-53.417247482
 20
-105.7010477953
 10
-53.4141511994
 20
-105.7024881928
 10
-53.4111002224
 20
-105.7036986718
 10
-53.4081077877
 20
-105.704675708
 10
-53.4051544382
 20
-105.7054179533
 10
-53.402265158
 20
-105.7059840992
 10
-53.3994477848
 20
-105.7063918696
 10
-53.3966921337
 20
-105.7066182699
 10
-53.3939973615
 20
-105.7066606938
  0
LWPOLYLINE
  5
299
100
AcDbEntity
  8
RACCORDO
100
AcDbPolyline
 62
253
  6
CONTINUOUS
 90
16
 70
0
 10
-53.9025723548
 20
-107.0798122951
 10
-53.9026789312
 20
-107.0736484584
 10
-53.9027407936
 20
-107.0672868426
 10
-53.9027569092
 20
-107.0608336418
 10
-53.9027270088
 20
-107.0543965792
 10
-53.9026515914
 20
-107.0480831084
 10
-53.9025319157
 20
-107.0419986199
 10
-53.9023699793
 20
-107.0362446819
 10
-53.9021684851
 20
-107.0309173447
 10
-53.9019307964
 20
-107.0261055373
 10
-53.9016608807
 20
-107.0218895832
 10
-53.9013632435
 20
-107.018339859
 10
-53.901042853
 20
-107.0155156202
 10
-53.9007050571
 20
-107.0134640117
 10
-53.9003554945
 20
-107.012219281
 10
-53.9000000001
 20
-107.0118022063
  0
LWPOLYLINE
  5
29A
100
AcDbEntity
  8
RACCORDO
100
AcDbPolyline
 62
253
  6
CONTINUOUS
 90
16
 70
0
 10
-53.5974276452
 20
-104.94379933
 10
-53.5973210688
 20
-104.9499631667
 10
-53.5972592064
 20
-104.9563247826
 10
-53.5972430908
 20
-104.9627779833
 10
-53.5972729912
 20
-104.969215046
 10
-53.5973484086
 20
-104.9755285168
 10
-53.5974680843
 20
-104.9816130053
 10
-53.5976300207
 20
-104.9873669432
 10
-53.5978315149
 20
-104.9926942804
 10
-53.5980692036
 20
-104.9975060878
 10
-53.5983391193
 20
-105.001722042
 10
-53.5986367565
 20
-105.0052717662
 10
-53.598957147
 20
-105.008096005
 10
-53.5992949429
 20
-105.0101476134
 10
-53.5996445055
 20
-105.0113923441
 10
-53.5999999999
 20
-105.0118094188
  0
LWPOLYLINE
  5
29B
100
AcDbEntity
  8
RACCORDO
100
AcDbPolyline
 62
253
  6
CONTINUOUS
 90
13
 70
0
 10
-54.6654346972
 20
-106.3169507115
 10
-54.6655069862
 20
-106.3099855689
 10
-54.6652780032
 20
-106.3030556988
 10
-54.664752197
 20
-106.2962957361
 10
-54.6639397831
 20
-106.2898370146
 10
-54.6628565453
 20
-106.2838050159
 10
-54.661523529
 20
-106.2783169309
 10
-54.6599666323
 20
-106.2734793831
 10
-54.6582161031
 20
-106.2693863575
 10
-54.656305951
 20
-106.2661173743
 10
-54.6542732869
 20
-106.2637359439
 10
-54.6521576018
 20
-106.2622883333
 10
-54.6499999999
 20
-106.2618026669
  0
LWPOLYLINE
  5
29C
100
AcDbEntity
  8
RACCORDO
100
AcDbPolyline
 62
253
  6
CONTINUOUS
 90
13
 70
0
 10
-52.8345653028
 20
-105.7066609137
 10
-52.8344930138
 20
-105.7136260562
 10
-52.8347219968
 20
-105.7205559263
 10
-52.835247803
 20
-105.7273158891
 10
-52.8360602169
 20
-105.7337746105
 10
-52.8371434547
 20
-105.7398066092
 10
-52.838476471
 20
-105.7452946942
 10
-52.8400333677
 20
-105.750132242
 10
-52.8417838969
 20
-105.7542252676
 10
-52.843694049
 20
-105.7574942508
 10
-52.8457267131
 20
-105.7598756812
 10
-52.8478423982
 20
-105.7613232918
 10
-52.8500000001
 20
-105.7618089582
  0
LWPOLYLINE
  5
29D
100
AcDbEntity
  8
RACCORDO
100
AcDbPolyline
 62
253
  6
CONTINUOUS
 90
13
 70
0
 10
-54.1060026374
 20
-106.3169509303
 10
-54.1060306741
 20
-106.3099859521
 10
-54.1059415592
 20
-106.3030563264
 10
-54.1057370239
 20
-106.2962966677
 10
-54.1054210413
 20
-106.2898382891
 10
-54.1049997498
 20
-106.2838066505
 10
-54.1044813335
 20
-106.2783189223
 10
-54.1038758629
 20
-106.2734817089
 10
-54.1031950999
 20
-106.2693889778
 10
-54.1024522691
 20
-106.2661202341
 10
-54.1016618006
 20
-106.2637389764
 10
-54.10083905
 20
-106.2622914627
 10
-54.1
 20
-106.2618058126
  0
LWPOLYLINE
  5
29E
100
AcDbEntity
  8
RACCORDO
100
AcDbPolyline
 62
253
  6
CONTINUOUS
 90
13
 70
0
 10
-53.3939973626
 20
-105.7066606948
 10
-53.3939693259
 20
-105.7136256731
 10
-53.3940584408
 20
-105.7205552988
 10
-53.3942629761
 20
-105.7273149574
 10
-53.3945789587
 20
-105.7337733361
 10
-53.3950002502
 20
-105.7398049747
 10
-53.3955186665
 20
-105.7452927028
 10
-53.3961241371
 20
-105.7501299162
 10
-53.3968049001
 20
-105.7542226474
 10
-53.3975477309
 20
-105.757491391
 10
-53.3983381994
 20
-105.7598726488
 10
-53.39916095
 20
-105.7613201624
 10
-53.4
 20
-105.7618058126
  0
LINE
  5
29F
100
AcDbEntity
  8
RACCORDO
100
AcDbLine
 62
7
  6
CONTINUOUS
 10
-60.0
 20
-124.5118058126
 11
-60.0
 21
-87.5118058126
  0
LINE
  5
2A0
100
AcDbEntity
  8
0
100
AcDbLine
 62
7
  6
CONTINUOUS
 10
-55.5
 20
-120.0118058126
 11
-55.5
 21
-107.7963384365
  0
LINE
  5
2A1
100
AcDbEntity
  8
0
100
AcDbLine
 62
7
  6
CONTINUOUS
 10
-55.5
 20
-104.2272731886
 11
-55.5
 21
-92.0118058126
  0
LINE
  5
2A2
100
AcDbEntity
  8
RACCORDO
100
AcDbLine
 62
253
  6
CONTINUOUS
 10
-54.8180079156
 20
-106.1643783719
 11
-54.8180079156
 21
-105.8592332532
  0
LINE
  5
2A3
100
AcDbEntity
  8
RACCORDO
100
AcDbLine
 62
7
  6
CONTINUOUS
 10
-54.75
 20
-106.1618058126
 11
-54.75
 21
-105.8618058126
  0
LINE
  5
2A4
100
AcDbEntity
  8
RACCORDO
100
AcDbLine
 62
7
  6
CONTINUOUS
 10
-54.0
 20
-106.9118058126
 11
-54.0
 21
-106.3618058126
  0
LINE
  5
2A5
100
AcDbEntity
  8
RACCORDO
100
AcDbLine
 62
7
  6
CONTINUOUS
 10
-54.0
 20
-105.6618058126
 11
-54.0
 21
-105.1118058126
  0
LINE
  5
2A6
100
AcDbEntity
  8
RACCORDO
100
AcDbLine
 62
7
  6
CONTINUOUS
 10
-53.5
 20
-105.1118058126
 11
-53.5
 21
-105.6618058126
  0
LINE
  5
2A7
100
AcDbEntity
  8
RACCORDO
100
AcDbLine
 62
7
  6
CONTINUOUS
 10
-53.5
 20
-106.3618058126
 11
-53.5
 21
-106.9118058126
  0
LINE
  5
2A8
100
AcDbEntity
  8
RACCORDO
100
AcDbLine
 62
7
  6
CONTINUOUS
 10
-52.75
 20
-105.8618058126
 11
-52.75
 21
-106.1618058126
  0
LINE
  5
2A9
100
AcDbEntity
  8
RACCORDO
100
AcDbLine
 62
253
  6
CONTINUOUS
 10
-52.6819920844
 20
-105.8592332532
 11
-52.6819920844
 21
-106.1643783719
  0
LINE
  5
2AA
100
AcDbEntity
  8
0
100
AcDbLine
 62
7
  6
CONTINUOUS
 10
-52.0
 20
-92.0118058126
 11
-52.0
 21
-104.2272731886
  0
LINE
  5
2AB
100
AcDbEntity
  8
0
100
AcDbLine
 62
7
  6
CONTINUOUS
 10
-52.0
 20
-107.7963384365
 11
-52.0
 21
-120.0118058126
  0
LINE
  5
2AC
100
AcDbEntity
  8
RACCORDO
100
AcDbLine
 62
253
  6
CONTINUOUS
 10
-54.0551184139
 20
-106.7102013141
 11
-54.0551831786
 21
-106.3968415362
  0
LINE
  5
2AD
100
AcDbEntity
  8
RACCORDO
100
AcDbLine
 62
253
  6
CONTINUOUS
 10
-53.4448815861
 20
-105.313410311
 11
-53.4448168214
 21
-105.6267700889
  0
LINE
  5
2AE
100
AcDbEntity
  8
RACCORDO
100
AcDbLine
 62
253
  6
CONTINUOUS
 10
-54.0551831786
 20
-106.3968415362
 11
-54.0551451187
 21
-106.3678084511
  0
LINE
  5
2AF
100
AcDbEntity
  8
RACCORDO
100
AcDbLine
 62
253
  6
CONTINUOUS
 10
-54.0551451187
 20
-105.655803174
 11
-54.0551226088
 21
-105.3130221631
  0
LINE
  5
2B0
100
AcDbEntity
  8
RACCORDO
100
AcDbLine
 62
253
  6
CONTINUOUS
 10
-53.4448168214
 20
-105.6267700889
 11
-53.4448548813
 21
-105.655803174
  0
LINE
  5
2B1
100
AcDbEntity
  8
RACCORDO
100
AcDbLine
 62
253
  6
CONTINUOUS
 10
-53.4448548813
 20
-106.3678084511
 11
-53.4448773912
 21
-106.710589462
  0
LINE
  5
2B2
100
AcDbEntity
  8
RACCORDO
100
AcDbLine
 62
253
  6
CONTINUOUS
 10
-54.0551226088
 20
-105.3130221631
 11
-54.0551451187
 21
-105.0963704564
  0
LINE
  5
2B3
100
AcDbEntity
  8
RACCORDO
100
AcDbLine
 62
253
  6
CONTINUOUS
 10
-53.4448773912
 20
-106.710589462
 11
-53.4448548813
 21
-106.9272411688
  0
LINE
  5
2B4
100
AcDbEntity
  8
RACCORDO
100
AcDbLine
 62
253
  6
CONTINUOUS
 10
-54.0551451187
 20
-106.9272411688
 11
-54.0551184139
 21
-106.7102013141
  0
LINE
  5
2B5
100
AcDbEntity
  8
RACCORDO
100
AcDbLine
 62
253
  6
CONTINUOUS
 10
-53.4448548813
 20
-105.0963704564
 11
-53.4448815861
 21
-105.313410311
  0
LWPOLYLINE
  5
2B6
100
AcDbEntity
  8
RACCORDO
100
AcDbPolyline
 62
253
  6
CONTINUOUS
 90
13
 70
0
 10
-54.1060026384
 20
-105.7066606939
 10
-54.1060306736
 20
-105.7136256611
 10
-54.1059415574
 20
-105.7205552747
 10
-54.1057370211
 20
-105.7273149208
 10
-54.1054210378
 20
-105.7337732868
 10
-54.104999746
 20
-105.7398049132
 10
-54.1044813294
 20
-105.74529263
 10
-54.103875859
 20
-105.7501298332
 10
-54.1031950965
 20
-105.7542225557
 10
-54.1024522663
 20
-105.7574912926
 10
-54.1016617986
 20
-105.7598725456
 10
-54.1008390489
 20
-105.7613200567
 10
-54.1
 20
-105.7618057067
  0
LWPOLYLINE
  5
2B7
100
AcDbEntity
  8
RACCORDO
100
AcDbPolyline
 62
253
  6
CONTINUOUS
 90
13
 70
0
 10
-53.3939973616
 20
-106.3169509312
 10
-53.3939693264
 20
-106.3099859641
 10
-53.3940584426
 20
-106.3030563504
 10
-53.3942629789
 20
-106.2962967044
 10
-53.3945789622
 20
-106.2898383383
 10
-53.395000254
 20
-106.2838067119
 10
-53.3955186706
 20
-106.2783189951
 10
-53.396124141
 20
-106.2734817919
 10
-53.3968049035
 20
-106.2693890694
 10
-53.3975477337
 20
-106.2661203326
 10
-53.3983382014
 20
-106.2637390795
 10
-53.3991609511
 20
-106.2622915684
 10
-53.4
 20
-106.2618059185
  0
LWPOLYLINE
  5
2B8
100
AcDbEntity
  8
RACCORDO
100
AcDbPolyline
 62
253
  6
CONTINUOUS
 90
13
 70
0
 10
-54.6654353479
 20
-105.7066606966
 10
-54.6655074422
 20
-105.7136256733
 10
-54.6652782897
 20
-105.7205552974
 10
-54.6647523419
 20
-105.7273149545
 10
-54.6639398157
 20
-105.7337733319
 10
-54.6628564953
 20
-105.7398049695
 10
-54.6615234251
 20
-105.745292697
 10
-54.6599665014
 20
-105.7501299101
 10
-54.6582159689
 20
-105.7542226415
 10
-54.6563058332
 20
-105.7574913859
 10
-54.6542732005
 20
-105.7598726449
 10
-54.6521575566
 20
-105.7613201602
 10
-54.65
 20
-105.7618058126
  0
LWPOLYLINE
  5
2B9
100
AcDbEntity
  8
RACCORDO
100
AcDbPolyline
 62
253
  6
CONTINUOUS
 90
16
 70
0
 10
-53.9025725586
 20
-104.9437979021
 10
-53.902679133
 20
-104.9499617127
 10
-53.9027409908
 20
-104.9563232087
 10
-53.9027570998
 20
-104.9627762128
 10
-53.902727191
 20
-104.9692130203
 10
-53.9026517636
 20
-104.9755261969
 10
-53.9025320766
 20
-104.9816103716
 10
-53.9023701277
 20
-104.9873639957
 10
-53.9021686199
 20
-104.9926910377
 10
-53.9019309165
 20
-104.9975025859
 10
-53.9016609849
 20
-105.0017183324
 10
-53.9013633304
 20
-105.0052679139
 10
-53.901042921
 20
-105.0080920856
 10
-53.9007051045
 20
-105.0101437102
 10
-53.9003555192
 20
-105.0113885449
 10
-53.9
 20
-105.0118058126
  0
LINE
  5
2BA
100
AcDbEntity
  8
0
100
AcDbLine
 62
7
  6
CONTINUOUS
 10
-149.4640350464
 20
-132.5118058126
 11
-149.0
 21
-131.7080735357
  0
LINE
  5
2BB
100
AcDbEntity
  8
0
100
AcDbLine
 62
7
  6
CONTINUOUS
 10
-149.9602679379
 20
120.4140094797
 11
-150.0
 21
120.4778312164
  0
LWPOLYLINE
  5
2BC
100
AcDbEntity
  8
RACCORDO
100
AcDbPolyline
 62
253
  6
CONTINUOUS
 90
13
 70
0
 10
-52.8345646521
 20
-106.3169509285
 10
-52.8344925578
 20
-106.3099859519
 10
-52.8347217103
 20
-106.3030563277
 10
-52.8352476581
 20
-106.2962966706
 10
-52.8360601843
 20
-106.2898382932
 10
-52.8371435047
 20
-106.2838066556
 10
-52.8384765749
 20
-106.2783189281
 10
-52.8400334986
 20
-106.273481715
 10
-52.8417840311
 20
-106.2693889836
 10
-52.8436941668
 20
-106.2661202392
 10
-52.8457267995
 20
-106.2637389803
 10
-52.8478424434
 20
-106.2622914649
 10
-52.85
 20
-106.2618058126
  0
LWPOLYLINE
  5
2BD
100
AcDbEntity
  8
RACCORDO
100
AcDbPolyline
 62
253
  6
CONTINUOUS
 90
16
 70
0
 10
-53.5974274414
 20
-107.079813723
 10
-53.597320867
 20
-107.0736499125
 10
-53.5972590092
 20
-107.0672884164
 10
-53.5972429002
 20
-107.0608354123
 10
-53.597272809
 20
-107.0543986048
 10
-53.5973482364
 20
-107.0480854282
 10
-53.5974679234
 20
-107.0420012535
 10
-53.5976298723
 20
-107.0362476294
 10
-53.5978313801
 20
-107.0309205874
 10
-53.5980690835
 20
-107.0261090393
 10
-53.5983390151
 20
-107.0218932927
 10
-53.5986366696
 20
-107.0183437112
 10
-53.598957079
 20
-107.0155195396
 10
-53.5992948955
 20
-107.0134679149
 10
-53.5996444808
 20
-107.0122230803
 10
-53.6
 20
-107.0118058126
  0
LWPOLYLINE
  5
2BE
100
AcDbEntity
  8
RACCORDO
100
AcDbPolyline
 62
253
  6
CONTINUOUS
 90
19
 70
0
 10
-54.8180079156
 20
-105.8592332532
 10
-54.8174380519
 20
-105.8461835242
 10
-54.8157901395
 20
-105.8333409319
 10
-54.8130720129
 20
-105.8207404263
 10
-54.8092789736
 20
-105.8083733495
 10
-54.8044315133
 20
-105.7963174661
 10
-54.798580212
 20
-105.7847344317
 10
-54.7917326214
 20
-105.7736449019
 10
-54.7839077613
 20
-105.7630880056
 10
-54.7751825471
 20
-105.7532446698
 10
-54.7655431522
 20
-105.7441162281
 10
-54.7550370075
 20
-105.7357440083
 10
-54.7438418642
 20
-105.7283512667
 10
-54.7319590112
 20
-105.7219423917
 10
-54.7194232123
 20
-105.7165208814
 10
-54.7064681212
 20
-105.7122811391
 10
-54.6931815578
 20
-105.7092704977
 10
-54.6795016026
 20
-105.707404053
 10
-54.6654353562
 20
-105.7066606938
  0
LWPOLYLINE
  5
2BF
100
AcDbEntity
  8
RACCORDO
100
AcDbPolyline
 62
253
  6
CONTINUOUS
 90
19
 70
0
 10
-52.6819920844
 20
-106.1643783719
 10
-52.6825619481
 20
-106.177428101
 10
-52.6842098605
 20
-106.1902706932
 10
-52.6869279871
 20
-106.2028711988
 10
-52.6907210264
 20
-106.2152382757
 10
-52.6955684867
 20
-106.2272941591
 10
-52.701419788
 20
-106.2388771934
 10
-52.7082673786
 20
-106.2499667232
 10
-52.7160922387
 20
-106.2605236195
 10
-52.7248174529
 20
-106.2703669553
 10
-52.7344568478
 20
-106.279495397
 10
-52.7449629925
 20
-106.2878676169
 10
-52.7561581359
 20
-106.2952603584
 10
-52.7680409888
 20
-106.3016692335
 10
-52.7805767877
 20
-106.3070907437
 10
-52.7935318788
 20
-106.3113304861
 10
-52.8068184422
 20
-106.3143411274
 10
-52.8204983974
 20
-106.3162075721
 10
-52.8345646438
 20
-106.3169509313
  0
LWPOLYLINE
  5
2C0
100
AcDbEntity
  8
RACCORDO
100
AcDbPolyline
 62
253
  6
CONTINUOUS
 90
19
 70
0
 10
-54.0551451187
 20
-105.0963704564
 10
-54.0543444521
 20
-105.0820499889
 10
-54.0524294732
 20
-105.0682009031
 10
-54.0493820028
 20
-105.0548303674
 10
-54.0451227639
 20
-105.0419064587
 10
-54.039700789
 20
-105.0294866222
 10
-54.0333043763
 20
-105.0177140168
 10
-54.0259393995
 20
-105.0065971711
 10
-54.0176074284
 20
-104.9961630076
 10
-54.0085133669
 20
-104.9865772175
 10
-53.9986912245
 20
-104.9778794533
 10
-53.9881476415
 20
-104.9700641481
 10
-53.977063758
 20
-104.9632207254
 10
-53.9654735938
 20
-104.9573702405
 10
-53.9534023854
 20
-104.9525188385
 10
-53.9410274244
 20
-104.9487239051
 10
-53.9284318961
 20
-104.94600778
 10
-53.9156019551
 20
-104.94436326
 10
-53.9025725594
 20
-104.943797897
  0
LWPOLYLINE
  5
2C1
100
AcDbEntity
  8
RACCORDO
100
AcDbPolyline
 62
253
  6
CONTINUOUS
 90
19
 70
0
 10
-53.4448548813
 20
-106.9272411688
 10
-53.4456555479
 20
-106.9415616363
 10
-53.4475705268
 20
-106.9554107221
 10
-53.4506179972
 20
-106.9687812577
 10
-53.4548772361
 20
-106.9817051665
 10
-53.460299211
 20
-106.9941250029
 10
-53.4666956237
 20
-107.0058976084
 10
-53.4740606005
 20
-107.0170144541
 10
-53.4823925716
 20
-107.0274486176
 10
-53.4914866331
 20
-107.0370344077
 10
-53.5013087755
 20
-107.0457321719
 10
-53.5118523585
 20
-107.053547477
 10
-53.522936242
 20
-107.0603908997
 10
-53.5345264062
 20
-107.0662413846
 10
-53.5465976146
 20
-107.0710927866
 10
-53.5589725756
 20
-107.07488772
 10
-53.5715681039
 20
-107.0776038452
 10
-53.5843980449
 20
-107.0792483652
 10
-53.5974274406
 20
-107.0798137281
  0
LWPOLYLINE
  5
2C2
100
AcDbEntity
  8
0
100
AcDbPolyline
 62
7
  6
CONTINUOUS
 90
6
 70
0
 10
-149.6426900309
 20
119.6118058126
 10
-149.6823990205
 20
119.6581625411
 10
-149.7221040692
 20
119.7039339554
 10
-149.7618051769
 20
119.7484997139
 10
-149.8014997163
 20
119.7912772365
 10
-149.8411903147
 20
119.8316545091
  0
LWPOLYLINE
  5
2C3
100
AcDbEntity
  8
0
100
AcDbPolyline
 62
7
  6
CONTINUOUS
 90
4
 70
0
 10
150.0
 20
119.9582159741
 10
149.9602910104
 20
119.9327034432
 10
149.9205859617
 20
119.9028386174
 10
149.8808848541
 20
119.8690139003
  0
LWPOLYLINE
  5
2C4
100
AcDbEntity
  8
0
100
AcDbPolyline
 62
7
  6
CONTINUOUS
 90
5
 70
0
 10
-149.8411903147
 20
119.8316545091
 10
-149.8808848541
 20
119.8690139003
 10
-149.9205859617
 20
119.9028386174
 10
-149.9602910104
 20
119.9327034432
 10
-150.0
 20
119.9582159741
  0
LWPOLYLINE
  5
2C5
100
AcDbEntity
  8
0
100
AcDbPolyline
 62
7
  6
CONTINUOUS
 90
7
 70
0
 10
149.8808848541
 20
119.8690139003
 10
149.8411903147
 20
119.8316545091
 10
149.8014997163
 20
119.7912772365
 10
149.7618051769
 20
119.7484997139
 10
149.7221040692
 20
119.7039339554
 10
149.6823990205
 20
119.6581625411
 10
149.6426900309
 20
119.6118058126
  0
LWPOLYLINE
  5
2C6
100
AcDbEntity
  8
0
100
AcDbPolyline
 62
7
  6
CONTINUOUS
 90
10
 70
0
 10
149.4640350464
 20
-132.5118058126
 10
149.523553059
 20
-132.5813384437
 10
149.5830878961
 20
-132.6487188653
 10
149.6426395576
 20
-132.7119025739
 10
149.7022192599
 20
-132.7689588977
 10
149.7618157865
 20
-132.8181916654
 10
149.8213954888
 20
-132.8581600909
 10
149.8809471503
 20
-132.8876446291
 10
149.9404819874
 20
-132.9057159714
 10
150.0
 20
-132.9118058126
  0
LWPOLYLINE
  5
2C7
100
AcDbEntity
  8
0
100
AcDbPolyline
 62
7
  6
CONTINUOUS
 90
5
 70
0
 10
149.8212471625
 20
-133.3775735789
 10
149.8658886693
 20
-133.435443266
 10
149.9105657591
 20
-133.4775860644
 10
149.9552695359
 20
-133.5032047763
 10
150.0
 20
-133.5118058126
  0
LWPOLYLINE
  5
2C8
100
AcDbEntity
  8
RACCORDO
100
AcDbPolyline
 62
253
  6
CONTINUOUS
 90
22
 70
0
 10
53.4448548813
 20
-106.3678084511
 10
53.4445985009
 20
-106.3629758881
 10
53.4439432208
 20
-106.3583102248
 10
53.4428887515
 20
-106.3538048625
 10
53.4413835979
 20
-106.3493935524
 10
53.4394783828
 20
-106.3451254889
 10
53.4373181406
 20
-106.3411678784
 10
53.4348848788
 20
-106.3375584512
 10
53.432177862
 20
-106.3342430082
 10
53.4293597339
 20
-106.3312573374
 10
53.4264368634
 20
-106.3286246945
 10
53.423384209
 20
-106.326314883
 10
53.4203177855
 20
-106.324291541
 10
53.417247482
 20
-106.3225638298
 10
53.4141511994
 20
-106.3211234324
 10
53.4111002224
 20
-106.3199129533
 10
53.4081077877
 20
-106.3189359171
 10
53.4051544382
 20
-106.3181936718
 10
53.402265158
 20
-106.3176275259
 10
53.3994477848
 20
-106.3172197555
 10
53.3966921337
 20
-106.3169933552
 10
53.3939973615
 20
-106.3169509313
  0
LWPOLYLINE
  5
2C9
100
AcDbEntity
  8
RACCORDO
100
AcDbPolyline
 62
253
  6
CONTINUOUS
 90
22
 70
0
 10
54.0551451187
 20
-105.655803174
 10
54.0554014991
 20
-105.6606357371
 10
54.0560567792
 20
-105.6653014003
 10
54.0571112485
 20
-105.6698067627
 10
54.0586164021
 20
-105.6742180727
 10
54.0605216172
 20
-105.6784861362
 10
54.0626818594
 20
-105.6824437468
 10
54.0651151212
 20
-105.686053174
 10
54.067822138
 20
-105.6893686169
 10
54.0706402661
 20
-105.6923542877
 10
54.0735631366
 20
-105.6949869306
 10
54.076615791
 20
-105.6972967422
 10
54.0796822145
 20
-105.6993200841
 10
54.082752518
 20
-105.7010477953
 10
54.0858488006
 20
-105.7024881928
 10
54.0888997776
 20
-105.7036986718
 10
54.0918922123
 20
-105.704675708
 10
54.0948455618
 20
-105.7054179533
 10
54.097734842
 20
-105.7059840992
 10
54.1005522152
 20
-105.7063918696
 10
54.1033078663
 20
-105.7066182699
 10
54.1060026385
 20
-105.7066606938
  0
LWPOLYLINE
  5
2CA
100
AcDbEntity
  8
RACCORDO
100
AcDbPolyline
 62
253
  6
CONTINUOUS
 90
16
 70
0
 10
53.5974276452
 20
-107.0798122951
 10
53.5973210688
 20
-107.0736484584
 10
53.5972592064
 20
-107.0672868426
 10
53.5972430908
 20
-107.0608336418
 10
53.5972729912
 20
-107.0543965792
 10
53.5973484086
 20
-107.0480831084
 10
53.5974680843
 20
-107.0419986199
 10
53.5976300207
 20
-107.0362446819
 10
53.5978315149
 20
-107.0309173447
 10
53.5980692036
 20
-107.0261055373
 10
53.5983391193
 20
-107.0218895832
 10
53.5986367565
 20
-107.018339859
 10
53.598957147
 20
-107.0155156202
 10
53.5992949429
 20
-107.0134640117
 10
53.5996445055
 20
-107.012219281
 10
53.5999999999
 20
-107.0118022063
  0
LWPOLYLINE
  5
2CB
100
AcDbEntity
  8
RACCORDO
100
AcDbPolyline
 62
253
  6
CONTINUOUS
 90
16
 70
0
 10
53.9025723548
 20
-104.94379933
 10
53.9026789312
 20
-104.9499631667
 10
53.9027407936
 20
-104.9563247826
 10
53.9027569092
 20
-104.9627779833
 10
53.9027270088
 20
-104.969215046
 10
53.9026515914
 20
-104.9755285168
 10
53.9025319157
 20
-104.9816130053
 10
53.9023699793
 20
-104.9873669432
 10
53.9021684851
 20
-104.9926942804
 10
53.9019307964
 20
-104.9975060878
 10
53.9016608807
 20
-105.001722042
 10
53.9013632435
 20
-105.0052717662
 10
53.901042853
 20
-105.008096005
 10
53.9007050571
 20
-105.0101476134
 10
53.9003554945
 20
-105.0113923441
 10
53.9000000001
 20
-105.0118094188
  0
LWPOLYLINE
  5
2CC
100
AcDbEntity
  8
RACCORDO
100
AcDbPolyline
 62
253
  6
CONTINUOUS
 90
13
 70
0
 10
52.8345653028
 20
-106.3169507115
 10
52.8344930138
 20
-106.3099855689
 10
52.8347219968
 20
-106.3030556988
 10
52.835247803
 20
-106.2962957361
 10
52.8360602169
 20
-106.2898370146
 10
52.8371434547
 20
-106.2838050159
 10
52.838476471
 20
-106.2783169309
 10
52.8400333677
 20
-106.2734793831
 10
52.8417838969
 20
-106.2693863575
 10
52.843694049
 20
-106.2661173743
 10
52.8457267131
 20
-106.2637359439
 10
52.8478423982
 20
-106.2622883333
 10
52.8500000001
 20
-106.2618026669
  0
LWPOLYLINE
  5
2CD
100
AcDbEntity
  8
RACCORDO
100
AcDbPolyline
 62
253
  6
CONTINUOUS
 90
13
 70
0
 10
54.6654346972
 20
-105.7066609137
 10
54.6655069862
 20
-105.7136260562
 10
54.6652780032
 20
-105.7205559263
 10
54.664752197
 20
-105.7273158891
 10
54.6639397831
 20
-105.7337746105
 10
54.6628565453
 20
-105.7398066092
 10
54.661523529
 20
-105.7452946942
 10
54.6599666323
 20
-105.750132242
 10
54.6582161031
 20
-105.7542252676
 10
54.656305951
 20
-105.7574942508
 10
54.6542732869
 20
-105.7598756812
 10
54.6521576018
 20
-105.7613232918
 10
54.6499999999
 20
-105.7618089582
  0
LWPOLYLINE
  5
2CE
100
AcDbEntity
  8
RACCORDO
100
AcDbPolyline
 62
253
  6
CONTINUOUS
 90
13
 70
0
 10
53.3939973626
 20
-106.3169509303
 10
53.3939693259
 20
-106.3099859521
 10
53.3940584408
 20
-106.3030563264
 10
53.3942629761
 20
-106.2962966677
 10
53.3945789587
 20
-106.2898382891
 10
53.3950002502
 20
-106.2838066505
 10
53.3955186665
 20
-106.2783189223
 10
53.3961241371
 20
-106.2734817089
 10
53.3968049001
 20
-106.2693889778
 10
53.3975477309
 20
-106.2661202341
 10
53.3983381994
 20
-106.2637389764
 10
53.39916095
 20
-106.2622914627
 10
53.4
 20
-106.2618058126
  0
LWPOLYLINE
  5
2CF
100
AcDbEntity
  8
RACCORDO
100
AcDbPolyline
 62
253
  6
CONTINUOUS
 90
13
 70
0
 10
54.1060026374
 20
-105.7066606948
 10
54.1060306741
 20
-105.7136256731
 10
54.1059415592
 20
-105.7205552988
 10
54.1057370239
 20
-105.7273149574
 10
54.1054210413
 20
-105.7337733361
 10
54.1049997498
 20
-105.7398049747
 10
54.1044813335
 20
-105.7452927028
 10
54.1038758629
 20
-105.7501299162
 10
54.1031950999
 20
-105.7542226474
 10
54.1024522691
 20
-105.757491391
 10
54.1016618006
 20
-105.7598726488
 10
54.10083905
 20
-105.7613201624
 10
54.1
 20
-105.7618058126
  0
LINE
  5
2D0
100
AcDbEntity
  8
0
100
AcDbLine
 62
7
  6
CONTINUOUS
 10
52.0
 20
-120.0118058126
 11
52.0
 21
-107.7963384365
  0
LINE
  5
2D1
100
AcDbEntity
  8
0
100
AcDbLine
 62
7
  6
CONTINUOUS
 10
52.0
 20
-104.2272731886
 11
52.0
 21
-92.0118058126
  0
LINE
  5
2D2
100
AcDbEntity
  8
RACCORDO
100
AcDbLine
 62
253
  6
CONTINUOUS
 10
52.6819920844
 20
-106.1643783719
 11
52.6819920844
 21
-105.8592332532
  0
LINE
  5
2D3
100
AcDbEntity
  8
RACCORDO
100
AcDbLine
 62
7
  6
CONTINUOUS
 10
52.75
 20
-106.1618058126
 11
52.75
 21
-105.8618058126
  0
LINE
  5
2D4
100
AcDbEntity
  8
RACCORDO
100
AcDbLine
 62
7
  6
CONTINUOUS
 10
53.5
 20
-106.9118058126
 11
53.5
 21
-106.3618058126
  0
LINE
  5
2D5
100
AcDbEntity
  8
RACCORDO
100
AcDbLine
 62
7
  6
CONTINUOUS
 10
53.5
 20
-105.6618058126
 11
53.5
 21
-105.1118058126
  0
LINE
  5
2D6
100
AcDbEntity
  8
RACCORDO
100
AcDbLine
 62
7
  6
CONTINUOUS
 10
54.0
 20
-105.1118058126
 11
54.0
 21
-105.6618058126
  0
LINE
  5
2D7
100
AcDbEntity
  8
RACCORDO
100
AcDbLine
 62
7
  6
CONTINUOUS
 10
54.0
 20
-106.3618058126
 11
54.0
 21
-106.9118058126
  0
LINE
  5
2D8
100
AcDbEntity
  8
RACCORDO
100
AcDbLine
 62
7
  6
CONTINUOUS
 10
54.75
 20
-105.8618058126
 11
54.75
 21
-106.1618058126
  0
LINE
  5
2D9
100
AcDbEntity
  8
RACCORDO
100
AcDbLine
 62
253
  6
CONTINUOUS
 10
54.8180079156
 20
-105.8592332532
 11
54.8180079156
 21
-106.1643783719
  0
LINE
  5
2DA
100
AcDbEntity
  8
RACCORDO
100
AcDbLine
 62
253
  6
CONTINUOUS
 10
53.4448815861
 20
-106.7102013141
 11
53.4448168214
 21
-106.3968415362
  0
LINE
  5
2DB
100
AcDbEntity
  8
RACCORDO
100
AcDbLine
 62
253
  6
CONTINUOUS
 10
54.0551184139
 20
-105.313410311
 11
54.0551831786
 21
-105.6267700889
  0
LINE
  5
2DC
100
AcDbEntity
  8
RACCORDO
100
AcDbLine
 62
253
  6
CONTINUOUS
 10
53.4448168214
 20
-106.3968415362
 11
53.4448548813
 21
-106.3678084511
  0
LINE
  5
2DD
100
AcDbEntity
  8
RACCORDO
100
AcDbLine
 62
253
  6
CONTINUOUS
 10
53.4448548813
 20
-105.655803174
 11
53.4448773912
 21
-105.3130221631
  0
LINE
  5
2DE
100
AcDbEntity
  8
RACCORDO
100
AcDbLine
 62
253
  6
CONTINUOUS
 10
54.0551831786
 20
-105.6267700889
 11
54.0551451187
 21
-105.655803174
  0
LINE
  5
2DF
100
AcDbEntity
  8
RACCORDO
100
AcDbLine
 62
253
  6
CONTINUOUS
 10
54.0551451187
 20
-106.3678084511
 11
54.0551226088
 21
-106.710589462
  0
LINE
  5
2E0
100
AcDbEntity
  8
RACCORDO
100
AcDbLine
 62
253
  6
CONTINUOUS
 10
53.4448773912
 20
-105.3130221631
 11
53.4448548813
 21
-105.0963704564
  0
LINE
  5
2E1
100
AcDbEntity
  8
RACCORDO
100
AcDbLine
 62
253
  6
CONTINUOUS
 10
54.0551226088
 20
-106.710589462
 11
54.0551451187
 21
-106.9272411688
  0
LINE
  5
2E2
100
AcDbEntity
  8
RACCORDO
100
AcDbLine
 62
253
  6
CONTINUOUS
 10
53.4448548813
 20
-106.9272411688
 11
53.4448815861
 21
-106.7102013141
  0
LINE
  5
2E3
100
AcDbEntity
  8
RACCORDO
100
AcDbLine
 62
253
  6
CONTINUOUS
 10
54.0551451187
 20
-105.0963704564
 11
54.0551184139
 21
-105.313410311
  0
LWPOLYLINE
  5
2E4
100
AcDbEntity
  8
RACCORDO
100
AcDbPolyline
 62
253
  6
CONTINUOUS
 90
13
 70
0
 10
53.3939973616
 20
-105.7066606939
 10
53.3939693264
 20
-105.7136256611
 10
53.3940584426
 20
-105.7205552747
 10
53.3942629789
 20
-105.7273149208
 10
53.3945789622
 20
-105.7337732868
 10
53.395000254
 20
-105.7398049132
 10
53.3955186706
 20
-105.74529263
 10
53.396124141
 20
-105.7501298332
 10
53.3968049035
 20
-105.7542225557
 10
53.3975477337
 20
-105.7574912926
 10
53.3983382014
 20
-105.7598725456
 10
53.3991609511
 20
-105.7613200567
 10
53.4
 20
-105.7618057067
  0
LWPOLYLINE
  5
2E5
100
AcDbEntity
  8
RACCORDO
100
AcDbPolyline
 62
253
  6
CONTINUOUS
 90
13
 70
0
 10
54.1060026384
 20
-106.3169509312
 10
54.1060306736
 20
-106.3099859641
 10
54.1059415574
 20
-106.3030563504
 10
54.1057370211
 20
-106.2962967044
 10
54.1054210378
 20
-106.2898383383
 10
54.104999746
 20
-106.2838067119
 10
54.1044813294
 20
-106.2783189951
 10
54.103875859
 20
-106.2734817919
 10
54.1031950965
 20
-106.2693890694
 10
54.1024522663
 20
-106.2661203326
 10
54.1016617986
 20
-106.2637390795
 10
54.1008390489
 20
-106.2622915684
 10
54.1
 20
-106.2618059185
  0
LWPOLYLINE
  5
2E6
100
AcDbEntity
  8
RACCORDO
100
AcDbPolyline
 62
253
  6
CONTINUOUS
 90
13
 70
0
 10
52.8345646521
 20
-105.7066606966
 10
52.8344925578
 20
-105.7136256733
 10
52.8347217103
 20
-105.7205552974
 10
52.8352476581
 20
-105.7273149545
 10
52.8360601843
 20
-105.7337733319
 10
52.8371435047
 20
-105.7398049695
 10
52.8384765749
 20
-105.745292697
 10
52.8400334986
 20
-105.7501299101
 10
52.8417840311
 20
-105.7542226415
 10
52.8436941668
 20
-105.7574913859
 10
52.8457267995
 20
-105.7598726449
 10
52.8478424434
 20
-105.7613201602
 10
52.85
 20
-105.7618058126
  0
LWPOLYLINE
  5
2E7
100
AcDbEntity
  8
RACCORDO
100
AcDbPolyline
 62
253
  6
CONTINUOUS
 90
16
 70
0
 10
53.5974274414
 20
-104.9437979021
 10
53.597320867
 20
-104.9499617127
 10
53.5972590092
 20
-104.9563232087
 10
53.5972429002
 20
-104.9627762128
 10
53.597272809
 20
-104.9692130203
 10
53.5973482364
 20
-104.9755261969
 10
53.5974679234
 20
-104.9816103716
 10
53.5976298723
 20
-104.9873639957
 10
53.5978313801
 20
-104.9926910377
 10
53.5980690835
 20
-104.9975025859
 10
53.5983390151
 20
-105.0017183324
 10
53.5986366696
 20
-105.0052679139
 10
53.598957079
 20
-105.0080920856
 10
53.5992948955
 20
-105.0101437102
 10
53.5996444808
 20
-105.0113885449
 10
53.6
 20
-105.0118058126
  0
LINE
  5
2E8
100
AcDbEntity
  8
0
100
AcDbLine
 62
7
  6
CONTINUOUS
 10
55.5
 20
-92.0118058126
 11
55.5
 21
-104.2272731886
  0
LINE
  5
2E9
100
AcDbEntity
  8
0
100
AcDbLine
 62
7
  6
CONTINUOUS
 10
55.5
 20
-107.7963384365
 11
55.5
 21
-120.0118058126
  0
LINE
  5
2EA
100
AcDbEntity
  8
RACCORDO
100
AcDbLine
 62
7
  6
CONTINUOUS
 10
60.0
 20
-87.5118058126
 11
60.0
 21
-124.5118058126
  0
LWPOLYLINE
  5
2EB
100
AcDbEntity
  8
RACCORDO
100
AcDbPolyline
 62
253
  6
CONTINUOUS
 90
13
 70
0
 10
54.6654353479
 20
-106.3169509285
 10
54.6655074422
 20
-106.3099859519
 10
54.6652782897
 20
-106.3030563277
 10
54.6647523419
 20
-106.2962966706
 10
54.6639398157
 20
-106.2898382932
 10
54.6628564953
 20
-106.2838066556
 10
54.6615234251
 20
-106.2783189281
 10
54.6599665014
 20
-106.273481715
 10
54.6582159689
 20
-106.2693889836
 10
54.6563058332
 20
-106.2661202392
 10
54.6542732005
 20
-106.2637389803
 10
54.6521575566
 20
-106.2622914649
 10
54.65
 20
-106.2618058126
  0
LWPOLYLINE
  5
2EC
100
AcDbEntity
  8
RACCORDO
100
AcDbPolyline
 62
253
  6
CONTINUOUS
 90
16
 70
0
 10
53.9025725586
 20
-107.079813723
 10
53.902679133
 20
-107.0736499125
 10
53.9027409908
 20
-107.0672884164
 10
53.9027570998
 20
-107.0608354123
 10
53.902727191
 20
-107.0543986048
 10
53.9026517636
 20
-107.0480854282
 10
53.9025320766
 20
-107.0420012535
 10
53.9023701277
 20
-107.0362476294
 10
53.9021686199
 20
-107.0309205874
 10
53.9019309165
 20
-107.0261090393
 10
53.9016609849
 20
-107.0218932927
 10
53.9013633304
 20
-107.0183437112
 10
53.901042921
 20
-107.0155195396
 10
53.9007051045
 20
-107.0134679149
 10
53.9003555192
 20
-107.0122230803
 10
53.9
 20
-107.0118058126
  0
LWPOLYLINE
  5
2ED
100
AcDbEntity
  8
RACCORDO
100
AcDbPolyline
 62
253
  6
CONTINUOUS
 90
19
 70
0
 10
52.6819920844
 20
-105.8592332532
 10
52.6825619481
 20
-105.8461835242
 10
52.6842098605
 20
-105.8333409319
 10
52.6869279871
 20
-105.8207404263
 10
52.6907210264
 20
-105.8083733495
 10
52.6955684867
 20
-105.7963174661
 10
52.701419788
 20
-105.7847344317
 10
52.7082673786
 20
-105.7736449019
 10
52.7160922387
 20
-105.7630880056
 10
52.7248174529
 20
-105.7532446698
 10
52.7344568478
 20
-105.7441162281
 10
52.7449629925
 20
-105.7357440083
 10
52.7561581358
 20
-105.7283512667
 10
52.7680409888
 20
-105.7219423917
 10
52.7805767877
 20
-105.7165208814
 10
52.7935318788
 20
-105.7122811391
 10
52.8068184422
 20
-105.7092704977
 10
52.8204983974
 20
-105.707404053
 10
52.8345646438
 20
-105.7066606938
  0
LWPOLYLINE
  5
2EE
100
AcDbEntity
  8
RACCORDO
100
AcDbPolyline
 62
253
  6
CONTINUOUS
 90
19
 70
0
 10
54.8180079156
 20
-106.1643783719
 10
54.8174380519
 20
-106.177428101
 10
54.8157901395
 20
-106.1902706932
 10
54.8130720129
 20
-106.2028711988
 10
54.8092789736
 20
-106.2152382757
 10
54.8044315133
 20
-106.2272941591
 10
54.798580212
 20
-106.2388771934
 10
54.7917326214
 20
-106.2499667232
 10
54.7839077613
 20
-106.2605236195
 10
54.7751825471
 20
-106.2703669553
 10
54.7655431522
 20
-106.279495397
 10
54.7550370075
 20
-106.2878676169
 10
54.7438418641
 20
-106.2952603584
 10
54.7319590112
 20
-106.3016692335
 10
54.7194232123
 20
-106.3070907437
 10
54.7064681212
 20
-106.3113304861
 10
54.6931815578
 20
-106.3143411274
 10
54.6795016026
 20
-106.3162075721
 10
54.6654353562
 20
-106.3169509313
  0
LWPOLYLINE
  5
2EF
100
AcDbEntity
  8
RACCORDO
100
AcDbPolyline
 62
253
  6
CONTINUOUS
 90
19
 70
0
 10
53.4448548813
 20
-105.0963704564
 10
53.4456555479
 20
-105.0820499889
 10
53.4475705268
 20
-105.0682009031
 10
53.4506179972
 20
-105.0548303674
 10
53.4548772361
 20
-105.0419064587
 10
53.460299211
 20
-105.0294866222
 10
53.4666956237
 20
-105.0177140168
 10
53.4740606005
 20
-105.0065971711
 10
53.4823925716
 20
-104.9961630076
 10
53.4914866331
 20
-104.9865772175
 10
53.5013087755
 20
-104.9778794533
 10
53.5118523585
 20
-104.9700641481
 10
53.522936242
 20
-104.9632207254
 10
53.5345264062
 20
-104.9573702405
 10
53.5465976146
 20
-104.9525188385
 10
53.5589725756
 20
-104.9487239051
 10
53.5715681039
 20
-104.94600778
 10
53.5843980449
 20
-104.94436326
 10
53.5974274406
 20
-104.943797897
  0
LWPOLYLINE
  5
2F0
100
AcDbEntity
  8
RACCORDO
100
AcDbPolyline
 62
253
  6
CONTINUOUS
 90
19
 70
0
 10
54.0551451187
 20
-106.9272411688
 10
54.0543444521
 20
-106.9415616363
 10
54.0524294732
 20
-106.9554107221
 10
54.0493820028
 20
-106.9687812577
 10
54.0451227639
 20
-106.9817051665
 10
54.039700789
 20
-106.9941250029
 10
54.0333043763
 20
-107.0058976084
 10
54.0259393995
 20
-107.0170144541
 10
54.0176074284
 20
-107.0274486176
 10
54.0085133669
 20
-107.0370344077
 10
53.9986912245
 20
-107.0457321719
 10
53.9881476415
 20
-107.053547477
 10
53.977063758
 20
-107.0603908997
 10
53.9654735938
 20
-107.0662413846
 10
53.9534023854
 20
-107.0710927866
 10
53.9410274244
 20
-107.07488772
 10
53.9284318961
 20
-107.0776038452
 10
53.9156019551
 20
-107.0792483652
 10
53.9025725594
 20
-107.0798137281
  0
LWPOLYLINE
  5
2F1
100
AcDbEntity
  8
0
100
AcDbPolyline
 62
7
  6
CONTINUOUS
 90
9
 70
0
 10
150.0
 20
120.4778312164
 10
149.9602679379
 20
120.4140094797
 10
149.920551353
 20
120.339318171
 10
149.8808502454
 20
120.2547482739
 10
149.841174933
 20
120.1613898567
 10
149.8015150979
 20
120.0605246984
 10
149.7618397856
 20
119.9536359791
 10
149.7221386779
 20
119.8422249663
 10
149.682422093
 20
119.7277648625
  0
LINE
  5
2F2
100
AcDbEntity
  8
0
100
AcDbLine
 62
7
  6
CONTINUOUS
 10
149.0
 20
-131.7080735357
 11
149.4640350464
 21
-132.5118058126
  0
LINE
  5
2F3
100
AcDbEntity
  8
0
100
AcDbLine
 62
7
  6
CONTINUOUS
 10
149.6426900309
 20
119.6118058126
 11
149.0
 21
118.4986340255
  0
LWPOLYLINE
  5
2F4
100
AcDbEntity
  8
0
100
AcDbPolyline
 62
7
  6
CONTINUOUS
 90
6
 70
0
 10
149.598146377
 20
-132.8950731535
 10
149.6427878839
 20
-133.0122517884
 10
149.6874027035
 20
-133.1207715278
 10
149.7320175232
 20
-133.2189125938
 10
149.7766323429
 20
-133.3050023567
 10
149.8212471625
 20
-133.3775735789
  0
LINE
  5
2F5
100
AcDbEntity
  8
0
100
AcDbLine
 62
7
  6
CONTINUOUS
 10
149.682422093
 20
119.7277648625
 11
149.6426900309
 21
119.6118058126
  0
LINE
  5
2F6
100
AcDbEntity
  8
0
100
AcDbLine
 62
7
  6
CONTINUOUS
 10
-150.0
 20
106.4881941874
 11
-149.85
 21
106.4881941874
  0
LINE
  5
2F7
100
AcDbEntity
  8
0
100
AcDbLine
 62
7
  6
CONTINUOUS
 10
150.0
 20
106.4881941874
 11
149.85
 21
106.4881941874
  0
LWPOLYLINE
  5
2F8
100
AcDbEntity
  8
0
100
AcDbPolyline
 62
7
  6
CONTINUOUS
 90
4
 70
0
 10
149.4640350464
 20
-132.5118058126
 10
149.5087655104
 20
-132.6426801596
 10
149.5534692873
 20
-132.7711675391
 10
149.598146377
 20
-132.8950731535
  0
LINE
  5
2F9
100
AcDbEntity
  8
0
100
AcDbLine
 62
7
  6
CONTINUOUS
 10
150.0
 20
109.6118058126
 11
149.85
 21
109.6118058126
  0
LINE
  5
2FA
100
AcDbEntity
  8
0
100
AcDbLine
 62
7
  6
CONTINUOUS
 10
-149.85
 20
109.6118058126
 11
-150.0
 21
109.6118058126
  0
LINE
  5
2FB
100
AcDbEntity
  8
0
100
AcDbLine
 62
7
  6
CONTINUOUS
 10
-149.85
 20
118.4986340255
 11
-149.0
 21
118.4986340255
  0
LINE
  5
2FC
100
AcDbEntity
  8
0
100
AcDbLine
 62
7
  6
CONTINUOUS
 10
149.0
 20
118.4986340255
 11
149.85
 21
118.4986340255
  0
LINE
  5
2FD
100
AcDbEntity
  8
SUPERFICI
100
AcDbLine
 62
7
  6
CONTINUOUS
 10
-139.535131
 20
118.9118058126
 11
-125.95
 21
118.9118058126
  0
LINE
  5
2FE
100
AcDbEntity
  8
0
100
AcDbLine
 62
253
  6
CONTINUOUS
 10
150.0
 20
119.6118058126
 11
149.85
 21
119.6118058126
  0
LINE
  5
2FF
100
AcDbEntity
  8
0
100
AcDbLine
 62
253
  6
CONTINUOUS
 10
149.6426900309
 20
119.6118058126
 11
-149.6426900309
 21
119.6118058126
  0
LINE
  5
300
100
AcDbEntity
  8
0
100
AcDbLine
 62
253
  6
CONTINUOUS
 10
-149.85
 20
119.6118058126
 11
-150.0
 21
119.6118058126
  0
LINE
  5
301
100
AcDbEntity
  8
0
100
AcDbLine
 62
253
  6
CONTINUOUS
 10
150.0
 20
120.4778312164
 11
-150.0
 21
120.4778312164
  0
LINE
  5
302
100
AcDbEntity
  8
0
100
AcDbLine
 62
253
  6
CONTINUOUS
 10
150.0
 20
123.220244995
 11
-150.0
 21
123.220244995
  0
LINE
  5
303
100
AcDbEntity
  8
0
100
AcDbLine
 62
7
  6
CONTINUOUS
 10
-150.0
 20
123.4881941874
 11
150.0
 21
123.4881941874
  0
LINE
  5
304
100
AcDbEntity
  8
0
100
AcDbLine
 62
7
  6
CONTINUOUS
 10
-127.5
 20
124.8618058126
 11
-128.5
 21
124.8618058126
  0
LINE
  5
305
100
AcDbEntity
  8
0
100
AcDbLine
 62
7
  6
CONTINUOUS
 10
-127.5
 20
127.3868058126
 11
-128.5
 21
127.3868058126
  0
LINE
  5
306
100
AcDbEntity
  8
0
100
AcDbLine
 62
7
  6
CONTINUOUS
 10
-127.5
 20
131.1368058126
 11
-128.5
 21
131.1368058126
  0
LINE
  5
307
100
AcDbEntity
  8
0
100
AcDbLine
 62
7
  6
CONTINUOUS
 10
-127.5
 20
133.4118058126
 11
-128.5
 21
133.4118058126
  0
LINE
  5
308
100
AcDbEntity
  8
0
100
AcDbLine
 62
7
  6
CONTINUOUS
 10
-127.5
 20
134.2618058126
 11
-128.5
 21
134.2618058126
  0
LINE
  5
309
100
AcDbEntity
  8
RACCORDO
100
AcDbLine
 62
253
  6
CONTINUOUS
 10
147.25
 20
-134.2618058126
 11
147.25
 21
-133.5118058126
  0
LINE
  5
30A
100
AcDbEntity
  8
RACCORDO
100
AcDbLine
 62
7
  6
CONTINUOUS
 10
148.75
 20
-134.2618058126
 11
148.75
 21
-133.5118058126
  0
LINE
  5
30B
100
AcDbEntity
  8
0
100
AcDbLine
 62
253
  6
CONTINUOUS
 10
149.0
 20
118.4986340255
 11
149.0
 21
-131.7080735357
  0
LINE
  5
30C
100
AcDbEntity
  8
0
100
AcDbLine
 62
253
  6
CONTINUOUS
 10
149.0
 20
-133.5118058126
 11
149.0
 21
-134.2618058126
  0
LINE
  5
30D
100
AcDbEntity
  8
0
100
AcDbLine
 62
7
  6
CONTINUOUS
 10
149.25
 20
-132.1080735357
 11
149.25
 21
-131.7080735357
  0
LINE
  5
30E
100
AcDbEntity
  8
0
100
AcDbLine
 62
7
  6
CONTINUOUS
 10
149.25
 20
118.4986340255
 11
149.25
 21
118.9316467274
  0
LINE
  5
30F
100
AcDbEntity
  8
0
100
AcDbLine
 62
7
  6
CONTINUOUS
 10
149.85
 20
-132.1080735357
 11
149.85
 21
119.8399459387
  0
LINE
  5
310
100
AcDbEntity
  8
0
100
AcDbLine
 62
7
  6
CONTINUOUS
 10
150.0
 20
123.4875052808
 11
150.0
 21
120.4778312164
  0
LINE
  5
311
100
AcDbEntity
  8
0
100
AcDbLine
 62
7
  6
CONTINUOUS
 10
150.0
 20
-95.2618058126
 11
150.0
 21
-132.9118058126
  0
LINE
  5
312
100
AcDbEntity
  8
0
100
AcDbLine
 62
7
  6
CONTINUOUS
 10
150.0
 20
-132.9118058126
 11
150.0
 21
-133.5118058126
  0
LINE
  5
313
100
AcDbEntity
  8
0
100
AcDbLine
 62
7
  6
CONTINUOUS
 10
150.0
 20
-92.5118058126
 11
150.0
 21
106.4881941874
  0
LINE
  5
314
100
AcDbEntity
  8
0
100
AcDbLine
 62
7
  6
CONTINUOUS
 10
150.0
 20
109.6118058126
 11
150.0
 21
120.4778312164
  0
CIRCLE
  5
315
100
AcDbEntity
  8
0
100
AcDbCircle
 62
7
  6
CONTINUOUS
 10
-53.75
 20
-106.0118058126
 40
2.5
  0
CIRCLE
  5
316
100
AcDbEntity
  8
0
100
AcDbCircle
 62
253
  6
CONTINUOUS
 10
-53.75
 20
-106.0118058126
 40
2.4837583893
  0
ARC
  5
317
100
AcDbEntity
  8
0
100
AcDbCircle
 62
7
  6
CONTINUOUS
 10
-53.75
 20
-120.0118058126
 40
1.75
100
AcDbArc
 50
180.0
 51
360.0
  0
ARC
  5
318
100
AcDbEntity
  8
0
100
AcDbCircle
 62
7
  6
CONTINUOUS
 10
-53.75
 20
-92.0118058126
 40
1.75
100
AcDbArc
 50
0.0
 51
180.0
  0
ARC
  5
319
100
AcDbEntity
  8
RACCORDO
100
AcDbCircle
 62
7
  6
CONTINUOUS
 10
-58.5
 20
-124.5118058126
 40
1.5
100
AcDbArc
 50
180.0
 51
270.0
  0
ARC
  5
31A
100
AcDbEntity
  8
RACCORDO
100
AcDbCircle
 62
7
  6
CONTINUOUS
 10
-58.5
 20
-87.5118058126
 40
1.5
100
AcDbArc
 50
90.0
 51
180.0
  0
ARC
  5
31B
100
AcDbEntity
  8
0
100
AcDbCircle
 62
7
  6
CONTINUOUS
 10
-148.75
 20
-92.5118058126
 40
1.25
100
AcDbArc
 50
180.0
 51
202.5327393954
  0
ARC
  5
31C
100
AcDbEntity
  8
0
100
AcDbCircle
 62
7
  6
CONTINUOUS
 10
-149.0
 20
-95.2618058126
 40
1.0
100
AcDbArc
 50
148.3849411509
 51
180.0
  0
ARC
  5
31D
100
AcDbEntity
  8
0
100
AcDbCircle
 62
7
  6
CONTINUOUS
 10
-149.0
 20
-133.2618058126
 40
1.0
100
AcDbArc
 50
194.5001703911
 51
270.0
  0
ARC
  5
31E
100
AcDbEntity
  8
RACCORDO
100
AcDbCircle
 62
7
  6
CONTINUOUS
 10
-52.85
 20
-106.1618058126
 40
0.1
100
AcDbArc
 50
270.0
 51
360.0
  0
ARC
  5
31F
100
AcDbEntity
  8
RACCORDO
100
AcDbCircle
 62
7
  6
CONTINUOUS
 10
-52.85
 20
-105.8618058126
 40
0.1
100
AcDbArc
 50
0.0
 51
90.0
  0
ARC
  5
320
100
AcDbEntity
  8
RACCORDO
100
AcDbCircle
 62
7
  6
CONTINUOUS
 10
-53.6
 20
-105.1118058126
 40
0.1
100
AcDbArc
 50
0.0
 51
90.0
  0
ARC
  5
321
100
AcDbEntity
  8
RACCORDO
100
AcDbCircle
 62
7
  6
CONTINUOUS
 10
-53.9
 20
-105.1118058126
 40
0.1
100
AcDbArc
 50
90.0
 51
180.0
  0
ARC
  5
322
100
AcDbEntity
  8
RACCORDO
100
AcDbCircle
 62
7
  6
CONTINUOUS
 10
-54.65
 20
-105.8618058126
 40
0.1
100
AcDbArc
 50
90.0
 51
180.0
  0
ARC
  5
323
100
AcDbEntity
  8
RACCORDO
100
AcDbCircle
 62
7
  6
CONTINUOUS
 10
-54.65
 20
-106.1618058126
 40
0.1
100
AcDbArc
 50
180.0
 51
270.0
  0
ARC
  5
324
100
AcDbEntity
  8
RACCORDO
100
AcDbCircle
 62
7
  6
CONTINUOUS
 10
-53.9
 20
-106.9118058126
 40
0.1
100
AcDbArc
 50
180.0
 51
270.0
  0
ARC
  5
325
100
AcDbEntity
  8
RACCORDO
100
AcDbCircle
 62
7
  6
CONTINUOUS
 10
-53.6
 20
-106.9118058126
 40
0.1
100
AcDbArc
 50
270.0
 51
360.0
  0
ARC
  5
326
100
AcDbEntity
  8
RACCORDO
100
AcDbCircle
 62
7
  6
CONTINUOUS
 10
-53.4
 20
-105.6618058126
 40
0.1
100
AcDbArc
 50
180.0
 51
270.0
  0
ARC
  5
327
100
AcDbEntity
  8
RACCORDO
100
AcDbCircle
 62
7
  6
CONTINUOUS
 10
-54.1
 20
-105.6618058126
 40
0.1
100
AcDbArc
 50
270.0
 51
360.0
  0
ARC
  5
328
100
AcDbEntity
  8
RACCORDO
100
AcDbCircle
 62
7
  6
CONTINUOUS
 10
-53.4
 20
-106.3618058126
 40
0.1
100
AcDbArc
 50
90.0
 51
180.0
  0
ARC
  5
329
100
AcDbEntity
  8
RACCORDO
100
AcDbCircle
 62
7
  6
CONTINUOUS
 10
-54.1
 20
-106.3618058126
 40
0.1
100
AcDbArc
 50
0.0
 51
90.0
  0
ARC
  5
32A
100
AcDbEntity
  8
0
100
AcDbCircle
 62
7
  6
CONTINUOUS
 10
-148.75
 20
106.4881941874
 40
1.25
100
AcDbArc
 50
151.8627222983
 51
180.0
  0
CIRCLE
  5
32B
100
AcDbEntity
  8
0
100
AcDbCircle
 62
7
  6
CONTINUOUS
 10
53.75
 20
-106.0118058126
 40
2.5
  0
CIRCLE
  5
32C
100
AcDbEntity
  8
0
100
AcDbCircle
 62
253
  6
CONTINUOUS
 10
53.75
 20
-106.0118058126
 40
2.4837583893
  0
ARC
  5
32D
100
AcDbEntity
  8
0
100
AcDbCircle
 62
7
  6
CONTINUOUS
 10
53.75
 20
-120.0118058126
 40
1.75
100
AcDbArc
 50
180.0
 51
360.0
  0
ARC
  5
32E
100
AcDbEntity
  8
0
100
AcDbCircle
 62
7
  6
CONTINUOUS
 10
53.75
 20
-92.0118058126
 40
1.75
100
AcDbArc
 50
0.0
 51
180.0
  0
ARC
  5
32F
100
AcDbEntity
  8
RACCORDO
100
AcDbCircle
 62
7
  6
CONTINUOUS
 10
58.5
 20
-87.5118058126
 40
1.5
100
AcDbArc
 50
0.0
 51
90.0
  0
ARC
  5
330
100
AcDbEntity
  8
RACCORDO
100
AcDbCircle
 62
7
  6
CONTINUOUS
 10
58.5
 20
-124.5118058126
 40
1.5
100
AcDbArc
 50
270.0
 51
360.0
  0
ARC
  5
331
100
AcDbEntity
  8
0
100
AcDbCircle
 62
7
  6
CONTINUOUS
 10
148.75
 20
-92.5118058126
 40
1.25
100
AcDbArc
 50
331.8627222973
 51
360.0
  0
ARC
  5
332
100
AcDbEntity
  8
0
100
AcDbCircle
 62
7
  6
CONTINUOUS
 10
149.0
 20
-133.2618058126
 40
1.0
100
AcDbArc
 50
270.0
 51
345.4998296089
  0
ARC
  5
333
100
AcDbEntity
  8
0
100
AcDbCircle
 62
7
  6
CONTINUOUS
 10
149.0
 20
-95.2618058126
 40
1.0
100
AcDbArc
 50
0.0
 51
22.5327393954
  0
ARC
  5
334
100
AcDbEntity
  8
RACCORDO
100
AcDbCircle
 62
7
  6
CONTINUOUS
 10
54.65
 20
-106.1618058126
 40
0.1
100
AcDbArc
 50
270.0
 51
360.0
  0
ARC
  5
335
100
AcDbEntity
  8
RACCORDO
100
AcDbCircle
 62
7
  6
CONTINUOUS
 10
54.65
 20
-105.8618058126
 40
0.1
100
AcDbArc
 50
0.0
 51
90.0
  0
ARC
  5
336
100
AcDbEntity
  8
RACCORDO
100
AcDbCircle
 62
7
  6
CONTINUOUS
 10
53.9
 20
-105.1118058126
 40
0.1
100
AcDbArc
 50
0.0
 51
90.0
  0
ARC
  5
337
100
AcDbEntity
  8
RACCORDO
100
AcDbCircle
 62
7
  6
CONTINUOUS
 10
53.6
 20
-105.1118058126
 40
0.1
100
AcDbArc
 50
90.0
 51
180.0
  0
ARC
  5
338
100
AcDbEntity
  8
RACCORDO
100
AcDbCircle
 62
7
  6
CONTINUOUS
 10
52.85
 20
-105.8618058126
 40
0.1
100
AcDbArc
 50
90.0
 51
180.0
  0
ARC
  5
339
100
AcDbEntity
  8
RACCORDO
100
AcDbCircle
 62
7
  6
CONTINUOUS
 10
52.85
 20
-106.1618058126
 40
0.1
100
AcDbArc
 50
180.0
 51
270.0
  0
ARC
  5
33A
100
AcDbEntity
  8
RACCORDO
100
AcDbCircle
 62
7
  6
CONTINUOUS
 10
53.6
 20
-106.9118058126
 40
0.1
100
AcDbArc
 50
180.0
 51
270.0
  0
ARC
  5
33B
100
AcDbEntity
  8
RACCORDO
100
AcDbCircle
 62
7
  6
CONTINUOUS
 10
53.9
 20
-106.9118058126
 40
0.1
100
AcDbArc
 50
270.0
 51
360.0
  0
ARC
  5
33C
100
AcDbEntity
  8
RACCORDO
100
AcDbCircle
 62
7
  6
CONTINUOUS
 10
54.1
 20
-105.6618058126
 40
0.1
100
AcDbArc
 50
180.0
 51
270.0
  0
ARC
  5
33D
100
AcDbEntity
  8
RACCORDO
100
AcDbCircle
 62
7
  6
CONTINUOUS
 10
53.4
 20
-105.6618058126
 40
0.1
100
AcDbArc
 50
270.0
 51
360.0
  0
ARC
  5
33E
100
AcDbEntity
  8
RACCORDO
100
AcDbCircle
 62
7
  6
CONTINUOUS
 10
54.1
 20
-106.3618058126
 40
0.1
100
AcDbArc
 50
90.0
 51
180.0
  0
ARC
  5
33F
100
AcDbEntity
  8
RACCORDO
100
AcDbCircle
 62
7
  6
CONTINUOUS
 10
53.4
 20
-106.3618058126
 40
0.1
100
AcDbArc
 50
0.0
 51
90.0
  0
ARC
  5
340
100
AcDbEntity
  8
0
100
AcDbCircle
 62
7
  6
CONTINUOUS
 10
148.75
 20
106.4881941874
 40
1.25
100
AcDbArc
 50
0.0
 51
28.1372777016
  0
ENDSEC
  0
SECTION
  2
OBJECTS
  0
DICTIONARY
  5
C
100
AcDbDictionary
280
0
281
1
  3
ACAD_GROUP
350
D
  3
ACAD_MLINESTYLE
350
17
  3
ACAD_LAYOUT
350
1A
  3
ACAD_PLOTSETTINGS
350
19
  3
ACAD_PLOTSTYLENAME
350
E
  0
DICTIONARY
  5
D
102
{ACAD_REACTORS
330
C
102
}
100
AcDbDictionary
280
0
281
1
  0
ACDBDICTIONARYWDFLT
  5
E
102
{ACAD_REACTORS
330
C
102
}
100
AcDbDictionary
281
1
  3
Normal
350
F
100
AcDbDictionaryWithDefault
340
F
  0
DICTIONARY
  5
17
102
{ACAD_REACTORS
330
C
102
}
100
AcDbDictionary
280
0
281
1
  3
Standard
350
18
  0
DICTIONARY
  5
19
102
{ACAD_REACTORS
330
C
102
}
100
AcDbDictionary
281
1
  0
DICTIONARY
  5
1A
102
{ACAD_REACTORS
330
C
102
}
100
AcDbDictionary
281
1
  3
Model
350
341
  3
Layout1
350
342
  0
ACDBPLACEHOLDER
  5
F
102
{ACAD_REACTORS
330
E
102
}
  0
MLINESTYLE
  5
18
102
{ACAD_REACTORS
330
17
102
}
100
AcDbMlineStyle
  2
STANDARD
 70
0
  3

 62
256
 51
90.0
 52
90.0
 71
2
 49
0.5
 62
256
  6
BYLAYER
 49
-0.5
 62
256
  6
BYLAYER
  0
LAYOUT
  5
341
102
{ACAD_REACTORS
330
1A
102
}
100
AcDbPlotSettings
  1

  2
none_device
  4
ANSI_C_(22.00_x_17.00_Inches)
  6

 40
0.0
 41
0.0
 42
0.0
 43
0.0
 44
558.8
 45
431.8
 46
0.0
 47
0.0
 48
0.0
 49
0.0
140
0.0
141
0.0
142
1.0
143
1.0
 70
1024
 72
1
 73
0
 74
0
  7

 75
0
147
1.0
148
0.0
149
0.0
100
AcDbLayout
  1
Model
 70
0
 71
0
 10
0.0
 20
0.0
 11
558.8
 21
431.8
 12
0.0
 22
0.0
 32
0.0
 14
0.0
 24
0.0
 34
0.0
 15
0.0
 25
0.0
 35
0.0
146
0.0
 13
0.0
 23
0.0
 33
0.0
 16
1.0
 26
0.0
 36
0.0
 17
0.0
 27
1.0
 37
0.0
 76
0
330
214
345
0
346
0
  0
LAYOUT
  5
342
102
{ACAD_REACTORS
330
1A
102
}
100
AcDbPlotSettings
  1

  2
none_device
  4
ANSI_C_(22.00_x_17.00_Inches)
  6

 40
0.0
 41
0.0
 42
0.0
 43
0.0
 44
558.8
 45
431.8
 46
0.0
 47
0.0
 48
0.0
 49
0.0
140
0.0
141
0.0
142
1.0
143
1.0
 70
0
 72
1
 73
0
 74
0
  7

 75
0
147
1.0
148
0.0
149
0.0
100
AcDbLayout
  1
Layout1
 70
0
 71
1
 10
0.0
 20
0.0
 11
558.8
 21
431.8
 12
0.0
 22
0.0
 32
0.0
 14
0.0
 24
0.0
 34
0.0
 15
0.0
 25
0.0
 35
0.0
146
0.0
 13
0.0
 23
0.0
 33
0.0
 16
1.0
 26
0.0
 36
0.0
 17
0.0
 27
1.0
 37
0.0
 76
0
330
215
345
0
346
0
  0
ENDSEC
  0
EOF
