0
SECTION
2
HEADER
9
$ACADVER
1
AC1014
9
$HANDSEED
5
       2DC
9
$EXTMAX
10
297.0000000000
20
210.0000000000
9
$EXTMIN
10
0.0000000000
20
0.0000000000
9
$LIMMIN
10
0.0000000000
20
0.0000000000
9
$LIMMAX
10
297.0000000000
20
210.0000000000
9
$VIEWCTR
10
148.5000000000
20
105.0000000000
9
$VIEWSIZE
40
210.0000000000
9
$CLAYER
8
0
9
$LTSCALE
40
16.3350000000
9
$CELTYPE
6
BYLAYER
9
$DIMSCALE
40
1
9
$DIMASZ
40
3.0000000000
9
$DIMEXO
40
1.8562500000
9
$DIMDLI
40
11.2860000000
9
$DIMEXE
40
5.3460000000
9
$DIMCEN
40
2.6730000000
9
$DIMLFAC
40
1.0000000000
9
$DIMTXT
40
3.0000000000
9
$DIMTOL
70
1
9
$DIMLIM
70
0
9
$DIMTFAC
40
1.0000000000
9
$DIMTP
40
0.0100000000
9
$DIMTM
40
0.0100000000
9
$MEASUREMENT
70
1
0
ENDSEC
0
SECTION
2
CLASSES
0
ENDSEC
0
SECTION
2
TABLES
0
TABLE
2
VPORT
5
8
100
AcDbSymbolTable
70
2
0
VPORT
5
1F4
100
AcDbSymbolTableRecord
100
AcDbViewportTableRecord
2
*ACTIVE
70
0
10
0.0
20
0.0
11
1.0
21
1.0
12
148.5000000000
22
105.0000000000
13
0.0
23
0.0
14
1.0
24
1.0
15
0.0
25
0.0
16
0.0
26
0.0
36
1.0
17
0.0
27
0.0
37
0.0
40
210.0000000000
41
1.4142857143
42
50.0
43
0.0
44
0.0
50
0.0
51
0.0
71
0
72
100
73
1
74
1
75
0
76
0
77
0
78
0
0
ENDTAB
0
TABLE
2
LTYPE
5
5
100
AcDbSymbolTable
70
6
0
LTYPE
5
14
100
AcDbSymbolTableRecord
100
AcDbLinetypeTableRecord
2
BYBLOCK
70
0
3

72
65
73
0
40
0.0
0
LTYPE
5
15
100
AcDbSymbolTableRecord
100
AcDbLinetypeTableRecord
2
BYLAYER
70
0
3

72
65
73
0
40
0.0
0
LTYPE
5
16
100
AcDbSymbolTableRecord
100
AcDbLinetypeTableRecord
2
CONTINUOUS
70
64
3
Solid line
72
65
73
0
40
0
0
LTYPE
5
1F5
100
AcDbSymbolTableRecord
100
AcDbLinetypeTableRecord
2
CENTER
70
64
3
____ _ ____ _ ____ _ ____ _ ____ _ ____ _ ____
72
65
73
4
40
0.6
49
0.375
74
0
49
-0.075
74
0
49
0.075
74
0
49
-0.075
74
0
0
LTYPE
5
1F6
100
AcDbSymbolTableRecord
100
AcDbLinetypeTableRecord
2
HIDDEN
70
64
3
- - - - - - - - - - - - - - - - - - - -
72
65
73
2
40
0.2
49
0.1
74
0
49
-0.1
74
0
0
LTYPE
5
1F7
100
AcDbSymbolTableRecord
100
AcDbLinetypeTableRecord
2
PHANTOM
70
64
3
_____ _ _ _____ _ _ _____ _ _ _____
72
65
73
6
40
0.8
49
0.45
74
0
49
-0.05
74
0
49
0.1
74
0
49
-0.05
74
0
49
0.1
74
0
49
-0.05
74
0
0
LTYPE
5
1F8
100
AcDbSymbolTableRecord
100
AcDbLinetypeTableRecord
2
DOT
70
64
3
. . . . . . . . . . . . . . . . . . . .
72
65
73
2
40
0.2
49
0.1
74
0
49
-0.1
74
0
0
LTYPE
5
1F9
100
AcDbSymbolTableRecord
100
AcDbLinetypeTableRecord
2
DASHED
70
64
3
- - - - - - - - - - - - - - - - - - - -
72
65
73
2
40
0.2
49
0.1
74
0
49
-0.1
74
0
0
ENDTAB
0
TABLE
2
LAYER
5
2
100
AcDbSymbolTable
70
36
0
LAYER
5
10
100
AcDbSymbolTableRecord
100
AcDbLayerTableRecord
2
0
70
0
62
7
6
CONTINUOUS
0
LAYER
5
1FA
100
AcDbSymbolTableRecord
100
AcDbLayerTableRecord
2
DEFAULT_1
70
0
62
7
6
CENTER
0
LAYER
5
1FB
100
AcDbSymbolTableRecord
100
AcDbLayerTableRecord
2
DEFAULT_2
70
0
62
8
6
HIDDEN
0
LAYER
5
1FC
100
AcDbSymbolTableRecord
100
AcDbLayerTableRecord
2
DEFAULT_3
70
0
62
7
6
PHANTOM
0
LAYER
5
1FD
100
AcDbSymbolTableRecord
100
AcDbLayerTableRecord
2
ASSI
70
0
62
7
6
CONTINUOUS
0
LAYER
5
1FE
100
AcDbSymbolTableRecord
100
AcDbLayerTableRecord
2
COORDINATE
70
0
62
7
6
CONTINUOUS
0
LAYER
5
1FF
100
AcDbSymbolTableRecord
100
AcDbLayerTableRecord
2
COORD_ORIGINE
70
0
62
7
6
CONTINUOUS
0
LAYER
5
200
100
AcDbSymbolTableRecord
100
AcDbLayerTableRecord
2
CURVE
70
0
62
7
6
CONTINUOUS
0
LAYER
5
201
100
AcDbSymbolTableRecord
100
AcDbLayerTableRecord
2
DRAFT
70
0
62
7
6
CONTINUOUS
0
LAYER
5
202
100
AcDbSymbolTableRecord
100
AcDbLayerTableRecord
2
IGES
70
0
62
7
6
CONTINUOUS
0
LAYER
5
203
100
AcDbSymbolTableRecord
100
AcDbLayerTableRecord
2
NOTE
70
0
62
7
6
CONTINUOUS
0
LAYER
5
204
100
AcDbSymbolTableRecord
100
AcDbLayerTableRecord
2
PIANI
70
0
62
7
6
CONTINUOUS
0
LAYER
5
205
100
AcDbSymbolTableRecord
100
AcDbLayerTableRecord
2
PIANI_ORIGINE
70
0
62
7
6
CONTINUOUS
0
LAYER
5
206
100
AcDbSymbolTableRecord
100
AcDbLayerTableRecord
2
PUNTI
70
0
62
7
6
CONTINUOUS
0
LAYER
5
207
100
AcDbSymbolTableRecord
100
AcDbLayerTableRecord
2
RACCORDO
70
0
62
7
6
CONTINUOUS
0
LAYER
5
208
100
AcDbSymbolTableRecord
100
AcDbLayerTableRecord
2
SMUSSO
70
0
62
7
6
CONTINUOUS
0
LAYER
5
209
100
AcDbSymbolTableRecord
100
AcDbLayerTableRecord
2
SNAPLINE
70
0
62
7
6
CONTINUOUS
0
LAYER
5
20A
100
AcDbSymbolTableRecord
100
AcDbLayerTableRecord
2
SUPERFICI
70
0
62
7
6
CONTINUOUS
0
LAYER
5
20B
100
AcDbSymbolTableRecord
100
AcDbLayerTableRecord
2
TRASH
70
0
62
7
6
CONTINUOUS
0
ENDTAB
0
TABLE
2
STYLE
5
3
100
AcDbSymbolTable
70
1
0
STYLE
5
11
100
AcDbSymbolTableRecord
100
AcDbTextStyleTableRecord
2
STANDARD
70
0
40
0.0
41
0.8000000000
50
0.0
71
0
42
0.2
3
txt
4

0
ENDTAB
0
TABLE
2
VIEW
5
6
100
AcDbSymbolTable
70
0
0
ENDTAB
0
TABLE
2
UCS
5
7
100
AcDbSymbolTable
70
0
0
ENDTAB
0
TABLE
2
APPID
5
9
100
AcDbSymbolTable
70
1
0
APPID
5
20C
100
AcDbSymbolTableRecord
100
AcDbRegAppTableRecord
2
ACAD
70
0
0
ENDTAB
0
TABLE
2
DIMSTYLE
5
A
100
AcDbSymbolTable
70
1
0
DIMSTYLE
105
20D
100
AcDbSymbolTableRecord
100
AcDbDimStyleTableRecord
2
STANDARD
70
0
3

4

5

6

7

40
1.0
41
3.0000000000
42
0.0625
43
0.38
44
0.18
45
0.0
46
0.0
47
0.0100000000
48
0.0100000000
140
3.0000000000
141
0.09
142
0.0
143
25.4
144
1.0000000000
145
0.0
146
1.0000000000
147
0.09
71
1
72
0
73
0
74
0
75
0
76
0
77
1
78
8
170
0
171
2
172
0
173
0
174
0
175
0
176
0
177
0
178
0
270
2
271
2
272
2
273
2
274
2
340
11
275
0
280
0
281
0
282
0
283
1
284
8
285
0
286
0
287
3
288
0
0
ENDTAB
0
TABLE
2
BLOCK_RECORD
5
1
100
AcDbSymbolTable
70
0
0
BLOCK_RECORD
5
1B
100
AcDbSymbolTableRecord
100
AcDbBlockTableRecord
2
*MODEL_SPACE
0
BLOCK_RECORD
5
1C
100
AcDbSymbolTableRecord
100
AcDbBlockTableRecord
2
*PAPER_SPACE
0
ENDTAB
0
ENDSEC
0
SECTION
2
BLOCKS
0
BLOCK
5
1E
100
AcDbEntity
8
0
100
AcDbBlockBegin
2
*MODEL_SPACE
70
0
10
0.0
20
0.0
30
0.0
3
*MODEL_SPACE
1

0
ENDBLK
5
1F
100
AcDbEntity
8
0
100
AcDbBlockEnd
0
BLOCK
5
20
100
AcDbEntity
8
0
100
AcDbBlockBegin
2
*PAPER_SPACE
70
0
10
0.0
20
0.0
30
0.0
3
*PAPER_SPACE
1

0
ENDBLK
5
21
100
AcDbEntity
8
0
100
AcDbBlockEnd
0
ENDSEC
0
SECTION
2
ENTITIES
0
LINE
5
20E
100
AcDbEntity
8
0
100
AcDbLine
62
7
6
CONTINUOUS
10
-471.9033746226
20
144.5379712386
11
-471.9033746226
21
-262.4620287614
0
LINE
5
20F
100
AcDbEntity
8
0
100
AcDbLine
62
9
6
CONTINUOUS
10
-469.9033746226
20
144.5379712386
11
-469.9033746226
21
-262.4620287614
0
LINE
5
210
100
AcDbEntity
8
0
100
AcDbLine
62
7
6
CONTINUOUS
10
-469.9033746226
20
144.5379712386
11
-469.9033746226
21
146.5379712386
0
LINE
5
211
100
AcDbEntity
8
0
100
AcDbLine
62
7
6
CONTINUOUS
10
-469.9033746226
20
-262.4620287614
11
-469.9033746226
21
-264.4620287614
0
LINE
5
212
100
AcDbEntity
8
0
100
AcDbLine
62
9
6
CONTINUOUS
10
-467.9033746226
20
-264.4620287614
11
-467.9033746226
21
-262.9620287614
0
LINE
5
213
100
AcDbEntity
8
0
100
AcDbLine
62
9
6
CONTINUOUS
10
-467.9033746226
20
145.0379712386
11
-467.9033746226
21
146.5379712386
0
LINE
5
214
100
AcDbEntity
8
0
100
AcDbLine
62
7
6
CONTINUOUS
10
-457.9033746226
20
142.5379712386
11
-457.9033746226
21
-260.4620287614
0
LINE
5
215
100
AcDbEntity
8
DEFAULT_3
100
AcDbLine
62
8
6
PHANTOM
10
-445.9033746226
20
-259.4620287614
11
-445.9033746226
21
141.5379712386
0
LINE
5
216
100
AcDbEntity
8
DEFAULT_3
100
AcDbLine
62
8
6
PHANTOM
10
-444.9033746226
20
-258.4620287614
11
-444.9033746226
21
140.5379712386
0
LINE
5
217
100
AcDbEntity
8
0
100
AcDbLine
62
7
6
CONTINUOUS
10
-438.1533746226
20
-63.3620287614
11
-438.1533746226
21
-54.5620287614
0
LINE
5
218
100
AcDbEntity
8
0
100
AcDbLine
62
7
6
CONTINUOUS
10
-437.4033746226
20
-91.2042815656
11
-437.4033746226
21
-73.4620287614
0
LINE
5
219
100
AcDbEntity
8
0
100
AcDbLine
62
7
6
CONTINUOUS
10
-437.4033746226
20
-62.9620287614
11
-437.4033746226
21
-54.9620287614
0
LINE
5
21A
100
AcDbEntity
8
0
100
AcDbLine
62
7
6
CONTINUOUS
10
-435.8033746226
20
-65.0808521777
11
-435.8033746226
21
-71.8620287614
0
LINE
5
21B
100
AcDbEntity
8
0
100
AcDbLine
62
7
6
CONTINUOUS
10
-431.7013149962
20
-59.2599691351
11
-431.7013149962
21
-58.6640883878
0
LINE
5
21C
100
AcDbEntity
8
0
100
AcDbLine
62
7
6
CONTINUOUS
10
-430.2013149962
20
-60.7599691351
11
-430.2013149962
21
-59.2599691351
0
LINE
5
21D
100
AcDbEntity
8
0
100
AcDbLine
62
7
6
CONTINUOUS
10
-430.2013149962
20
-58.6640883878
11
-430.2013149962
21
-57.1640883878
0
LINE
5
21E
100
AcDbEntity
8
0
100
AcDbLine
62
7
6
CONTINUOUS
10
-429.6054342489
20
-57.1640883878
11
-429.6054342489
21
-58.6640883878
0
LINE
5
21F
100
AcDbEntity
8
0
100
AcDbLine
62
7
6
CONTINUOUS
10
-429.6054342489
20
-59.2599691351
11
-429.6054342489
21
-60.7599691351
0
LINE
5
220
100
AcDbEntity
8
0
100
AcDbLine
62
7
6
CONTINUOUS
10
-428.1054342489
20
-58.6640883878
11
-428.1054342489
21
-59.2599691351
0
LINE
5
221
100
AcDbEntity
8
0
100
AcDbLine
62
7
6
CONTINUOUS
10
-424.0033746226
20
-71.8620287614
11
-424.0033746226
21
-65.0808521777
0
LINE
5
222
100
AcDbEntity
8
0
100
AcDbLine
62
7
6
CONTINUOUS
10
-422.4033746226
20
-91.2042815656
11
-422.4033746226
21
-73.4620287614
0
LINE
5
223
100
AcDbEntity
8
0
100
AcDbLine
62
7
6
CONTINUOUS
10
-422.4033746226
20
-62.9620287614
11
-422.4033746226
21
-54.9620287614
0
LINE
5
224
100
AcDbEntity
8
0
100
AcDbLine
62
7
6
CONTINUOUS
10
-421.6533746226
20
-54.5620287614
11
-421.6533746226
21
-63.3620287614
0
LINE
5
225
100
AcDbEntity
8
0
100
AcDbLine
62
9
6
CONTINUOUS
10
-408.9033746226
20
146.5379712386
11
-408.9033746226
21
145.0379712386
0
LINE
5
226
100
AcDbEntity
8
0
100
AcDbLine
62
9
6
CONTINUOUS
10
-408.9033746226
20
-262.9620287614
11
-408.9033746226
21
-264.4620287614
0
LINE
5
227
100
AcDbEntity
8
0
100
AcDbLine
62
7
6
CONTINUOUS
10
-406.9033746226
20
146.5379712386
11
-406.9033746226
21
-264.4620287614
0
LINE
5
228
100
AcDbEntity
8
0
100
AcDbLine
62
7
6
CONTINUOUS
10
-442.6050805447
20
-58.9620287614
11
-436.2542275836
21
-47.9620287614
0
LINE
5
229
100
AcDbEntity
8
0
100
AcDbLine
62
7
6
CONTINUOUS
10
-436.2542275836
20
-69.9620287614
11
-442.6050805447
21
-58.9620287614
0
LINE
5
22A
100
AcDbEntity
8
0
100
AcDbLine
62
7
6
CONTINUOUS
10
-417.2016687004
20
-58.9620287614
11
-423.5525216615
21
-69.9620287614
0
LINE
5
22B
100
AcDbEntity
8
0
100
AcDbLine
62
7
6
CONTINUOUS
10
114.3966253774
20
-276.2620287614
11
117.7966253774
21
-276.2620287614
0
LINE
5
22C
100
AcDbEntity
8
0
100
AcDbLine
62
7
6
CONTINUOUS
10
113.5966253774
20
-275.4620287614
11
118.5966253774
21
-275.4620287614
0
LINE
5
22D
100
AcDbEntity
8
0
100
AcDbLine
62
7
6
CONTINUOUS
10
123.5966253774
20
-267.2620287614
11
108.5966253774
21
-267.2620287614
0
LINE
5
22E
100
AcDbEntity
8
0
100
AcDbLine
62
7
6
CONTINUOUS
10
58.0966253774
20
-264.4620287614
11
123.5966253774
21
-264.4620287614
0
LINE
5
22F
100
AcDbEntity
8
0
100
AcDbLine
62
7
6
CONTINUOUS
10
-406.9033746226
20
-264.4620287614
11
-469.9033746226
21
-264.4620287614
0
LINE
5
230
100
AcDbEntity
8
0
100
AcDbLine
62
7
6
CONTINUOUS
10
58.0966253774
20
-262.9620287614
11
121.0966253774
21
-262.9620287614
0
LINE
5
231
100
AcDbEntity
8
0
100
AcDbLine
62
7
6
CONTINUOUS
10
-406.9033746226
20
-262.9620287614
11
-469.9033746226
21
-262.9620287614
0
LINE
5
232
100
AcDbEntity
8
0
100
AcDbLine
62
9
6
CONTINUOUS
10
-459.9033746226
20
-262.4620287614
11
-406.9033746226
21
-262.4620287614
0
LINE
5
233
100
AcDbEntity
8
0
100
AcDbLine
62
9
6
CONTINUOUS
10
58.0966253774
20
-262.4620287614
11
111.0966253774
21
-262.4620287614
0
LINE
5
234
100
AcDbEntity
8
0
100
AcDbLine
62
7
6
CONTINUOUS
10
111.0966253774
20
-262.4620287614
11
123.0966253774
21
-262.4620287614
0
LINE
5
235
100
AcDbEntity
8
0
100
AcDbLine
62
7
6
CONTINUOUS
10
-459.9033746226
20
-262.4620287614
11
-471.9033746226
21
-262.4620287614
0
LINE
5
236
100
AcDbEntity
8
DEFAULT_3
100
AcDbLine
62
8
6
PHANTOM
10
88.0966253774
20
-259.4620287614
11
-445.9033746226
21
-259.4620287614
0
LINE
5
237
100
AcDbEntity
8
DEFAULT_3
100
AcDbLine
62
8
6
PHANTOM
10
87.0966253774
20
-258.4620287614
11
-444.9033746226
21
-258.4620287614
0
LINE
5
238
100
AcDbEntity
8
0
100
AcDbLine
62
7
6
CONTINUOUS
10
-423.5525216615
20
-47.9620287614
11
-417.2016687004
21
-58.9620287614
0
LINE
5
239
100
AcDbEntity
8
0
100
AcDbLine
62
7
6
CONTINUOUS
10
-429.6054342489
20
-57.1640883878
11
-429.4231396832
21
-56.9817938220
0
LINE
5
23A
100
AcDbEntity
8
0
100
AcDbLine
62
7
6
CONTINUOUS
10
-431.7013149962
20
-59.2599691351
11
-431.8836095620
21
-59.4422637008
0
LINE
5
23B
100
AcDbEntity
8
0
100
AcDbLine
62
7
6
CONTINUOUS
10
-429.6054342489
20
-58.6640883878
11
-429.4033746226
21
-58.4620287614
0
LINE
5
23C
100
AcDbEntity
8
0
100
AcDbLine
62
7
6
CONTINUOUS
10
-430.2013149962
20
-59.2599691351
11
-430.4033746226
21
-59.4620287614
0
LINE
5
23D
100
AcDbEntity
8
0
100
AcDbLine
62
7
6
CONTINUOUS
10
-428.1054342489
20
-58.6640883878
11
-427.9231396832
21
-58.4817938220
0
LINE
5
23E
100
AcDbEntity
8
0
100
AcDbLine
62
7
6
CONTINUOUS
10
-430.2013149962
20
-60.7599691351
11
-430.3836095620
21
-60.9422637008
0
LINE
5
23F
100
AcDbEntity
8
0
100
AcDbLine
62
7
6
CONTINUOUS
10
-435.8033746226
20
-71.8620287614
11
-437.4033746226
21
-73.4620287614
0
LINE
5
240
100
AcDbEntity
8
0
100
AcDbLine
62
7
6
CONTINUOUS
10
-422.4033746226
20
-73.4620287614
11
-424.0033746226
21
-71.8620287614
0
LINE
5
241
100
AcDbEntity
8
0
100
AcDbLine
62
7
6
CONTINUOUS
10
-429.6054342489
20
-60.7599691351
11
-429.4231396832
21
-60.9422637008
0
LINE
5
242
100
AcDbEntity
8
0
100
AcDbLine
62
7
6
CONTINUOUS
10
-431.7013149962
20
-58.6640883878
11
-431.8836095620
21
-58.4817938220
0
LINE
5
243
100
AcDbEntity
8
0
100
AcDbLine
62
7
6
CONTINUOUS
10
-429.6054342489
20
-59.2599691351
11
-429.4033746226
21
-59.4620287614
0
LINE
5
244
100
AcDbEntity
8
0
100
AcDbLine
62
7
6
CONTINUOUS
10
-430.2013149962
20
-58.6640883878
11
-430.4033746226
21
-58.4620287614
0
LINE
5
245
100
AcDbEntity
8
0
100
AcDbLine
62
7
6
CONTINUOUS
10
-428.1054342489
20
-59.2599691351
11
-427.9231396832
21
-59.4422637008
0
LINE
5
246
100
AcDbEntity
8
0
100
AcDbLine
62
7
6
CONTINUOUS
10
-430.2013149962
20
-57.1640883878
11
-430.3836095620
21
-56.9817938220
0
LINE
5
247
100
AcDbEntity
8
0
100
AcDbLine
62
7
6
CONTINUOUS
10
70.2098740315
20
-227.4620287614
11
75.9833767234
21
-227.4620287614
0
LINE
5
248
100
AcDbEntity
8
0
100
AcDbLine
62
7
6
CONTINUOUS
10
75.9833767234
20
-217.4620287614
11
70.2098740315
21
-217.4620287614
0
LINE
5
249
100
AcDbEntity
8
0
100
AcDbLine
62
7
6
CONTINUOUS
10
109.0966253774
20
-211.2620287614
11
96.8966253774
21
-211.2620287614
0
LINE
5
24A
100
AcDbEntity
8
0
100
AcDbLine
62
7
6
CONTINUOUS
10
109.0966253774
20
-206.2620287614
11
96.8966253774
21
-206.2620287614
0
LINE
5
24B
100
AcDbEntity
8
DEFAULT_3
100
AcDbLine
62
8
6
PHANTOM
10
-444.9033746226
20
-258.4620287614
11
-445.9033746226
21
-259.4620287614
0
LINE
5
24C
100
AcDbEntity
8
DEFAULT_3
100
AcDbLine
62
8
6
PHANTOM
10
-444.9033746226
20
140.5379712386
11
-445.9033746226
21
141.5379712386
0
LINE
5
24D
100
AcDbEntity
8
0
100
AcDbLine
62
7
6
CONTINUOUS
10
-423.5525216615
20
-69.9620287614
11
-424.0033746226
21
-69.9620287614
0
LINE
5
24E
100
AcDbEntity
8
0
100
AcDbLine
62
7
6
CONTINUOUS
10
-435.8033746226
20
-69.9620287614
11
-436.2542275836
21
-69.9620287614
0
LINE
5
24F
100
AcDbEntity
8
0
100
AcDbLine
62
7
6
CONTINUOUS
10
-423.1940244481
20
-64.1807086938
11
-436.6127247970
21
-64.1807086938
0
LINE
5
250
100
AcDbEntity
8
0
100
AcDbLine
62
7
6
CONTINUOUS
10
-429.6054342489
20
-60.7599691351
11
-430.2013149962
21
-60.7599691351
0
LINE
5
251
100
AcDbEntity
8
0
100
AcDbLine
62
7
6
CONTINUOUS
10
-428.1054342489
20
-59.2599691351
11
-429.6054342489
21
-59.2599691351
0
LINE
5
252
100
AcDbEntity
8
0
100
AcDbLine
62
7
6
CONTINUOUS
10
-430.2013149962
20
-59.2599691351
11
-431.7013149962
21
-59.2599691351
0
LINE
5
253
100
AcDbEntity
8
0
100
AcDbLine
62
7
6
CONTINUOUS
10
-431.7013149962
20
-58.6640883878
11
-430.2013149962
21
-58.6640883878
0
LINE
5
254
100
AcDbEntity
8
0
100
AcDbLine
62
7
6
CONTINUOUS
10
-429.6054342489
20
-58.6640883878
11
-428.1054342489
21
-58.6640883878
0
LINE
5
255
100
AcDbEntity
8
0
100
AcDbLine
62
7
6
CONTINUOUS
10
-430.2013149962
20
-57.1640883878
11
-429.6054342489
21
-57.1640883878
0
LINE
5
256
100
AcDbEntity
8
0
100
AcDbLine
62
7
6
CONTINUOUS
10
-436.2542275836
20
-47.9620287614
11
-423.5525216615
21
-47.9620287614
0
LINE
5
257
100
AcDbEntity
8
DEFAULT_3
100
AcDbLine
62
8
6
PHANTOM
10
87.0966253774
20
140.5379712386
11
88.0966253774
21
141.5379712386
0
LINE
5
258
100
AcDbEntity
8
0
100
AcDbLine
62
7
6
CONTINUOUS
10
114.3966253774
20
158.3379712386
11
113.5966253774
21
157.5379712386
0
LINE
5
259
100
AcDbEntity
8
DEFAULT_3
100
AcDbLine
62
8
6
PHANTOM
10
87.0966253774
20
-258.4620287614
11
88.0966253774
21
-259.4620287614
0
LINE
5
25A
100
AcDbEntity
8
0
100
AcDbLine
62
7
6
CONTINUOUS
10
114.3966253774
20
-276.2620287614
11
113.5966253774
21
-275.4620287614
0
LINE
5
25B
100
AcDbEntity
8
0
100
AcDbLine
62
7
6
CONTINUOUS
10
96.8966253774
20
93.3379712386
11
96.0966253774
21
92.5379712386
0
LINE
5
25C
100
AcDbEntity
8
0
100
AcDbLine
62
7
6
CONTINUOUS
10
96.8966253774
20
-211.2620287614
11
96.0966253774
21
-210.4620287614
0
LINE
5
25D
100
AcDbEntity
8
0
100
AcDbLine
62
7
6
CONTINUOUS
10
70.2098740315
20
109.5379712386
11
67.3231226855
21
104.5379712386
0
LINE
5
25E
100
AcDbEntity
8
0
100
AcDbLine
62
7
6
CONTINUOUS
10
75.9833767234
20
99.5379712386
11
78.8701280693
21
104.5379712386
0
LINE
5
25F
100
AcDbEntity
8
0
100
AcDbLine
62
7
6
CONTINUOUS
10
109.0966253774
20
88.3379712386
11
96.8966253774
21
88.3379712386
0
LINE
5
260
100
AcDbEntity
8
0
100
AcDbLine
62
7
6
CONTINUOUS
10
67.3231226855
20
-222.4620287614
11
70.2098740315
21
-227.4620287614
0
LINE
5
261
100
AcDbEntity
8
0
100
AcDbLine
62
7
6
CONTINUOUS
10
78.8701280693
20
-222.4620287614
11
75.9833767234
21
-217.4620287614
0
LINE
5
262
100
AcDbEntity
8
0
100
AcDbLine
62
7
6
CONTINUOUS
10
109.0966253774
20
93.3379712386
11
96.8966253774
21
93.3379712386
0
LINE
5
263
100
AcDbEntity
8
0
100
AcDbLine
62
7
6
CONTINUOUS
10
70.2098740315
20
99.5379712386
11
75.9833767234
21
99.5379712386
0
LINE
5
264
100
AcDbEntity
8
0
100
AcDbLine
62
7
6
CONTINUOUS
10
75.9833767234
20
109.5379712386
11
70.2098740315
21
109.5379712386
0
LINE
5
265
100
AcDbEntity
8
DEFAULT_3
100
AcDbLine
62
8
6
PHANTOM
10
-444.9033746226
20
140.5379712386
11
87.0966253774
21
140.5379712386
0
LINE
5
266
100
AcDbEntity
8
DEFAULT_3
100
AcDbLine
62
8
6
PHANTOM
10
-445.9033746226
20
141.5379712386
11
88.0966253774
21
141.5379712386
0
LINE
5
267
100
AcDbEntity
8
0
100
AcDbLine
62
9
6
CONTINUOUS
10
111.0966253774
20
144.5379712386
11
58.0966253774
21
144.5379712386
0
LINE
5
268
100
AcDbEntity
8
0
100
AcDbLine
62
7
6
CONTINUOUS
10
111.0966253774
20
144.5379712386
11
123.0966253774
21
144.5379712386
0
LINE
5
269
100
AcDbEntity
8
0
100
AcDbLine
62
9
6
CONTINUOUS
10
-406.9033746226
20
144.5379712386
11
-459.9033746226
21
144.5379712386
0
LINE
5
26A
100
AcDbEntity
8
0
100
AcDbLine
62
7
6
CONTINUOUS
10
-459.9033746226
20
144.5379712386
11
-471.9033746226
21
144.5379712386
0
LINE
5
26B
100
AcDbEntity
8
0
100
AcDbLine
62
7
6
CONTINUOUS
10
58.0966253774
20
145.0379712386
11
121.0966253774
21
145.0379712386
0
LINE
5
26C
100
AcDbEntity
8
0
100
AcDbLine
62
7
6
CONTINUOUS
10
-406.9033746226
20
145.0379712386
11
-469.9033746226
21
145.0379712386
0
LINE
5
26D
100
AcDbEntity
8
0
100
AcDbLine
62
7
6
CONTINUOUS
10
58.0966253774
20
146.5379712386
11
123.5966253774
21
146.5379712386
0
LINE
5
26E
100
AcDbEntity
8
0
100
AcDbLine
62
7
6
CONTINUOUS
10
-406.9033746226
20
146.5379712386
11
-469.9033746226
21
146.5379712386
0
LINE
5
26F
100
AcDbEntity
8
0
100
AcDbLine
62
7
6
CONTINUOUS
10
108.5966253774
20
149.3379712386
11
123.5966253774
21
149.3379712386
0
LINE
5
270
100
AcDbEntity
8
0
100
AcDbLine
62
7
6
CONTINUOUS
10
118.5966253774
20
157.5379712386
11
113.5966253774
21
157.5379712386
0
LINE
5
271
100
AcDbEntity
8
0
100
AcDbLine
62
7
6
CONTINUOUS
10
117.7966253774
20
158.3379712386
11
114.3966253774
21
158.3379712386
0
LINE
5
272
100
AcDbEntity
8
0
100
AcDbLine
62
7
6
CONTINUOUS
10
58.0966253774
20
146.5379712386
11
58.0966253774
21
-264.4620287614
0
LINE
5
273
100
AcDbEntity
8
0
100
AcDbLine
62
9
6
CONTINUOUS
10
60.0966253774
20
-264.4620287614
11
60.0966253774
21
-262.9620287614
0
LINE
5
274
100
AcDbEntity
8
0
100
AcDbLine
62
9
6
CONTINUOUS
10
60.0966253774
20
145.0379712386
11
60.0966253774
21
146.5379712386
0
LINE
5
275
100
AcDbEntity
8
DEFAULT_3
100
AcDbLine
62
8
6
PHANTOM
10
87.0966253774
20
140.5379712386
11
87.0966253774
21
-258.4620287614
0
LINE
5
276
100
AcDbEntity
8
DEFAULT_3
100
AcDbLine
62
8
6
PHANTOM
10
88.0966253774
20
141.5379712386
11
88.0966253774
21
-259.4620287614
0
LINE
5
277
100
AcDbEntity
8
0
100
AcDbLine
62
7
6
CONTINUOUS
10
96.0966253774
20
-210.4620287614
11
96.0966253774
21
-207.0620287614
0
LINE
5
278
100
AcDbEntity
8
0
100
AcDbLine
62
7
6
CONTINUOUS
10
96.0966253774
20
89.1379712386
11
96.0966253774
21
92.5379712386
0
LINE
5
279
100
AcDbEntity
8
0
100
AcDbLine
62
7
6
CONTINUOUS
10
96.8966253774
20
-211.2620287614
11
96.8966253774
21
-206.2620287614
0
LINE
5
27A
100
AcDbEntity
8
0
100
AcDbLine
62
7
6
CONTINUOUS
10
96.8966253774
20
88.3379712386
11
96.8966253774
21
93.3379712386
0
LINE
5
27B
100
AcDbEntity
8
0
100
AcDbLine
62
7
6
CONTINUOUS
10
108.5966253774
20
146.5379712386
11
108.5966253774
21
149.3379712386
0
LINE
5
27C
100
AcDbEntity
8
0
100
AcDbLine
62
7
6
CONTINUOUS
10
108.5966253774
20
-264.4620287614
11
108.5966253774
21
-267.2620287614
0
LINE
5
27D
100
AcDbEntity
8
0
100
AcDbLine
62
7
6
CONTINUOUS
10
109.0966253774
20
-260.4620287614
11
109.0966253774
21
142.5379712386
0
LINE
5
27E
100
AcDbEntity
8
0
100
AcDbLine
62
7
6
CONTINUOUS
10
112.1966253774
20
144.5379712386
11
112.1966253774
21
145.0379712386
0
LINE
5
27F
100
AcDbEntity
8
0
100
AcDbLine
62
7
6
CONTINUOUS
10
112.1966253774
20
-262.4620287614
11
112.1966253774
21
-262.9620287614
0
LINE
5
280
100
AcDbEntity
8
0
100
AcDbLine
62
7
6
CONTINUOUS
10
113.5966253774
20
-275.4620287614
11
113.5966253774
21
-267.2620287614
0
LINE
5
281
100
AcDbEntity
8
0
100
AcDbLine
62
7
6
CONTINUOUS
10
113.5966253774
20
157.5379712386
11
113.5966253774
21
149.3379712386
0
LINE
5
282
100
AcDbEntity
8
0
100
AcDbLine
62
7
6
CONTINUOUS
10
118.5966253774
20
-275.4620287614
11
118.5966253774
21
-267.2620287614
0
LINE
5
283
100
AcDbEntity
8
0
100
AcDbLine
62
7
6
CONTINUOUS
10
118.5966253774
20
157.5379712386
11
118.5966253774
21
149.3379712386
0
LINE
5
284
100
AcDbEntity
8
0
100
AcDbLine
62
9
6
CONTINUOUS
10
119.0966253774
20
146.5379712386
11
119.0966253774
21
145.0379712386
0
LINE
5
285
100
AcDbEntity
8
0
100
AcDbLine
62
9
6
CONTINUOUS
10
119.0966253774
20
-262.9620287614
11
119.0966253774
21
-264.4620287614
0
LINE
5
286
100
AcDbEntity
8
0
100
AcDbLine
62
7
6
CONTINUOUS
10
119.9966253774
20
144.5379712386
11
119.9966253774
21
145.0379712386
0
LINE
5
287
100
AcDbEntity
8
0
100
AcDbLine
62
7
6
CONTINUOUS
10
119.9966253774
20
-262.4620287614
11
119.9966253774
21
-262.9620287614
0
LINE
5
288
100
AcDbEntity
8
0
100
AcDbLine
62
9
6
CONTINUOUS
10
121.0966253774
20
-262.4620287614
11
121.0966253774
21
144.5379712386
0
LINE
5
289
100
AcDbEntity
8
0
100
AcDbLine
62
7
6
CONTINUOUS
10
121.0966253774
20
144.5379712386
11
121.0966253774
21
146.5379712386
0
LINE
5
28A
100
AcDbEntity
8
0
100
AcDbLine
62
7
6
CONTINUOUS
10
121.0966253774
20
-262.4620287614
11
121.0966253774
21
-264.4620287614
0
LINE
5
28B
100
AcDbEntity
8
0
100
AcDbLine
62
7
6
CONTINUOUS
10
123.0966253774
20
-262.4620287614
11
123.0966253774
21
144.5379712386
0
LINE
5
28C
100
AcDbEntity
8
0
100
AcDbLine
62
7
6
CONTINUOUS
10
123.5966253774
20
146.5379712386
11
123.5966253774
21
149.3379712386
0
LINE
5
28D
100
AcDbEntity
8
0
100
AcDbLine
62
7
6
CONTINUOUS
10
123.5966253774
20
-264.4620287614
11
123.5966253774
21
-267.2620287614
0
LINE
5
28E
100
AcDbEntity
8
0
100
AcDbLine
62
7
6
CONTINUOUS
10
70.2098740315
20
-217.4620287614
11
67.3231226855
21
-222.4620287614
0
LINE
5
28F
100
AcDbEntity
8
0
100
AcDbLine
62
7
6
CONTINUOUS
10
96.8966253774
20
-206.2620287614
11
96.0966253774
21
-207.0620287614
0
LINE
5
290
100
AcDbEntity
8
0
100
AcDbLine
62
7
6
CONTINUOUS
10
96.8966253774
20
88.3379712386
11
96.0966253774
21
89.1379712386
0
LINE
5
291
100
AcDbEntity
8
0
100
AcDbLine
62
7
6
CONTINUOUS
10
67.3231226855
20
104.5379712386
11
70.2098740315
21
99.5379712386
0
LINE
5
292
100
AcDbEntity
8
0
100
AcDbLine
62
7
6
CONTINUOUS
10
75.9833767234
20
-227.4620287614
11
78.8701280693
21
-222.4620287614
0
LINE
5
293
100
AcDbEntity
8
0
100
AcDbLine
62
7
6
CONTINUOUS
10
78.8701280693
20
104.5379712386
11
75.9833767234
21
109.5379712386
0
LINE
5
294
100
AcDbEntity
8
0
100
AcDbLine
62
7
6
CONTINUOUS
10
117.7966253774
20
-276.2620287614
11
118.5966253774
21
-275.4620287614
0
LINE
5
295
100
AcDbEntity
8
0
100
AcDbLine
62
7
6
CONTINUOUS
10
117.7966253774
20
158.3379712386
11
118.5966253774
21
157.5379712386
0
CIRCLE
5
296
100
AcDbEntity
8
0
100
AcDbCircle
62
7
6
CONTINUOUS
10
116.0966253774
20
-206.4620287614
40
3.7500000000
0
CIRCLE
5
297
100
AcDbEntity
8
0
100
AcDbCircle
62
9
6
CONTINUOUS
10
116.0966253774
20
-206.4620287614
40
3.7086807617
0
CIRCLE
5
298
100
AcDbEntity
8
0
100
AcDbCircle
62
9
6
CONTINUOUS
10
116.0966253774
20
-206.4620287614
40
1.5071067812
0
CIRCLE
5
299
100
AcDbEntity
8
0
100
AcDbCircle
62
9
6
CONTINUOUS
10
116.0966253774
20
-206.4620287614
40
1.1535533906
0
CIRCLE
5
29A
100
AcDbEntity
8
0
100
AcDbCircle
62
9
6
CONTINUOUS
10
116.0966253774
20
-206.4620287614
40
1.7251712409
0
CIRCLE
5
29B
100
AcDbEntity
8
0
100
AcDbCircle
62
7
6
CONTINUOUS
10
116.0966253774
20
-191.4620287614
40
3.7500000000
0
CIRCLE
5
29C
100
AcDbEntity
8
0
100
AcDbCircle
62
9
6
CONTINUOUS
10
116.0966253774
20
-191.4620287614
40
3.7086807617
0
CIRCLE
5
29D
100
AcDbEntity
8
0
100
AcDbCircle
62
9
6
CONTINUOUS
10
116.0966253774
20
-191.4620287614
40
1.5071067812
0
CIRCLE
5
29E
100
AcDbEntity
8
0
100
AcDbCircle
62
9
6
CONTINUOUS
10
116.0966253774
20
-191.4620287614
40
1.1535533906
0
CIRCLE
5
29F
100
AcDbEntity
8
0
100
AcDbCircle
62
9
6
CONTINUOUS
10
116.0966253774
20
-191.4620287614
40
1.7251712409
0
CIRCLE
5
2A0
100
AcDbEntity
8
0
100
AcDbCircle
62
7
6
CONTINUOUS
10
116.0966253774
20
73.5379712386
40
3.7500000000
0
CIRCLE
5
2A1
100
AcDbEntity
8
0
100
AcDbCircle
62
9
6
CONTINUOUS
10
116.0966253774
20
73.5379712386
40
3.7086807617
0
CIRCLE
5
2A2
100
AcDbEntity
8
0
100
AcDbCircle
62
9
6
CONTINUOUS
10
116.0966253774
20
73.5379712386
40
1.5071067812
0
CIRCLE
5
2A3
100
AcDbEntity
8
0
100
AcDbCircle
62
9
6
CONTINUOUS
10
116.0966253774
20
73.5379712386
40
1.1535533906
0
CIRCLE
5
2A4
100
AcDbEntity
8
0
100
AcDbCircle
62
9
6
CONTINUOUS
10
116.0966253774
20
73.5379712386
40
1.7251712409
0
CIRCLE
5
2A5
100
AcDbEntity
8
0
100
AcDbCircle
62
7
6
CONTINUOUS
10
116.0966253774
20
88.5379712386
40
3.7500000000
0
CIRCLE
5
2A6
100
AcDbEntity
8
0
100
AcDbCircle
62
9
6
CONTINUOUS
10
116.0966253774
20
88.5379712386
40
3.7086807617
0
CIRCLE
5
2A7
100
AcDbEntity
8
0
100
AcDbCircle
62
9
6
CONTINUOUS
10
116.0966253774
20
88.5379712386
40
1.5071067812
0
CIRCLE
5
2A8
100
AcDbEntity
8
0
100
AcDbCircle
62
9
6
CONTINUOUS
10
116.0966253774
20
88.5379712386
40
1.1535533906
0
CIRCLE
5
2A9
100
AcDbEntity
8
0
100
AcDbCircle
62
9
6
CONTINUOUS
10
116.0966253774
20
88.5379712386
40
1.7251712409
0
CIRCLE
5
2AA
100
AcDbEntity
8
0
100
AcDbCircle
62
7
6
CONTINUOUS
10
73.0966253774
20
-222.4620287614
40
6.7500000000
0
CIRCLE
5
2AB
100
AcDbEntity
8
0
100
AcDbCircle
62
7
6
CONTINUOUS
10
73.0966253774
20
-222.4620287614
40
4.7735026919
0
CIRCLE
5
2AC
100
AcDbEntity
8
0
100
AcDbCircle
62
7
6
CONTINUOUS
10
73.0966253774
20
104.5379712386
40
6.7500000000
0
CIRCLE
5
2AD
100
AcDbEntity
8
0
100
AcDbCircle
62
7
6
CONTINUOUS
10
73.0966253774
20
104.5379712386
40
4.7735026919
0
CIRCLE
5
2AE
100
AcDbEntity
8
0
100
AcDbCircle
62
7
6
CONTINUOUS
10
73.0966253774
20
-222.4620287614
40
7.5000000000
0
CIRCLE
5
2AF
100
AcDbEntity
8
0
100
AcDbCircle
62
7
6
CONTINUOUS
10
73.0966253774
20
-222.4620287614
40
7.0000000000
0
CIRCLE
5
2B0
100
AcDbEntity
8
0
100
AcDbCircle
62
7
6
CONTINUOUS
10
73.0966253774
20
104.5379712386
40
7.5000000000
0
CIRCLE
5
2B1
100
AcDbEntity
8
0
100
AcDbCircle
62
7
6
CONTINUOUS
10
73.0966253774
20
104.5379712386
40
7.0000000000
0
ARC
5
2B2
100
AcDbEntity
8
0
100
AcDbCircle
62
7
6
CONTINUOUS
10
-429.9033746226
20
-58.9620287614
40
9.3500000000
100
AcDbArc
50
28.0724869359
51
151.9275130641
0
ARC
5
2B3
100
AcDbEntity
8
0
100
AcDbCircle
62
7
6
CONTINUOUS
10
-429.9033746226
20
-58.9620287614
40
9.3500000000
100
AcDbArc
50
208.0724869359
51
230.8690459593
0
ARC
5
2B4
100
AcDbEntity
8
0
100
AcDbCircle
62
7
6
CONTINUOUS
10
-429.9033746226
20
-58.9620287614
40
9.3500000000
100
AcDbArc
50
309.1309540407
51
331.9275130641
0
ARC
5
2B5
100
AcDbEntity
8
0
100
AcDbCircle
62
7
6
CONTINUOUS
10
-429.9033746226
20
-58.9620287614
40
12.5000000000
100
AcDbArc
50
1.6853311366
51
58.3146688634
0
ARC
5
2B6
100
AcDbEntity
8
0
100
AcDbCircle
62
7
6
CONTINUOUS
10
-429.9033746226
20
-58.9620287614
40
12.5000000000
100
AcDbArc
50
301.6853311366
51
358.3146688634
0
ARC
5
2B7
100
AcDbEntity
8
0
100
AcDbCircle
62
7
6
CONTINUOUS
10
-429.9033746226
20
-58.9620287614
40
12.5000000000
100
AcDbArc
50
298.1801064150
51
298.3146688634
0
ARC
5
2B8
100
AcDbEntity
8
0
100
AcDbCircle
62
7
6
CONTINUOUS
10
-429.9033746226
20
-58.9620287614
40
12.5000000000
100
AcDbArc
50
241.6853311366
51
241.8198935850
0
ARC
5
2B9
100
AcDbEntity
8
0
100
AcDbCircle
62
7
6
CONTINUOUS
10
-429.9033746226
20
-58.9620287614
40
12.5000000000
100
AcDbArc
50
181.6853311366
51
238.3146688634
0
ARC
5
2BA
100
AcDbEntity
8
0
100
AcDbCircle
62
7
6
CONTINUOUS
10
-429.9033746226
20
-58.9620287614
40
12.5000000000
100
AcDbArc
50
121.6853311366
51
178.3146688634
0
ARC
5
2BB
100
AcDbEntity
8
0
100
AcDbCircle
62
7
6
CONTINUOUS
10
-429.9033746226
20
-58.9620287614
40
12.5000000000
100
AcDbArc
50
61.6853311366
51
118.3146688634
0
ARC
5
2BC
100
AcDbEntity
8
0
100
AcDbCircle
62
7
6
CONTINUOUS
10
-429.9033746226
20
-58.9620287614
40
8.5000000000
100
AcDbArc
50
208.0724869359
51
226.0430532762
0
ARC
5
2BD
100
AcDbEntity
8
0
100
AcDbCircle
62
7
6
CONTINUOUS
10
-429.9033746226
20
-58.9620287614
40
8.5000000000
100
AcDbArc
50
28.0724869359
51
151.9275130641
0
ARC
5
2BE
100
AcDbEntity
8
0
100
AcDbCircle
62
7
6
CONTINUOUS
10
-429.9033746226
20
-58.9620287614
40
8.5000000000
100
AcDbArc
50
313.9569467238
51
331.9275130641
0
CIRCLE
5
2BF
100
AcDbEntity
8
0
100
AcDbCircle
62
7
6
CONTINUOUS
10
-429.9033746226
20
-58.9620287614
40
4.5000000000
0
ARC
5
2C0
100
AcDbEntity
8
0
100
AcDbCircle
62
7
6
CONTINUOUS
10
-429.9033746226
20
-58.9620287614
40
10.7500000000
100
AcDbArc
50
303.2885480750
51
236.7114519250
0
ARC
5
2C1
100
AcDbEntity
8
0
100
AcDbCircle
62
7
6
CONTINUOUS
10
111.0966253774
20
-260.4620287614
40
2.0000000000
100
AcDbArc
50
180.0000000000
51
270.0000000000
0
ARC
5
2C2
100
AcDbEntity
8
0
100
AcDbCircle
62
7
6
CONTINUOUS
10
111.0966253774
20
142.5379712386
40
2.0000000000
100
AcDbArc
50
90.0000000000
51
180.0000000000
0
CIRCLE
5
2C3
100
AcDbEntity
8
0
100
AcDbCircle
62
7
6
CONTINUOUS
10
93.0966253774
20
-232.4620287614
40
3.0000000000
0
CIRCLE
5
2C4
100
AcDbEntity
8
0
100
AcDbCircle
62
7
6
CONTINUOUS
10
73.0966253774
20
104.5379712386
40
3.0000000000
0
CIRCLE
5
2C5
100
AcDbEntity
8
0
100
AcDbCircle
62
7
6
CONTINUOUS
10
73.0966253774
20
-222.4620287614
40
3.0000000000
0
ARC
5
2C6
100
AcDbEntity
8
0
100
AcDbCircle
62
7
6
CONTINUOUS
10
-459.9033746226
20
142.5379712386
40
2.0000000000
100
AcDbArc
50
0.0000000000
51
90.0000000000
0
ARC
5
2C7
100
AcDbEntity
8
0
100
AcDbCircle
62
7
6
CONTINUOUS
10
-459.9033746226
20
-260.4620287614
40
2.0000000000
100
AcDbArc
50
270.0000000000
51
360.0000000000
0
SPLINE
5
2C8
100
AcDbEntity
8
0
100
AcDbSpline
62
7
6
CONTINUOUS
70
0
71
3
72
13
73
9
74
7
42
0.0000001000
43
0.0000001000
44
0.0000000001
12
14.2954792199
22
-5.5584171921
32
0.0000000000
13
14.2954792199
23
5.5584171921
33
0.0000000000
40
0.0000000000
40
0.0000000000
40
0.0000000000
40
0.0000000000
40
0.1663319461
40
0.3330630118
40
0.5000000000
40
0.6669369882
40
0.8336680539
40
1.0000000000
40
1.0000000000
40
1.0000000000
40
1.0000000000
10
-437.4033746226
20
-91.2042815656
30
0.0000000000
10
-436.6107763295
20
-91.5124623485
30
0.0000000000
10
-434.9834073587
20
-92.0311293114
30
0.0000000000
10
-432.4644922986
20
-92.5019292379
30
0.0000000000
10
-429.9033746226
20
-92.6597966921
30
0.0000000000
10
-427.3422569466
20
-92.5019292379
30
0.0000000000
10
-424.8233418864
20
-92.0311293114
30
0.0000000000
10
-423.1959729157
20
-91.5124623485
30
0.0000000000
10
-422.4033746226
20
-91.2042815656
30
0.0000000000
11
-437.4033746226
21
-91.2042815656
31
0.0000000000
11
-434.9727512761
21
-91.9793668452
31
0.0000000000
11
-432.4590133416
21
-92.4495601837
31
0.0000000000
11
-429.9033746226
21
-92.6071525613
31
0.0000000000
11
-427.3477359035
21
-92.4495601837
31
0.0000000000
11
-424.8339979690
21
-91.9793668452
31
0.0000000000
11
-422.4033746226
21
-91.2042815656
31
0.0000000000
0
SPLINE
5
2C9
100
AcDbEntity
8
0
100
AcDbSpline
62
7
6
CONTINUOUS
70
0
71
3
72
13
73
9
74
7
42
0.0000001000
43
0.0000001000
44
0.0000000001
12
-14.2954792199
22
-5.5584171921
32
0.0000000000
13
-14.2954792199
23
5.5584171921
33
0.0000000000
40
0.0000000000
40
0.0000000000
40
0.0000000000
40
0.0000000000
40
0.1663319461
40
0.3330630118
40
0.5000000000
40
0.6669369882
40
0.8336680539
40
1.0000000000
40
1.0000000000
40
1.0000000000
40
1.0000000000
10
-422.4033746226
20
-90.6525574276
30
0.0000000000
10
-423.1959729157
20
-90.9607382106
30
0.0000000000
10
-424.8233418864
20
-91.4794051735
30
0.0000000000
10
-427.3422569466
20
-91.9502051000
30
0.0000000000
10
-429.9033746226
20
-92.1080725542
30
0.0000000000
10
-432.4644922986
20
-91.9502051000
30
0.0000000000
10
-434.9834073587
20
-91.4794051735
30
0.0000000000
10
-436.6107763295
20
-90.9607382106
30
0.0000000000
10
-437.4033746226
20
-90.6525574276
30
0.0000000000
11
-422.4033746226
21
-90.6525574276
31
0.0000000000
11
-424.8339979690
21
-91.4276427072
31
0.0000000000
11
-427.3477359035
21
-91.8978360458
31
0.0000000000
11
-429.9033746226
21
-92.0554284233
31
0.0000000000
11
-432.4590133416
21
-91.8978360458
31
0.0000000000
11
-434.9727512761
21
-91.4276427072
31
0.0000000000
11
-437.4033746226
21
-90.6525574276
31
0.0000000000
0
SPLINE
5
2CA
100
AcDbEntity
8
0
100
AcDbSpline
62
7
6
CONTINUOUS
70
0
71
3
72
10
73
6
74
4
42
0.0000001000
43
0.0000001000
44
0.0000000001
12
0.4802370081
22
0.0000000000
32
0.0000000000
13
0.4802306155
23
-0.0024778710
33
0.0000000000
40
0.0000000000
40
0.0000000000
40
0.0000000000
40
0.0000000000
40
0.3346045636
40
0.6681381611
40
1.0000000000
40
1.0000000000
40
1.0000000000
40
1.0000000000
10
-429.9033746226
20
-56.9805559590
30
0.0000000000
10
-429.8498114577
20
-56.9805559590
30
0.0000000000
10
-429.7428565434
20
-56.9806481167
30
0.0000000000
10
-429.5827780037
20
-56.9810616315
30
0.0000000000
10
-429.4762630882
20
-56.9815197184
30
0.0000000000
10
-429.4231396832
20
-56.9817938220
30
0.0000000000
11
-429.9033746226
21
-56.9805559590
31
0.0000000000
11
-429.7426851877
21
-56.9806944439
31
0.0000000000
11
-429.5825105454
21
-56.9811082869
31
0.0000000000
11
-429.4231396832
21
-56.9817938220
31
0.0000000000
0
SPLINE
5
2CB
100
AcDbEntity
8
0
100
AcDbSpline
62
7
6
CONTINUOUS
70
0
71
3
72
10
73
6
74
4
42
0.0000001000
43
0.0000001000
44
0.0000000001
12
-0.4802370081
22
0.0000000000
32
0.0000000000
13
-0.4802306155
23
0.0024778710
33
0.0000000000
40
0.0000000000
40
0.0000000000
40
0.0000000000
40
0.0000000000
40
0.3346045636
40
0.6681381611
40
1.0000000000
40
1.0000000000
40
1.0000000000
40
1.0000000000
10
-429.9033746226
20
-60.9435015638
30
0.0000000000
10
-429.9569377874
20
-60.9435015638
30
0.0000000000
10
-430.0638927018
20
-60.9434094061
30
0.0000000000
10
-430.2239712414
20
-60.9429958914
30
0.0000000000
10
-430.3304861569
20
-60.9425378044
30
0.0000000000
10
-430.3836095620
20
-60.9422637008
30
0.0000000000
11
-429.9033746226
21
-60.9435015638
31
0.0000000000
11
-430.0640640574
21
-60.9433630789
31
0.0000000000
11
-430.2242386997
21
-60.9429492359
31
0.0000000000
11
-430.3836095620
21
-60.9422637008
31
0.0000000000
0
SPLINE
5
2CC
100
AcDbEntity
8
0
100
AcDbSpline
62
7
6
CONTINUOUS
70
0
71
3
72
10
73
6
74
4
42
0.0000001000
43
0.0000001000
44
0.0000000001
12
0.4802306155
22
0.0024778710
32
0.0000000000
13
0.4802370081
23
-0.0000000000
33
0.0000000000
40
0.0000000000
40
0.0000000000
40
0.0000000000
40
0.0000000000
40
0.3319470555
40
0.6654640393
40
1.0000000000
40
1.0000000000
40
1.0000000000
40
1.0000000000
10
-430.3836095620
20
-56.9817938220
30
0.0000000000
10
-430.3304725157
20
-56.9815196480
30
0.0000000000
10
-430.2239466183
20
-56.9810615373
30
0.0000000000
10
-430.0638680785
20
-56.9806480861
30
0.0000000000
10
-429.9569268055
20
-56.9805559590
30
0.0000000000
10
-429.9033746226
20
-56.9805559590
30
0.0000000000
11
-430.3836095620
21
-56.9817938220
31
0.0000000000
11
-430.2241977758
21
-56.9811081459
31
0.0000000000
11
-430.0640311118
21
-56.9806943872
31
0.0000000000
11
-429.9033746226
21
-56.9805559590
31
0.0000000000
0
SPLINE
5
2CD
100
AcDbEntity
8
0
100
AcDbSpline
62
7
6
CONTINUOUS
70
0
71
3
72
16
73
12
74
10
42
0.0000001000
43
0.0000001000
44
0.0000000001
12
0.0078596139
22
1.4803621696
32
0.0000000000
13
0.0320052075
23
1.4800370244
33
0.0000000000
40
0.0000000000
40
0.0000000000
40
0.0000000000
40
0.0000000000
40
0.1446788206
40
0.2727250257
40
0.3882219558
40
0.4951862000
40
0.5976288021
40
0.6988632346
40
0.7995812912
40
0.8999189804
40
1.0000000000
40
1.0000000000
40
1.0000000000
40
1.0000000000
10
-430.4033746226
20
-58.4620287614
30
0.0000000000
10
-430.4029955827
20
-58.3906364105
30
0.0000000000
10
-430.4021275116
20
-58.2560599011
30
0.0000000000
10
-430.4004773673
20
-58.0644944858
30
0.0000000000
10
-430.3986510875
20
-57.8915423013
30
0.0000000000
10
-430.3966711833
20
-57.7312271016
30
0.0000000000
10
-430.3945177414
20
-57.5779527976
30
0.0000000000
10
-430.3921571393
20
-57.4277641692
30
0.0000000000
10
-430.3895637815
20
-57.2786182265
30
0.0000000000
10
-430.3867305727
20
-57.1300459183
30
0.0000000000
10
-430.3846772666
20
-57.0311683601
30
0.0000000000
10
-430.3836095620
20
-56.9817938220
30
0.0000000000
11
-430.4033746226
21
-58.4620287614
31
0.0000000000
11
-430.4019926340
21
-58.2478531487
31
0.0000000000
11
-430.4003594059
21
-58.0583027551
31
0.0000000000
11
-430.3985536555
21
-57.8873325952
31
0.0000000000
11
-430.3965978201
21
-57.7289966220
31
0.0000000000
11
-430.3944669705
21
-57.5773573027
31
0.0000000000
11
-430.3921113208
21
-57.4275100810
31
0.0000000000
11
-430.3895186743
21
-57.2784313217
31
0.0000000000
11
-430.3866861277
21
-57.1299201189
31
0.0000000000
11
-430.3836095620
21
-56.9817938220
31
0.0000000000
0
SPLINE
5
2CE
100
AcDbEntity
8
0
100
AcDbSpline
62
7
6
CONTINUOUS
70
0
71
3
72
15
73
11
74
9
42
0.0000001000
43
0.0000001000
44
0.0000000001
12
1.4800369748
22
0.0320052065
32
0.0000000000
13
1.4803621201
23
0.0078596136
33
0.0000000000
40
0.0000000000
40
0.0000000000
40
0.0000000000
40
0.0000000000
40
0.1160706953
40
0.2320431172
40
0.3485960214
40
0.4664268351
40
0.5870610763
40
0.7138575591
40
0.8503073998
40
1.0000000000
40
1.0000000000
40
1.0000000000
40
1.0000000000
10
-431.8836095620
20
-58.4817938220
30
0.0000000000
10
-431.8263465884
20
-58.4805555332
30
0.0000000000
10
-431.7118666289
20
-58.4781939217
30
0.0000000000
10
-431.5398779550
20
-58.4749831090
30
0.0000000000
10
-431.3670149499
20
-58.4720909263
30
0.0000000000
10
-431.1918465143
20
-58.4694981315
30
0.0000000000
10
-431.0116189812
20
-58.4671803817
30
0.0000000000
10
-430.8221999430
20
-58.4651223463
30
0.0000000000
10
-430.6184383596
20
-58.4633372966
30
0.0000000000
10
-430.4772410409
20
-58.4624209367
30
0.0000000000
10
-430.4033746226
20
-58.4620287614
30
0.0000000000
11
-431.8836095620
21
-58.4817938220
31
0.0000000000
11
-431.7118170472
21
-58.4782490522
31
0.0000000000
11
-431.5401633712
21
-58.4750437358
31
0.0000000000
11
-431.3676445913
21
-58.4721566348
31
0.0000000000
11
-431.1932289740
21
-58.4695743730
31
0.0000000000
11
-431.0146588689
21
-58.4672773765
31
0.0000000000
11
-430.8269625974
21
-58.4652375142
31
0.0000000000
11
-430.6249723306
21
-58.4634674395
31
0.0000000000
11
-430.4033746226
21
-58.4620287614
31
0.0000000000
0
SPLINE
5
2CF
100
AcDbEntity
8
0
100
AcDbSpline
62
7
6
CONTINUOUS
70
0
71
3
72
10
73
6
74
4
42
0.0000001000
43
0.0000001000
44
0.0000000001
12
-0.0049557402
22
0.9604608760
32
0.0000000000
13
0.0049557402
23
0.9604608760
33
0.0000000000
40
0.0000000000
40
0.0000000000
40
0.0000000000
40
0.0000000000
40
0.3328070337
40
0.6671929178
40
1.0000000000
40
1.0000000000
40
1.0000000000
40
1.0000000000
10
-431.8836095620
20
-59.4422637008
30
0.0000000000
10
-431.8841593304
20
-59.3357143224
30
0.0000000000
10
-431.8848935441
20
-59.1221080054
30
0.0000000000
10
-431.8848935442
20
-58.8019495484
30
0.0000000000
10
-431.8841593304
20
-58.5883432159
30
0.0000000000
10
-431.8836095620
20
-58.4817938220
30
0.0000000000
11
-431.8836095620
21
-59.4422637008
31
0.0000000000
11
-431.8847091210
21
-59.1226132019
31
0.0000000000
11
-431.8847091210
21
-58.8014443675
31
0.0000000000
11
-431.8836095620
21
-58.4817938220
31
0.0000000000
0
SPLINE
5
2D0
100
AcDbEntity
8
0
100
AcDbSpline
62
7
6
CONTINUOUS
70
0
71
3
72
15
73
11
74
9
42
0.0000001000
43
0.0000001000
44
0.0000000001
12
-1.4803621179
22
0.0078596136
32
0.0000000000
13
-1.4800369726
23
0.0320052064
33
0.0000000000
40
0.0000000000
40
0.0000000000
40
0.0000000000
40
0.0000000000
40
0.1546157540
40
0.2925013647
40
0.4185697721
40
0.5376308442
40
0.6541984108
40
0.7698885810
40
0.8850458830
40
1.0000000000
40
1.0000000000
40
1.0000000000
40
1.0000000000
10
-430.4033746226
20
-59.4620287614
30
0.0000000000
10
-430.4796703909
20
-59.4616236880
30
0.0000000000
10
-430.6240055029
20
-59.4606813621
30
0.0000000000
10
-430.8305454247
20
-59.4588534259
30
0.0000000000
10
-431.0195372099
20
-59.4567818361
30
0.0000000000
10
-431.1980057655
20
-59.4544726865
30
0.0000000000
10
-431.3713488668
20
-59.4518971770
30
0.0000000000
10
-431.5427606412
20
-59.4490225588
30
0.0000000000
10
-431.7133705281
20
-59.4458331156
30
0.0000000000
10
-431.8268974475
20
-59.4434900775
30
0.0000000000
10
-431.8836095620
20
-59.4422637008
30
0.0000000000
11
-430.4033746226
21
-59.4620287614
31
0.0000000000
11
-430.6322602718
21
-59.4605338437
31
0.0000000000
11
-430.8363757846
21
-59.4587267977
31
0.0000000000
11
-431.0229940928
21
-59.4566806837
31
0.0000000000
11
-431.1992353191
21
-59.4543998095
31
0.0000000000
11
-431.3717809079
21
-59.4518355563
31
0.0000000000
11
-431.5430225775
21
-59.4489631264
31
0.0000000000
11
-431.7134696925
21
-59.4457759831
31
0.0000000000
11
-431.8836095620
21
-59.4422637008
31
0.0000000000
0
SPLINE
5
2D1
100
AcDbEntity
8
0
100
AcDbSpline
62
7
6
CONTINUOUS
70
0
71
3
72
16
73
12
74
10
42
0.0000001000
43
0.0000001000
44
0.0000000001
12
-0.0320052076
22
1.4800370275
32
0.0000000000
13
-0.0078596139
23
1.4803621727
33
0.0000000000
40
0.0000000000
40
0.0000000000
40
0.0000000000
40
0.0000000000
40
0.1016060292
40
0.2031955299
40
0.3051629993
40
0.4079213899
40
0.5122181184
40
0.6205675573
40
0.7359712154
40
0.8614297626
40
1.0000000000
40
1.0000000000
40
1.0000000000
40
1.0000000000
10
-430.3836095620
20
-60.9422637008
30
0.0000000000
10
-430.3846935360
20
-60.8921368057
30
0.0000000000
10
-430.3867739805
20
-60.7918892599
30
0.0000000000
10
-430.3896396142
20
-60.6413304167
30
0.0000000000
10
-430.3922589497
20
-60.4901983521
30
0.0000000000
10
-430.3946434194
20
-60.3377263243
30
0.0000000000
10
-430.3968134461
20
-60.1821015256
30
0.0000000000
10
-430.3987913422
20
-60.0202337284
30
0.0000000000
10
-430.4005867262
20
-59.8479206502
30
0.0000000000
10
-430.4021774698
20
-59.6606921741
30
0.0000000000
10
-430.4030115864
20
-59.5304068073
30
0.0000000000
10
-430.4033746226
20
-59.4620287614
30
0.0000000000
11
-430.3836095620
21
-60.9422637008
31
0.0000000000
11
-430.3867310586
21
-60.7918802516
31
0.0000000000
11
-430.3895935072
21
-60.6415161214
31
0.0000000000
11
-430.3922097825
21
-60.4905878837
31
0.0000000000
11
-430.3945889140
21
-60.3384847109
31
0.0000000000
11
-430.3967420364
21
-60.1841006167
31
0.0000000000
11
-430.3987022197
21
-60.0237139232
31
0.0000000000
11
-430.4004825684
21
-59.8528815822
31
0.0000000000
11
-430.4020609042
21
-59.6671615836
31
0.0000000000
11
-430.4033746226
21
-59.4620287614
31
0.0000000000
0
SPLINE
5
2D2
100
AcDbEntity
8
0
100
AcDbSpline
62
7
6
CONTINUOUS
70
0
71
3
72
16
73
12
74
10
42
0.0000001000
43
0.0000001000
44
0.0000000001
12
0.0320052076
22
-1.4800370275
32
0.0000000000
13
0.0078596139
23
-1.4803621727
33
0.0000000000
40
0.0000000000
40
0.0000000000
40
0.0000000000
40
0.0000000000
40
0.1016060292
40
0.2031955299
40
0.3051629993
40
0.4079213899
40
0.5122181184
40
0.6205675573
40
0.7359712154
40
0.8614297626
40
1.0000000000
40
1.0000000000
40
1.0000000000
40
1.0000000000
10
-429.4231396832
20
-56.9817938220
30
0.0000000000
10
-429.4220557091
20
-57.0319207171
30
0.0000000000
10
-429.4199752646
20
-57.1321682629
30
0.0000000000
10
-429.4171096309
20
-57.2827271061
30
0.0000000000
10
-429.4144902954
20
-57.4338591707
30
0.0000000000
10
-429.4121058257
20
-57.5863311985
30
0.0000000000
10
-429.4099357991
20
-57.7419559972
30
0.0000000000
10
-429.4079579029
20
-57.9038237944
30
0.0000000000
10
-429.4061625189
20
-58.0761368727
30
0.0000000000
10
-429.4045717753
20
-58.2633653487
30
0.0000000000
10
-429.4037376587
20
-58.3936507155
30
0.0000000000
10
-429.4033746226
20
-58.4620287614
30
0.0000000000
11
-429.4231396832
21
-56.9817938220
31
0.0000000000
11
-429.4200181865
21
-57.1321772712
31
0.0000000000
11
-429.4171557379
21
-57.2825414014
31
0.0000000000
11
-429.4145394626
21
-57.4334696391
31
0.0000000000
11
-429.4121603311
21
-57.5855728119
31
0.0000000000
11
-429.4100072087
21
-57.7399569061
31
0.0000000000
11
-429.4080470254
21
-57.9003435996
31
0.0000000000
11
-429.4062666767
21
-58.0711759406
31
0.0000000000
11
-429.4046883409
21
-58.2568959392
31
0.0000000000
11
-429.4033746226
21
-58.4620287614
31
0.0000000000
0
SPLINE
5
2D3
100
AcDbEntity
8
0
100
AcDbSpline
62
7
6
CONTINUOUS
70
0
71
3
72
15
73
11
74
9
42
0.0000001000
43
0.0000001000
44
0.0000000001
12
1.4803621179
22
-0.0078596136
32
0.0000000000
13
1.4800369726
23
-0.0320052064
33
0.0000000000
40
0.0000000000
40
0.0000000000
40
0.0000000000
40
0.0000000000
40
0.1546157540
40
0.2925013647
40
0.4185697721
40
0.5376308442
40
0.6541984108
40
0.7698885810
40
0.8850458830
40
1.0000000000
40
1.0000000000
40
1.0000000000
40
1.0000000000
10
-429.4033746226
20
-58.4620287614
30
0.0000000000
10
-429.3270788542
20
-58.4624338348
30
0.0000000000
10
-429.1827437423
20
-58.4633761607
30
0.0000000000
10
-428.9762038204
20
-58.4652040969
30
0.0000000000
10
-428.7872120353
20
-58.4672756867
30
0.0000000000
10
-428.6087434796
20
-58.4695848363
30
0.0000000000
10
-428.4354003783
20
-58.4721603458
30
0.0000000000
10
-428.2639886040
20
-58.4750349640
30
0.0000000000
10
-428.0933787170
20
-58.4782244072
30
0.0000000000
10
-427.9798517976
20
-58.4805674453
30
0.0000000000
10
-427.9231396832
20
-58.4817938220
30
0.0000000000
11
-429.4033746226
21
-58.4620287614
31
0.0000000000
11
-429.1744889733
21
-58.4635236791
31
0.0000000000
11
-428.9703734606
21
-58.4653307251
31
0.0000000000
11
-428.7837551523
21
-58.4673768391
31
0.0000000000
11
-428.6075139260
21
-58.4696577133
31
0.0000000000
11
-428.4349683373
21
-58.4722219665
31
0.0000000000
11
-428.2637266676
21
-58.4750943964
31
0.0000000000
11
-428.0932795526
21
-58.4782815397
31
0.0000000000
11
-427.9231396832
21
-58.4817938220
31
0.0000000000
0
SPLINE
5
2D4
100
AcDbEntity
8
0
100
AcDbSpline
62
7
6
CONTINUOUS
70
0
71
3
72
10
73
6
74
4
42
0.0000001000
43
0.0000001000
44
0.0000000001
12
0.0049557402
22
-0.9604608760
32
0.0000000000
13
-0.0049557402
23
-0.9604608760
33
0.0000000000
40
0.0000000000
40
0.0000000000
40
0.0000000000
40
0.0000000000
40
0.3328070337
40
0.6671929178
40
1.0000000000
40
1.0000000000
40
1.0000000000
40
1.0000000000
10
-427.9231396832
20
-58.4817938220
30
0.0000000000
10
-427.9225899148
20
-58.5883432004
30
0.0000000000
10
-427.9218557010
20
-58.8019495174
30
0.0000000000
10
-427.9218557009
20
-59.1221079744
30
0.0000000000
10
-427.9225899147
20
-59.3357143069
30
0.0000000000
10
-427.9231396832
20
-59.4422637008
30
0.0000000000
11
-427.9231396832
21
-58.4817938220
31
0.0000000000
11
-427.9220401242
21
-58.8014443209
31
0.0000000000
11
-427.9220401241
21
-59.1226131553
31
0.0000000000
11
-427.9231396832
21
-59.4422637008
31
0.0000000000
0
SPLINE
5
2D5
100
AcDbEntity
8
0
100
AcDbSpline
62
7
6
CONTINUOUS
70
0
71
3
72
15
73
11
74
9
42
0.0000001000
43
0.0000001000
44
0.0000000001
12
-1.4800369748
22
-0.0320052065
32
0.0000000000
13
-1.4803621201
23
-0.0078596136
33
0.0000000000
40
0.0000000000
40
0.0000000000
40
0.0000000000
40
0.0000000000
40
0.1160706953
40
0.2320431172
40
0.3485960214
40
0.4664268351
40
0.5870610763
40
0.7138575591
40
0.8503073998
40
1.0000000000
40
1.0000000000
40
1.0000000000
40
1.0000000000
10
-427.9231396832
20
-59.4422637008
30
0.0000000000
10
-427.9804026567
20
-59.4435019897
30
0.0000000000
10
-428.0948826162
20
-59.4458636011
30
0.0000000000
10
-428.2668712902
20
-59.4490744138
30
0.0000000000
10
-428.4397342952
20
-59.4519665965
30
0.0000000000
10
-428.6149027308
20
-59.4545593913
30
0.0000000000
10
-428.7951302639
20
-59.4568771411
30
0.0000000000
10
-428.9845493021
20
-59.4589351766
30
0.0000000000
10
-429.1883108855
20
-59.4607202262
30
0.0000000000
10
-429.3295082042
20
-59.4616365861
30
0.0000000000
10
-429.4033746226
20
-59.4620287614
30
0.0000000000
11
-427.9231396832
21
-59.4422637008
31
0.0000000000
11
-428.0949321979
21
-59.4458084707
31
0.0000000000
11
-428.2665858739
21
-59.4490137870
31
0.0000000000
11
-428.4391046538
21
-59.4519008880
31
0.0000000000
11
-428.6135202711
21
-59.4544831498
31
0.0000000000
11
-428.7920903762
21
-59.4567801463
31
0.0000000000
11
-428.9797866477
21
-59.4588200086
31
0.0000000000
11
-429.1817769145
21
-59.4605900833
31
0.0000000000
11
-429.4033746226
21
-59.4620287614
31
0.0000000000
0
SPLINE
5
2D6
100
AcDbEntity
8
0
100
AcDbSpline
62
7
6
CONTINUOUS
70
0
71
3
72
16
73
12
74
10
42
0.0000001000
43
0.0000001000
44
0.0000000001
12
-0.0078596139
22
-1.4803621696
32
0.0000000000
13
-0.0320052075
23
-1.4800370244
33
0.0000000000
40
0.0000000000
40
0.0000000000
40
0.0000000000
40
0.0000000000
40
0.1446788206
40
0.2727250257
40
0.3882219558
40
0.4951862000
40
0.5976288021
40
0.6988632346
40
0.7995812912
40
0.8999189804
40
1.0000000000
40
1.0000000000
40
1.0000000000
40
1.0000000000
10
-429.4033746226
20
-59.4620287614
30
0.0000000000
10
-429.4037536624
20
-59.5334211123
30
0.0000000000
10
-429.4046217335
20
-59.6679976217
30
0.0000000000
10
-429.4062718778
20
-59.8595630370
30
0.0000000000
10
-429.4080981576
20
-60.0325152216
30
0.0000000000
10
-429.4100780618
20
-60.1928304212
30
0.0000000000
10
-429.4122315037
20
-60.3461047252
30
0.0000000000
10
-429.4145921058
20
-60.4962933536
30
0.0000000000
10
-429.4171854636
20
-60.6454392963
30
0.0000000000
10
-429.4200186724
20
-60.7940116045
30
0.0000000000
10
-429.4220719786
20
-60.8928891627
30
0.0000000000
10
-429.4231396832
20
-60.9422637008
30
0.0000000000
11
-429.4033746226
21
-59.4620287614
31
0.0000000000
11
-429.4047566111
21
-59.6762043741
31
0.0000000000
11
-429.4063898393
21
-59.8657547677
31
0.0000000000
11
-429.4081955896
21
-60.0367249276
31
0.0000000000
11
-429.4101514251
21
-60.1950609008
31
0.0000000000
11
-429.4122822746
21
-60.3467002201
31
0.0000000000
11
-429.4146379243
21
-60.4965474418
31
0.0000000000
11
-429.4172305708
21
-60.6456262011
31
0.0000000000
11
-429.4200631174
21
-60.7941374039
31
0.0000000000
11
-429.4231396832
21
-60.9422637008
31
0.0000000000
0
SPLINE
5
2D7
100
AcDbEntity
8
0
100
AcDbSpline
62
7
6
CONTINUOUS
70
0
71
3
72
10
73
6
74
4
42
0.0000001000
43
0.0000001000
44
0.0000000001
12
-0.4802306155
22
-0.0024778710
32
0.0000000000
13
-0.4802370081
23
0.0000000000
33
0.0000000000
40
0.0000000000
40
0.0000000000
40
0.0000000000
40
0.0000000000
40
0.3319470555
40
0.6654640393
40
1.0000000000
40
1.0000000000
40
1.0000000000
40
1.0000000000
10
-429.4231396832
20
-60.9422637008
30
0.0000000000
10
-429.4762767294
20
-60.9425378748
30
0.0000000000
10
-429.5828026268
20
-60.9429959855
30
0.0000000000
10
-429.7428811666
20
-60.9434094367
30
0.0000000000
10
-429.8498224396
20
-60.9435015638
30
0.0000000000
10
-429.9033746226
20
-60.9435015638
30
0.0000000000
11
-429.4231396832
21
-60.9422637008
31
0.0000000000
11
-429.5825514693
21
-60.9429493769
31
0.0000000000
11
-429.7427181333
21
-60.9433631357
31
0.0000000000
11
-429.9033746226
21
-60.9435015638
31
0.0000000000
0
ENDSEC
0
SECTION
2
OBJECTS
0
DICTIONARY
5
2D8
100
AcDbDictionary
3
ACAD_GROUP
350
2D9
3
ACAD_MLINESTYLE
350
2DA
0
DICTIONARY
5
2D9
102
{ACAD_REACTORS
330
2D8
102
}
100
AcDbDictionary
0
DICTIONARY
5
2DA
102
{ACAD_REACTORS
330
2D8
102
}
100
AcDbDictionary
3
STANDARD
350
2DB
0
MLINESTYLE
5
2DB
102
{ACAD_REACTORS
330
2DA
102
}
100
AcDbMlineStyle
2
STANDARD
70
0
3

62
256
51
90.0
52
90.0
71
2
49
0.5
62
256
6
BYLAYER
49
-0.5
62
256
6
BYLAYER
0
ENDSEC
0
EOF
