0
SECTION
2
HEADER
9
$ACADVER
1
AC1014
9
$HANDSEED
5
       2E0
9
$EXTMAX
10
297.0000000000
20
210.0000000000
9
$EXTMIN
10
0.0000000000
20
0.0000000000
9
$LIMMIN
10
0.0000000000
20
0.0000000000
9
$LIMMAX
10
297.0000000000
20
210.0000000000
9
$VIEWCTR
10
148.5000000000
20
105.0000000000
9
$VIEWSIZE
40
210.0000000000
9
$CLAYER
8
0
9
$LTSCALE
40
16.3350000000
9
$CELTYPE
6
BYLAYER
9
$DIMSCALE
40
1
9
$DIMASZ
40
3.0000000000
9
$DIMEXO
40
1.8562500000
9
$DIMDLI
40
11.2860000000
9
$DIMEXE
40
5.3460000000
9
$DIMCEN
40
2.6730000000
9
$DIMLFAC
40
1.0000000000
9
$DIMTXT
40
3.0000000000
9
$DIMTOL
70
1
9
$DIMLIM
70
0
9
$DIMTFAC
40
1.0000000000
9
$DIMTP
40
0.0100000000
9
$DIMTM
40
0.0100000000
9
$MEASUREMENT
70
1
0
ENDSEC
0
SECTION
2
CLASSES
0
ENDSEC
0
SECTION
2
TABLES
0
TABLE
2
VPORT
5
8
100
AcDbSymbolTable
70
2
0
VPORT
5
1F4
100
AcDbSymbolTableRecord
100
AcDbViewportTableRecord
2
*ACTIVE
70
0
10
0.0
20
0.0
11
1.0
21
1.0
12
148.5000000000
22
105.0000000000
13
0.0
23
0.0
14
1.0
24
1.0
15
0.0
25
0.0
16
0.0
26
0.0
36
1.0
17
0.0
27
0.0
37
0.0
40
210.0000000000
41
1.4142857143
42
50.0
43
0.0
44
0.0
50
0.0
51
0.0
71
0
72
100
73
1
74
1
75
0
76
0
77
0
78
0
0
ENDTAB
0
TABLE
2
LTYPE
5
5
100
AcDbSymbolTable
70
6
0
LTYPE
5
14
100
AcDbSymbolTableRecord
100
AcDbLinetypeTableRecord
2
BYBLOCK
70
0
3

72
65
73
0
40
0.0
0
LTYPE
5
15
100
AcDbSymbolTableRecord
100
AcDbLinetypeTableRecord
2
BYLAYER
70
0
3

72
65
73
0
40
0.0
0
LTYPE
5
16
100
AcDbSymbolTableRecord
100
AcDbLinetypeTableRecord
2
CONTINUOUS
70
64
3
Solid line
72
65
73
0
40
0
0
LTYPE
5
1F5
100
AcDbSymbolTableRecord
100
AcDbLinetypeTableRecord
2
CENTER
70
64
3
____ _ ____ _ ____ _ ____ _ ____ _ ____ _ ____
72
65
73
4
40
0.6
49
0.375
74
0
49
-0.075
74
0
49
0.075
74
0
49
-0.075
74
0
0
LTYPE
5
1F6
100
AcDbSymbolTableRecord
100
AcDbLinetypeTableRecord
2
HIDDEN
70
64
3
- - - - - - - - - - - - - - - - - - - -
72
65
73
2
40
0.2
49
0.1
74
0
49
-0.1
74
0
0
LTYPE
5
1F7
100
AcDbSymbolTableRecord
100
AcDbLinetypeTableRecord
2
PHANTOM
70
64
3
_____ _ _ _____ _ _ _____ _ _ _____
72
65
73
6
40
0.8
49
0.45
74
0
49
-0.05
74
0
49
0.1
74
0
49
-0.05
74
0
49
0.1
74
0
49
-0.05
74
0
0
LTYPE
5
1F8
100
AcDbSymbolTableRecord
100
AcDbLinetypeTableRecord
2
DOT
70
64
3
. . . . . . . . . . . . . . . . . . . .
72
65
73
2
40
0.2
49
0.1
74
0
49
-0.1
74
0
0
LTYPE
5
1F9
100
AcDbSymbolTableRecord
100
AcDbLinetypeTableRecord
2
DASHED
70
64
3
- - - - - - - - - - - - - - - - - - - -
72
65
73
2
40
0.2
49
0.1
74
0
49
-0.1
74
0
0
ENDTAB
0
TABLE
2
LAYER
5
2
100
AcDbSymbolTable
70
36
0
LAYER
5
10
100
AcDbSymbolTableRecord
100
AcDbLayerTableRecord
2
0
70
0
62
7
6
CONTINUOUS
0
LAYER
5
1FA
100
AcDbSymbolTableRecord
100
AcDbLayerTableRecord
2
DEFAULT_1
70
0
62
7
6
CENTER
0
LAYER
5
1FB
100
AcDbSymbolTableRecord
100
AcDbLayerTableRecord
2
DEFAULT_2
70
0
62
8
6
HIDDEN
0
LAYER
5
1FC
100
AcDbSymbolTableRecord
100
AcDbLayerTableRecord
2
DEFAULT_3
70
0
62
7
6
PHANTOM
0
LAYER
5
1FD
100
AcDbSymbolTableRecord
100
AcDbLayerTableRecord
2
ASSI
70
0
62
7
6
CONTINUOUS
0
LAYER
5
1FE
100
AcDbSymbolTableRecord
100
AcDbLayerTableRecord
2
COORDINATE
70
0
62
7
6
CONTINUOUS
0
LAYER
5
1FF
100
AcDbSymbolTableRecord
100
AcDbLayerTableRecord
2
COORD_ORIGINE
70
0
62
7
6
CONTINUOUS
0
LAYER
5
200
100
AcDbSymbolTableRecord
100
AcDbLayerTableRecord
2
CURVE
70
0
62
7
6
CONTINUOUS
0
LAYER
5
201
100
AcDbSymbolTableRecord
100
AcDbLayerTableRecord
2
DRAFT
70
0
62
7
6
CONTINUOUS
0
LAYER
5
202
100
AcDbSymbolTableRecord
100
AcDbLayerTableRecord
2
IGES
70
0
62
7
6
CONTINUOUS
0
LAYER
5
203
100
AcDbSymbolTableRecord
100
AcDbLayerTableRecord
2
NOTE
70
0
62
7
6
CONTINUOUS
0
LAYER
5
204
100
AcDbSymbolTableRecord
100
AcDbLayerTableRecord
2
PIANI
70
0
62
7
6
CONTINUOUS
0
LAYER
5
205
100
AcDbSymbolTableRecord
100
AcDbLayerTableRecord
2
PIANI_ORIGINE
70
0
62
7
6
CONTINUOUS
0
LAYER
5
206
100
AcDbSymbolTableRecord
100
AcDbLayerTableRecord
2
PUNTI
70
0
62
7
6
CONTINUOUS
0
LAYER
5
207
100
AcDbSymbolTableRecord
100
AcDbLayerTableRecord
2
RACCORDO
70
0
62
7
6
CONTINUOUS
0
LAYER
5
208
100
AcDbSymbolTableRecord
100
AcDbLayerTableRecord
2
SMUSSO
70
0
62
7
6
CONTINUOUS
0
LAYER
5
209
100
AcDbSymbolTableRecord
100
AcDbLayerTableRecord
2
SNAPLINE
70
0
62
7
6
CONTINUOUS
0
LAYER
5
20A
100
AcDbSymbolTableRecord
100
AcDbLayerTableRecord
2
SUPERFICI
70
0
62
7
6
CONTINUOUS
0
LAYER
5
20B
100
AcDbSymbolTableRecord
100
AcDbLayerTableRecord
2
TRASH
70
0
62
7
6
CONTINUOUS
0
ENDTAB
0
TABLE
2
STYLE
5
3
100
AcDbSymbolTable
70
1
0
STYLE
5
11
100
AcDbSymbolTableRecord
100
AcDbTextStyleTableRecord
2
STANDARD
70
0
40
0.0
41
0.8000000000
50
0.0
71
0
42
0.2
3
txt
4

0
ENDTAB
0
TABLE
2
VIEW
5
6
100
AcDbSymbolTable
70
0
0
ENDTAB
0
TABLE
2
UCS
5
7
100
AcDbSymbolTable
70
0
0
ENDTAB
0
TABLE
2
APPID
5
9
100
AcDbSymbolTable
70
1
0
APPID
5
20C
100
AcDbSymbolTableRecord
100
AcDbRegAppTableRecord
2
ACAD
70
0
0
ENDTAB
0
TABLE
2
DIMSTYLE
5
A
100
AcDbSymbolTable
70
1
0
DIMSTYLE
105
20D
100
AcDbSymbolTableRecord
100
AcDbDimStyleTableRecord
2
STANDARD
70
0
3

4

5

6

7

40
1.0
41
3.0000000000
42
0.0625
43
0.38
44
0.18
45
0.0
46
0.0
47
0.0100000000
48
0.0100000000
140
3.0000000000
141
0.09
142
0.0
143
25.4
144
1.0000000000
145
0.0
146
1.0000000000
147
0.09
71
1
72
0
73
0
74
0
75
0
76
0
77
1
78
8
170
0
171
2
172
0
173
0
174
0
175
0
176
0
177
0
178
0
270
2
271
2
272
2
273
2
274
2
340
11
275
0
280
0
281
0
282
0
283
1
284
8
285
0
286
0
287
3
288
0
0
ENDTAB
0
TABLE
2
BLOCK_RECORD
5
1
100
AcDbSymbolTable
70
0
0
BLOCK_RECORD
5
1B
100
AcDbSymbolTableRecord
100
AcDbBlockTableRecord
2
*MODEL_SPACE
0
BLOCK_RECORD
5
1C
100
AcDbSymbolTableRecord
100
AcDbBlockTableRecord
2
*PAPER_SPACE
0
ENDTAB
0
ENDSEC
0
SECTION
2
BLOCKS
0
BLOCK
5
1E
100
AcDbEntity
8
0
100
AcDbBlockBegin
2
*MODEL_SPACE
70
0
10
0.0
20
0.0
30
0.0
3
*MODEL_SPACE
1

0
ENDBLK
5
1F
100
AcDbEntity
8
0
100
AcDbBlockEnd
0
BLOCK
5
20
100
AcDbEntity
8
0
100
AcDbBlockBegin
2
*PAPER_SPACE
70
0
10
0.0
20
0.0
30
0.0
3
*PAPER_SPACE
1

0
ENDBLK
5
21
100
AcDbEntity
8
0
100
AcDbBlockEnd
0
ENDSEC
0
SECTION
2
ENTITIES
0
LINE
5
20E
100
AcDbEntity
8
0
100
AcDbLine
62
7
6
CONTINUOUS
10
-480.7625994044
20
151.3116436729
11
-480.7625994044
21
-389.6883563271
0
LINE
5
20F
100
AcDbEntity
8
0
100
AcDbLine
62
7
6
CONTINUOUS
10
-478.7625994044
20
-391.6883563271
11
-478.7625994044
21
-390.1883563271
0
LINE
5
210
100
AcDbEntity
8
0
100
AcDbLine
62
9
6
CONTINUOUS
10
-478.7625994044
20
151.3116436729
11
-478.7625994044
21
-389.6883563271
0
LINE
5
211
100
AcDbEntity
8
0
100
AcDbLine
62
7
6
CONTINUOUS
10
-478.7625994044
20
151.3116436729
11
-478.7625994044
21
151.8022062850
0
LINE
5
212
100
AcDbEntity
8
0
100
AcDbLine
62
7
6
CONTINUOUS
10
-478.7625994044
20
151.8116436729
11
-478.7625994044
21
153.3116436729
0
LINE
5
213
100
AcDbEntity
8
0
100
AcDbLine
62
7
6
CONTINUOUS
10
-478.7625994044
20
-389.6883563271
11
-478.7625994044
21
-390.1789189393
0
LINE
5
214
100
AcDbEntity
8
0
100
AcDbLine
62
9
6
CONTINUOUS
10
-476.7625994044
20
-391.6883563271
11
-476.7625994044
21
-390.1883563271
0
LINE
5
215
100
AcDbEntity
8
0
100
AcDbLine
62
9
6
CONTINUOUS
10
-476.7625994044
20
151.8116436729
11
-476.7625994044
21
153.3116436729
0
LINE
5
216
100
AcDbEntity
8
0
100
AcDbLine
62
7
6
CONTINUOUS
10
-466.7625994044
20
149.3116436729
11
-466.7625994044
21
-387.6883563271
0
LINE
5
217
100
AcDbEntity
8
DEFAULT_3
100
AcDbLine
62
8
6
PHANTOM
10
-454.7625994044
20
-386.6883563271
11
-454.7625994044
21
148.3116436729
0
LINE
5
218
100
AcDbEntity
8
0
100
AcDbLine
62
7
6
CONTINUOUS
10
105.5374005956
20
-403.4883563271
11
108.9374005956
21
-403.4883563271
0
LINE
5
219
100
AcDbEntity
8
0
100
AcDbLine
62
7
6
CONTINUOUS
10
104.7374005956
20
-402.6883563271
11
109.7374005956
21
-402.6883563271
0
LINE
5
21A
100
AcDbEntity
8
0
100
AcDbLine
62
7
6
CONTINUOUS
10
114.7374005956
20
-394.4883563271
11
99.7374005956
21
-394.4883563271
0
LINE
5
21B
100
AcDbEntity
8
0
100
AcDbLine
62
7
6
CONTINUOUS
10
49.2374005956
20
-391.6883563271
11
114.7374005956
21
-391.6883563271
0
LINE
5
21C
100
AcDbEntity
8
0
100
AcDbLine
62
7
6
CONTINUOUS
10
-415.7625994044
20
-391.6883563271
11
-478.7625994044
21
-391.6883563271
0
LINE
5
21D
100
AcDbEntity
8
0
100
AcDbLine
62
7
6
CONTINUOUS
10
49.2374005956
20
-390.1883563271
11
112.2374005956
21
-390.1883563271
0
LINE
5
21E
100
AcDbEntity
8
0
100
AcDbLine
62
7
6
CONTINUOUS
10
-415.7625994044
20
-390.1883563271
11
-478.7625994044
21
-390.1883563271
0
LINE
5
21F
100
AcDbEntity
8
DEFAULT_3
100
AcDbLine
62
8
6
PHANTOM
10
-453.7625994044
20
-385.6883563271
11
-453.7625994044
21
147.3116436729
0
LINE
5
220
100
AcDbEntity
8
0
100
AcDbLine
62
7
6
CONTINUOUS
10
-447.0125994044
20
-123.5883563271
11
-447.0125994044
21
-114.7883563271
0
LINE
5
221
100
AcDbEntity
8
0
100
AcDbLine
62
7
6
CONTINUOUS
10
-446.2625994044
20
-151.4306091313
11
-446.2625994044
21
-133.6883563271
0
LINE
5
222
100
AcDbEntity
8
0
100
AcDbLine
62
7
6
CONTINUOUS
10
-446.2625994044
20
-123.1883563271
11
-446.2625994044
21
-115.1883563271
0
LINE
5
223
100
AcDbEntity
8
0
100
AcDbLine
62
7
6
CONTINUOUS
10
-444.6625994044
20
-125.3071797434
11
-444.6625994044
21
-132.0883563271
0
LINE
5
224
100
AcDbEntity
8
0
100
AcDbLine
62
7
6
CONTINUOUS
10
-440.5605397781
20
-119.4862967008
11
-440.5605397781
21
-118.8904159535
0
LINE
5
225
100
AcDbEntity
8
0
100
AcDbLine
62
7
6
CONTINUOUS
10
-439.0605397781
20
-120.9862967008
11
-439.0605397781
21
-119.4862967008
0
LINE
5
226
100
AcDbEntity
8
0
100
AcDbLine
62
7
6
CONTINUOUS
10
-439.0605397781
20
-118.8904159535
11
-439.0605397781
21
-117.3904159535
0
LINE
5
227
100
AcDbEntity
8
0
100
AcDbLine
62
7
6
CONTINUOUS
10
-438.4646590308
20
-117.3904159535
11
-438.4646590308
21
-118.8904159535
0
LINE
5
228
100
AcDbEntity
8
0
100
AcDbLine
62
7
6
CONTINUOUS
10
-438.4646590308
20
-119.4862967008
11
-438.4646590308
21
-120.9862967008
0
LINE
5
229
100
AcDbEntity
8
0
100
AcDbLine
62
7
6
CONTINUOUS
10
-436.9646590308
20
-118.8904159535
11
-436.9646590308
21
-119.4862967008
0
LINE
5
22A
100
AcDbEntity
8
0
100
AcDbLine
62
7
6
CONTINUOUS
10
-432.8625994044
20
-132.0883563271
11
-432.8625994044
21
-125.3071797434
0
LINE
5
22B
100
AcDbEntity
8
0
100
AcDbLine
62
7
6
CONTINUOUS
10
-431.2625994044
20
-151.4306091313
11
-431.2625994044
21
-133.6883563271
0
LINE
5
22C
100
AcDbEntity
8
0
100
AcDbLine
62
7
6
CONTINUOUS
10
-431.2625994044
20
-123.1883563271
11
-431.2625994044
21
-115.1883563271
0
LINE
5
22D
100
AcDbEntity
8
0
100
AcDbLine
62
7
6
CONTINUOUS
10
-430.5125994044
20
-114.7883563271
11
-430.5125994044
21
-123.5883563271
0
LINE
5
22E
100
AcDbEntity
8
0
100
AcDbLine
62
9
6
CONTINUOUS
10
-468.7625994044
20
-389.6883563271
11
-415.7625994044
21
-389.6883563271
0
LINE
5
22F
100
AcDbEntity
8
0
100
AcDbLine
62
9
6
CONTINUOUS
10
49.2374005956
20
-389.6883563271
11
102.2374005956
21
-389.6883563271
0
LINE
5
230
100
AcDbEntity
8
0
100
AcDbLine
62
7
6
CONTINUOUS
10
102.2374005956
20
-389.6883563271
11
114.2374005956
21
-389.6883563271
0
LINE
5
231
100
AcDbEntity
8
0
100
AcDbLine
62
7
6
CONTINUOUS
10
-468.7625994044
20
-389.6883563271
11
-480.7625994044
21
-389.6883563271
0
LINE
5
232
100
AcDbEntity
8
DEFAULT_3
100
AcDbLine
62
8
6
PHANTOM
10
79.2374005956
20
-386.6883563271
11
-454.7625994044
21
-386.6883563271
0
LINE
5
233
100
AcDbEntity
8
DEFAULT_3
100
AcDbLine
62
8
6
PHANTOM
10
78.2374005956
20
-385.6883563271
11
-453.7625994044
21
-385.6883563271
0
LINE
5
234
100
AcDbEntity
8
0
100
AcDbLine
62
9
6
CONTINUOUS
10
-417.7625994044
20
153.3116436729
11
-417.7625994044
21
151.8116436729
0
LINE
5
235
100
AcDbEntity
8
0
100
AcDbLine
62
9
6
CONTINUOUS
10
-417.7625994044
20
-390.1883563271
11
-417.7625994044
21
-391.6883563271
0
LINE
5
236
100
AcDbEntity
8
0
100
AcDbLine
62
7
6
CONTINUOUS
10
-415.7625994044
20
153.3116436729
11
-415.7625994044
21
-391.6883563271
0
LINE
5
237
100
AcDbEntity
8
0
100
AcDbLine
62
7
6
CONTINUOUS
10
-451.4643053266
20
-119.1883563271
11
-445.1134523655
21
-108.1883563271
0
LINE
5
238
100
AcDbEntity
8
0
100
AcDbLine
62
7
6
CONTINUOUS
10
61.3506492496
20
-354.6883563271
11
67.1241519415
21
-354.6883563271
0
LINE
5
239
100
AcDbEntity
8
0
100
AcDbLine
62
7
6
CONTINUOUS
10
67.1241519415
20
-344.6883563271
11
61.3506492496
21
-344.6883563271
0
LINE
5
23A
100
AcDbEntity
8
0
100
AcDbLine
62
7
6
CONTINUOUS
10
100.2374005956
20
-338.4883563271
11
88.0374005956
21
-338.4883563271
0
LINE
5
23B
100
AcDbEntity
8
0
100
AcDbLine
62
7
6
CONTINUOUS
10
-445.1134523655
20
-130.1883563271
11
-451.4643053266
21
-119.1883563271
0
LINE
5
23C
100
AcDbEntity
8
0
100
AcDbLine
62
7
6
CONTINUOUS
10
-426.0608934823
20
-119.1883563271
11
-432.4117464434
21
-130.1883563271
0
LINE
5
23D
100
AcDbEntity
8
0
100
AcDbLine
62
7
6
CONTINUOUS
10
100.2374005956
20
-333.4883563271
11
88.0374005956
21
-333.4883563271
0
LINE
5
23E
100
AcDbEntity
8
0
100
AcDbLine
62
7
6
CONTINUOUS
10
-432.4117464434
20
-108.1883563271
11
-426.0608934823
21
-119.1883563271
0
LINE
5
23F
100
AcDbEntity
8
0
100
AcDbLine
62
7
6
CONTINUOUS
10
-438.4646590308
20
-117.3904159535
11
-438.2823644651
21
-117.2081213877
0
LINE
5
240
100
AcDbEntity
8
0
100
AcDbLine
62
7
6
CONTINUOUS
10
-440.5605397781
20
-119.4862967008
11
-440.7428343438
21
-119.6685912665
0
LINE
5
241
100
AcDbEntity
8
0
100
AcDbLine
62
7
6
CONTINUOUS
10
-438.4646590308
20
-118.8904159535
11
-438.2625994044
21
-118.6883563271
0
LINE
5
242
100
AcDbEntity
8
0
100
AcDbLine
62
7
6
CONTINUOUS
10
-439.0605397781
20
-119.4862967008
11
-439.2625994044
21
-119.6883563271
0
LINE
5
243
100
AcDbEntity
8
0
100
AcDbLine
62
7
6
CONTINUOUS
10
-436.9646590308
20
-118.8904159535
11
-436.7823644651
21
-118.7081213877
0
LINE
5
244
100
AcDbEntity
8
0
100
AcDbLine
62
7
6
CONTINUOUS
10
-439.0605397781
20
-120.9862967008
11
-439.2428343438
21
-121.1685912665
0
LINE
5
245
100
AcDbEntity
8
0
100
AcDbLine
62
7
6
CONTINUOUS
10
-444.6625994044
20
-132.0883563271
11
-446.2625994044
21
-133.6883563271
0
LINE
5
246
100
AcDbEntity
8
0
100
AcDbLine
62
7
6
CONTINUOUS
10
-431.2625994044
20
-133.6883563271
11
-432.8625994044
21
-132.0883563271
0
LINE
5
247
100
AcDbEntity
8
0
100
AcDbLine
62
7
6
CONTINUOUS
10
-438.4646590308
20
-120.9862967008
11
-438.2823644651
21
-121.1685912665
0
LINE
5
248
100
AcDbEntity
8
0
100
AcDbLine
62
7
6
CONTINUOUS
10
-440.5605397781
20
-118.8904159535
11
-440.7428343438
21
-118.7081213877
0
LINE
5
249
100
AcDbEntity
8
0
100
AcDbLine
62
7
6
CONTINUOUS
10
-438.4646590308
20
-119.4862967008
11
-438.2625994044
21
-119.6883563271
0
LINE
5
24A
100
AcDbEntity
8
0
100
AcDbLine
62
7
6
CONTINUOUS
10
-439.0605397781
20
-118.8904159535
11
-439.2625994044
21
-118.6883563271
0
LINE
5
24B
100
AcDbEntity
8
0
100
AcDbLine
62
7
6
CONTINUOUS
10
-436.9646590308
20
-119.4862967008
11
-436.7823644651
21
-119.6685912665
0
LINE
5
24C
100
AcDbEntity
8
0
100
AcDbLine
62
7
6
CONTINUOUS
10
-439.0605397781
20
-117.3904159535
11
-439.2428343438
21
-117.2081213877
0
LINE
5
24D
100
AcDbEntity
8
DEFAULT_3
100
AcDbLine
62
8
6
PHANTOM
10
78.2374005956
20
147.3116436729
11
79.2374005956
21
148.3116436729
0
LINE
5
24E
100
AcDbEntity
8
DEFAULT_3
100
AcDbLine
62
8
6
PHANTOM
10
-453.7625994044
20
-385.6883563271
11
-454.7625994044
21
-386.6883563271
0
LINE
5
24F
100
AcDbEntity
8
0
100
AcDbLine
62
7
6
CONTINUOUS
10
105.5374005956
20
165.1116436729
11
104.7374005956
21
164.3116436729
0
LINE
5
250
100
AcDbEntity
8
0
100
AcDbLine
62
7
6
CONTINUOUS
10
-432.4117464434
20
-130.1883563271
11
-432.8625994044
21
-130.1883563271
0
LINE
5
251
100
AcDbEntity
8
0
100
AcDbLine
62
7
6
CONTINUOUS
10
-444.6625994044
20
-130.1883563271
11
-445.1134523655
21
-130.1883563271
0
LINE
5
252
100
AcDbEntity
8
0
100
AcDbLine
62
7
6
CONTINUOUS
10
-432.0532492300
20
-124.4070362595
11
-445.4719495789
21
-124.4070362595
0
LINE
5
253
100
AcDbEntity
8
0
100
AcDbLine
62
7
6
CONTINUOUS
10
-438.4646590308
20
-120.9862967008
11
-439.0605397781
21
-120.9862967008
0
LINE
5
254
100
AcDbEntity
8
0
100
AcDbLine
62
7
6
CONTINUOUS
10
-436.9646590308
20
-119.4862967008
11
-438.4646590308
21
-119.4862967008
0
LINE
5
255
100
AcDbEntity
8
0
100
AcDbLine
62
7
6
CONTINUOUS
10
-439.0605397781
20
-119.4862967008
11
-440.5605397781
21
-119.4862967008
0
LINE
5
256
100
AcDbEntity
8
0
100
AcDbLine
62
7
6
CONTINUOUS
10
-440.5605397781
20
-118.8904159535
11
-439.0605397781
21
-118.8904159535
0
LINE
5
257
100
AcDbEntity
8
0
100
AcDbLine
62
7
6
CONTINUOUS
10
-438.4646590308
20
-118.8904159535
11
-436.9646590308
21
-118.8904159535
0
LINE
5
258
100
AcDbEntity
8
0
100
AcDbLine
62
7
6
CONTINUOUS
10
-439.0605397781
20
-117.3904159535
11
-438.4646590308
21
-117.3904159535
0
LINE
5
259
100
AcDbEntity
8
DEFAULT_3
100
AcDbLine
62
8
6
PHANTOM
10
78.2374005956
20
-385.6883563271
11
79.2374005956
21
-386.6883563271
0
LINE
5
25A
100
AcDbEntity
8
DEFAULT_3
100
AcDbLine
62
8
6
PHANTOM
10
-453.7625994044
20
147.3116436729
11
-454.7625994044
21
148.3116436729
0
LINE
5
25B
100
AcDbEntity
8
0
100
AcDbLine
62
7
6
CONTINUOUS
10
105.5374005956
20
-403.4883563271
11
104.7374005956
21
-402.6883563271
0
LINE
5
25C
100
AcDbEntity
8
0
100
AcDbLine
62
7
6
CONTINUOUS
10
-445.1134523655
20
-108.1883563271
11
-432.4117464434
21
-108.1883563271
0
LINE
5
25D
100
AcDbEntity
8
0
100
AcDbLine
62
7
6
CONTINUOUS
10
88.0374005956
20
100.1116436729
11
87.2374005956
21
99.3116436729
0
LINE
5
25E
100
AcDbEntity
8
0
100
AcDbLine
62
7
6
CONTINUOUS
10
88.0374005956
20
-338.4883563271
11
87.2374005956
21
-337.6883563271
0
LINE
5
25F
100
AcDbEntity
8
0
100
AcDbLine
62
7
6
CONTINUOUS
10
61.3506492496
20
116.3116436729
11
58.4638979037
21
111.3116436729
0
LINE
5
260
100
AcDbEntity
8
0
100
AcDbLine
62
7
6
CONTINUOUS
10
67.1241519415
20
106.3116436729
11
70.0109032875
21
111.3116436729
0
LINE
5
261
100
AcDbEntity
8
0
100
AcDbLine
62
7
6
CONTINUOUS
10
58.4638979037
20
-349.6883563271
11
61.3506492496
21
-354.6883563271
0
LINE
5
262
100
AcDbEntity
8
0
100
AcDbLine
62
7
6
CONTINUOUS
10
70.0109032875
20
-349.6883563271
11
67.1241519415
21
-344.6883563271
0
LINE
5
263
100
AcDbEntity
8
0
100
AcDbLine
62
7
6
CONTINUOUS
10
100.2374005956
20
95.1116436729
11
88.0374005956
21
95.1116436729
0
LINE
5
264
100
AcDbEntity
8
0
100
AcDbLine
62
7
6
CONTINUOUS
10
100.2374005956
20
100.1116436729
11
88.0374005956
21
100.1116436729
0
LINE
5
265
100
AcDbEntity
8
0
100
AcDbLine
62
7
6
CONTINUOUS
10
49.2374005956
20
153.3116436729
11
49.2374005956
21
-391.6883563271
0
LINE
5
266
100
AcDbEntity
8
0
100
AcDbLine
62
9
6
CONTINUOUS
10
51.2374005956
20
-391.6883563271
11
51.2374005956
21
-390.1883563271
0
LINE
5
267
100
AcDbEntity
8
0
100
AcDbLine
62
9
6
CONTINUOUS
10
51.2374005956
20
151.8116436729
11
51.2374005956
21
153.3116436729
0
LINE
5
268
100
AcDbEntity
8
0
100
AcDbLine
62
7
6
CONTINUOUS
10
61.3506492496
20
106.3116436729
11
67.1241519415
21
106.3116436729
0
LINE
5
269
100
AcDbEntity
8
0
100
AcDbLine
62
7
6
CONTINUOUS
10
67.1241519415
20
116.3116436729
11
61.3506492496
21
116.3116436729
0
LINE
5
26A
100
AcDbEntity
8
DEFAULT_3
100
AcDbLine
62
8
6
PHANTOM
10
78.2374005956
20
147.3116436729
11
78.2374005956
21
-385.6883563271
0
LINE
5
26B
100
AcDbEntity
8
DEFAULT_3
100
AcDbLine
62
8
6
PHANTOM
10
79.2374005956
20
148.3116436729
11
79.2374005956
21
-386.6883563271
0
LINE
5
26C
100
AcDbEntity
8
0
100
AcDbLine
62
7
6
CONTINUOUS
10
87.2374005956
20
-337.6883563271
11
87.2374005956
21
-334.2883563271
0
LINE
5
26D
100
AcDbEntity
8
0
100
AcDbLine
62
7
6
CONTINUOUS
10
87.2374005956
20
95.9116436729
11
87.2374005956
21
99.3116436729
0
LINE
5
26E
100
AcDbEntity
8
0
100
AcDbLine
62
7
6
CONTINUOUS
10
88.0374005956
20
-338.4883563271
11
88.0374005956
21
-333.4883563271
0
LINE
5
26F
100
AcDbEntity
8
0
100
AcDbLine
62
7
6
CONTINUOUS
10
88.0374005956
20
95.1116436729
11
88.0374005956
21
100.1116436729
0
LINE
5
270
100
AcDbEntity
8
DEFAULT_3
100
AcDbLine
62
8
6
PHANTOM
10
-453.7625994044
20
147.3116436729
11
78.2374005956
21
147.3116436729
0
LINE
5
271
100
AcDbEntity
8
DEFAULT_3
100
AcDbLine
62
8
6
PHANTOM
10
-454.7625994044
20
148.3116436729
11
79.2374005956
21
148.3116436729
0
LINE
5
272
100
AcDbEntity
8
0
100
AcDbLine
62
9
6
CONTINUOUS
10
102.2374005956
20
151.3116436729
11
49.2374005956
21
151.3116436729
0
LINE
5
273
100
AcDbEntity
8
0
100
AcDbLine
62
7
6
CONTINUOUS
10
102.2374005956
20
151.3116436729
11
114.2374005956
21
151.3116436729
0
LINE
5
274
100
AcDbEntity
8
0
100
AcDbLine
62
9
6
CONTINUOUS
10
-415.7625994044
20
151.3116436729
11
-468.7625994044
21
151.3116436729
0
LINE
5
275
100
AcDbEntity
8
0
100
AcDbLine
62
7
6
CONTINUOUS
10
-468.7625994044
20
151.3116436729
11
-480.7625994044
21
151.3116436729
0
LINE
5
276
100
AcDbEntity
8
0
100
AcDbLine
62
7
6
CONTINUOUS
10
49.2374005956
20
151.8116436729
11
112.2374005956
21
151.8116436729
0
LINE
5
277
100
AcDbEntity
8
0
100
AcDbLine
62
7
6
CONTINUOUS
10
-415.7625994044
20
151.8116436729
11
-478.7625994044
21
151.8116436729
0
LINE
5
278
100
AcDbEntity
8
0
100
AcDbLine
62
7
6
CONTINUOUS
10
49.2374005956
20
153.3116436729
11
114.7374005956
21
153.3116436729
0
LINE
5
279
100
AcDbEntity
8
0
100
AcDbLine
62
7
6
CONTINUOUS
10
-415.7625994044
20
153.3116436729
11
-478.7625994044
21
153.3116436729
0
LINE
5
27A
100
AcDbEntity
8
0
100
AcDbLine
62
7
6
CONTINUOUS
10
99.7374005956
20
156.1116436729
11
114.7374005956
21
156.1116436729
0
LINE
5
27B
100
AcDbEntity
8
0
100
AcDbLine
62
7
6
CONTINUOUS
10
99.7374005956
20
153.3116436729
11
99.7374005956
21
156.1116436729
0
LINE
5
27C
100
AcDbEntity
8
0
100
AcDbLine
62
7
6
CONTINUOUS
10
99.7374005956
20
-391.6883563271
11
99.7374005956
21
-394.4883563271
0
LINE
5
27D
100
AcDbEntity
8
0
100
AcDbLine
62
7
6
CONTINUOUS
10
100.2374005956
20
-387.6883563271
11
100.2374005956
21
149.3116436729
0
LINE
5
27E
100
AcDbEntity
8
0
100
AcDbLine
62
7
6
CONTINUOUS
10
103.3374005956
20
151.3116436729
11
103.3374005956
21
151.8116436729
0
LINE
5
27F
100
AcDbEntity
8
0
100
AcDbLine
62
7
6
CONTINUOUS
10
103.3374005956
20
-389.6883563271
11
103.3374005956
21
-390.1883563271
0
LINE
5
280
100
AcDbEntity
8
0
100
AcDbLine
62
7
6
CONTINUOUS
10
104.7374005956
20
-402.6883563271
11
104.7374005956
21
-394.4883563271
0
LINE
5
281
100
AcDbEntity
8
0
100
AcDbLine
62
7
6
CONTINUOUS
10
104.7374005956
20
164.3116436729
11
104.7374005956
21
156.1116436729
0
LINE
5
282
100
AcDbEntity
8
0
100
AcDbLine
62
7
6
CONTINUOUS
10
109.7374005956
20
-402.6883563271
11
109.7374005956
21
-394.4883563271
0
LINE
5
283
100
AcDbEntity
8
0
100
AcDbLine
62
7
6
CONTINUOUS
10
109.7374005956
20
164.3116436729
11
109.7374005956
21
156.1116436729
0
LINE
5
284
100
AcDbEntity
8
0
100
AcDbLine
62
9
6
CONTINUOUS
10
110.2374005956
20
153.3116436729
11
110.2374005956
21
151.8116436729
0
LINE
5
285
100
AcDbEntity
8
0
100
AcDbLine
62
9
6
CONTINUOUS
10
110.2374005956
20
-390.1883563271
11
110.2374005956
21
-391.6883563271
0
LINE
5
286
100
AcDbEntity
8
0
100
AcDbLine
62
7
6
CONTINUOUS
10
111.1374005956
20
151.3116436729
11
111.1374005956
21
151.8116436729
0
LINE
5
287
100
AcDbEntity
8
0
100
AcDbLine
62
7
6
CONTINUOUS
10
111.1374005956
20
-389.6883563271
11
111.1374005956
21
-390.1883563271
0
LINE
5
288
100
AcDbEntity
8
0
100
AcDbLine
62
7
6
CONTINUOUS
10
112.2374005956
20
153.3116436729
11
112.2374005956
21
151.8116436729
0
LINE
5
289
100
AcDbEntity
8
0
100
AcDbLine
62
9
6
CONTINUOUS
10
112.2374005956
20
-389.6883563271
11
112.2374005956
21
151.3116436729
0
LINE
5
28A
100
AcDbEntity
8
0
100
AcDbLine
62
7
6
CONTINUOUS
10
112.2374005956
20
151.3116436729
11
112.2374005956
21
151.8022062850
0
LINE
5
28B
100
AcDbEntity
8
0
100
AcDbLine
62
7
6
CONTINUOUS
10
112.2374005956
20
-389.6883563271
11
112.2374005956
21
-390.1789189393
0
LINE
5
28C
100
AcDbEntity
8
0
100
AcDbLine
62
7
6
CONTINUOUS
10
112.2374005956
20
-390.1883563271
11
112.2374005956
21
-391.6883563271
0
LINE
5
28D
100
AcDbEntity
8
0
100
AcDbLine
62
7
6
CONTINUOUS
10
114.2374005956
20
-389.6883563271
11
114.2374005956
21
151.3116436729
0
LINE
5
28E
100
AcDbEntity
8
0
100
AcDbLine
62
7
6
CONTINUOUS
10
114.7374005956
20
153.3116436729
11
114.7374005956
21
156.1116436729
0
LINE
5
28F
100
AcDbEntity
8
0
100
AcDbLine
62
7
6
CONTINUOUS
10
114.7374005956
20
-391.6883563271
11
114.7374005956
21
-394.4883563271
0
LINE
5
290
100
AcDbEntity
8
0
100
AcDbLine
62
7
6
CONTINUOUS
10
109.7374005956
20
164.3116436729
11
104.7374005956
21
164.3116436729
0
LINE
5
291
100
AcDbEntity
8
0
100
AcDbLine
62
7
6
CONTINUOUS
10
108.9374005956
20
165.1116436729
11
105.5374005956
21
165.1116436729
0
LINE
5
292
100
AcDbEntity
8
0
100
AcDbLine
62
7
6
CONTINUOUS
10
61.3506492496
20
-344.6883563271
11
58.4638979037
21
-349.6883563271
0
LINE
5
293
100
AcDbEntity
8
0
100
AcDbLine
62
7
6
CONTINUOUS
10
58.4638979037
20
111.3116436729
11
61.3506492496
21
106.3116436729
0
LINE
5
294
100
AcDbEntity
8
0
100
AcDbLine
62
7
6
CONTINUOUS
10
67.1241519415
20
-354.6883563271
11
70.0109032875
21
-349.6883563271
0
LINE
5
295
100
AcDbEntity
8
0
100
AcDbLine
62
7
6
CONTINUOUS
10
88.0374005956
20
-333.4883563271
11
87.2374005956
21
-334.2883563271
0
LINE
5
296
100
AcDbEntity
8
0
100
AcDbLine
62
7
6
CONTINUOUS
10
88.0374005956
20
95.1116436729
11
87.2374005956
21
95.9116436729
0
LINE
5
297
100
AcDbEntity
8
0
100
AcDbLine
62
7
6
CONTINUOUS
10
70.0109032875
20
111.3116436729
11
67.1241519415
21
116.3116436729
0
LINE
5
298
100
AcDbEntity
8
0
100
AcDbLine
62
7
6
CONTINUOUS
10
108.9374005956
20
-403.4883563271
11
109.7374005956
21
-402.6883563271
0
LINE
5
299
100
AcDbEntity
8
0
100
AcDbLine
62
7
6
CONTINUOUS
10
108.9374005956
20
165.1116436729
11
109.7374005956
21
164.3116436729
0
CIRCLE
5
29A
100
AcDbEntity
8
0
100
AcDbCircle
62
7
6
CONTINUOUS
10
107.2374005956
20
-333.6883563271
40
3.7500000000
0
CIRCLE
5
29B
100
AcDbEntity
8
0
100
AcDbCircle
62
9
6
CONTINUOUS
10
107.2374005956
20
-333.6883563271
40
3.7086807617
0
CIRCLE
5
29C
100
AcDbEntity
8
0
100
AcDbCircle
62
9
6
CONTINUOUS
10
107.2374005956
20
-333.6883563271
40
1.5071067812
0
CIRCLE
5
29D
100
AcDbEntity
8
0
100
AcDbCircle
62
9
6
CONTINUOUS
10
107.2374005956
20
-333.6883563271
40
1.1535533906
0
CIRCLE
5
29E
100
AcDbEntity
8
0
100
AcDbCircle
62
9
6
CONTINUOUS
10
107.2374005956
20
-333.6883563271
40
1.7251712409
0
CIRCLE
5
29F
100
AcDbEntity
8
0
100
AcDbCircle
62
7
6
CONTINUOUS
10
107.2374005956
20
-318.6883563271
40
3.7500000000
0
CIRCLE
5
2A0
100
AcDbEntity
8
0
100
AcDbCircle
62
9
6
CONTINUOUS
10
107.2374005956
20
-318.6883563271
40
3.7086807617
0
CIRCLE
5
2A1
100
AcDbEntity
8
0
100
AcDbCircle
62
9
6
CONTINUOUS
10
107.2374005956
20
-318.6883563271
40
1.5071067812
0
CIRCLE
5
2A2
100
AcDbEntity
8
0
100
AcDbCircle
62
9
6
CONTINUOUS
10
107.2374005956
20
-318.6883563271
40
1.1535533906
0
CIRCLE
5
2A3
100
AcDbEntity
8
0
100
AcDbCircle
62
9
6
CONTINUOUS
10
107.2374005956
20
-318.6883563271
40
1.7251712409
0
CIRCLE
5
2A4
100
AcDbEntity
8
0
100
AcDbCircle
62
7
6
CONTINUOUS
10
107.2374005956
20
80.3116436729
40
3.7500000000
0
CIRCLE
5
2A5
100
AcDbEntity
8
0
100
AcDbCircle
62
9
6
CONTINUOUS
10
107.2374005956
20
80.3116436729
40
3.7086807617
0
CIRCLE
5
2A6
100
AcDbEntity
8
0
100
AcDbCircle
62
9
6
CONTINUOUS
10
107.2374005956
20
80.3116436729
40
1.5071067812
0
CIRCLE
5
2A7
100
AcDbEntity
8
0
100
AcDbCircle
62
9
6
CONTINUOUS
10
107.2374005956
20
80.3116436729
40
1.1535533906
0
CIRCLE
5
2A8
100
AcDbEntity
8
0
100
AcDbCircle
62
9
6
CONTINUOUS
10
107.2374005956
20
80.3116436729
40
1.7251712409
0
CIRCLE
5
2A9
100
AcDbEntity
8
0
100
AcDbCircle
62
7
6
CONTINUOUS
10
107.2374005956
20
95.3116436729
40
3.7500000000
0
CIRCLE
5
2AA
100
AcDbEntity
8
0
100
AcDbCircle
62
9
6
CONTINUOUS
10
107.2374005956
20
95.3116436729
40
3.7086807617
0
CIRCLE
5
2AB
100
AcDbEntity
8
0
100
AcDbCircle
62
9
6
CONTINUOUS
10
107.2374005956
20
95.3116436729
40
1.5071067812
0
CIRCLE
5
2AC
100
AcDbEntity
8
0
100
AcDbCircle
62
9
6
CONTINUOUS
10
107.2374005956
20
95.3116436729
40
1.1535533906
0
CIRCLE
5
2AD
100
AcDbEntity
8
0
100
AcDbCircle
62
9
6
CONTINUOUS
10
107.2374005956
20
95.3116436729
40
1.7251712409
0
CIRCLE
5
2AE
100
AcDbEntity
8
0
100
AcDbCircle
62
7
6
CONTINUOUS
10
64.2374005956
20
111.3116436729
40
6.7500000000
0
CIRCLE
5
2AF
100
AcDbEntity
8
0
100
AcDbCircle
62
7
6
CONTINUOUS
10
64.2374005956
20
111.3116436729
40
4.7735026919
0
CIRCLE
5
2B0
100
AcDbEntity
8
0
100
AcDbCircle
62
7
6
CONTINUOUS
10
64.2374005956
20
-349.6883563271
40
6.7500000000
0
CIRCLE
5
2B1
100
AcDbEntity
8
0
100
AcDbCircle
62
7
6
CONTINUOUS
10
64.2374005956
20
-349.6883563271
40
4.7735026919
0
CIRCLE
5
2B2
100
AcDbEntity
8
0
100
AcDbCircle
62
7
6
CONTINUOUS
10
64.2374005956
20
-349.6883563271
40
7.5000000000
0
CIRCLE
5
2B3
100
AcDbEntity
8
0
100
AcDbCircle
62
7
6
CONTINUOUS
10
64.2374005956
20
-349.6883563271
40
7.0000000000
0
CIRCLE
5
2B4
100
AcDbEntity
8
0
100
AcDbCircle
62
7
6
CONTINUOUS
10
64.2374005956
20
111.3116436729
40
7.5000000000
0
CIRCLE
5
2B5
100
AcDbEntity
8
0
100
AcDbCircle
62
7
6
CONTINUOUS
10
64.2374005956
20
111.3116436729
40
7.0000000000
0
ARC
5
2B6
100
AcDbEntity
8
0
100
AcDbCircle
62
7
6
CONTINUOUS
10
-438.7625994044
20
-119.1883563271
40
9.3500000000
100
AcDbArc
50
28.0724869359
51
151.9275130641
0
ARC
5
2B7
100
AcDbEntity
8
0
100
AcDbCircle
62
7
6
CONTINUOUS
10
-438.7625994044
20
-119.1883563271
40
9.3500000000
100
AcDbArc
50
208.0724869359
51
230.8690459593
0
ARC
5
2B8
100
AcDbEntity
8
0
100
AcDbCircle
62
7
6
CONTINUOUS
10
-438.7625994044
20
-119.1883563271
40
9.3500000000
100
AcDbArc
50
309.1309540407
51
331.9275130641
0
ARC
5
2B9
100
AcDbEntity
8
0
100
AcDbCircle
62
7
6
CONTINUOUS
10
-438.7625994044
20
-119.1883563271
40
12.5000000000
100
AcDbArc
50
1.6853311366
51
58.3146688634
0
ARC
5
2BA
100
AcDbEntity
8
0
100
AcDbCircle
62
7
6
CONTINUOUS
10
-438.7625994044
20
-119.1883563271
40
12.5000000000
100
AcDbArc
50
301.6853311366
51
358.3146688634
0
ARC
5
2BB
100
AcDbEntity
8
0
100
AcDbCircle
62
7
6
CONTINUOUS
10
-438.7625994044
20
-119.1883563271
40
12.5000000000
100
AcDbArc
50
298.1801064150
51
298.3146688634
0
ARC
5
2BC
100
AcDbEntity
8
0
100
AcDbCircle
62
7
6
CONTINUOUS
10
-438.7625994044
20
-119.1883563271
40
12.5000000000
100
AcDbArc
50
241.6853311366
51
241.8198935850
0
ARC
5
2BD
100
AcDbEntity
8
0
100
AcDbCircle
62
7
6
CONTINUOUS
10
-438.7625994044
20
-119.1883563271
40
12.5000000000
100
AcDbArc
50
181.6853311366
51
238.3146688634
0
ARC
5
2BE
100
AcDbEntity
8
0
100
AcDbCircle
62
7
6
CONTINUOUS
10
-438.7625994044
20
-119.1883563271
40
12.5000000000
100
AcDbArc
50
121.6853311366
51
178.3146688634
0
ARC
5
2BF
100
AcDbEntity
8
0
100
AcDbCircle
62
7
6
CONTINUOUS
10
-438.7625994044
20
-119.1883563271
40
12.5000000000
100
AcDbArc
50
61.6853311366
51
118.3146688634
0
ARC
5
2C0
100
AcDbEntity
8
0
100
AcDbCircle
62
7
6
CONTINUOUS
10
-438.7625994044
20
-119.1883563271
40
8.5000000000
100
AcDbArc
50
208.0724869359
51
226.0430532762
0
ARC
5
2C1
100
AcDbEntity
8
0
100
AcDbCircle
62
7
6
CONTINUOUS
10
-438.7625994044
20
-119.1883563271
40
8.5000000000
100
AcDbArc
50
28.0724869359
51
151.9275130641
0
ARC
5
2C2
100
AcDbEntity
8
0
100
AcDbCircle
62
7
6
CONTINUOUS
10
-438.7625994044
20
-119.1883563271
40
8.5000000000
100
AcDbArc
50
313.9569467238
51
331.9275130641
0
CIRCLE
5
2C3
100
AcDbEntity
8
0
100
AcDbCircle
62
7
6
CONTINUOUS
10
-438.7625994044
20
-119.1883563271
40
4.5000000000
0
ARC
5
2C4
100
AcDbEntity
8
0
100
AcDbCircle
62
7
6
CONTINUOUS
10
-438.7625994044
20
-119.1883563271
40
10.7500000000
100
AcDbArc
50
303.2885480750
51
236.7114519250
0
ARC
5
2C5
100
AcDbEntity
8
0
100
AcDbCircle
62
7
6
CONTINUOUS
10
102.2374005956
20
-387.6883563271
40
2.0000000000
100
AcDbArc
50
180.0000000000
51
270.0000000000
0
ARC
5
2C6
100
AcDbEntity
8
0
100
AcDbCircle
62
7
6
CONTINUOUS
10
102.2374005956
20
149.3116436729
40
2.0000000000
100
AcDbArc
50
90.0000000000
51
180.0000000000
0
CIRCLE
5
2C7
100
AcDbEntity
8
0
100
AcDbCircle
62
7
6
CONTINUOUS
10
84.2374005956
20
-359.6883563271
40
3.0000000000
0
CIRCLE
5
2C8
100
AcDbEntity
8
0
100
AcDbCircle
62
7
6
CONTINUOUS
10
64.2374005956
20
111.3116436729
40
3.0000000000
0
CIRCLE
5
2C9
100
AcDbEntity
8
0
100
AcDbCircle
62
7
6
CONTINUOUS
10
64.2374005956
20
-349.6883563271
40
3.0000000000
0
ARC
5
2CA
100
AcDbEntity
8
0
100
AcDbCircle
62
7
6
CONTINUOUS
10
-468.7625994044
20
149.3116436729
40
2.0000000000
100
AcDbArc
50
0.0000000000
51
90.0000000000
0
ARC
5
2CB
100
AcDbEntity
8
0
100
AcDbCircle
62
7
6
CONTINUOUS
10
-468.7625994044
20
-387.6883563271
40
2.0000000000
100
AcDbArc
50
270.0000000000
51
360.0000000000
0
SPLINE
5
2CC
100
AcDbEntity
8
0
100
AcDbSpline
62
7
6
CONTINUOUS
70
0
71
3
72
13
73
9
74
7
42
0.0000001000
43
0.0000001000
44
0.0000000001
12
14.2954792199
22
-5.5584171921
32
0.0000000000
13
14.2954792199
23
5.5584171921
33
0.0000000000
40
0.0000000000
40
0.0000000000
40
0.0000000000
40
0.0000000000
40
0.1663319461
40
0.3330630118
40
0.5000000000
40
0.6669369882
40
0.8336680539
40
1.0000000000
40
1.0000000000
40
1.0000000000
40
1.0000000000
10
-446.2625994044
20
-151.4306091313
30
0.0000000000
10
-445.4700011113
20
-151.7387899143
30
0.0000000000
10
-443.8426321406
20
-152.2574568771
30
0.0000000000
10
-441.3237170804
20
-152.7282568036
30
0.0000000000
10
-438.7625994044
20
-152.8861242578
30
0.0000000000
10
-436.2014817285
20
-152.7282568036
30
0.0000000000
10
-433.6825666683
20
-152.2574568771
30
0.0000000000
10
-432.0551976975
20
-151.7387899143
30
0.0000000000
10
-431.2625994044
20
-151.4306091313
30
0.0000000000
11
-446.2625994044
21
-151.4306091313
31
0.0000000000
11
-443.8319760580
21
-152.2056944109
31
0.0000000000
11
-441.3182381235
21
-152.6758877494
31
0.0000000000
11
-438.7625994044
21
-152.8334801270
31
0.0000000000
11
-436.2069606854
21
-152.6758877494
31
0.0000000000
11
-433.6932227509
21
-152.2056944109
31
0.0000000000
11
-431.2625994044
21
-151.4306091313
31
0.0000000000
0
SPLINE
5
2CD
100
AcDbEntity
8
0
100
AcDbSpline
62
7
6
CONTINUOUS
70
0
71
3
72
13
73
9
74
7
42
0.0000001000
43
0.0000001000
44
0.0000000001
12
-14.2954792199
22
-5.5584171921
32
0.0000000000
13
-14.2954792199
23
5.5584171921
33
0.0000000000
40
0.0000000000
40
0.0000000000
40
0.0000000000
40
0.0000000000
40
0.1663319461
40
0.3330630118
40
0.5000000000
40
0.6669369882
40
0.8336680539
40
1.0000000000
40
1.0000000000
40
1.0000000000
40
1.0000000000
10
-431.2625994044
20
-150.8788849934
30
0.0000000000
10
-432.0551976975
20
-151.1870657763
30
0.0000000000
10
-433.6825666683
20
-151.7057327392
30
0.0000000000
10
-436.2014817285
20
-152.1765326657
30
0.0000000000
10
-438.7625994044
20
-152.3344001199
30
0.0000000000
10
-441.3237170804
20
-152.1765326657
30
0.0000000000
10
-443.8426321406
20
-151.7057327392
30
0.0000000000
10
-445.4700011113
20
-151.1870657763
30
0.0000000000
10
-446.2625994044
20
-150.8788849934
30
0.0000000000
11
-431.2625994044
21
-150.8788849934
31
0.0000000000
11
-433.6932227509
21
-151.6539702730
31
0.0000000000
11
-436.2069606854
21
-152.1241636115
31
0.0000000000
11
-438.7625994044
21
-152.2817559890
31
0.0000000000
11
-441.3182381235
21
-152.1241636115
31
0.0000000000
11
-443.8319760580
21
-151.6539702730
31
0.0000000000
11
-446.2625994044
21
-150.8788849934
31
0.0000000000
0
SPLINE
5
2CE
100
AcDbEntity
8
0
100
AcDbSpline
62
7
6
CONTINUOUS
70
0
71
3
72
10
73
6
74
4
42
0.0000001000
43
0.0000001000
44
0.0000000001
12
0.4802370081
22
0.0000000000
32
0.0000000000
13
0.4802306155
23
-0.0024778710
33
0.0000000000
40
0.0000000000
40
0.0000000000
40
0.0000000000
40
0.0000000000
40
0.3346045636
40
0.6681381611
40
1.0000000000
40
1.0000000000
40
1.0000000000
40
1.0000000000
10
-438.7625994044
20
-117.2068835247
30
0.0000000000
10
-438.7090362396
20
-117.2068835247
30
0.0000000000
10
-438.6020813252
20
-117.2069756824
30
0.0000000000
10
-438.4420027856
20
-117.2073891972
30
0.0000000000
10
-438.3354878701
20
-117.2078472841
30
0.0000000000
10
-438.2823644651
20
-117.2081213877
30
0.0000000000
11
-438.7625994044
21
-117.2068835247
31
0.0000000000
11
-438.6019099696
21
-117.2070220097
31
0.0000000000
11
-438.4417353273
21
-117.2074358526
31
0.0000000000
11
-438.2823644651
21
-117.2081213877
31
0.0000000000
0
SPLINE
5
2CF
100
AcDbEntity
8
0
100
AcDbSpline
62
7
6
CONTINUOUS
70
0
71
3
72
10
73
6
74
4
42
0.0000001000
43
0.0000001000
44
0.0000000001
12
-0.4802370081
22
0.0000000000
32
0.0000000000
13
-0.4802306155
23
0.0024778710
33
0.0000000000
40
0.0000000000
40
0.0000000000
40
0.0000000000
40
0.0000000000
40
0.3346045636
40
0.6681381611
40
1.0000000000
40
1.0000000000
40
1.0000000000
40
1.0000000000
10
-438.7625994044
20
-121.1698291295
30
0.0000000000
10
-438.8161625693
20
-121.1698291295
30
0.0000000000
10
-438.9231174836
20
-121.1697369718
30
0.0000000000
10
-439.0831960233
20
-121.1693234571
30
0.0000000000
10
-439.1897109388
20
-121.1688653701
30
0.0000000000
10
-439.2428343438
20
-121.1685912665
30
0.0000000000
11
-438.7625994044
21
-121.1698291295
31
0.0000000000
11
-438.9232888393
21
-121.1696906446
31
0.0000000000
11
-439.0834634816
21
-121.1692768017
31
0.0000000000
11
-439.2428343438
21
-121.1685912665
31
0.0000000000
0
SPLINE
5
2D0
100
AcDbEntity
8
0
100
AcDbSpline
62
7
6
CONTINUOUS
70
0
71
3
72
10
73
6
74
4
42
0.0000001000
43
0.0000001000
44
0.0000000001
12
0.4802306155
22
0.0024778710
32
0.0000000000
13
0.4802370081
23
-0.0000000000
33
0.0000000000
40
0.0000000000
40
0.0000000000
40
0.0000000000
40
0.0000000000
40
0.3319470555
40
0.6654640393
40
1.0000000000
40
1.0000000000
40
1.0000000000
40
1.0000000000
10
-439.2428343438
20
-117.2081213877
30
0.0000000000
10
-439.1896972976
20
-117.2078472137
30
0.0000000000
10
-439.0831714002
20
-117.2073891031
30
0.0000000000
10
-438.9230928604
20
-117.2069756518
30
0.0000000000
10
-438.8161515874
20
-117.2068835247
30
0.0000000000
10
-438.7625994044
20
-117.2068835247
30
0.0000000000
11
-439.2428343438
21
-117.2081213877
31
0.0000000000
11
-439.0834225577
21
-117.2074357117
31
0.0000000000
11
-438.9232558937
21
-117.2070219529
31
0.0000000000
11
-438.7625994044
21
-117.2068835247
31
0.0000000000
0
SPLINE
5
2D1
100
AcDbEntity
8
0
100
AcDbSpline
62
7
6
CONTINUOUS
70
0
71
3
72
16
73
12
74
10
42
0.0000001000
43
0.0000001000
44
0.0000000001
12
0.0078596139
22
1.4803621696
32
0.0000000000
13
0.0320052075
23
1.4800370244
33
0.0000000000
40
0.0000000000
40
0.0000000000
40
0.0000000000
40
0.0000000000
40
0.1446788206
40
0.2727250257
40
0.3882219558
40
0.4951862000
40
0.5976288021
40
0.6988632346
40
0.7995812912
40
0.8999189804
40
1.0000000000
40
1.0000000000
40
1.0000000000
40
1.0000000000
10
-439.2625994044
20
-118.6883563271
30
0.0000000000
10
-439.2622203646
20
-118.6169639762
30
0.0000000000
10
-439.2613522935
20
-118.4823874669
30
0.0000000000
10
-439.2597021492
20
-118.2908220515
30
0.0000000000
10
-439.2578758694
20
-118.1178698670
30
0.0000000000
10
-439.2558959652
20
-117.9575546674
30
0.0000000000
10
-439.2537425233
20
-117.8042803633
30
0.0000000000
10
-439.2513819212
20
-117.6540917350
30
0.0000000000
10
-439.2487885634
20
-117.5049457922
30
0.0000000000
10
-439.2459553546
20
-117.3563734840
30
0.0000000000
10
-439.2439020484
20
-117.2574959259
30
0.0000000000
10
-439.2428343438
20
-117.2081213877
30
0.0000000000
11
-439.2625994044
21
-118.6883563271
31
0.0000000000
11
-439.2612174159
21
-118.4741807144
31
0.0000000000
11
-439.2595841878
21
-118.2846303209
31
0.0000000000
11
-439.2577784374
21
-118.1136601609
31
0.0000000000
11
-439.2558226019
21
-117.9553241877
31
0.0000000000
11
-439.2536917524
21
-117.8036848684
31
0.0000000000
11
-439.2513361027
21
-117.6538376467
31
0.0000000000
11
-439.2487434562
21
-117.5047588874
31
0.0000000000
11
-439.2459109096
21
-117.3562476846
31
0.0000000000
11
-439.2428343438
21
-117.2081213877
31
0.0000000000
0
SPLINE
5
2D2
100
AcDbEntity
8
0
100
AcDbSpline
62
7
6
CONTINUOUS
70
0
71
3
72
15
73
11
74
9
42
0.0000001000
43
0.0000001000
44
0.0000000001
12
1.4800369748
22
0.0320052065
32
0.0000000000
13
1.4803621201
23
0.0078596136
33
0.0000000000
40
0.0000000000
40
0.0000000000
40
0.0000000000
40
0.0000000000
40
0.1160706953
40
0.2320431172
40
0.3485960214
40
0.4664268351
40
0.5870610763
40
0.7138575591
40
0.8503073998
40
1.0000000000
40
1.0000000000
40
1.0000000000
40
1.0000000000
10
-440.7428343438
20
-118.7081213877
30
0.0000000000
10
-440.6855713703
20
-118.7068830989
30
0.0000000000
10
-440.5710914108
20
-118.7045214875
30
0.0000000000
10
-440.3991027368
20
-118.7013106747
30
0.0000000000
10
-440.2262397318
20
-118.6984184921
30
0.0000000000
10
-440.0510712962
20
-118.6958256972
30
0.0000000000
10
-439.8708437631
20
-118.6935079474
30
0.0000000000
10
-439.6814247249
20
-118.6914499120
30
0.0000000000
10
-439.4776631415
20
-118.6896648623
30
0.0000000000
10
-439.3364658228
20
-118.6887485025
30
0.0000000000
10
-439.2625994044
20
-118.6883563271
30
0.0000000000
11
-440.7428343438
21
-118.7081213877
31
0.0000000000
11
-440.5710418291
21
-118.7045766179
31
0.0000000000
11
-440.3993881531
21
-118.7013713015
31
0.0000000000
11
-440.2268693732
21
-118.6984842006
31
0.0000000000
11
-440.0524537559
21
-118.6959019387
31
0.0000000000
11
-439.8738836508
21
-118.6936049422
31
0.0000000000
11
-439.6861873793
21
-118.6915650800
31
0.0000000000
11
-439.4841971125
21
-118.6897950052
31
0.0000000000
11
-439.2625994044
21
-118.6883563271
31
0.0000000000
0
SPLINE
5
2D3
100
AcDbEntity
8
0
100
AcDbSpline
62
7
6
CONTINUOUS
70
0
71
3
72
10
73
6
74
4
42
0.0000001000
43
0.0000001000
44
0.0000000001
12
-0.0049557402
22
0.9604608760
32
0.0000000000
13
0.0049557402
23
0.9604608760
33
0.0000000000
40
0.0000000000
40
0.0000000000
40
0.0000000000
40
0.0000000000
40
0.3328070337
40
0.6671929178
40
1.0000000000
40
1.0000000000
40
1.0000000000
40
1.0000000000
10
-440.7428343438
20
-119.6685912665
30
0.0000000000
10
-440.7433841122
20
-119.5620418882
30
0.0000000000
10
-440.7441183260
20
-119.3484355711
30
0.0000000000
10
-440.7441183261
20
-119.0282771142
30
0.0000000000
10
-440.7433841123
20
-118.8146707816
30
0.0000000000
10
-440.7428343438
20
-118.7081213877
30
0.0000000000
11
-440.7428343438
21
-119.6685912665
31
0.0000000000
11
-440.7439339028
21
-119.3489407676
31
0.0000000000
11
-440.7439339029
21
-119.0277719332
31
0.0000000000
11
-440.7428343438
21
-118.7081213877
31
0.0000000000
0
SPLINE
5
2D4
100
AcDbEntity
8
0
100
AcDbSpline
62
7
6
CONTINUOUS
70
0
71
3
72
15
73
11
74
9
42
0.0000001000
43
0.0000001000
44
0.0000000001
12
-1.4803621179
22
0.0078596136
32
0.0000000000
13
-1.4800369726
23
0.0320052064
33
0.0000000000
40
0.0000000000
40
0.0000000000
40
0.0000000000
40
0.0000000000
40
0.1546157540
40
0.2925013647
40
0.4185697721
40
0.5376308442
40
0.6541984108
40
0.7698885810
40
0.8850458830
40
1.0000000000
40
1.0000000000
40
1.0000000000
40
1.0000000000
10
-439.2625994044
20
-119.6883563271
30
0.0000000000
10
-439.3388951728
20
-119.6879512538
30
0.0000000000
10
-439.4832302847
20
-119.6870089278
30
0.0000000000
10
-439.6897702066
20
-119.6851809916
30
0.0000000000
10
-439.8787619917
20
-119.6831094018
30
0.0000000000
10
-440.0572305474
20
-119.6808002523
30
0.0000000000
10
-440.2305736487
20
-119.6782247427
30
0.0000000000
10
-440.4019854230
20
-119.6753501246
30
0.0000000000
10
-440.5725953100
20
-119.6721606813
30
0.0000000000
10
-440.6861222294
20
-119.6698176433
30
0.0000000000
10
-440.7428343438
20
-119.6685912665
30
0.0000000000
11
-439.2625994044
21
-119.6883563271
31
0.0000000000
11
-439.4914850537
21
-119.6868614094
31
0.0000000000
11
-439.6956005664
21
-119.6850543634
31
0.0000000000
11
-439.8822188747
21
-119.6830082494
31
0.0000000000
11
-440.0584601010
21
-119.6807273753
31
0.0000000000
11
-440.2310056897
21
-119.6781631220
31
0.0000000000
11
-440.4022473594
21
-119.6752906921
31
0.0000000000
11
-440.5726944744
21
-119.6721035489
31
0.0000000000
11
-440.7428343438
21
-119.6685912665
31
0.0000000000
0
SPLINE
5
2D5
100
AcDbEntity
8
0
100
AcDbSpline
62
7
6
CONTINUOUS
70
0
71
3
72
16
73
12
74
10
42
0.0000001000
43
0.0000001000
44
0.0000000001
12
-0.0320052076
22
1.4800370275
32
0.0000000000
13
-0.0078596139
23
1.4803621727
33
0.0000000000
40
0.0000000000
40
0.0000000000
40
0.0000000000
40
0.0000000000
40
0.1016060292
40
0.2031955299
40
0.3051629993
40
0.4079213899
40
0.5122181184
40
0.6205675573
40
0.7359712154
40
0.8614297626
40
1.0000000000
40
1.0000000000
40
1.0000000000
40
1.0000000000
10
-439.2428343438
20
-121.1685912665
30
0.0000000000
10
-439.2439183179
20
-121.1184643714
30
0.0000000000
10
-439.2459987624
20
-121.0182168257
30
0.0000000000
10
-439.2488643961
20
-120.8676579824
30
0.0000000000
10
-439.2514837316
20
-120.7165259178
30
0.0000000000
10
-439.2538682013
20
-120.5640538901
30
0.0000000000
10
-439.2560382279
20
-120.4084290914
30
0.0000000000
10
-439.2580161241
20
-120.2465612941
30
0.0000000000
10
-439.2598115081
20
-120.0742482159
30
0.0000000000
10
-439.2614022517
20
-119.8870197399
30
0.0000000000
10
-439.2622363683
20
-119.7567343730
30
0.0000000000
10
-439.2625994044
20
-119.6883563271
30
0.0000000000
11
-439.2428343438
21
-121.1685912665
31
0.0000000000
11
-439.2459558405
21
-121.0182078173
31
0.0000000000
11
-439.2488182891
21
-120.8678436871
31
0.0000000000
11
-439.2514345644
21
-120.7169154494
31
0.0000000000
11
-439.2538136959
21
-120.5648122766
31
0.0000000000
11
-439.2559668183
21
-120.4104281824
31
0.0000000000
11
-439.2579270016
21
-120.2500414890
31
0.0000000000
11
-439.2597073503
21
-120.0792091479
31
0.0000000000
11
-439.2612856861
21
-119.8934891493
31
0.0000000000
11
-439.2625994044
21
-119.6883563271
31
0.0000000000
0
SPLINE
5
2D6
100
AcDbEntity
8
0
100
AcDbSpline
62
7
6
CONTINUOUS
70
0
71
3
72
16
73
12
74
10
42
0.0000001000
43
0.0000001000
44
0.0000000001
12
0.0320052076
22
-1.4800370275
32
0.0000000000
13
0.0078596139
23
-1.4803621727
33
0.0000000000
40
0.0000000000
40
0.0000000000
40
0.0000000000
40
0.0000000000
40
0.1016060292
40
0.2031955299
40
0.3051629993
40
0.4079213899
40
0.5122181184
40
0.6205675573
40
0.7359712154
40
0.8614297626
40
1.0000000000
40
1.0000000000
40
1.0000000000
40
1.0000000000
10
-438.2823644651
20
-117.2081213877
30
0.0000000000
10
-438.2812804910
20
-117.2582482829
30
0.0000000000
10
-438.2792000465
20
-117.3584958286
30
0.0000000000
10
-438.2763344128
20
-117.5090546718
30
0.0000000000
10
-438.2737150773
20
-117.6601867365
30
0.0000000000
10
-438.2713306076
20
-117.8126587642
30
0.0000000000
10
-438.2691605809
20
-117.9682835629
30
0.0000000000
10
-438.2671826848
20
-118.1301513601
30
0.0000000000
10
-438.2653873008
20
-118.3024644384
30
0.0000000000
10
-438.2637965572
20
-118.4896929144
30
0.0000000000
10
-438.2629624406
20
-118.6199782812
30
0.0000000000
10
-438.2625994044
20
-118.6883563271
30
0.0000000000
11
-438.2823644651
21
-117.2081213877
31
0.0000000000
11
-438.2792429684
21
-117.3585048369
31
0.0000000000
11
-438.2763805198
21
-117.5088689671
31
0.0000000000
11
-438.2737642445
21
-117.6597972049
31
0.0000000000
11
-438.2713851130
21
-117.8119003776
31
0.0000000000
11
-438.2692319906
21
-117.9662844718
31
0.0000000000
11
-438.2672718073
21
-118.1266711653
31
0.0000000000
11
-438.2654914586
21
-118.2975035064
31
0.0000000000
11
-438.2639131228
21
-118.4832235049
31
0.0000000000
11
-438.2625994044
21
-118.6883563271
31
0.0000000000
0
SPLINE
5
2D7
100
AcDbEntity
8
0
100
AcDbSpline
62
7
6
CONTINUOUS
70
0
71
3
72
15
73
11
74
9
42
0.0000001000
43
0.0000001000
44
0.0000000001
12
1.4803621179
22
-0.0078596136
32
0.0000000000
13
1.4800369726
23
-0.0320052064
33
0.0000000000
40
0.0000000000
40
0.0000000000
40
0.0000000000
40
0.0000000000
40
0.1546157540
40
0.2925013647
40
0.4185697721
40
0.5376308442
40
0.6541984108
40
0.7698885810
40
0.8850458830
40
1.0000000000
40
1.0000000000
40
1.0000000000
40
1.0000000000
10
-438.2625994044
20
-118.6883563271
30
0.0000000000
10
-438.1863036361
20
-118.6887614005
30
0.0000000000
10
-438.0419685241
20
-118.6897037265
30
0.0000000000
10
-437.8354286023
20
-118.6915316626
30
0.0000000000
10
-437.6464368171
20
-118.6936032525
30
0.0000000000
10
-437.4679682615
20
-118.6959124020
30
0.0000000000
10
-437.2946251602
20
-118.6984879115
30
0.0000000000
10
-437.1232133858
20
-118.7013625297
30
0.0000000000
10
-436.9526034989
20
-118.7045519730
30
0.0000000000
10
-436.8390765795
20
-118.7068950110
30
0.0000000000
10
-436.7823644651
20
-118.7081213877
30
0.0000000000
11
-438.2625994044
21
-118.6883563271
31
0.0000000000
11
-438.0337137552
21
-118.6898512448
31
0.0000000000
11
-437.8295982424
21
-118.6916582908
31
0.0000000000
11
-437.6429799342
21
-118.6937044049
31
0.0000000000
11
-437.4667387079
21
-118.6959852790
31
0.0000000000
11
-437.2941931191
21
-118.6985495322
31
0.0000000000
11
-437.1229514495
21
-118.7014219621
31
0.0000000000
11
-436.9525043345
21
-118.7046091054
31
0.0000000000
11
-436.7823644651
21
-118.7081213877
31
0.0000000000
0
SPLINE
5
2D8
100
AcDbEntity
8
0
100
AcDbSpline
62
7
6
CONTINUOUS
70
0
71
3
72
10
73
6
74
4
42
0.0000001000
43
0.0000001000
44
0.0000000001
12
0.0049557402
22
-0.9604608760
32
0.0000000000
13
-0.0049557402
23
-0.9604608760
33
0.0000000000
40
0.0000000000
40
0.0000000000
40
0.0000000000
40
0.0000000000
40
0.3328070337
40
0.6671929178
40
1.0000000000
40
1.0000000000
40
1.0000000000
40
1.0000000000
10
-436.7823644651
20
-118.7081213877
30
0.0000000000
10
-436.7818146967
20
-118.8146707661
30
0.0000000000
10
-436.7810804829
20
-119.0282770831
30
0.0000000000
10
-436.7810804828
20
-119.3484355401
30
0.0000000000
10
-436.7818146966
20
-119.5620418726
30
0.0000000000
10
-436.7823644651
20
-119.6685912665
30
0.0000000000
11
-436.7823644651
21
-118.7081213877
31
0.0000000000
11
-436.7812649060
21
-119.0277718866
31
0.0000000000
11
-436.7812649060
21
-119.3489407210
31
0.0000000000
11
-436.7823644651
21
-119.6685912665
31
0.0000000000
0
SPLINE
5
2D9
100
AcDbEntity
8
0
100
AcDbSpline
62
7
6
CONTINUOUS
70
0
71
3
72
15
73
11
74
9
42
0.0000001000
43
0.0000001000
44
0.0000000001
12
-1.4800369748
22
-0.0320052065
32
0.0000000000
13
-1.4803621201
23
-0.0078596136
33
0.0000000000
40
0.0000000000
40
0.0000000000
40
0.0000000000
40
0.0000000000
40
0.1160706953
40
0.2320431172
40
0.3485960214
40
0.4664268351
40
0.5870610763
40
0.7138575591
40
0.8503073998
40
1.0000000000
40
1.0000000000
40
1.0000000000
40
1.0000000000
10
-436.7823644651
20
-119.6685912665
30
0.0000000000
10
-436.8396274386
20
-119.6698295554
30
0.0000000000
10
-436.9541073981
20
-119.6721911668
30
0.0000000000
10
-437.1260960720
20
-119.6754019796
30
0.0000000000
10
-437.2989590771
20
-119.6782941622
30
0.0000000000
10
-437.4741275127
20
-119.6808869570
30
0.0000000000
10
-437.6543550458
20
-119.6832047068
30
0.0000000000
10
-437.8437740840
20
-119.6852627423
30
0.0000000000
10
-438.0475356674
20
-119.6870477920
30
0.0000000000
10
-438.1887329861
20
-119.6879641518
30
0.0000000000
10
-438.2625994044
20
-119.6883563271
30
0.0000000000
11
-436.7823644651
21
-119.6685912665
31
0.0000000000
11
-436.9541569798
21
-119.6721360364
31
0.0000000000
11
-437.1258106558
21
-119.6753413527
31
0.0000000000
11
-437.2983294357
21
-119.6782284537
31
0.0000000000
11
-437.4727450530
21
-119.6808107155
31
0.0000000000
11
-437.6513151581
21
-119.6831077120
31
0.0000000000
11
-437.8390114296
21
-119.6851475743
31
0.0000000000
11
-438.0410016964
21
-119.6869176490
31
0.0000000000
11
-438.2625994044
21
-119.6883563271
31
0.0000000000
0
SPLINE
5
2DA
100
AcDbEntity
8
0
100
AcDbSpline
62
7
6
CONTINUOUS
70
0
71
3
72
16
73
12
74
10
42
0.0000001000
43
0.0000001000
44
0.0000000001
12
-0.0078596139
22
-1.4803621696
32
0.0000000000
13
-0.0320052075
23
-1.4800370244
33
0.0000000000
40
0.0000000000
40
0.0000000000
40
0.0000000000
40
0.0000000000
40
0.1446788206
40
0.2727250257
40
0.3882219558
40
0.4951862000
40
0.5976288021
40
0.6988632346
40
0.7995812912
40
0.8999189804
40
1.0000000000
40
1.0000000000
40
1.0000000000
40
1.0000000000
10
-438.2625994044
20
-119.6883563271
30
0.0000000000
10
-438.2629784443
20
-119.7597486781
30
0.0000000000
10
-438.2638465154
20
-119.8943251874
30
0.0000000000
10
-438.2654966597
20
-120.0858906027
30
0.0000000000
10
-438.2673229395
20
-120.2588427873
30
0.0000000000
10
-438.2693028437
20
-120.4191579869
30
0.0000000000
10
-438.2714562856
20
-120.5724322910
30
0.0000000000
10
-438.2738168877
20
-120.7226209193
30
0.0000000000
10
-438.2764102455
20
-120.8717668621
30
0.0000000000
10
-438.2792434543
20
-121.0203391702
30
0.0000000000
10
-438.2812967604
20
-121.1192167284
30
0.0000000000
10
-438.2823644651
20
-121.1685912665
30
0.0000000000
11
-438.2625994044
21
-119.6883563271
31
0.0000000000
11
-438.2639813930
21
-119.9025319398
31
0.0000000000
11
-438.2656146211
21
-120.0920823334
31
0.0000000000
11
-438.2674203715
21
-120.2630524933
31
0.0000000000
11
-438.2693762069
21
-120.4213884665
31
0.0000000000
11
-438.2715070565
21
-120.5730277858
31
0.0000000000
11
-438.2738627062
21
-120.7228750076
31
0.0000000000
11
-438.2764553527
21
-120.8719537669
31
0.0000000000
11
-438.2792878993
21
-121.0204649696
31
0.0000000000
11
-438.2823644651
21
-121.1685912665
31
0.0000000000
0
SPLINE
5
2DB
100
AcDbEntity
8
0
100
AcDbSpline
62
7
6
CONTINUOUS
70
0
71
3
72
10
73
6
74
4
42
0.0000001000
43
0.0000001000
44
0.0000000001
12
-0.4802306155
22
-0.0024778710
32
0.0000000000
13
-0.4802370081
23
0.0000000000
33
0.0000000000
40
0.0000000000
40
0.0000000000
40
0.0000000000
40
0.0000000000
40
0.3319470555
40
0.6654640393
40
1.0000000000
40
1.0000000000
40
1.0000000000
40
1.0000000000
10
-438.2823644651
20
-121.1685912665
30
0.0000000000
10
-438.3355015113
20
-121.1688654405
30
0.0000000000
10
-438.4420274087
20
-121.1693235512
30
0.0000000000
10
-438.6021059485
20
-121.1697370025
30
0.0000000000
10
-438.7090472215
20
-121.1698291295
30
0.0000000000
10
-438.7625994044
20
-121.1698291295
30
0.0000000000
11
-438.2823644651
21
-121.1685912665
31
0.0000000000
11
-438.4417762512
21
-121.1692769426
31
0.0000000000
11
-438.6019429152
21
-121.1696907014
31
0.0000000000
11
-438.7625994044
21
-121.1698291295
31
0.0000000000
0
ENDSEC
0
SECTION
2
OBJECTS
0
DICTIONARY
5
2DC
100
AcDbDictionary
3
ACAD_GROUP
350
2DD
3
ACAD_MLINESTYLE
350
2DE
0
DICTIONARY
5
2DD
102
{ACAD_REACTORS
330
2DC
102
}
100
AcDbDictionary
0
DICTIONARY
5
2DE
102
{ACAD_REACTORS
330
2DC
102
}
100
AcDbDictionary
3
STANDARD
350
2DF
0
MLINESTYLE
5
2DF
102
{ACAD_REACTORS
330
2DE
102
}
100
AcDbMlineStyle
2
STANDARD
70
0
3

62
256
51
90.0
52
90.0
71
2
49
0.5
62
256
6
BYLAYER
49
-0.5
62
256
6
BYLAYER
0
ENDSEC
0
EOF
