0
SECTION
2
HEADER
9
$ACADVER
1
AC1014
9
$HANDSEED
5
       2E0
9
$EXTMAX
10
297.0000000000
20
210.0000000000
9
$EXTMIN
10
0.0000000000
20
0.0000000000
9
$LIMMIN
10
0.0000000000
20
0.0000000000
9
$LIMMAX
10
297.0000000000
20
210.0000000000
9
$VIEWCTR
10
148.5000000000
20
105.0000000000
9
$VIEWSIZE
40
210.0000000000
9
$CLAYER
8
0
9
$LTSCALE
40
16.3350000000
9
$CELTYPE
6
BYLAYER
9
$DIMSCALE
40
1
9
$DIMASZ
40
3.0000000000
9
$DIMEXO
40
1.8562500000
9
$DIMDLI
40
11.2860000000
9
$DIMEXE
40
5.3460000000
9
$DIMCEN
40
2.6730000000
9
$DIMLFAC
40
1.0000000000
9
$DIMTXT
40
3.0000000000
9
$DIMTOL
70
1
9
$DIMLIM
70
0
9
$DIMTFAC
40
1.0000000000
9
$DIMTP
40
0.0100000000
9
$DIMTM
40
0.0100000000
9
$MEASUREMENT
70
1
0
ENDSEC
0
SECTION
2
CLASSES
0
ENDSEC
0
SECTION
2
TABLES
0
TABLE
2
VPORT
5
8
100
AcDbSymbolTable
70
2
0
VPORT
5
1F4
100
AcDbSymbolTableRecord
100
AcDbViewportTableRecord
2
*ACTIVE
70
0
10
0.0
20
0.0
11
1.0
21
1.0
12
148.5000000000
22
105.0000000000
13
0.0
23
0.0
14
1.0
24
1.0
15
0.0
25
0.0
16
0.0
26
0.0
36
1.0
17
0.0
27
0.0
37
0.0
40
210.0000000000
41
1.4142857143
42
50.0
43
0.0
44
0.0
50
0.0
51
0.0
71
0
72
100
73
1
74
1
75
0
76
0
77
0
78
0
0
ENDTAB
0
TABLE
2
LTYPE
5
5
100
AcDbSymbolTable
70
6
0
LTYPE
5
14
100
AcDbSymbolTableRecord
100
AcDbLinetypeTableRecord
2
BYBLOCK
70
0
3

72
65
73
0
40
0.0
0
LTYPE
5
15
100
AcDbSymbolTableRecord
100
AcDbLinetypeTableRecord
2
BYLAYER
70
0
3

72
65
73
0
40
0.0
0
LTYPE
5
16
100
AcDbSymbolTableRecord
100
AcDbLinetypeTableRecord
2
CONTINUOUS
70
64
3
Solid line
72
65
73
0
40
0
0
LTYPE
5
1F5
100
AcDbSymbolTableRecord
100
AcDbLinetypeTableRecord
2
CENTER
70
64
3
____ _ ____ _ ____ _ ____ _ ____ _ ____ _ ____
72
65
73
4
40
0.6
49
0.375
74
0
49
-0.075
74
0
49
0.075
74
0
49
-0.075
74
0
0
LTYPE
5
1F6
100
AcDbSymbolTableRecord
100
AcDbLinetypeTableRecord
2
HIDDEN
70
64
3
- - - - - - - - - - - - - - - - - - - -
72
65
73
2
40
0.2
49
0.1
74
0
49
-0.1
74
0
0
LTYPE
5
1F7
100
AcDbSymbolTableRecord
100
AcDbLinetypeTableRecord
2
PHANTOM
70
64
3
_____ _ _ _____ _ _ _____ _ _ _____
72
65
73
6
40
0.8
49
0.45
74
0
49
-0.05
74
0
49
0.1
74
0
49
-0.05
74
0
49
0.1
74
0
49
-0.05
74
0
0
LTYPE
5
1F8
100
AcDbSymbolTableRecord
100
AcDbLinetypeTableRecord
2
DOT
70
64
3
. . . . . . . . . . . . . . . . . . . .
72
65
73
2
40
0.2
49
0.1
74
0
49
-0.1
74
0
0
LTYPE
5
1F9
100
AcDbSymbolTableRecord
100
AcDbLinetypeTableRecord
2
DASHED
70
64
3
- - - - - - - - - - - - - - - - - - - -
72
65
73
2
40
0.2
49
0.1
74
0
49
-0.1
74
0
0
ENDTAB
0
TABLE
2
LAYER
5
2
100
AcDbSymbolTable
70
36
0
LAYER
5
10
100
AcDbSymbolTableRecord
100
AcDbLayerTableRecord
2
0
70
0
62
7
6
CONTINUOUS
0
LAYER
5
1FA
100
AcDbSymbolTableRecord
100
AcDbLayerTableRecord
2
DEFAULT_1
70
0
62
7
6
CENTER
0
LAYER
5
1FB
100
AcDbSymbolTableRecord
100
AcDbLayerTableRecord
2
DEFAULT_2
70
0
62
8
6
HIDDEN
0
LAYER
5
1FC
100
AcDbSymbolTableRecord
100
AcDbLayerTableRecord
2
DEFAULT_3
70
0
62
7
6
PHANTOM
0
LAYER
5
1FD
100
AcDbSymbolTableRecord
100
AcDbLayerTableRecord
2
ASSI
70
0
62
7
6
CONTINUOUS
0
LAYER
5
1FE
100
AcDbSymbolTableRecord
100
AcDbLayerTableRecord
2
COORDINATE
70
0
62
7
6
CONTINUOUS
0
LAYER
5
1FF
100
AcDbSymbolTableRecord
100
AcDbLayerTableRecord
2
COORD_ORIGINE
70
0
62
7
6
CONTINUOUS
0
LAYER
5
200
100
AcDbSymbolTableRecord
100
AcDbLayerTableRecord
2
CURVE
70
0
62
7
6
CONTINUOUS
0
LAYER
5
201
100
AcDbSymbolTableRecord
100
AcDbLayerTableRecord
2
DRAFT
70
0
62
7
6
CONTINUOUS
0
LAYER
5
202
100
AcDbSymbolTableRecord
100
AcDbLayerTableRecord
2
IGES
70
0
62
7
6
CONTINUOUS
0
LAYER
5
203
100
AcDbSymbolTableRecord
100
AcDbLayerTableRecord
2
NOTE
70
0
62
7
6
CONTINUOUS
0
LAYER
5
204
100
AcDbSymbolTableRecord
100
AcDbLayerTableRecord
2
PIANI
70
0
62
7
6
CONTINUOUS
0
LAYER
5
205
100
AcDbSymbolTableRecord
100
AcDbLayerTableRecord
2
PIANI_ORIGINE
70
0
62
7
6
CONTINUOUS
0
LAYER
5
206
100
AcDbSymbolTableRecord
100
AcDbLayerTableRecord
2
PUNTI
70
0
62
7
6
CONTINUOUS
0
LAYER
5
207
100
AcDbSymbolTableRecord
100
AcDbLayerTableRecord
2
RACCORDO
70
0
62
7
6
CONTINUOUS
0
LAYER
5
208
100
AcDbSymbolTableRecord
100
AcDbLayerTableRecord
2
SMUSSO
70
0
62
7
6
CONTINUOUS
0
LAYER
5
209
100
AcDbSymbolTableRecord
100
AcDbLayerTableRecord
2
SNAPLINE
70
0
62
7
6
CONTINUOUS
0
LAYER
5
20A
100
AcDbSymbolTableRecord
100
AcDbLayerTableRecord
2
SUPERFICI
70
0
62
7
6
CONTINUOUS
0
LAYER
5
20B
100
AcDbSymbolTableRecord
100
AcDbLayerTableRecord
2
TRASH
70
0
62
7
6
CONTINUOUS
0
ENDTAB
0
TABLE
2
STYLE
5
3
100
AcDbSymbolTable
70
1
0
STYLE
5
11
100
AcDbSymbolTableRecord
100
AcDbTextStyleTableRecord
2
STANDARD
70
0
40
0.0
41
0.8000000000
50
0.0
71
0
42
0.2
3
txt
4

0
ENDTAB
0
TABLE
2
VIEW
5
6
100
AcDbSymbolTable
70
0
0
ENDTAB
0
TABLE
2
UCS
5
7
100
AcDbSymbolTable
70
0
0
ENDTAB
0
TABLE
2
APPID
5
9
100
AcDbSymbolTable
70
1
0
APPID
5
20C
100
AcDbSymbolTableRecord
100
AcDbRegAppTableRecord
2
ACAD
70
0
0
ENDTAB
0
TABLE
2
DIMSTYLE
5
A
100
AcDbSymbolTable
70
1
0
DIMSTYLE
105
20D
100
AcDbSymbolTableRecord
100
AcDbDimStyleTableRecord
2
STANDARD
70
0
3

4

5

6

7

40
1.0
41
3.0000000000
42
0.0625
43
0.38
44
0.18
45
0.0
46
0.0
47
0.0100000000
48
0.0100000000
140
3.0000000000
141
0.09
142
0.0
143
25.4
144
1.0000000000
145
0.0
146
1.0000000000
147
0.09
71
1
72
0
73
0
74
0
75
0
76
0
77
1
78
8
170
0
171
2
172
0
173
0
174
0
175
0
176
0
177
0
178
0
270
2
271
2
272
2
273
2
274
2
340
11
275
0
280
0
281
0
282
0
283
1
284
8
285
0
286
0
287
3
288
0
0
ENDTAB
0
TABLE
2
BLOCK_RECORD
5
1
100
AcDbSymbolTable
70
0
0
BLOCK_RECORD
5
1B
100
AcDbSymbolTableRecord
100
AcDbBlockTableRecord
2
*MODEL_SPACE
0
BLOCK_RECORD
5
1C
100
AcDbSymbolTableRecord
100
AcDbBlockTableRecord
2
*PAPER_SPACE
0
ENDTAB
0
ENDSEC
0
SECTION
2
BLOCKS
0
BLOCK
5
1E
100
AcDbEntity
8
0
100
AcDbBlockBegin
2
*MODEL_SPACE
70
0
10
0.0
20
0.0
30
0.0
3
*MODEL_SPACE
1

0
ENDBLK
5
1F
100
AcDbEntity
8
0
100
AcDbBlockEnd
0
BLOCK
5
20
100
AcDbEntity
8
0
100
AcDbBlockBegin
2
*PAPER_SPACE
70
0
10
0.0
20
0.0
30
0.0
3
*PAPER_SPACE
1

0
ENDBLK
5
21
100
AcDbEntity
8
0
100
AcDbBlockEnd
0
ENDSEC
0
SECTION
2
ENTITIES
0
LINE
5
20E
100
AcDbEntity
8
0
100
AcDbLine
62
7
6
CONTINUOUS
10
107.0305253027
20
-410.9257731485
11
110.4305253027
21
-410.9257731485
0
LINE
5
20F
100
AcDbEntity
8
0
100
AcDbLine
62
7
6
CONTINUOUS
10
106.2305253027
20
-410.1257731485
11
111.2305253027
21
-410.1257731485
0
LINE
5
210
100
AcDbEntity
8
0
100
AcDbLine
62
7
6
CONTINUOUS
10
116.2305253027
20
-401.9257731485
11
101.2305253027
21
-401.9257731485
0
LINE
5
211
100
AcDbEntity
8
0
100
AcDbLine
62
7
6
CONTINUOUS
10
50.7305253027
20
-399.1257731485
11
116.2305253027
21
-399.1257731485
0
LINE
5
212
100
AcDbEntity
8
0
100
AcDbLine
62
7
6
CONTINUOUS
10
-414.2694746973
20
-399.1257731485
11
-477.2694746973
21
-399.1257731485
0
LINE
5
213
100
AcDbEntity
8
0
100
AcDbLine
62
7
6
CONTINUOUS
10
50.7305253027
20
-397.6257731485
11
113.7305253027
21
-397.6257731485
0
LINE
5
214
100
AcDbEntity
8
0
100
AcDbLine
62
7
6
CONTINUOUS
10
-414.2694746973
20
-397.6257731485
11
-477.2694746973
21
-397.6257731485
0
LINE
5
215
100
AcDbEntity
8
0
100
AcDbLine
62
9
6
CONTINUOUS
10
-467.2694746973
20
-397.1257731485
11
-414.2694746973
21
-397.1257731485
0
LINE
5
216
100
AcDbEntity
8
0
100
AcDbLine
62
9
6
CONTINUOUS
10
50.7305253027
20
-397.1257731485
11
103.7305253027
21
-397.1257731485
0
LINE
5
217
100
AcDbEntity
8
0
100
AcDbLine
62
7
6
CONTINUOUS
10
103.7305253027
20
-397.1257731485
11
115.7305253027
21
-397.1257731485
0
LINE
5
218
100
AcDbEntity
8
0
100
AcDbLine
62
7
6
CONTINUOUS
10
-467.2694746973
20
-397.1257731485
11
-479.2694746973
21
-397.1257731485
0
LINE
5
219
100
AcDbEntity
8
DEFAULT_3
100
AcDbLine
62
8
6
PHANTOM
10
80.7305253027
20
-394.1257731485
11
-453.2694746973
21
-394.1257731485
0
LINE
5
21A
100
AcDbEntity
8
DEFAULT_3
100
AcDbLine
62
8
6
PHANTOM
10
79.7305253027
20
-393.1257731485
11
-452.2694746973
21
-393.1257731485
0
LINE
5
21B
100
AcDbEntity
8
0
100
AcDbLine
62
7
6
CONTINUOUS
10
-479.2694746973
20
276.8742268515
11
-479.2694746973
21
-397.1257731485
0
LINE
5
21C
100
AcDbEntity
8
0
100
AcDbLine
62
7
6
CONTINUOUS
10
-477.2694746973
20
-399.1257731485
11
-477.2694746973
21
-397.6257731485
0
LINE
5
21D
100
AcDbEntity
8
0
100
AcDbLine
62
9
6
CONTINUOUS
10
-477.2694746973
20
276.8742268515
11
-477.2694746973
21
-397.1257731485
0
LINE
5
21E
100
AcDbEntity
8
0
100
AcDbLine
62
7
6
CONTINUOUS
10
-477.2694746973
20
276.8742268515
11
-477.2694746973
21
277.3647894637
0
LINE
5
21F
100
AcDbEntity
8
0
100
AcDbLine
62
7
6
CONTINUOUS
10
-477.2694746973
20
277.3742268515
11
-477.2694746973
21
278.8742268515
0
LINE
5
220
100
AcDbEntity
8
0
100
AcDbLine
62
7
6
CONTINUOUS
10
-477.2694746973
20
-397.1257731485
11
-477.2694746973
21
-397.6163357606
0
LINE
5
221
100
AcDbEntity
8
0
100
AcDbLine
62
9
6
CONTINUOUS
10
-475.2694746973
20
-399.1257731485
11
-475.2694746973
21
-397.6257731485
0
LINE
5
222
100
AcDbEntity
8
0
100
AcDbLine
62
9
6
CONTINUOUS
10
-475.2694746973
20
277.3742268515
11
-475.2694746973
21
278.8742268515
0
LINE
5
223
100
AcDbEntity
8
0
100
AcDbLine
62
7
6
CONTINUOUS
10
-465.2694746973
20
274.8742268515
11
-465.2694746973
21
-395.1257731485
0
LINE
5
224
100
AcDbEntity
8
0
100
AcDbLine
62
7
6
CONTINUOUS
10
62.8437739567
20
-362.1257731485
11
68.6172766486
21
-362.1257731485
0
LINE
5
225
100
AcDbEntity
8
0
100
AcDbLine
62
7
6
CONTINUOUS
10
68.6172766486
20
-352.1257731485
11
62.8437739567
21
-352.1257731485
0
LINE
5
226
100
AcDbEntity
8
0
100
AcDbLine
62
7
6
CONTINUOUS
10
101.7305253027
20
-345.9257731485
11
89.5305253027
21
-345.9257731485
0
LINE
5
227
100
AcDbEntity
8
0
100
AcDbLine
62
7
6
CONTINUOUS
10
101.7305253027
20
-340.9257731485
11
89.5305253027
21
-340.9257731485
0
LINE
5
228
100
AcDbEntity
8
DEFAULT_3
100
AcDbLine
62
8
6
PHANTOM
10
-453.2694746973
20
-394.1257731485
11
-453.2694746973
21
273.8742268515
0
LINE
5
229
100
AcDbEntity
8
DEFAULT_3
100
AcDbLine
62
8
6
PHANTOM
10
-452.2694746973
20
-393.1257731485
11
-452.2694746973
21
272.8742268515
0
LINE
5
22A
100
AcDbEntity
8
0
100
AcDbLine
62
7
6
CONTINUOUS
10
-445.5194746973
20
-64.5257731485
11
-445.5194746973
21
-55.7257731485
0
LINE
5
22B
100
AcDbEntity
8
0
100
AcDbLine
62
7
6
CONTINUOUS
10
-444.7694746973
20
-92.3680259526
11
-444.7694746973
21
-74.6257731485
0
LINE
5
22C
100
AcDbEntity
8
0
100
AcDbLine
62
7
6
CONTINUOUS
10
-444.7694746973
20
-64.1257731485
11
-444.7694746973
21
-56.1257731485
0
LINE
5
22D
100
AcDbEntity
8
0
100
AcDbLine
62
7
6
CONTINUOUS
10
-443.1694746973
20
-66.2445965648
11
-443.1694746973
21
-73.0257731485
0
LINE
5
22E
100
AcDbEntity
8
0
100
AcDbLine
62
7
6
CONTINUOUS
10
-439.0674150710
20
-60.4237135221
11
-439.0674150710
21
-59.8278327748
0
LINE
5
22F
100
AcDbEntity
8
0
100
AcDbLine
62
7
6
CONTINUOUS
10
-437.5674150710
20
-61.9237135221
11
-437.5674150710
21
-60.4237135221
0
LINE
5
230
100
AcDbEntity
8
0
100
AcDbLine
62
7
6
CONTINUOUS
10
-437.5674150710
20
-59.8278327748
11
-437.5674150710
21
-58.3278327748
0
LINE
5
231
100
AcDbEntity
8
0
100
AcDbLine
62
7
6
CONTINUOUS
10
-436.9715343237
20
-58.3278327748
11
-436.9715343237
21
-59.8278327748
0
LINE
5
232
100
AcDbEntity
8
0
100
AcDbLine
62
7
6
CONTINUOUS
10
-436.9715343237
20
-60.4237135221
11
-436.9715343237
21
-61.9237135221
0
LINE
5
233
100
AcDbEntity
8
0
100
AcDbLine
62
7
6
CONTINUOUS
10
-435.4715343237
20
-59.8278327748
11
-435.4715343237
21
-60.4237135221
0
LINE
5
234
100
AcDbEntity
8
0
100
AcDbLine
62
7
6
CONTINUOUS
10
-431.3694746973
20
-73.0257731485
11
-431.3694746973
21
-66.2445965648
0
LINE
5
235
100
AcDbEntity
8
0
100
AcDbLine
62
7
6
CONTINUOUS
10
-429.7694746973
20
-92.3680259526
11
-429.7694746973
21
-74.6257731485
0
LINE
5
236
100
AcDbEntity
8
0
100
AcDbLine
62
7
6
CONTINUOUS
10
-429.7694746973
20
-64.1257731485
11
-429.7694746973
21
-56.1257731485
0
LINE
5
237
100
AcDbEntity
8
0
100
AcDbLine
62
7
6
CONTINUOUS
10
-429.0194746973
20
-55.7257731485
11
-429.0194746973
21
-64.5257731485
0
LINE
5
238
100
AcDbEntity
8
0
100
AcDbLine
62
9
6
CONTINUOUS
10
-416.2694746973
20
278.8742268515
11
-416.2694746973
21
277.3742268515
0
LINE
5
239
100
AcDbEntity
8
0
100
AcDbLine
62
9
6
CONTINUOUS
10
-416.2694746973
20
-397.6257731485
11
-416.2694746973
21
-399.1257731485
0
LINE
5
23A
100
AcDbEntity
8
0
100
AcDbLine
62
7
6
CONTINUOUS
10
-414.2694746973
20
278.8742268515
11
-414.2694746973
21
-399.1257731485
0
LINE
5
23B
100
AcDbEntity
8
0
100
AcDbLine
62
7
6
CONTINUOUS
10
-449.9711806195
20
-60.1257731485
11
-443.6203276584
21
-49.1257731485
0
LINE
5
23C
100
AcDbEntity
8
0
100
AcDbLine
62
7
6
CONTINUOUS
10
-443.6203276584
20
-71.1257731485
11
-449.9711806195
21
-60.1257731485
0
LINE
5
23D
100
AcDbEntity
8
0
100
AcDbLine
62
7
6
CONTINUOUS
10
-424.5677687752
20
-60.1257731485
11
-430.9186217363
21
-71.1257731485
0
LINE
5
23E
100
AcDbEntity
8
0
100
AcDbLine
62
7
6
CONTINUOUS
10
-436.9715343237
20
-58.3278327748
11
-436.7892397579
21
-58.1455382091
0
LINE
5
23F
100
AcDbEntity
8
0
100
AcDbLine
62
7
6
CONTINUOUS
10
-439.0674150710
20
-60.4237135221
11
-439.2497096367
21
-60.6060080879
0
LINE
5
240
100
AcDbEntity
8
0
100
AcDbLine
62
7
6
CONTINUOUS
10
-436.9715343237
20
-59.8278327748
11
-436.7694746973
21
-59.6257731485
0
LINE
5
241
100
AcDbEntity
8
0
100
AcDbLine
62
7
6
CONTINUOUS
10
-437.5674150710
20
-60.4237135221
11
-437.7694746973
21
-60.6257731485
0
LINE
5
242
100
AcDbEntity
8
0
100
AcDbLine
62
7
6
CONTINUOUS
10
-429.7694746973
20
-74.6257731485
11
-431.3694746973
21
-73.0257731485
0
LINE
5
243
100
AcDbEntity
8
0
100
AcDbLine
62
7
6
CONTINUOUS
10
-436.9715343237
20
-61.9237135221
11
-436.7892397579
21
-62.1060080879
0
LINE
5
244
100
AcDbEntity
8
0
100
AcDbLine
62
7
6
CONTINUOUS
10
-439.0674150710
20
-59.8278327748
11
-439.2497096367
21
-59.6455382091
0
LINE
5
245
100
AcDbEntity
8
0
100
AcDbLine
62
7
6
CONTINUOUS
10
-436.9715343237
20
-60.4237135221
11
-436.7694746973
21
-60.6257731485
0
LINE
5
246
100
AcDbEntity
8
0
100
AcDbLine
62
7
6
CONTINUOUS
10
-437.5674150710
20
-59.8278327748
11
-437.7694746973
21
-59.6257731485
0
LINE
5
247
100
AcDbEntity
8
0
100
AcDbLine
62
7
6
CONTINUOUS
10
-430.9186217363
20
-49.1257731485
11
-424.5677687752
21
-60.1257731485
0
LINE
5
248
100
AcDbEntity
8
0
100
AcDbLine
62
7
6
CONTINUOUS
10
-435.4715343237
20
-59.8278327748
11
-435.2892397579
21
-59.6455382091
0
LINE
5
249
100
AcDbEntity
8
0
100
AcDbLine
62
7
6
CONTINUOUS
10
-437.5674150710
20
-61.9237135221
11
-437.7497096367
21
-62.1060080879
0
LINE
5
24A
100
AcDbEntity
8
0
100
AcDbLine
62
7
6
CONTINUOUS
10
-443.1694746973
20
-73.0257731485
11
-444.7694746973
21
-74.6257731485
0
LINE
5
24B
100
AcDbEntity
8
0
100
AcDbLine
62
7
6
CONTINUOUS
10
-435.4715343237
20
-60.4237135221
11
-435.2892397579
21
-60.6060080879
0
LINE
5
24C
100
AcDbEntity
8
0
100
AcDbLine
62
7
6
CONTINUOUS
10
-437.5674150710
20
-58.3278327748
11
-437.7497096367
21
-58.1455382091
0
LINE
5
24D
100
AcDbEntity
8
DEFAULT_3
100
AcDbLine
62
8
6
PHANTOM
10
79.7305253027
20
272.8742268515
11
80.7305253027
21
273.8742268515
0
LINE
5
24E
100
AcDbEntity
8
0
100
AcDbLine
62
7
6
CONTINUOUS
10
107.0305253027
20
290.6742268515
11
106.2305253027
21
289.8742268515
0
LINE
5
24F
100
AcDbEntity
8
DEFAULT_3
100
AcDbLine
62
8
6
PHANTOM
10
79.7305253027
20
-393.1257731485
11
80.7305253027
21
-394.1257731485
0
LINE
5
250
100
AcDbEntity
8
0
100
AcDbLine
62
7
6
CONTINUOUS
10
107.0305253027
20
-410.9257731485
11
106.2305253027
21
-410.1257731485
0
LINE
5
251
100
AcDbEntity
8
0
100
AcDbLine
62
7
6
CONTINUOUS
10
89.5305253027
20
225.6742268515
11
88.7305253027
21
224.8742268515
0
LINE
5
252
100
AcDbEntity
8
0
100
AcDbLine
62
7
6
CONTINUOUS
10
-430.9186217363
20
-71.1257731485
11
-431.3694746973
21
-71.1257731485
0
LINE
5
253
100
AcDbEntity
8
0
100
AcDbLine
62
7
6
CONTINUOUS
10
-443.1694746973
20
-71.1257731485
11
-443.6203276584
21
-71.1257731485
0
LINE
5
254
100
AcDbEntity
8
0
100
AcDbLine
62
7
6
CONTINUOUS
10
-430.5601245229
20
-65.3444530809
11
-443.9788248718
21
-65.3444530809
0
LINE
5
255
100
AcDbEntity
8
0
100
AcDbLine
62
7
6
CONTINUOUS
10
-436.9715343237
20
-61.9237135221
11
-437.5674150710
21
-61.9237135221
0
LINE
5
256
100
AcDbEntity
8
0
100
AcDbLine
62
7
6
CONTINUOUS
10
-435.4715343237
20
-60.4237135221
11
-436.9715343237
21
-60.4237135221
0
LINE
5
257
100
AcDbEntity
8
0
100
AcDbLine
62
7
6
CONTINUOUS
10
-437.5674150710
20
-60.4237135221
11
-439.0674150710
21
-60.4237135221
0
LINE
5
258
100
AcDbEntity
8
0
100
AcDbLine
62
7
6
CONTINUOUS
10
-439.0674150710
20
-59.8278327748
11
-437.5674150710
21
-59.8278327748
0
LINE
5
259
100
AcDbEntity
8
0
100
AcDbLine
62
7
6
CONTINUOUS
10
-436.9715343237
20
-59.8278327748
11
-435.4715343237
21
-59.8278327748
0
LINE
5
25A
100
AcDbEntity
8
0
100
AcDbLine
62
7
6
CONTINUOUS
10
-437.5674150710
20
-58.3278327748
11
-436.9715343237
21
-58.3278327748
0
LINE
5
25B
100
AcDbEntity
8
0
100
AcDbLine
62
7
6
CONTINUOUS
10
89.5305253027
20
-345.9257731485
11
88.7305253027
21
-345.1257731485
0
LINE
5
25C
100
AcDbEntity
8
0
100
AcDbLine
62
7
6
CONTINUOUS
10
-443.6203276584
20
-49.1257731485
11
-430.9186217363
21
-49.1257731485
0
LINE
5
25D
100
AcDbEntity
8
0
100
AcDbLine
62
7
6
CONTINUOUS
10
62.8437739567
20
241.8742268515
11
59.9570226108
21
236.8742268515
0
LINE
5
25E
100
AcDbEntity
8
DEFAULT_3
100
AcDbLine
62
8
6
PHANTOM
10
-452.2694746973
20
-393.1257731485
11
-453.2694746973
21
-394.1257731485
0
LINE
5
25F
100
AcDbEntity
8
DEFAULT_3
100
AcDbLine
62
8
6
PHANTOM
10
-452.2694746973
20
272.8742268515
11
-453.2694746973
21
273.8742268515
0
LINE
5
260
100
AcDbEntity
8
0
100
AcDbLine
62
7
6
CONTINUOUS
10
59.9570226108
20
-357.1257731485
11
62.8437739567
21
-362.1257731485
0
LINE
5
261
100
AcDbEntity
8
0
100
AcDbLine
62
7
6
CONTINUOUS
10
68.6172766486
20
231.8742268515
11
71.5040279946
21
236.8742268515
0
LINE
5
262
100
AcDbEntity
8
0
100
AcDbLine
62
7
6
CONTINUOUS
10
71.5040279946
20
-357.1257731485
11
68.6172766486
21
-352.1257731485
0
LINE
5
263
100
AcDbEntity
8
0
100
AcDbLine
62
7
6
CONTINUOUS
10
50.7305253027
20
278.8742268515
11
50.7305253027
21
-399.1257731485
0
LINE
5
264
100
AcDbEntity
8
0
100
AcDbLine
62
9
6
CONTINUOUS
10
52.7305253027
20
-399.1257731485
11
52.7305253027
21
-397.6257731485
0
LINE
5
265
100
AcDbEntity
8
0
100
AcDbLine
62
9
6
CONTINUOUS
10
52.7305253027
20
277.3742268515
11
52.7305253027
21
278.8742268515
0
LINE
5
266
100
AcDbEntity
8
DEFAULT_3
100
AcDbLine
62
8
6
PHANTOM
10
79.7305253027
20
272.8742268515
11
79.7305253027
21
-393.1257731485
0
LINE
5
267
100
AcDbEntity
8
DEFAULT_3
100
AcDbLine
62
8
6
PHANTOM
10
80.7305253027
20
273.8742268515
11
80.7305253027
21
-394.1257731485
0
LINE
5
268
100
AcDbEntity
8
0
100
AcDbLine
62
7
6
CONTINUOUS
10
88.7305253027
20
-345.1257731485
11
88.7305253027
21
-341.7257731485
0
LINE
5
269
100
AcDbEntity
8
0
100
AcDbLine
62
7
6
CONTINUOUS
10
88.7305253027
20
221.4742268515
11
88.7305253027
21
224.8742268515
0
LINE
5
26A
100
AcDbEntity
8
0
100
AcDbLine
62
7
6
CONTINUOUS
10
89.5305253027
20
-345.9257731485
11
89.5305253027
21
-340.9257731485
0
LINE
5
26B
100
AcDbEntity
8
0
100
AcDbLine
62
7
6
CONTINUOUS
10
89.5305253027
20
220.6742268515
11
89.5305253027
21
225.6742268515
0
LINE
5
26C
100
AcDbEntity
8
0
100
AcDbLine
62
7
6
CONTINUOUS
10
101.2305253027
20
278.8742268515
11
101.2305253027
21
281.6742268515
0
LINE
5
26D
100
AcDbEntity
8
0
100
AcDbLine
62
7
6
CONTINUOUS
10
101.2305253027
20
-399.1257731485
11
101.2305253027
21
-401.9257731485
0
LINE
5
26E
100
AcDbEntity
8
0
100
AcDbLine
62
7
6
CONTINUOUS
10
101.7305253027
20
-395.1257731485
11
101.7305253027
21
274.8742268515
0
LINE
5
26F
100
AcDbEntity
8
0
100
AcDbLine
62
7
6
CONTINUOUS
10
104.8305253027
20
276.8742268515
11
104.8305253027
21
277.3742268515
0
LINE
5
270
100
AcDbEntity
8
0
100
AcDbLine
62
7
6
CONTINUOUS
10
104.8305253027
20
-397.1257731485
11
104.8305253027
21
-397.6257731485
0
LINE
5
271
100
AcDbEntity
8
0
100
AcDbLine
62
7
6
CONTINUOUS
10
106.2305253027
20
-410.1257731485
11
106.2305253027
21
-401.9257731485
0
LINE
5
272
100
AcDbEntity
8
0
100
AcDbLine
62
7
6
CONTINUOUS
10
106.2305253027
20
289.8742268515
11
106.2305253027
21
281.6742268515
0
LINE
5
273
100
AcDbEntity
8
0
100
AcDbLine
62
7
6
CONTINUOUS
10
111.2305253027
20
-410.1257731485
11
111.2305253027
21
-401.9257731485
0
LINE
5
274
100
AcDbEntity
8
0
100
AcDbLine
62
7
6
CONTINUOUS
10
111.2305253027
20
289.8742268515
11
111.2305253027
21
281.6742268515
0
LINE
5
275
100
AcDbEntity
8
0
100
AcDbLine
62
9
6
CONTINUOUS
10
111.7305253027
20
278.8742268515
11
111.7305253027
21
277.3742268515
0
LINE
5
276
100
AcDbEntity
8
0
100
AcDbLine
62
9
6
CONTINUOUS
10
111.7305253027
20
-397.6257731485
11
111.7305253027
21
-399.1257731485
0
LINE
5
277
100
AcDbEntity
8
0
100
AcDbLine
62
7
6
CONTINUOUS
10
112.6305253027
20
276.8742268515
11
112.6305253027
21
277.3742268515
0
LINE
5
278
100
AcDbEntity
8
0
100
AcDbLine
62
7
6
CONTINUOUS
10
112.6305253027
20
-397.1257731485
11
112.6305253027
21
-397.6257731485
0
LINE
5
279
100
AcDbEntity
8
0
100
AcDbLine
62
7
6
CONTINUOUS
10
113.7305253027
20
278.8742268515
11
113.7305253027
21
277.3742268515
0
LINE
5
27A
100
AcDbEntity
8
0
100
AcDbLine
62
9
6
CONTINUOUS
10
113.7305253027
20
-397.1257731485
11
113.7305253027
21
276.8742268515
0
LINE
5
27B
100
AcDbEntity
8
0
100
AcDbLine
62
7
6
CONTINUOUS
10
113.7305253027
20
276.8742268515
11
113.7305253027
21
277.3647894637
0
LINE
5
27C
100
AcDbEntity
8
0
100
AcDbLine
62
7
6
CONTINUOUS
10
113.7305253027
20
-397.1257731485
11
113.7305253027
21
-397.6163357606
0
LINE
5
27D
100
AcDbEntity
8
0
100
AcDbLine
62
7
6
CONTINUOUS
10
113.7305253027
20
-397.6257731485
11
113.7305253027
21
-399.1257731485
0
LINE
5
27E
100
AcDbEntity
8
0
100
AcDbLine
62
7
6
CONTINUOUS
10
115.7305253027
20
-397.1257731485
11
115.7305253027
21
276.8742268515
0
LINE
5
27F
100
AcDbEntity
8
0
100
AcDbLine
62
7
6
CONTINUOUS
10
116.2305253027
20
278.8742268515
11
116.2305253027
21
281.6742268515
0
LINE
5
280
100
AcDbEntity
8
0
100
AcDbLine
62
7
6
CONTINUOUS
10
116.2305253027
20
-399.1257731485
11
116.2305253027
21
-401.9257731485
0
LINE
5
281
100
AcDbEntity
8
0
100
AcDbLine
62
7
6
CONTINUOUS
10
101.7305253027
20
220.6742268515
11
89.5305253027
21
220.6742268515
0
LINE
5
282
100
AcDbEntity
8
0
100
AcDbLine
62
7
6
CONTINUOUS
10
101.7305253027
20
225.6742268515
11
89.5305253027
21
225.6742268515
0
LINE
5
283
100
AcDbEntity
8
0
100
AcDbLine
62
7
6
CONTINUOUS
10
62.8437739567
20
231.8742268515
11
68.6172766486
21
231.8742268515
0
LINE
5
284
100
AcDbEntity
8
0
100
AcDbLine
62
7
6
CONTINUOUS
10
68.6172766486
20
241.8742268515
11
62.8437739567
21
241.8742268515
0
LINE
5
285
100
AcDbEntity
8
DEFAULT_3
100
AcDbLine
62
8
6
PHANTOM
10
-452.2694746973
20
272.8742268515
11
79.7305253027
21
272.8742268515
0
LINE
5
286
100
AcDbEntity
8
DEFAULT_3
100
AcDbLine
62
8
6
PHANTOM
10
-453.2694746973
20
273.8742268515
11
80.7305253027
21
273.8742268515
0
LINE
5
287
100
AcDbEntity
8
0
100
AcDbLine
62
9
6
CONTINUOUS
10
103.7305253027
20
276.8742268515
11
50.7305253027
21
276.8742268515
0
LINE
5
288
100
AcDbEntity
8
0
100
AcDbLine
62
7
6
CONTINUOUS
10
103.7305253027
20
276.8742268515
11
115.7305253027
21
276.8742268515
0
LINE
5
289
100
AcDbEntity
8
0
100
AcDbLine
62
9
6
CONTINUOUS
10
-414.2694746973
20
276.8742268515
11
-467.2694746973
21
276.8742268515
0
LINE
5
28A
100
AcDbEntity
8
0
100
AcDbLine
62
7
6
CONTINUOUS
10
-467.2694746973
20
276.8742268515
11
-479.2694746973
21
276.8742268515
0
LINE
5
28B
100
AcDbEntity
8
0
100
AcDbLine
62
7
6
CONTINUOUS
10
50.7305253027
20
277.3742268515
11
113.7305253027
21
277.3742268515
0
LINE
5
28C
100
AcDbEntity
8
0
100
AcDbLine
62
7
6
CONTINUOUS
10
-414.2694746973
20
277.3742268515
11
-477.2694746973
21
277.3742268515
0
LINE
5
28D
100
AcDbEntity
8
0
100
AcDbLine
62
7
6
CONTINUOUS
10
50.7305253027
20
278.8742268515
11
116.2305253027
21
278.8742268515
0
LINE
5
28E
100
AcDbEntity
8
0
100
AcDbLine
62
7
6
CONTINUOUS
10
-414.2694746973
20
278.8742268515
11
-477.2694746973
21
278.8742268515
0
LINE
5
28F
100
AcDbEntity
8
0
100
AcDbLine
62
7
6
CONTINUOUS
10
62.8437739567
20
-352.1257731485
11
59.9570226108
21
-357.1257731485
0
LINE
5
290
100
AcDbEntity
8
0
100
AcDbLine
62
7
6
CONTINUOUS
10
68.6172766486
20
-362.1257731485
11
71.5040279946
21
-357.1257731485
0
LINE
5
291
100
AcDbEntity
8
0
100
AcDbLine
62
7
6
CONTINUOUS
10
101.2305253027
20
281.6742268515
11
116.2305253027
21
281.6742268515
0
LINE
5
292
100
AcDbEntity
8
0
100
AcDbLine
62
7
6
CONTINUOUS
10
111.2305253027
20
289.8742268515
11
106.2305253027
21
289.8742268515
0
LINE
5
293
100
AcDbEntity
8
0
100
AcDbLine
62
7
6
CONTINUOUS
10
110.4305253027
20
290.6742268515
11
107.0305253027
21
290.6742268515
0
LINE
5
294
100
AcDbEntity
8
0
100
AcDbLine
62
7
6
CONTINUOUS
10
59.9570226108
20
236.8742268515
11
62.8437739567
21
231.8742268515
0
LINE
5
295
100
AcDbEntity
8
0
100
AcDbLine
62
7
6
CONTINUOUS
10
71.5040279946
20
236.8742268515
11
68.6172766486
21
241.8742268515
0
LINE
5
296
100
AcDbEntity
8
0
100
AcDbLine
62
7
6
CONTINUOUS
10
89.5305253027
20
-340.9257731485
11
88.7305253027
21
-341.7257731485
0
LINE
5
297
100
AcDbEntity
8
0
100
AcDbLine
62
7
6
CONTINUOUS
10
89.5305253027
20
220.6742268515
11
88.7305253027
21
221.4742268515
0
LINE
5
298
100
AcDbEntity
8
0
100
AcDbLine
62
7
6
CONTINUOUS
10
110.4305253027
20
-410.9257731485
11
111.2305253027
21
-410.1257731485
0
LINE
5
299
100
AcDbEntity
8
0
100
AcDbLine
62
7
6
CONTINUOUS
10
110.4305253027
20
290.6742268515
11
111.2305253027
21
289.8742268515
0
CIRCLE
5
29A
100
AcDbEntity
8
0
100
AcDbCircle
62
7
6
CONTINUOUS
10
108.7305253027
20
-341.1257731485
40
3.7500000000
0
CIRCLE
5
29B
100
AcDbEntity
8
0
100
AcDbCircle
62
9
6
CONTINUOUS
10
108.7305253027
20
-341.1257731485
40
3.7086807617
0
CIRCLE
5
29C
100
AcDbEntity
8
0
100
AcDbCircle
62
9
6
CONTINUOUS
10
108.7305253027
20
-341.1257731485
40
1.5071067812
0
CIRCLE
5
29D
100
AcDbEntity
8
0
100
AcDbCircle
62
9
6
CONTINUOUS
10
108.7305253027
20
-341.1257731485
40
1.1535533906
0
CIRCLE
5
29E
100
AcDbEntity
8
0
100
AcDbCircle
62
9
6
CONTINUOUS
10
108.7305253027
20
-341.1257731485
40
1.7251712409
0
CIRCLE
5
29F
100
AcDbEntity
8
0
100
AcDbCircle
62
7
6
CONTINUOUS
10
108.7305253027
20
-326.1257731485
40
3.7500000000
0
CIRCLE
5
2A0
100
AcDbEntity
8
0
100
AcDbCircle
62
9
6
CONTINUOUS
10
108.7305253027
20
-326.1257731485
40
3.7086807617
0
CIRCLE
5
2A1
100
AcDbEntity
8
0
100
AcDbCircle
62
9
6
CONTINUOUS
10
108.7305253027
20
-326.1257731485
40
1.5071067812
0
CIRCLE
5
2A2
100
AcDbEntity
8
0
100
AcDbCircle
62
9
6
CONTINUOUS
10
108.7305253027
20
-326.1257731485
40
1.1535533906
0
CIRCLE
5
2A3
100
AcDbEntity
8
0
100
AcDbCircle
62
9
6
CONTINUOUS
10
108.7305253027
20
-326.1257731485
40
1.7251712409
0
CIRCLE
5
2A4
100
AcDbEntity
8
0
100
AcDbCircle
62
7
6
CONTINUOUS
10
108.7305253027
20
205.8742268515
40
3.7500000000
0
CIRCLE
5
2A5
100
AcDbEntity
8
0
100
AcDbCircle
62
9
6
CONTINUOUS
10
108.7305253027
20
205.8742268515
40
3.7086807617
0
CIRCLE
5
2A6
100
AcDbEntity
8
0
100
AcDbCircle
62
9
6
CONTINUOUS
10
108.7305253027
20
205.8742268515
40
1.5071067812
0
CIRCLE
5
2A7
100
AcDbEntity
8
0
100
AcDbCircle
62
9
6
CONTINUOUS
10
108.7305253027
20
205.8742268515
40
1.1535533906
0
CIRCLE
5
2A8
100
AcDbEntity
8
0
100
AcDbCircle
62
9
6
CONTINUOUS
10
108.7305253027
20
205.8742268515
40
1.7251712409
0
CIRCLE
5
2A9
100
AcDbEntity
8
0
100
AcDbCircle
62
7
6
CONTINUOUS
10
108.7305253027
20
220.8742268515
40
3.7500000000
0
CIRCLE
5
2AA
100
AcDbEntity
8
0
100
AcDbCircle
62
9
6
CONTINUOUS
10
108.7305253027
20
220.8742268515
40
3.7086807617
0
CIRCLE
5
2AB
100
AcDbEntity
8
0
100
AcDbCircle
62
9
6
CONTINUOUS
10
108.7305253027
20
220.8742268515
40
1.5071067812
0
CIRCLE
5
2AC
100
AcDbEntity
8
0
100
AcDbCircle
62
9
6
CONTINUOUS
10
108.7305253027
20
220.8742268515
40
1.1535533906
0
CIRCLE
5
2AD
100
AcDbEntity
8
0
100
AcDbCircle
62
9
6
CONTINUOUS
10
108.7305253027
20
220.8742268515
40
1.7251712409
0
CIRCLE
5
2AE
100
AcDbEntity
8
0
100
AcDbCircle
62
7
6
CONTINUOUS
10
65.7305253027
20
236.8742268515
40
6.7500000000
0
CIRCLE
5
2AF
100
AcDbEntity
8
0
100
AcDbCircle
62
7
6
CONTINUOUS
10
65.7305253027
20
236.8742268515
40
4.7735026919
0
CIRCLE
5
2B0
100
AcDbEntity
8
0
100
AcDbCircle
62
7
6
CONTINUOUS
10
65.7305253027
20
-357.1257731485
40
6.7500000000
0
CIRCLE
5
2B1
100
AcDbEntity
8
0
100
AcDbCircle
62
7
6
CONTINUOUS
10
65.7305253027
20
-357.1257731485
40
4.7735026919
0
CIRCLE
5
2B2
100
AcDbEntity
8
0
100
AcDbCircle
62
7
6
CONTINUOUS
10
65.7305253027
20
-357.1257731485
40
7.5000000000
0
CIRCLE
5
2B3
100
AcDbEntity
8
0
100
AcDbCircle
62
7
6
CONTINUOUS
10
65.7305253027
20
-357.1257731485
40
7.0000000000
0
CIRCLE
5
2B4
100
AcDbEntity
8
0
100
AcDbCircle
62
7
6
CONTINUOUS
10
65.7305253027
20
236.8742268515
40
7.5000000000
0
CIRCLE
5
2B5
100
AcDbEntity
8
0
100
AcDbCircle
62
7
6
CONTINUOUS
10
65.7305253027
20
236.8742268515
40
7.0000000000
0
ARC
5
2B6
100
AcDbEntity
8
0
100
AcDbCircle
62
7
6
CONTINUOUS
10
-437.2694746973
20
-60.1257731485
40
9.3500000000
100
AcDbArc
50
28.0724869359
51
151.9275130641
0
ARC
5
2B7
100
AcDbEntity
8
0
100
AcDbCircle
62
7
6
CONTINUOUS
10
-437.2694746973
20
-60.1257731485
40
9.3500000000
100
AcDbArc
50
208.0724869359
51
230.8690459593
0
ARC
5
2B8
100
AcDbEntity
8
0
100
AcDbCircle
62
7
6
CONTINUOUS
10
-437.2694746973
20
-60.1257731485
40
9.3500000000
100
AcDbArc
50
309.1309540407
51
331.9275130641
0
ARC
5
2B9
100
AcDbEntity
8
0
100
AcDbCircle
62
7
6
CONTINUOUS
10
-437.2694746973
20
-60.1257731485
40
12.5000000000
100
AcDbArc
50
1.6853311366
51
58.3146688634
0
ARC
5
2BA
100
AcDbEntity
8
0
100
AcDbCircle
62
7
6
CONTINUOUS
10
-437.2694746973
20
-60.1257731485
40
12.5000000000
100
AcDbArc
50
301.6853311366
51
358.3146688634
0
ARC
5
2BB
100
AcDbEntity
8
0
100
AcDbCircle
62
7
6
CONTINUOUS
10
-437.2694746973
20
-60.1257731485
40
12.5000000000
100
AcDbArc
50
298.1801064150
51
298.3146688634
0
ARC
5
2BC
100
AcDbEntity
8
0
100
AcDbCircle
62
7
6
CONTINUOUS
10
-437.2694746973
20
-60.1257731485
40
12.5000000000
100
AcDbArc
50
241.6853311366
51
241.8198935850
0
ARC
5
2BD
100
AcDbEntity
8
0
100
AcDbCircle
62
7
6
CONTINUOUS
10
-437.2694746973
20
-60.1257731485
40
12.5000000000
100
AcDbArc
50
181.6853311366
51
238.3146688634
0
ARC
5
2BE
100
AcDbEntity
8
0
100
AcDbCircle
62
7
6
CONTINUOUS
10
-437.2694746973
20
-60.1257731485
40
12.5000000000
100
AcDbArc
50
121.6853311366
51
178.3146688634
0
ARC
5
2BF
100
AcDbEntity
8
0
100
AcDbCircle
62
7
6
CONTINUOUS
10
-437.2694746973
20
-60.1257731485
40
12.5000000000
100
AcDbArc
50
61.6853311366
51
118.3146688634
0
ARC
5
2C0
100
AcDbEntity
8
0
100
AcDbCircle
62
7
6
CONTINUOUS
10
-437.2694746973
20
-60.1257731485
40
8.5000000000
100
AcDbArc
50
208.0724869359
51
226.0430532762
0
ARC
5
2C1
100
AcDbEntity
8
0
100
AcDbCircle
62
7
6
CONTINUOUS
10
-437.2694746973
20
-60.1257731485
40
8.5000000000
100
AcDbArc
50
28.0724869359
51
151.9275130641
0
ARC
5
2C2
100
AcDbEntity
8
0
100
AcDbCircle
62
7
6
CONTINUOUS
10
-437.2694746973
20
-60.1257731485
40
8.5000000000
100
AcDbArc
50
313.9569467238
51
331.9275130641
0
CIRCLE
5
2C3
100
AcDbEntity
8
0
100
AcDbCircle
62
7
6
CONTINUOUS
10
-437.2694746973
20
-60.1257731485
40
4.5000000000
0
ARC
5
2C4
100
AcDbEntity
8
0
100
AcDbCircle
62
7
6
CONTINUOUS
10
-437.2694746973
20
-60.1257731485
40
10.7500000000
100
AcDbArc
50
303.2885480750
51
236.7114519250
0
ARC
5
2C5
100
AcDbEntity
8
0
100
AcDbCircle
62
7
6
CONTINUOUS
10
103.7305253027
20
-395.1257731485
40
2.0000000000
100
AcDbArc
50
180.0000000000
51
270.0000000000
0
ARC
5
2C6
100
AcDbEntity
8
0
100
AcDbCircle
62
7
6
CONTINUOUS
10
103.7305253027
20
274.8742268515
40
2.0000000000
100
AcDbArc
50
90.0000000000
51
180.0000000000
0
CIRCLE
5
2C7
100
AcDbEntity
8
0
100
AcDbCircle
62
7
6
CONTINUOUS
10
85.7305253027
20
-367.1257731485
40
3.0000000000
0
CIRCLE
5
2C8
100
AcDbEntity
8
0
100
AcDbCircle
62
7
6
CONTINUOUS
10
65.7305253027
20
236.8742268515
40
3.0000000000
0
CIRCLE
5
2C9
100
AcDbEntity
8
0
100
AcDbCircle
62
7
6
CONTINUOUS
10
65.7305253027
20
-357.1257731485
40
3.0000000000
0
ARC
5
2CA
100
AcDbEntity
8
0
100
AcDbCircle
62
7
6
CONTINUOUS
10
-467.2694746973
20
274.8742268515
40
2.0000000000
100
AcDbArc
50
0.0000000000
51
90.0000000000
0
ARC
5
2CB
100
AcDbEntity
8
0
100
AcDbCircle
62
7
6
CONTINUOUS
10
-467.2694746973
20
-395.1257731485
40
2.0000000000
100
AcDbArc
50
270.0000000000
51
360.0000000000
0
SPLINE
5
2CC
100
AcDbEntity
8
0
100
AcDbSpline
62
7
6
CONTINUOUS
70
0
71
3
72
13
73
9
74
7
42
0.0000001000
43
0.0000001000
44
0.0000000001
12
14.2954792199
22
-5.5584171921
32
0.0000000000
13
14.2954792199
23
5.5584171921
33
0.0000000000
40
0.0000000000
40
0.0000000000
40
0.0000000000
40
0.0000000000
40
0.1663319461
40
0.3330630118
40
0.5000000000
40
0.6669369882
40
0.8336680539
40
1.0000000000
40
1.0000000000
40
1.0000000000
40
1.0000000000
10
-444.7694746973
20
-92.3680259526
30
0.0000000000
10
-443.9768764042
20
-92.6762067356
30
0.0000000000
10
-442.3495074335
20
-93.1948736985
30
0.0000000000
10
-439.8305923733
20
-93.6656736250
30
0.0000000000
10
-437.2694746973
20
-93.8235410792
30
0.0000000000
10
-434.7083570213
20
-93.6656736250
30
0.0000000000
10
-432.1894419612
20
-93.1948736985
30
0.0000000000
10
-430.5620729904
20
-92.6762067356
30
0.0000000000
10
-429.7694746973
20
-92.3680259526
30
0.0000000000
11
-444.7694746973
21
-92.3680259526
31
0.0000000000
11
-442.3388513509
21
-93.1431112322
31
0.0000000000
11
-439.8251134164
21
-93.6133045708
31
0.0000000000
11
-437.2694746973
21
-93.7708969483
31
0.0000000000
11
-434.7138359783
21
-93.6133045708
31
0.0000000000
11
-432.2000980438
21
-93.1431112322
31
0.0000000000
11
-429.7694746973
21
-92.3680259526
31
0.0000000000
0
SPLINE
5
2CD
100
AcDbEntity
8
0
100
AcDbSpline
62
7
6
CONTINUOUS
70
0
71
3
72
13
73
9
74
7
42
0.0000001000
43
0.0000001000
44
0.0000000001
12
-14.2954792199
22
-5.5584171921
32
0.0000000000
13
-14.2954792199
23
5.5584171921
33
0.0000000000
40
0.0000000000
40
0.0000000000
40
0.0000000000
40
0.0000000000
40
0.1663319461
40
0.3330630118
40
0.5000000000
40
0.6669369882
40
0.8336680539
40
1.0000000000
40
1.0000000000
40
1.0000000000
40
1.0000000000
10
-429.7694746973
20
-91.8163018147
30
0.0000000000
10
-430.5620729904
20
-92.1244825977
30
0.0000000000
10
-432.1894419612
20
-92.6431495605
30
0.0000000000
10
-434.7083570213
20
-93.1139494871
30
0.0000000000
10
-437.2694746973
20
-93.2718169412
30
0.0000000000
10
-439.8305923733
20
-93.1139494871
30
0.0000000000
10
-442.3495074335
20
-92.6431495605
30
0.0000000000
10
-443.9768764042
20
-92.1244825977
30
0.0000000000
10
-444.7694746973
20
-91.8163018147
30
0.0000000000
11
-429.7694746973
21
-91.8163018147
31
0.0000000000
11
-432.2000980438
21
-92.5913870943
31
0.0000000000
11
-434.7138359783
21
-93.0615804328
31
0.0000000000
11
-437.2694746973
21
-93.2191728104
31
0.0000000000
11
-439.8251134164
21
-93.0615804328
31
0.0000000000
11
-442.3388513509
21
-92.5913870943
31
0.0000000000
11
-444.7694746973
21
-91.8163018147
31
0.0000000000
0
SPLINE
5
2CE
100
AcDbEntity
8
0
100
AcDbSpline
62
7
6
CONTINUOUS
70
0
71
3
72
10
73
6
74
4
42
0.0000001000
43
0.0000001000
44
0.0000000001
12
0.4802370081
22
0.0000000000
32
0.0000000000
13
0.4802306155
23
-0.0024778710
33
0.0000000000
40
0.0000000000
40
0.0000000000
40
0.0000000000
40
0.0000000000
40
0.3346045636
40
0.6681381611
40
1.0000000000
40
1.0000000000
40
1.0000000000
40
1.0000000000
10
-437.2694746973
20
-58.1443003461
30
0.0000000000
10
-437.2159115325
20
-58.1443003461
30
0.0000000000
10
-437.1089566181
20
-58.1443925038
30
0.0000000000
10
-436.9488780785
20
-58.1448060185
30
0.0000000000
10
-436.8423631630
20
-58.1452641055
30
0.0000000000
10
-436.7892397579
20
-58.1455382091
30
0.0000000000
11
-437.2694746973
21
-58.1443003461
31
0.0000000000
11
-437.1087852625
21
-58.1444388310
31
0.0000000000
11
-436.9486106202
21
-58.1448526739
31
0.0000000000
11
-436.7892397579
21
-58.1455382091
31
0.0000000000
0
SPLINE
5
2CF
100
AcDbEntity
8
0
100
AcDbSpline
62
7
6
CONTINUOUS
70
0
71
3
72
10
73
6
74
4
42
0.0000001000
43
0.0000001000
44
0.0000000001
12
-0.4802370081
22
0.0000000000
32
0.0000000000
13
-0.4802306155
23
0.0024778710
33
0.0000000000
40
0.0000000000
40
0.0000000000
40
0.0000000000
40
0.0000000000
40
0.3346045636
40
0.6681381611
40
1.0000000000
40
1.0000000000
40
1.0000000000
40
1.0000000000
10
-437.2694746973
20
-62.1072459509
30
0.0000000000
10
-437.3230378622
20
-62.1072459509
30
0.0000000000
10
-437.4299927765
20
-62.1071537932
30
0.0000000000
10
-437.5900713162
20
-62.1067402784
30
0.0000000000
10
-437.6965862317
20
-62.1062821915
30
0.0000000000
10
-437.7497096367
20
-62.1060080879
30
0.0000000000
11
-437.2694746973
21
-62.1072459509
31
0.0000000000
11
-437.4301641322
21
-62.1071074659
31
0.0000000000
11
-437.5903387745
21
-62.1066936230
31
0.0000000000
11
-437.7497096367
21
-62.1060080879
31
0.0000000000
0
SPLINE
5
2D0
100
AcDbEntity
8
0
100
AcDbSpline
62
7
6
CONTINUOUS
70
0
71
3
72
10
73
6
74
4
42
0.0000001000
43
0.0000001000
44
0.0000000001
12
0.4802306155
22
0.0024778710
32
0.0000000000
13
0.4802370081
23
-0.0000000000
33
0.0000000000
40
0.0000000000
40
0.0000000000
40
0.0000000000
40
0.0000000000
40
0.3319470555
40
0.6654640393
40
1.0000000000
40
1.0000000000
40
1.0000000000
40
1.0000000000
10
-437.7497096367
20
-58.1455382091
30
0.0000000000
10
-437.6965725905
20
-58.1452640351
30
0.0000000000
10
-437.5900466931
20
-58.1448059244
30
0.0000000000
10
-437.4299681533
20
-58.1443924731
30
0.0000000000
10
-437.3230268803
20
-58.1443003461
30
0.0000000000
10
-437.2694746973
20
-58.1443003461
30
0.0000000000
11
-437.7497096367
21
-58.1455382091
31
0.0000000000
11
-437.5902978506
21
-58.1448525330
31
0.0000000000
11
-437.4301311866
21
-58.1444387742
31
0.0000000000
11
-437.2694746973
21
-58.1443003461
31
0.0000000000
0
SPLINE
5
2D1
100
AcDbEntity
8
0
100
AcDbSpline
62
7
6
CONTINUOUS
70
0
71
3
72
16
73
12
74
10
42
0.0000001000
43
0.0000001000
44
0.0000000001
12
0.0078596139
22
1.4803621696
32
0.0000000000
13
0.0320052075
23
1.4800370244
33
0.0000000000
40
0.0000000000
40
0.0000000000
40
0.0000000000
40
0.0000000000
40
0.1446788206
40
0.2727250257
40
0.3882219558
40
0.4951862000
40
0.5976288021
40
0.6988632346
40
0.7995812912
40
0.8999189804
40
1.0000000000
40
1.0000000000
40
1.0000000000
40
1.0000000000
10
-437.7694746973
20
-59.6257731485
30
0.0000000000
10
-437.7690956575
20
-59.5543807976
30
0.0000000000
10
-437.7682275864
20
-59.4198042882
30
0.0000000000
10
-437.7665774421
20
-59.2282388729
30
0.0000000000
10
-437.7647511623
20
-59.0552866883
30
0.0000000000
10
-437.7627712581
20
-58.8949714887
30
0.0000000000
10
-437.7606178162
20
-58.7416971846
30
0.0000000000
10
-437.7582572141
20
-58.5915085563
30
0.0000000000
10
-437.7556638563
20
-58.4423626135
30
0.0000000000
10
-437.7528306475
20
-58.2937903054
30
0.0000000000
10
-437.7507773413
20
-58.1949127472
30
0.0000000000
10
-437.7497096367
20
-58.1455382091
30
0.0000000000
11
-437.7694746973
21
-59.6257731485
31
0.0000000000
11
-437.7680927088
21
-59.4115975358
31
0.0000000000
11
-437.7664594806
21
-59.2220471422
31
0.0000000000
11
-437.7646537303
21
-59.0510769823
31
0.0000000000
11
-437.7626978948
21
-58.8927410091
31
0.0000000000
11
-437.7605670453
21
-58.7411016898
31
0.0000000000
11
-437.7582113956
21
-58.5912544680
31
0.0000000000
11
-437.7556187491
21
-58.4421757087
31
0.0000000000
11
-437.7527862025
21
-58.2936645060
31
0.0000000000
11
-437.7497096367
21
-58.1455382091
31
0.0000000000
0
SPLINE
5
2D2
100
AcDbEntity
8
0
100
AcDbSpline
62
7
6
CONTINUOUS
70
0
71
3
72
15
73
11
74
9
42
0.0000001000
43
0.0000001000
44
0.0000000001
12
1.4800369748
22
0.0320052065
32
0.0000000000
13
1.4803621201
23
0.0078596136
33
0.0000000000
40
0.0000000000
40
0.0000000000
40
0.0000000000
40
0.0000000000
40
0.1160706953
40
0.2320431172
40
0.3485960214
40
0.4664268351
40
0.5870610763
40
0.7138575591
40
0.8503073998
40
1.0000000000
40
1.0000000000
40
1.0000000000
40
1.0000000000
10
-439.2497096367
20
-59.6455382091
30
0.0000000000
10
-439.1924466632
20
-59.6442999202
30
0.0000000000
10
-439.0779667037
20
-59.6419383088
30
0.0000000000
10
-438.9059780297
20
-59.6387274960
30
0.0000000000
10
-438.7331150247
20
-59.6358353134
30
0.0000000000
10
-438.5579465891
20
-59.6332425186
30
0.0000000000
10
-438.3777190560
20
-59.6309247688
30
0.0000000000
10
-438.1883000178
20
-59.6288667333
30
0.0000000000
10
-437.9845384344
20
-59.6270816836
30
0.0000000000
10
-437.8433411157
20
-59.6261653238
30
0.0000000000
10
-437.7694746973
20
-59.6257731485
30
0.0000000000
11
-439.2497096367
21
-59.6455382091
31
0.0000000000
11
-439.0779171220
21
-59.6419934392
31
0.0000000000
11
-438.9062634460
21
-59.6387881229
31
0.0000000000
11
-438.7337446660
21
-59.6359010219
31
0.0000000000
11
-438.5593290487
21
-59.6333187601
31
0.0000000000
11
-438.3807589437
21
-59.6310217636
31
0.0000000000
11
-438.1930626722
21
-59.6289819013
31
0.0000000000
11
-437.9910724054
21
-59.6272118266
31
0.0000000000
11
-437.7694746973
21
-59.6257731485
31
0.0000000000
0
SPLINE
5
2D3
100
AcDbEntity
8
0
100
AcDbSpline
62
7
6
CONTINUOUS
70
0
71
3
72
10
73
6
74
4
42
0.0000001000
43
0.0000001000
44
0.0000000001
12
-0.0049557402
22
0.9604608760
32
0.0000000000
13
0.0049557402
23
0.9604608760
33
0.0000000000
40
0.0000000000
40
0.0000000000
40
0.0000000000
40
0.0000000000
40
0.3328070337
40
0.6671929178
40
1.0000000000
40
1.0000000000
40
1.0000000000
40
1.0000000000
10
-439.2497096367
20
-60.6060080879
30
0.0000000000
10
-439.2502594051
20
-60.4994587095
30
0.0000000000
10
-439.2509936189
20
-60.2858523925
30
0.0000000000
10
-439.2509936190
20
-59.9656939355
30
0.0000000000
10
-439.2502594052
20
-59.7520876030
30
0.0000000000
10
-439.2497096367
20
-59.6455382091
30
0.0000000000
11
-439.2497096367
21
-60.6060080879
31
0.0000000000
11
-439.2508091957
21
-60.2863575890
31
0.0000000000
11
-439.2508091958
21
-59.9651887546
31
0.0000000000
11
-439.2497096367
21
-59.6455382091
31
0.0000000000
0
SPLINE
5
2D4
100
AcDbEntity
8
0
100
AcDbSpline
62
7
6
CONTINUOUS
70
0
71
3
72
15
73
11
74
9
42
0.0000001000
43
0.0000001000
44
0.0000000001
12
-1.4803621179
22
0.0078596136
32
0.0000000000
13
-1.4800369726
23
0.0320052064
33
0.0000000000
40
0.0000000000
40
0.0000000000
40
0.0000000000
40
0.0000000000
40
0.1546157540
40
0.2925013647
40
0.4185697721
40
0.5376308442
40
0.6541984108
40
0.7698885810
40
0.8850458830
40
1.0000000000
40
1.0000000000
40
1.0000000000
40
1.0000000000
10
-437.7694746973
20
-60.6257731485
30
0.0000000000
10
-437.8457704657
20
-60.6253680751
30
0.0000000000
10
-437.9901055776
20
-60.6244257491
30
0.0000000000
10
-438.1966454995
20
-60.6225978130
30
0.0000000000
10
-438.3856372846
20
-60.6205262232
30
0.0000000000
10
-438.5641058403
20
-60.6182170736
30
0.0000000000
10
-438.7374489416
20
-60.6156415641
30
0.0000000000
10
-438.9088607159
20
-60.6127669459
30
0.0000000000
10
-439.0794706028
20
-60.6095775026
30
0.0000000000
10
-439.1929975223
20
-60.6072344646
30
0.0000000000
10
-439.2497096367
20
-60.6060080879
30
0.0000000000
11
-437.7694746973
21
-60.6257731485
31
0.0000000000
11
-437.9983603466
21
-60.6242782308
31
0.0000000000
11
-438.2024758593
21
-60.6224711848
31
0.0000000000
11
-438.3890941676
21
-60.6204250708
31
0.0000000000
11
-438.5653353938
21
-60.6181441966
31
0.0000000000
11
-438.7378809826
21
-60.6155799434
31
0.0000000000
11
-438.9091226522
21
-60.6127075135
31
0.0000000000
11
-439.0795697673
21
-60.6095203702
31
0.0000000000
11
-439.2497096367
21
-60.6060080879
31
0.0000000000
0
SPLINE
5
2D5
100
AcDbEntity
8
0
100
AcDbSpline
62
7
6
CONTINUOUS
70
0
71
3
72
16
73
12
74
10
42
0.0000001000
43
0.0000001000
44
0.0000000001
12
-0.0320052076
22
1.4800370275
32
0.0000000000
13
-0.0078596139
23
1.4803621727
33
0.0000000000
40
0.0000000000
40
0.0000000000
40
0.0000000000
40
0.0000000000
40
0.1016060292
40
0.2031955299
40
0.3051629993
40
0.4079213899
40
0.5122181184
40
0.6205675573
40
0.7359712154
40
0.8614297626
40
1.0000000000
40
1.0000000000
40
1.0000000000
40
1.0000000000
10
-437.7497096367
20
-62.1060080879
30
0.0000000000
10
-437.7507936108
20
-62.0558811927
30
0.0000000000
10
-437.7528740553
20
-61.9556336470
30
0.0000000000
10
-437.7557396890
20
-61.8050748038
30
0.0000000000
10
-437.7583590245
20
-61.6539427391
30
0.0000000000
10
-437.7607434942
20
-61.5014707114
30
0.0000000000
10
-437.7629135208
20
-61.3458459127
30
0.0000000000
10
-437.7648914170
20
-61.1839781155
30
0.0000000000
10
-437.7666868010
20
-61.0116650372
30
0.0000000000
10
-437.7682775446
20
-60.8244365612
30
0.0000000000
10
-437.7691116612
20
-60.6941511944
30
0.0000000000
10
-437.7694746973
20
-60.6257731485
30
0.0000000000
11
-437.7497096367
21
-62.1060080879
31
0.0000000000
11
-437.7528311334
21
-61.9556246387
31
0.0000000000
11
-437.7556935820
21
-61.8052605085
31
0.0000000000
11
-437.7583098573
21
-61.6543322707
31
0.0000000000
11
-437.7606889888
21
-61.5022290980
31
0.0000000000
11
-437.7628421112
21
-61.3478450038
31
0.0000000000
11
-437.7648022945
21
-61.1874583103
31
0.0000000000
11
-437.7665826432
21
-61.0166259692
31
0.0000000000
11
-437.7681609790
21
-60.8309059707
31
0.0000000000
11
-437.7694746973
21
-60.6257731485
31
0.0000000000
0
SPLINE
5
2D6
100
AcDbEntity
8
0
100
AcDbSpline
62
7
6
CONTINUOUS
70
0
71
3
72
16
73
12
74
10
42
0.0000001000
43
0.0000001000
44
0.0000000001
12
0.0320052076
22
-1.4800370275
32
0.0000000000
13
0.0078596139
23
-1.4803621727
33
0.0000000000
40
0.0000000000
40
0.0000000000
40
0.0000000000
40
0.0000000000
40
0.1016060292
40
0.2031955299
40
0.3051629993
40
0.4079213899
40
0.5122181184
40
0.6205675573
40
0.7359712154
40
0.8614297626
40
1.0000000000
40
1.0000000000
40
1.0000000000
40
1.0000000000
10
-436.7892397579
20
-58.1455382091
30
0.0000000000
10
-436.7881557839
20
-58.1956651042
30
0.0000000000
10
-436.7860753394
20
-58.2959126499
30
0.0000000000
10
-436.7832097057
20
-58.4464714932
30
0.0000000000
10
-436.7805903702
20
-58.5976035578
30
0.0000000000
10
-436.7782059005
20
-58.7500755855
30
0.0000000000
10
-436.7760358738
20
-58.9057003842
30
0.0000000000
10
-436.7740579777
20
-59.0675681815
30
0.0000000000
10
-436.7722625937
20
-59.2398812597
30
0.0000000000
10
-436.7706718501
20
-59.4271097357
30
0.0000000000
10
-436.7698377335
20
-59.5573951026
30
0.0000000000
10
-436.7694746973
20
-59.6257731485
30
0.0000000000
11
-436.7892397579
21
-58.1455382091
31
0.0000000000
11
-436.7861182613
21
-58.2959216583
31
0.0000000000
11
-436.7832558127
21
-58.4462857885
31
0.0000000000
11
-436.7806395374
21
-58.5972140262
31
0.0000000000
11
-436.7782604059
21
-58.7493171990
31
0.0000000000
11
-436.7761072835
21
-58.9037012932
31
0.0000000000
11
-436.7741471002
21
-59.0640879866
31
0.0000000000
11
-436.7723667515
21
-59.2349203277
31
0.0000000000
11
-436.7707884157
21
-59.4206403263
31
0.0000000000
11
-436.7694746973
21
-59.6257731485
31
0.0000000000
0
SPLINE
5
2D7
100
AcDbEntity
8
0
100
AcDbSpline
62
7
6
CONTINUOUS
70
0
71
3
72
15
73
11
74
9
42
0.0000001000
43
0.0000001000
44
0.0000000001
12
1.4803621179
22
-0.0078596136
32
0.0000000000
13
1.4800369726
23
-0.0320052064
33
0.0000000000
40
0.0000000000
40
0.0000000000
40
0.0000000000
40
0.0000000000
40
0.1546157540
40
0.2925013647
40
0.4185697721
40
0.5376308442
40
0.6541984108
40
0.7698885810
40
0.8850458830
40
1.0000000000
40
1.0000000000
40
1.0000000000
40
1.0000000000
10
-436.7694746973
20
-59.6257731485
30
0.0000000000
10
-436.6931789290
20
-59.6261782218
30
0.0000000000
10
-436.5488438170
20
-59.6271205478
30
0.0000000000
10
-436.3423038951
20
-59.6289484840
30
0.0000000000
10
-436.1533121100
20
-59.6310200738
30
0.0000000000
10
-435.9748435544
20
-59.6333292233
30
0.0000000000
10
-435.8015004531
20
-59.6359047329
30
0.0000000000
10
-435.6300886787
20
-59.6387793510
30
0.0000000000
10
-435.4594787918
20
-59.6419687943
30
0.0000000000
10
-435.3459518724
20
-59.6443118323
30
0.0000000000
10
-435.2892397579
20
-59.6455382091
30
0.0000000000
11
-436.7694746973
21
-59.6257731485
31
0.0000000000
11
-436.5405890481
21
-59.6272680662
31
0.0000000000
11
-436.3364735353
21
-59.6290751122
31
0.0000000000
11
-436.1498552271
21
-59.6311212262
31
0.0000000000
11
-435.9736140008
21
-59.6334021003
31
0.0000000000
11
-435.8010684120
21
-59.6359663536
31
0.0000000000
11
-435.6298267424
21
-59.6388387835
31
0.0000000000
11
-435.4593796274
21
-59.6420259268
31
0.0000000000
11
-435.2892397579
21
-59.6455382091
31
0.0000000000
0
SPLINE
5
2D8
100
AcDbEntity
8
0
100
AcDbSpline
62
7
6
CONTINUOUS
70
0
71
3
72
10
73
6
74
4
42
0.0000001000
43
0.0000001000
44
0.0000000001
12
0.0049557402
22
-0.9604608760
32
0.0000000000
13
-0.0049557402
23
-0.9604608760
33
0.0000000000
40
0.0000000000
40
0.0000000000
40
0.0000000000
40
0.0000000000
40
0.3328070337
40
0.6671929178
40
1.0000000000
40
1.0000000000
40
1.0000000000
40
1.0000000000
10
-435.2892397579
20
-59.6455382091
30
0.0000000000
10
-435.2886899895
20
-59.7520875874
30
0.0000000000
10
-435.2879557758
20
-59.9656939045
30
0.0000000000
10
-435.2879557757
20
-60.2858523614
30
0.0000000000
10
-435.2886899895
20
-60.4994586940
30
0.0000000000
10
-435.2892397579
20
-60.6060080879
30
0.0000000000
11
-435.2892397579
21
-59.6455382091
31
0.0000000000
11
-435.2881401989
21
-59.9651887080
31
0.0000000000
11
-435.2881401989
21
-60.2863575424
31
0.0000000000
11
-435.2892397579
21
-60.6060080879
31
0.0000000000
0
SPLINE
5
2D9
100
AcDbEntity
8
0
100
AcDbSpline
62
7
6
CONTINUOUS
70
0
71
3
72
15
73
11
74
9
42
0.0000001000
43
0.0000001000
44
0.0000000001
12
-1.4800369748
22
-0.0320052065
32
0.0000000000
13
-1.4803621201
23
-0.0078596136
33
0.0000000000
40
0.0000000000
40
0.0000000000
40
0.0000000000
40
0.0000000000
40
0.1160706953
40
0.2320431172
40
0.3485960214
40
0.4664268351
40
0.5870610763
40
0.7138575591
40
0.8503073998
40
1.0000000000
40
1.0000000000
40
1.0000000000
40
1.0000000000
10
-435.2892397579
20
-60.6060080879
30
0.0000000000
10
-435.3465027315
20
-60.6072463767
30
0.0000000000
10
-435.4609826910
20
-60.6096079881
30
0.0000000000
10
-435.6329713649
20
-60.6128188009
30
0.0000000000
10
-435.8058343700
20
-60.6157109835
30
0.0000000000
10
-435.9810028056
20
-60.6183037784
30
0.0000000000
10
-436.1612303387
20
-60.6206215282
30
0.0000000000
10
-436.3506493769
20
-60.6226795636
30
0.0000000000
10
-436.5544109603
20
-60.6244646133
30
0.0000000000
10
-436.6956082790
20
-60.6253809731
30
0.0000000000
10
-436.7694746973
20
-60.6257731485
30
0.0000000000
11
-435.2892397579
21
-60.6060080879
31
0.0000000000
11
-435.4610322727
21
-60.6095528577
31
0.0000000000
11
-435.6326859487
21
-60.6127581741
31
0.0000000000
11
-435.8052047286
21
-60.6156452750
31
0.0000000000
11
-435.9796203459
21
-60.6182275369
31
0.0000000000
11
-436.1581904510
21
-60.6205245334
31
0.0000000000
11
-436.3458867225
21
-60.6225643956
31
0.0000000000
11
-436.5478769892
21
-60.6243344704
31
0.0000000000
11
-436.7694746973
21
-60.6257731485
31
0.0000000000
0
SPLINE
5
2DA
100
AcDbEntity
8
0
100
AcDbSpline
62
7
6
CONTINUOUS
70
0
71
3
72
16
73
12
74
10
42
0.0000001000
43
0.0000001000
44
0.0000000001
12
-0.0078596139
22
-1.4803621696
32
0.0000000000
13
-0.0320052075
23
-1.4800370244
33
0.0000000000
40
0.0000000000
40
0.0000000000
40
0.0000000000
40
0.0000000000
40
0.1446788206
40
0.2727250257
40
0.3882219558
40
0.4951862000
40
0.5976288021
40
0.6988632346
40
0.7995812912
40
0.8999189804
40
1.0000000000
40
1.0000000000
40
1.0000000000
40
1.0000000000
10
-436.7694746973
20
-60.6257731485
30
0.0000000000
10
-436.7698537372
20
-60.6971654994
30
0.0000000000
10
-436.7707218083
20
-60.8317420087
30
0.0000000000
10
-436.7723719526
20
-61.0233074241
30
0.0000000000
10
-436.7741982324
20
-61.1962596086
30
0.0000000000
10
-436.7761781366
20
-61.3565748083
30
0.0000000000
10
-436.7783315785
20
-61.5098491123
30
0.0000000000
10
-436.7806921806
20
-61.6600377406
30
0.0000000000
10
-436.7832855384
20
-61.8091836834
30
0.0000000000
10
-436.7861187472
20
-61.9577559916
30
0.0000000000
10
-436.7881720533
20
-62.0566335497
30
0.0000000000
10
-436.7892397579
20
-62.1060080879
30
0.0000000000
11
-436.7694746973
21
-60.6257731485
31
0.0000000000
11
-436.7708566859
21
-60.8399487612
31
0.0000000000
11
-436.7724899140
21
-61.0294991547
31
0.0000000000
11
-436.7742956644
21
-61.2004693147
31
0.0000000000
11
-436.7762514998
21
-61.3588052879
31
0.0000000000
11
-436.7783823494
21
-61.5104446072
31
0.0000000000
11
-436.7807379991
21
-61.6602918289
31
0.0000000000
11
-436.7833306456
21
-61.8093705882
31
0.0000000000
11
-436.7861631922
21
-61.9578817910
31
0.0000000000
11
-436.7892397579
21
-62.1060080879
31
0.0000000000
0
SPLINE
5
2DB
100
AcDbEntity
8
0
100
AcDbSpline
62
7
6
CONTINUOUS
70
0
71
3
72
10
73
6
74
4
42
0.0000001000
43
0.0000001000
44
0.0000000001
12
-0.4802306155
22
-0.0024778710
32
0.0000000000
13
-0.4802370081
23
0.0000000000
33
0.0000000000
40
0.0000000000
40
0.0000000000
40
0.0000000000
40
0.0000000000
40
0.3319470555
40
0.6654640393
40
1.0000000000
40
1.0000000000
40
1.0000000000
40
1.0000000000
10
-436.7892397579
20
-62.1060080879
30
0.0000000000
10
-436.8423768042
20
-62.1062822619
30
0.0000000000
10
-436.9489027016
20
-62.1067403726
30
0.0000000000
10
-437.1089812414
20
-62.1071538238
30
0.0000000000
10
-437.2159225144
20
-62.1072459509
30
0.0000000000
10
-437.2694746973
20
-62.1072459509
30
0.0000000000
11
-436.7892397579
21
-62.1060080879
31
0.0000000000
11
-436.9486515441
21
-62.1066937639
31
0.0000000000
11
-437.1088182081
21
-62.1071075227
31
0.0000000000
11
-437.2694746973
21
-62.1072459509
31
0.0000000000
0
ENDSEC
0
SECTION
2
OBJECTS
0
DICTIONARY
5
2DC
100
AcDbDictionary
3
ACAD_GROUP
350
2DD
3
ACAD_MLINESTYLE
350
2DE
0
DICTIONARY
5
2DD
102
{ACAD_REACTORS
330
2DC
102
}
100
AcDbDictionary
0
DICTIONARY
5
2DE
102
{ACAD_REACTORS
330
2DC
102
}
100
AcDbDictionary
3
STANDARD
350
2DF
0
MLINESTYLE
5
2DF
102
{ACAD_REACTORS
330
2DE
102
}
100
AcDbMlineStyle
2
STANDARD
70
0
3

62
256
51
90.0
52
90.0
71
2
49
0.5
62
256
6
BYLAYER
49
-0.5
62
256
6
BYLAYER
0
ENDSEC
0
EOF
