  0
SECTION
  2
HEADER
  9
$ACADVER
  1
AC1021
  9
$DWGCODEPAGE
  3
ANSI_1252
  9
$EXTMAX
 10
558.8
 20
431.8
 30
0.0
  9
$EXTMIN
 10
0.0
 20
0.0
 30
0.0
  9
$LIMMIN
 10
0.0
 20
0.0
  9
$LIMMAX
 10
558.8
 20
431.8
  9
$VIEWCTR
 10
279.4
 20
215.9
  9
$VIEWSIZE
 40
431.8
  9
$CLAYER
  8
0
  9
$LTSCALE
 40
30.734
  9
$CELTYPE
  6
BYLAYER
  9
$DIMSCALE
 40
1.0
  9
$DIMASZ
 40
3.0
  9
$DIMEXO
 40
0.5
  9
$DIMDLI
 40
21.2344
  9
$DIMEXE
 40
1.5
  9
$DIMCEN
 40
5.0292
  9
$DIMLFAC
 40
1.0
  9
$DIMBLK
  1
_FILLED
  9
$DIMALT
 70
0
  9
$DIMALTF
 40
0.0393700787
  9
$DIMTXT
 40
3.0
  9
$DIMTOL
 70
1
  9
$DIMLIM
 70
0
  9
$DIMTFAC
 40
1.0
  9
$DIMTP
 40
0.01
  9
$DIMTM
 40
0.01
  9
$DIMGAP
 40
0.625
  9
$DIMDSEP
 70
44
  9
$AUNITS
 70
0
  9
$PDMODE
 70
3
  9
$PDSIZE
 40
3.0
  9
$HANDSEED
  5
342
  9
$TILEMODE
 70
1
  9
$MEASUREMENT
 70
1
  9
$INSUNITS
 70
4
  0
ENDSEC
  0
SECTION
  2
CLASSES
  0
CLASS
  1
ACDBDICTIONARYWDFLT
  2
AcDbDictionaryWithDefault
  3
AutoCAD 2000
 90
0
 91
1
280
0
281
0
  0
CLASS
  1
ACDBPLACEHOLDER
  2
AcDbPlaceHolder
  3
AutoCAD 2000
 90
0
 91
1
280
0
281
0
  0
CLASS
  1
LAYOUT
  2
AcDbLayout
  3
AutoCAD 2000
 90
0
 91
0
280
0
281
0
  0
ENDSEC
  0
SECTION
  2
TABLES
  0
TABLE
  2
VPORT
  5
8
100
AcDbSymbolTable
 70
2
  0
VPORT
  5
1F4
100
AcDbSymbolTableRecord
100
AcDbViewportTableRecord
  2
*ACTIVE
 70
0
 10
0.0
 20
0.0
 11
1.0
 21
1.0
 12
279.4
 22
215.9
 13
0.0
 23
0.0
 14
1.0
 24
1.0
 15
0.0
 25
0.0
 16
0.0
 26
0.0
 36
1.0
 17
0.0
 27
0.0
 37
0.0
 40
431.8
 41
1.2941176471
 42
50.0
 43
0.0
 44
0.0
 50
0.0
 51
0.0
 71
0
 72
100
 73
1
 74
1
 75
0
 76
0
 77
0
 78
0
  0
ENDTAB
  0
TABLE
  2
LTYPE
  5
5
100
AcDbSymbolTable
 70
6
  0
LTYPE
  5
14
100
AcDbSymbolTableRecord
100
AcDbLinetypeTableRecord
  2
BYBLOCK
 70
0
  3

 72
65
 73
0
 40
0.0
  0
LTYPE
  5
15
100
AcDbSymbolTableRecord
100
AcDbLinetypeTableRecord
  2
BYLAYER
 70
0
  3

 72
65
 73
0
 40
0.0
  0
LTYPE
  5
16
100
AcDbSymbolTableRecord
100
AcDbLinetypeTableRecord
  2
CONTINUOUS
 70
64
  3
Solid line
 72
65
 73
0
 40
0.0
  0
LTYPE
  5
1F5
100
AcDbSymbolTableRecord
100
AcDbLinetypeTableRecord
  2
CENTER
 70
64
  3
____ _ ____ _ ____ _ ____ _ ____ _ ____ _ ____
 72
65
 73
4
 40
0.6
 49
0.375
 74
0
 49
-0.075
 74
0
 49
0.075
 74
0
 49
-0.075
 74
0
  0
LTYPE
  5
1F6
100
AcDbSymbolTableRecord
100
AcDbLinetypeTableRecord
  2
HIDDEN
 70
64
  3
- - - - - - - - - - - - - - - - - - - -
 72
65
 73
2
 40
0.2
 49
0.1
 74
0
 49
-0.1
 74
0
  0
LTYPE
  5
1F7
100
AcDbSymbolTableRecord
100
AcDbLinetypeTableRecord
  2
PHANTOM
 70
64
  3
_____ _ _ _____ _ _ _____ _ _ _____
 72
65
 73
6
 40
0.8
 49
0.45
 74
0
 49
-0.05
 74
0
 49
0.1
 74
0
 49
-0.05
 74
0
 49
0.1
 74
0
 49
-0.05
 74
0
  0
LTYPE
  5
1F8
100
AcDbSymbolTableRecord
100
AcDbLinetypeTableRecord
  2
DOT
 70
64
  3
. . . . . . . . . . . . . . . . . . . .
 72
65
 73
2
 40
0.2
 49
0.1
 74
0
 49
-0.1
 74
0
  0
LTYPE
  5
1F9
100
AcDbSymbolTableRecord
100
AcDbLinetypeTableRecord
  2
DASHED
 70
64
  3
- - - - - - - - - - - - - - - - - - - -
 72
65
 73
2
 40
0.2
 49
0.1
 74
0
 49
-0.1
 74
0
  0
ENDTAB
  0
TABLE
  2
LAYER
  5
2
100
AcDbSymbolTable
 70
36
  0
LAYER
  5
10
100
AcDbSymbolTableRecord
100
AcDbLayerTableRecord
  2
0
 70
0
 62
7
  6
CONTINUOUS
370
-3
390
F
  0
LAYER
  5
1FA
100
AcDbSymbolTableRecord
100
AcDbLayerTableRecord
  2
DEFAULT_1
 70
0
 62
7
  6
CENTER
370
-3
390
F
  0
LAYER
  5
1FB
100
AcDbSymbolTableRecord
100
AcDbLayerTableRecord
  2
DEFAULT_2
 70
0
 62
7
  6
HIDDEN
370
-3
390
F
  0
LAYER
  5
1FC
100
AcDbSymbolTableRecord
100
AcDbLayerTableRecord
  2
DEFAULT_3
 70
0
 62
7
  6
PHANTOM
370
-3
390
F
  0
LAYER
  5
1FD
100
AcDbSymbolTableRecord
100
AcDbLayerTableRecord
  2
ALTRI_PIANI
 70
0
 62
7
  6
CONTINUOUS
370
-3
390
F
  0
LAYER
  5
1FE
100
AcDbSymbolTableRecord
100
AcDbLayerTableRecord
  2
ASSI
 70
0
 62
7
  6
CONTINUOUS
370
-3
390
F
  0
LAYER
  5
1FF
100
AcDbSymbolTableRecord
100
AcDbLayerTableRecord
  2
COORDINATE
 70
0
 62
7
  6
CONTINUOUS
370
-3
390
F
  0
LAYER
  5
200
100
AcDbSymbolTableRecord
100
AcDbLayerTableRecord
  2
COORD_ORIGINE
 70
0
 62
7
  6
CONTINUOUS
370
-3
390
F
  0
LAYER
  5
201
100
AcDbSymbolTableRecord
100
AcDbLayerTableRecord
  2
COPY_PUBLISH
 70
0
 62
7
  6
CONTINUOUS
370
-3
390
F
  0
LAYER
  5
202
100
AcDbSymbolTableRecord
100
AcDbLayerTableRecord
  2
COSMETICI
 70
0
 62
7
  6
CONTINUOUS
370
-3
390
F
  0
LAYER
  5
203
100
AcDbSymbolTableRecord
100
AcDbLayerTableRecord
  2
CURVE
 70
0
 62
7
  6
CONTINUOUS
370
-3
390
F
  0
LAYER
  5
204
100
AcDbSymbolTableRecord
100
AcDbLayerTableRecord
  2
DRAFT
 70
0
 62
7
  6
CONTINUOUS
370
-3
390
F
  0
LAYER
  5
205
100
AcDbSymbolTableRecord
100
AcDbLayerTableRecord
  2
IMPORT_IGES
 70
0
 62
7
  6
CONTINUOUS
370
-3
390
F
  0
LAYER
  5
206
100
AcDbSymbolTableRecord
100
AcDbLayerTableRecord
  2
NOTE
 70
0
 62
7
  6
CONTINUOUS
370
-3
390
F
  0
LAYER
  5
207
100
AcDbSymbolTableRecord
100
AcDbLayerTableRecord
  2
PIANI
 70
0
 62
7
  6
CONTINUOUS
370
-3
390
F
  0
LAYER
  5
208
100
AcDbSymbolTableRecord
100
AcDbLayerTableRecord
  2
PIANI_ORIGINE
 70
0
 62
7
  6
CONTINUOUS
370
-3
390
F
  0
LAYER
  5
209
100
AcDbSymbolTableRecord
100
AcDbLayerTableRecord
  2
PUNTI
 70
0
 62
7
  6
CONTINUOUS
370
-3
390
F
  0
LAYER
  5
20A
100
AcDbSymbolTableRecord
100
AcDbLayerTableRecord
  2
RACCORDO
 70
0
 62
7
  6
CONTINUOUS
370
-3
390
F
  0
LAYER
  5
20B
100
AcDbSymbolTableRecord
100
AcDbLayerTableRecord
  2
SIMBOLI
 70
0
 62
7
  6
CONTINUOUS
370
-3
390
F
  0
LAYER
  5
20C
100
AcDbSymbolTableRecord
100
AcDbLayerTableRecord
  2
SMUSSO
 70
0
 62
7
  6
CONTINUOUS
370
-3
390
F
  0
LAYER
  5
20D
100
AcDbSymbolTableRecord
100
AcDbLayerTableRecord
  2
SNAPLINE
 70
0
 62
7
  6
CONTINUOUS
370
-3
390
F
  0
LAYER
  5
20E
100
AcDbSymbolTableRecord
100
AcDbLayerTableRecord
  2
SUPERFICI
 70
0
 62
7
  6
CONTINUOUS
370
-3
390
F
  0
LAYER
  5
20F
100
AcDbSymbolTableRecord
100
AcDbLayerTableRecord
  2
TRASH
 70
0
 62
7
  6
CONTINUOUS
370
-3
390
F
  0
LAYER
  5
210
100
AcDbSymbolTableRecord
100
AcDbLayerTableRecord
  2
VECCHIO_NETSAFE
 70
0
 62
7
  6
CONTINUOUS
370
-3
390
F
  0
ENDTAB
  0
TABLE
  2
STYLE
  5
3
100
AcDbSymbolTable
 70
1
  0
STYLE
  5
11
100
AcDbSymbolTableRecord
100
AcDbTextStyleTableRecord
  2
STANDARD
 70
0
 40
0.0
 41
0.8
 50
0.0
 71
0
 42
0.2
  3
txt
  4

  0
STYLE
  5
211
100
AcDbSymbolTableRecord
100
AcDbTextStyleTableRecord
  2
TEXTSTYLE_1
 70
0
 40
0.0
 41
0.8
 50
0.0
 71
0
 42
0.2
  3
gdt
  4

  0
ENDTAB
  0
TABLE
  2
VIEW
  5
6
100
AcDbSymbolTable
 70
0
  0
ENDTAB
  0
TABLE
  2
UCS
  5
7
100
AcDbSymbolTable
 70
0
  0
ENDTAB
  0
TABLE
  2
APPID
  5
9
100
AcDbSymbolTable
 70
1
  0
APPID
  5
212
100
AcDbSymbolTableRecord
100
AcDbRegAppTableRecord
  2
ACAD
 70
0
  0
ENDTAB
  0
TABLE
  2
BLOCK_RECORD
  5
1
100
AcDbSymbolTable
 70
0
  0
BLOCK_RECORD
  5
213
100
AcDbSymbolTableRecord
100
AcDbBlockTableRecord
  2
*Model_Space
  0
BLOCK_RECORD
  5
214
100
AcDbSymbolTableRecord
100
AcDbBlockTableRecord
  2
*Paper_Space
  0
ENDTAB
  0
TABLE
  2
DIMSTYLE
  5
A
100
AcDbSymbolTable
 70
1
100
AcDbDimStyleTable
 71
0
  0
DIMSTYLE
105
215
100
AcDbSymbolTableRecord
100
AcDbDimStyleTableRecord
  2
STANDARD
 70
0
  3

  4

 40
1.0
 41
3.0
 42
0.5
 43
0.38
 44
1.5
 45
0.0
 46
0.0
 47
0.01
 48
0.01
140
3.0
141
0.09
142
0.0
143
25.4
144
1.0
145
0.0
146
1.0
147
0.625
 71
1.0
 72
0.0
 73
0
 74
0
 75
0
 76
0
 77
1
 78
8
170
0
171
2
172
0
173
0
174
0
175
0
176
0
177
0
178
0
270
2
271
2
272
2
273
2
274
2
275
0
280
0
281
0
282
0
283
1
284
8
285
0
286
0
287
3
288
0
340
11
278
44
  0
ENDTAB
  0
ENDSEC
  0
SECTION
  2
BLOCKS
  0
BLOCK
  5
20
100
AcDbEntity
  8
0
100
AcDbBlockBegin
  2
*Model_Space
 70
0
 10
0.0
 20
0.0
 30
0.0
  3
*Model_Space
  1

  0
ENDBLK
  5
21
100
AcDbEntity
  8
0
100
AcDbBlockEnd
  0
BLOCK
  5
1C
100
AcDbEntity
  8
0
100
AcDbBlockBegin
  2
*Paper_Space
 70
0
 10
0.0
 20
0.0
 30
0.0
  3
*Paper_Space
  1

  0
ENDBLK
  5
1D
100
AcDbEntity
  8
0
100
AcDbBlockEnd
  0
ENDSEC
  0
SECTION
  2
ENTITIES
  0
LINE
  5
216
100
AcDbEntity
  8
CURVE
100
AcDbLine
 62
252
  6
CONTINUOUS
 10
-130.825
 20
159.725
 11
-130.7500173836
 21
159.7985123691
  0
LINE
  5
217
100
AcDbEntity
  8
RACCORDO
100
AcDbLine
 62
7
  6
CONTINUOUS
 10
-130.7500173836
 20
159.7985123691
 11
-128.4302963123
 21
162.0727487135
  0
LINE
  5
218
100
AcDbEntity
  8
CURVE
100
AcDbLine
 62
252
  6
CONTINUOUS
 10
-128.4302915015
 20
162.0727534299
 11
-128.275
 21
162.225
  0
LWPOLYLINE
  5
219
100
AcDbEntity
  8
RACCORDO
100
AcDbPolyline
 62
253
  6
CONTINUOUS
 90
7
 70
0
 10
-128.4302923113
 20
162.0727425431
 10
-128.4280325797
 20
162.0748194874
 10
-128.4254364802
 20
162.0769374936
 10
-128.4224936218
 20
162.0791025669
 10
-128.4192033944
 20
162.0813101682
 10
-128.4155667923
 20
162.0835549271
 10
-128.4115856775
 20
162.0858314613
  0
LINE
  5
21A
100
AcDbEntity
  8
RACCORDO
100
AcDbLine
 62
253
  6
CONTINUOUS
 10
-128.4115821251
 20
162.0858275865
 11
-128.3586995276
 21
162.1284449703
  0
LWPOLYLINE
  5
21B
100
AcDbEntity
  8
RACCORDO
100
AcDbPolyline
 62
253
  6
CONTINUOUS
 90
6
 70
0
 10
-128.3586995276
 20
162.1284449703
 10
-128.3007872889
 20
162.1639296628
 10
-128.2388009005
 20
162.1916962045
 10
-128.1737630728
 20
162.2112864776
 10
-128.1067468615
 20
162.2223772642
 10
-128.0554178389
 20
162.2250033799
  0
LINE
  5
21C
100
AcDbEntity
  8
0
100
AcDbLine
 62
7
  6
CONTINUOUS
 10
-127.425
 20
162.725
 11
-125.95
 21
163.475
  0
LWPOLYLINE
  5
21D
100
AcDbEntity
  8
RACCORDO
100
AcDbPolyline
 62
253
  6
CONTINUOUS
 90
24
 70
0
 10
-128.654925106
 20
159.765943351
 10
-128.5902872461
 20
159.8763284253
 10
-128.5287385015
 20
159.9844768518
 10
-128.4701467542
 20
160.0903886304
 10
-128.4143807053
 20
160.1940357058
 10
-128.3613260611
 20
160.2954461333
 10
-128.310883355
 20
160.3947040788
 10
-128.2629396812
 20
160.4918466863
 10
-128.2173920035
 20
160.5868368117
 10
-128.1741605466
 20
160.6796471895
 10
-128.1331677845
 20
160.7702704401
 10
-128.0943019538
 20
160.858713943
 10
-128.0574403132
 20
160.9449725707
 10
-128.0225283807
 20
161.0290185781
 10
-127.9894626037
 20
161.1108797102
 10
-127.9580620396
 20
161.1906340741
 10
-127.9282937705
 20
161.2682420461
 10
-127.9000674218
 20
161.3437432498
 10
-127.8731379937
 20
161.4173346629
 10
-127.8474871194
 20
161.4890012949
 10
-127.8230465136
 20
161.5587581363
 10
-127.7995239737
 20
161.6268471365
 10
-127.7769344611
 20
161.6932583381
 10
-127.6931207464
 20
161.9438071822
  0
LWPOLYLINE
  5
21E
100
AcDbEntity
  8
RACCORDO
100
AcDbPolyline
 62
253
  6
CONTINUOUS
 90
4
 70
0
 10
-127.6110975376
 20
162.1757882963
 10
-127.5425605341
 20
162.2026289492
 10
-127.4715520695
 20
162.2191338426
 10
-127.4248261451
 20
162.2227593212
  0
LWPOLYLINE
  5
21F
100
AcDbEntity
  8
RACCORDO
100
AcDbPolyline
 62
253
  6
CONTINUOUS
 90
3
 70
0
 10
-128.4115856775
 20
162.0858314613
 10
-128.3885961688
 20
162.0938603724
 10
-128.3522267433
 20
162.1052424934
  0
LINE
  5
220
100
AcDbEntity
  8
0
100
AcDbLine
 62
7
  6
CONTINUOUS
 10
-176.8
 20
-0.775
 11
-176.8
 21
-1.775
  0
LINE
  5
221
100
AcDbEntity
  8
0
100
AcDbLine
 62
7
  6
CONTINUOUS
 10
-175.95
 20
-0.775
 11
-175.95
 21
-1.775
  0
LINE
  5
222
100
AcDbEntity
  8
0
100
AcDbLine
 62
7
  6
CONTINUOUS
 10
-173.675
 20
-0.775
 11
-173.675
 21
-1.775
  0
LINE
  5
223
100
AcDbEntity
  8
0
100
AcDbLine
 62
7
  6
CONTINUOUS
 10
-169.925
 20
-0.775
 11
-169.925
 21
-1.775
  0
LINE
  5
224
100
AcDbEntity
  8
0
100
AcDbLine
 62
7
  6
CONTINUOUS
 10
-167.4
 20
-0.775
 11
-167.4
 21
-1.775
  0
LWPOLYLINE
  5
225
100
AcDbEntity
  8
RACCORDO
100
AcDbPolyline
 62
253
  6
CONTINUOUS
 90
5
 70
0
 10
-127.6931207464
 20
161.9438071822
 10
-127.6728424705
 20
162.0032867626
 10
-127.6523160431
 20
162.0618297077
 10
-127.6317538331
 20
162.1193211714
 10
-127.6111749532
 20
162.1757611537
  0
LINE
  5
226
100
AcDbEntity
  8
0
100
AcDbLine
 62
7
  6
CONTINUOUS
 10
124.45
 20
-177.575
 11
125.45
 21
-177.575
  0
LINE
  5
227
100
AcDbEntity
  8
0
100
AcDbLine
 62
7
  6
CONTINUOUS
 10
124.45
 20
-176.725
 11
125.45
 21
-176.725
  0
LINE
  5
228
100
AcDbEntity
  8
0
100
AcDbLine
 62
7
  6
CONTINUOUS
 10
124.45
 20
-174.45
 11
125.45
 21
-174.45
  0
LINE
  5
229
100
AcDbEntity
  8
0
100
AcDbLine
 62
7
  6
CONTINUOUS
 10
124.45
 20
-170.7
 11
125.45
 21
-170.7
  0
LINE
  5
22A
100
AcDbEntity
  8
0
100
AcDbLine
 62
7
  6
CONTINUOUS
 10
124.45
 20
-168.175
 11
125.45
 21
-168.175
  0
LINE
  5
22B
100
AcDbEntity
  8
0
100
AcDbLine
 62
7
  6
CONTINUOUS
 10
-163.4
 20
-4.85
 11
-163.4
 21
2.3
  0
LINE
  5
22C
100
AcDbEntity
  8
0
100
AcDbLine
 62
7
  6
CONTINUOUS
 10
-162.9
 20
-6.025
 11
-162.9
 21
3.475
  0
LINE
  5
22D
100
AcDbEntity
  8
0
100
AcDbLine
 62
7
  6
CONTINUOUS
 10
-162.1
 20
-6.775
 11
-162.1
 21
4.225
  0
LINE
  5
22E
100
AcDbEntity
  8
0
100
AcDbLine
 62
7
  6
CONTINUOUS
 10
-160.85
 20
-6.775
 11
-160.85
 21
4.225
  0
LINE
  5
22F
100
AcDbEntity
  8
0
100
AcDbLine
 62
7
  6
CONTINUOUS
 10
-160.0
 20
136.975
 11
-160.0
 21
-139.525
  0
LINE
  5
230
100
AcDbEntity
  8
RACCORDO
100
AcDbLine
 62
7
  6
CONTINUOUS
 10
-160.0
 20
-160.275
 11
-160.0
 21
-141.275
  0
LINE
  5
231
100
AcDbEntity
  8
0
100
AcDbLine
 62
7
  6
CONTINUOUS
 10
-160.0
 20
137.475
 11
-160.0
 21
138.725
  0
LINE
  5
232
100
AcDbEntity
  8
RACCORDO
100
AcDbLine
 62
7
  6
CONTINUOUS
 10
-160.0
 20
138.725
 11
-160.0
 21
157.725
  0
LINE
  5
233
100
AcDbEntity
  8
0
100
AcDbLine
 62
253
  6
CONTINUOUS
 10
-159.0
 20
136.975
 11
-159.0
 21
-139.525
  0
LINE
  5
234
100
AcDbEntity
  8
0
100
AcDbLine
 62
7
  6
CONTINUOUS
 10
-159.0
 20
-141.275
 11
-159.0
 21
-139.525
  0
LINE
  5
235
100
AcDbEntity
  8
0
100
AcDbLine
 62
7
  6
CONTINUOUS
 10
-159.0
 20
136.975
 11
-159.0
 21
138.725
  0
LINE
  5
236
100
AcDbEntity
  8
RACCORDO
100
AcDbLine
 62
253
  6
CONTINUOUS
 10
-113.825
 20
159.3748374216
 11
-113.765323229
 21
159.6148304901
  0
LINE
  5
237
100
AcDbEntity
  8
0
100
AcDbLine
 62
7
  6
CONTINUOUS
 10
128.525
 20
-164.175
 11
121.375
 21
-164.175
  0
LINE
  5
238
100
AcDbEntity
  8
0
100
AcDbLine
 62
7
  6
CONTINUOUS
 10
129.7
 20
-163.675
 11
120.2
 21
-163.675
  0
LINE
  5
239
100
AcDbEntity
  8
0
100
AcDbLine
 62
7
  6
CONTINUOUS
 10
130.45
 20
-162.875
 11
119.45
 21
-162.875
  0
LINE
  5
23A
100
AcDbEntity
  8
0
100
AcDbLine
 62
7
  6
CONTINUOUS
 10
130.45
 20
-161.625
 11
119.45
 21
-161.625
  0
LINE
  5
23B
100
AcDbEntity
  8
RACCORDO
100
AcDbLine
 62
7
  6
CONTINUOUS
 10
159.0
 20
-161.275
 11
140.0
 21
-161.275
  0
LINE
  5
23C
100
AcDbEntity
  8
0
100
AcDbLine
 62
7
  6
CONTINUOUS
 10
138.25
 20
-161.275
 11
105.9500244358
 21
-161.275
  0
LINE
  5
23D
100
AcDbEntity
  8
0
100
AcDbLine
 62
7
  6
CONTINUOUS
 10
96.7999755642
 20
-161.275
 11
-96.7999755642
 21
-161.275
  0
LINE
  5
23E
100
AcDbEntity
  8
0
100
AcDbLine
 62
7
  6
CONTINUOUS
 10
-105.9500244358
 20
-161.275
 11
-138.25
 21
-161.275
  0
LINE
  5
23F
100
AcDbEntity
  8
0
100
AcDbLine
 62
7
  6
CONTINUOUS
 10
-138.75
 20
-161.275
 11
-140.0
 21
-161.275
  0
LINE
  5
240
100
AcDbEntity
  8
RACCORDO
100
AcDbLine
 62
7
  6
CONTINUOUS
 10
-140.0
 20
-161.275
 11
-159.0
 21
-161.275
  0
LINE
  5
241
100
AcDbEntity
  8
0
100
AcDbLine
 62
7
  6
CONTINUOUS
 10
138.975
 20
-160.775
 11
138.25
 21
-160.775
  0
LINE
  5
242
100
AcDbEntity
  8
0
100
AcDbLine
 62
7
  6
CONTINUOUS
 10
140.0
 20
-160.275
 11
138.25
 21
-160.275
  0
LINE
  5
243
100
AcDbEntity
  8
0
100
AcDbLine
 62
253
  6
CONTINUOUS
 10
138.25
 20
-160.275
 11
107.7396592237
 21
-160.275
  0
LINE
  5
244
100
AcDbEntity
  8
0
100
AcDbLine
 62
253
  6
CONTINUOUS
 10
95.0103407763
 20
-160.275
 11
-95.0103407763
 21
-160.275
  0
LINE
  5
245
100
AcDbEntity
  8
0
100
AcDbLine
 62
253
  6
CONTINUOUS
 10
-107.7396592237
 20
-160.275
 11
-138.25
 21
-160.275
  0
LINE
  5
246
100
AcDbEntity
  8
0
100
AcDbLine
 62
7
  6
CONTINUOUS
 10
-138.25
 20
-160.275
 11
-140.0
 21
-160.275
  0
LINE
  5
247
100
AcDbEntity
  8
RACCORDO
100
AcDbLine
 62
7
  6
CONTINUOUS
 10
-144.125
 20
121.225
 11
-144.125
 21
94.725
  0
LINE
  5
248
100
AcDbEntity
  8
RACCORDO
100
AcDbLine
 62
7
  6
CONTINUOUS
 10
-144.125
 20
-97.275
 11
-144.125
 21
-123.775
  0
LINE
  5
249
100
AcDbEntity
  8
RACCORDO
100
AcDbLine
 62
7
  6
CONTINUOUS
 10
-142.625
 20
-123.775
 11
-142.625
 21
-97.275
  0
LINE
  5
24A
100
AcDbEntity
  8
RACCORDO
100
AcDbLine
 62
7
  6
CONTINUOUS
 10
-142.625
 20
94.725
 11
-142.625
 21
121.225
  0
LINE
  5
24B
100
AcDbEntity
  8
0
100
AcDbLine
 62
7
  6
CONTINUOUS
 10
-140.0
 20
158.725
 11
-140.0
 21
157.725
  0
LINE
  5
24C
100
AcDbEntity
  8
0
100
AcDbLine
 62
7
  6
CONTINUOUS
 10
-140.0
 20
-161.275
 11
-140.0
 21
-160.275
  0
LINE
  5
24D
100
AcDbEntity
  8
0
100
AcDbLine
 62
253
  6
CONTINUOUS
 10
-138.75
 20
-161.275
 11
-138.75
 21
-160.275
  0
LINE
  5
24E
100
AcDbEntity
  8
0
100
AcDbLine
 62
7
  6
CONTINUOUS
 10
-138.25
 20
158.725
 11
-138.25
 21
157.725
  0
LINE
  5
24F
100
AcDbEntity
  8
0
100
AcDbLine
 62
7
  6
CONTINUOUS
 10
-138.25
 20
-160.275
 11
-138.25
 21
-161.275
  0
LWPOLYLINE
  5
250
100
AcDbEntity
  8
RACCORDO
100
AcDbPolyline
 62
253
  6
CONTINUOUS
 90
10
 70
0
 10
-130.825
 20
159.2082475428
 10
-130.8230046343
 20
159.2395882967
 10
-130.8170500038
 20
159.2704287362
 10
-130.8072311709
 20
159.3002765098
 10
-130.7937048882
 20
159.3286551134
 10
-130.7766870959
 20
159.3551114974
 10
-130.756449474
 20
159.3792232992
 10
-130.7333151057
 20
159.4006055868
 10
-130.7076533192
 20
159.4189170028
 10
-130.6798737915
 20
159.4338652152
  0
LWPOLYLINE
  5
251
100
AcDbEntity
  8
RACCORDO
100
AcDbPolyline
 62
253
  6
CONTINUOUS
 90
20
 70
0
 10
-112.825
 20
159.2082477386
 10
-112.8254021609
 20
159.2060454217
 10
-112.826649164
 20
159.2041141276
 10
-112.8288023294
 20
159.2024538563
 10
-112.8319143725
 20
159.2010446527
 10
-112.8360518916
 20
159.1999064719
 10
-112.8413192883
 20
159.1990991796
 10
-112.8478020663
 20
159.198615124
 10
-112.8555849967
 20
159.1984619568
 10
-112.8648160413
 20
159.1987224989
 10
-112.8756209205
 20
159.199395634
 10
-112.8880939896
 20
159.2004824783
 10
-112.9023641437
 20
159.2020692008
 10
-112.9185358699
 20
159.2041591429
 10
-112.9367242887
 20
159.2067489632
 10
-112.9570883258
 20
159.2099148057
 10
-112.979745592
 20
159.213664984
 10
-113.0047994142
 20
159.2179911847
 10
-113.0323995391
 20
159.2229446118
 10
-113.062628839
 20
159.2285332351
  0
LWPOLYLINE
  5
252
100
AcDbEntity
  8
RACCORDO
100
AcDbPolyline
 62
253
  6
CONTINUOUS
 90
19
 70
0
 10
-112.970126757
 20
159.4338641736
 10
-112.9705885509
 20
159.4317585613
 10
-112.9718142276
 20
159.4299476477
 10
-112.9738051904
 20
159.4284284109
 10
-112.9764990241
 20
159.4271711512
 10
-112.9799614403
 20
159.4261983884
 10
-112.9843868264
 20
159.4255836799
 10
-112.9897564722
 20
159.4253089723
 10
-112.9960948899
 20
159.4253794285
 10
-113.0036630999
 20
159.4258994519
 10
-113.0124673458
 20
159.4268520116
 10
-113.0225111314
 20
159.4282319378
 10
-113.0340538475
 20
159.4301558271
 10
-113.0470973506
 20
159.4326031554
 10
-113.0616542946
 20
159.4355602409
 10
-113.0780032802
 20
159.4391467867
 10
-113.096164566
 20
159.4433379108
 10
-113.1161382914
 20
159.4481078201
 10
-113.1381761599
 20
159.4535663587
  0
LINE
  5
253
100
AcDbEntity
  8
RACCORDO
100
AcDbLine
 62
7
  6
CONTINUOUS
 10
-122.5
 20
-145.4
 11
-111.1293470194
 21
-145.4
  0
LINE
  5
254
100
AcDbEntity
  8
RACCORDO
100
AcDbLine
 62
7
  6
CONTINUOUS
 10
111.1293470194
 20
-145.4
 11
122.5
 21
-145.4
  0
LINE
  5
255
100
AcDbEntity
  8
RACCORDO
100
AcDbLine
 62
7
  6
CONTINUOUS
 10
122.5
 20
-143.9
 11
110.0987497574
 21
-143.9
  0
LINE
  5
256
100
AcDbEntity
  8
RACCORDO
100
AcDbLine
 62
7
  6
CONTINUOUS
 10
-110.0987497574
 20
-143.9
 11
-122.5
 21
-143.9
  0
LINE
  5
257
100
AcDbEntity
  8
0
100
AcDbLine
 62
7
  6
CONTINUOUS
 10
-160.0
 20
-141.275
 11
-159.0
 21
-141.275
  0
LINE
  5
258
100
AcDbEntity
  8
0
100
AcDbLine
 62
7
  6
CONTINUOUS
 10
160.0
 20
-141.275
 11
159.0
 21
-141.275
  0
LINE
  5
259
100
AcDbEntity
  8
0
100
AcDbLine
 62
253
  6
CONTINUOUS
 10
160.0
 20
-140.025
 11
159.0
 21
-140.025
  0
LINE
  5
25A
100
AcDbEntity
  8
0
100
AcDbLine
 62
7
  6
CONTINUOUS
 10
160.0
 20
-139.525
 11
159.0
 21
-139.525
  0
LINE
  5
25B
100
AcDbEntity
  8
0
100
AcDbLine
 62
7
  6
CONTINUOUS
 10
-160.0
 20
-139.525
 11
-159.0
 21
-139.525
  0
LWPOLYLINE
  5
25C
100
AcDbEntity
  8
RACCORDO
100
AcDbPolyline
 62
253
  6
CONTINUOUS
 90
10
 70
0
 10
-130.6798732273
 20
159.4338640014
 10
-130.6871056227
 20
159.5108779202
 10
-130.6952918296
 20
159.5793036583
 10
-130.7039479634
 20
159.6390409077
 10
-130.7118770775
 20
159.6904727183
 10
-130.7192414667
 20
159.7331528236
 10
-130.7273607336
 20
159.7655828015
 10
-130.7360835092
 20
159.7870956591
 10
-130.7439199212
 20
159.7980811192
 10
-130.7500185605
 20
159.7985134213
  0
LINE
  5
25D
100
AcDbEntity
  8
RACCORDO
100
AcDbLine
 62
253
  6
CONTINUOUS
 10
-128.6540583582
 20
159.5210179857
 11
-128.654925123
 21
159.7659410737
  0
LINE
  5
25E
100
AcDbEntity
  8
RACCORDO
100
AcDbLine
 62
7
  6
CONTINUOUS
 10
-130.825
 20
158.725
 11
-130.825
 21
159.6199948023
  0
LINE
  5
25F
100
AcDbEntity
  8
RACCORDO
100
AcDbLine
 62
253
  6
CONTINUOUS
 10
-129.825
 20
159.3748374298
 11
-129.825
 21
158.725
  0
LINE
  5
260
100
AcDbEntity
  8
0
100
AcDbLine
 62
7
  6
CONTINUOUS
 10
-127.425
 20
162.225
 11
-127.425
 21
162.725
  0
LINE
  5
261
100
AcDbEntity
  8
ASSI
100
AcDbLine
 62
7
  6
CONTINUOUS
 10
-123.15
 20
177.575
 11
-123.15
 21
169.0458792625
  0
LINE
  5
262
100
AcDbEntity
  8
0
100
AcDbLine
 62
7
  6
CONTINUOUS
 10
-123.15
 20
169.0458792625
 11
-123.15
 21
165.975
  0
LINE
  5
263
100
AcDbEntity
  8
0
100
AcDbLine
 62
7
  6
CONTINUOUS
 10
-122.325
 20
165.975
 11
-122.325
 21
163.475
  0
LINE
  5
264
100
AcDbEntity
  8
0
100
AcDbLine
 62
7
  6
CONTINUOUS
 10
-121.325
 20
165.975
 11
-121.325
 21
163.475
  0
LINE
  5
265
100
AcDbEntity
  8
ASSI
100
AcDbLine
 62
7
  6
CONTINUOUS
 10
-120.5
 20
177.575
 11
-120.5
 21
169.0458792625
  0
LINE
  5
266
100
AcDbEntity
  8
0
100
AcDbLine
 62
7
  6
CONTINUOUS
 10
-120.5
 20
169.0458792625
 11
-120.5
 21
165.975
  0
LINE
  5
267
100
AcDbEntity
  8
0
100
AcDbLine
 62
7
  6
CONTINUOUS
 10
-116.225
 20
162.225
 11
-116.225
 21
162.725
  0
LINE
  5
268
100
AcDbEntity
  8
RACCORDO
100
AcDbLine
 62
253
  6
CONTINUOUS
 10
-114.9959416904
 20
159.5210179946
 11
-114.99507493
 21
159.7659434167
  0
LINE
  5
269
100
AcDbEntity
  8
RACCORDO
100
AcDbLine
 62
7
  6
CONTINUOUS
 10
-72.5
 20
-127.525
 11
72.5
 21
-127.525
  0
LINE
  5
26A
100
AcDbEntity
  8
0
100
AcDbLine
 62
7
  6
CONTINUOUS
 10
-162.1
 20
-6.775
 11
-162.9
 21
-6.025
  0
LWPOLYLINE
  5
26B
100
AcDbEntity
  8
RACCORDO
100
AcDbPolyline
 62
253
  6
CONTINUOUS
 90
10
 70
0
 10
-112.8250002035
 20
159.2082477386
 10
-112.826995724
 20
159.2395883847
 10
-112.8329504799
 20
159.2704286985
 10
-112.8427694072
 20
159.3002763336
 10
-112.8562957529
 20
159.328654791
 10
-112.8733135772
 20
159.3551110263
 10
-112.8935512011
 20
159.3792226822
 10
-112.9166855437
 20
159.400604831
 10
-112.9423472795
 20
159.4189161202
 10
-112.9701267348
 20
159.4338642213
  0
LINE
  5
26C
100
AcDbEntity
  8
RACCORDO
100
AcDbLine
 62
253
  6
CONTINUOUS
 10
-113.825
 20
158.725
 11
-113.825
 21
159.3748374216
  0
LINE
  5
26D
100
AcDbEntity
  8
RACCORDO
100
AcDbLine
 62
7
  6
CONTINUOUS
 10
-112.825
 20
158.725
 11
-112.825
 21
159.6199938488
  0
LINE
  5
26E
100
AcDbEntity
  8
0
100
AcDbLine
 62
7
  6
CONTINUOUS
 10
-162.1
 20
4.225
 11
-162.9
 21
3.475
  0
LINE
  5
26F
100
AcDbEntity
  8
0
100
AcDbLine
 62
7
  6
CONTINUOUS
 10
-162.9
 20
2.5833333333
 11
-163.4
 21
2.3
  0
LINE
  5
270
100
AcDbEntity
  8
0
100
AcDbLine
 62
7
  6
CONTINUOUS
 10
-162.9
 20
-5.1333333333
 11
-163.4
 21
-4.85
  0
LINE
  5
271
100
AcDbEntity
  8
RACCORDO
100
AcDbLine
 62
253
  6
CONTINUOUS
 10
-129.8250000006
 20
159.3748374295
 11
-129.8846758925
 21
159.6148269511
  0
LINE
  5
272
100
AcDbEntity
  8
RACCORDO
100
AcDbLine
 62
7
  6
CONTINUOUS
 10
-75.0
 20
-80.025
 11
-75.0
 21
-125.025
  0
LINE
  5
273
100
AcDbEntity
  8
RACCORDO
100
AcDbLine
 62
7
  6
CONTINUOUS
 10
72.5
 20
-77.525
 11
-72.5
 21
-77.525
  0
LWPOLYLINE
  5
274
100
AcDbEntity
  8
RACCORDO
100
AcDbPolyline
 62
253
  6
CONTINUOUS
 90
6
 70
0
 10
-116.0390323491
 20
162.1757605263
 10
-116.0148188096
 20
162.1089400798
 10
-115.9907230567
 20
162.0412746888
 10
-115.9667790293
 20
161.9727643534
 10
-115.9433059181
 20
161.9035864916
 10
-115.896244882
 20
161.7621636808
  0
LWPOLYLINE
  5
275
100
AcDbEntity
  8
RACCORDO
100
AcDbPolyline
 62
253
  6
CONTINUOUS
 90
20
 70
0
 10
-115.8464707392
 20
161.6151665965
 10
-115.8201581891
 20
161.5391682222
 10
-115.792634042
 20
161.4613423924
 10
-115.7639141316
 20
161.3817053297
 10
-115.7336205548
 20
161.2998716672
 10
-115.7016621097
 20
161.2158333946
 10
-115.6679987962
 20
161.1295985224
 10
-115.632290307
 20
161.0408057148
 10
-115.5944239392
 20
160.9494404537
 10
-115.5543256488
 20
160.8555172573
 10
-115.5116770654
 20
160.7587183454
 10
-115.4662395268
 20
160.6588358755
 10
-115.4179980187
 20
160.5560776901
 10
-115.3669537502
 20
160.4507495365
 10
-115.3129846937
 20
160.34293405
 10
-115.2559356052
 20
160.2325485952
 10
-115.1957625043
 20
160.1196510135
 10
-115.132351829
 20
160.0042605854
 10
-115.0655113082
 20
159.8863580303
 10
-114.9950749426
 20
159.7659433483
  0
LINE
  5
276
100
AcDbEntity
  8
RACCORDO
100
AcDbLine
 62
253
  6
CONTINUOUS
 10
-115.896244882
 20
161.7621636808
 11
-115.8464707392
 21
161.6151665965
  0
LINE
  5
277
100
AcDbEntity
  8
0
100
AcDbLine
 62
7
  6
CONTINUOUS
 10
119.45
 20
-162.875
 11
120.2
 21
-163.675
  0
LINE
  5
278
100
AcDbEntity
  8
0
100
AcDbLine
 62
7
  6
CONTINUOUS
 10
160.85
 20
-6.775
 11
162.1
 21
-6.775
  0
LINE
  5
279
100
AcDbEntity
  8
0
100
AcDbLine
 62
7
  6
CONTINUOUS
 10
-160.85
 20
-6.775
 11
-162.1
 21
-6.775
  0
LINE
  5
27A
100
AcDbEntity
  8
0
100
AcDbLine
 62
7
  6
CONTINUOUS
 10
163.4
 20
-1.775
 11
176.8
 21
-1.775
  0
LINE
  5
27B
100
AcDbEntity
  8
0
100
AcDbLine
 62
7
  6
CONTINUOUS
 10
-163.4
 20
-1.775
 11
-176.8
 21
-1.775
  0
LINE
  5
27C
100
AcDbEntity
  8
0
100
AcDbLine
 62
7
  6
CONTINUOUS
 10
163.4
 20
-0.775
 11
176.8
 21
-0.775
  0
LINE
  5
27D
100
AcDbEntity
  8
0
100
AcDbLine
 62
7
  6
CONTINUOUS
 10
-163.4
 20
-0.775
 11
-176.8
 21
-0.775
  0
LINE
  5
27E
100
AcDbEntity
  8
0
100
AcDbLine
 62
7
  6
CONTINUOUS
 10
160.85
 20
4.225
 11
162.1
 21
4.225
  0
LINE
  5
27F
100
AcDbEntity
  8
0
100
AcDbLine
 62
7
  6
CONTINUOUS
 10
-160.85
 20
4.225
 11
-162.1
 21
4.225
  0
LINE
  5
280
100
AcDbEntity
  8
RACCORDO
100
AcDbLine
 62
7
  6
CONTINUOUS
 10
-115.2197094757
 20
162.0727543879
 11
-112.8999821513
 21
159.798511913
  0
LINE
  5
281
100
AcDbEntity
  8
CURVE
100
AcDbLine
 62
252
  6
CONTINUOUS
 10
-112.825
 20
159.725
 11
-115.375
 21
162.225
  0
LINE
  5
282
100
AcDbEntity
  8
0
100
AcDbLine
 62
7
  6
CONTINUOUS
 10
121.0916666667
 20
-163.675
 11
121.375
 21
-164.175
  0
LINE
  5
283
100
AcDbEntity
  8
RACCORDO
100
AcDbLine
 62
253
  6
CONTINUOUS
 10
-115.2383470778
 20
162.0858144742
 11
-115.2912331134
 21
162.1284343179
  0
LINE
  5
284
100
AcDbEntity
  8
RACCORDO
100
AcDbLine
 62
7
  6
CONTINUOUS
 10
75.0
 20
-125.025
 11
75.0
 21
-80.025
  0
LINE
  5
285
100
AcDbEntity
  8
0
100
AcDbLine
 62
7
  6
CONTINUOUS
 10
162.9
 20
-5.1333333333
 11
163.4
 21
-4.85
  0
LINE
  5
286
100
AcDbEntity
  8
0
100
AcDbLine
 62
7
  6
CONTINUOUS
 10
162.9
 20
2.5833333333
 11
163.4
 21
2.3
  0
LWPOLYLINE
  5
287
100
AcDbEntity
  8
RACCORDO
100
AcDbPolyline
 62
253
  6
CONTINUOUS
 90
7
 70
0
 10
-115.2383462705
 20
162.0858153548
 10
-115.2343303572
 20
162.0835179385
 10
-115.2306899669
 20
162.0812690803
 10
-115.2274175181
 20
162.0790693839
 10
-115.2245048191
 20
162.0769192431
 10
-115.2219430633
 20
162.074818839
 10
-115.2197228238
 20
162.0727681381
  0
LWPOLYLINE
  5
288
100
AcDbEntity
  8
RACCORDO
100
AcDbPolyline
 62
253
  6
CONTINUOUS
 90
6
 70
0
 10
-115.2912331134
 20
162.1284343179
 10
-115.3491490221
 20
162.1639210582
 10
-115.4111392578
 20
162.1916892043
 10
-115.4761810524
 20
162.2112806134
 10
-115.5432012908
 20
162.2223720495
 10
-115.5947345682
 20
162.2249987927
  0
LINE
  5
289
100
AcDbEntity
  8
0
100
AcDbLine
 62
7
  6
CONTINUOUS
 10
-117.7
 20
163.475
 11
-116.225
 21
162.725
  0
LINE
  5
28A
100
AcDbEntity
  8
0
100
AcDbLine
 62
7
  6
CONTINUOUS
 10
162.1
 20
-6.775
 11
162.9
 21
-6.025
  0
LWPOLYLINE
  5
28B
100
AcDbEntity
  8
RACCORDO
100
AcDbPolyline
 62
253
  6
CONTINUOUS
 90
4
 70
0
 10
-116.0389792466
 20
162.1757840405
 10
-116.1074734569
 20
162.2026063014
 10
-116.178441321
 20
162.2190952284
 10
-116.2251770433
 20
162.2227126958
  0
LINE
  5
28C
100
AcDbEntity
  8
0
100
AcDbLine
 62
7
  6
CONTINUOUS
 10
162.1
 20
4.225
 11
162.9
 21
3.475
  0
LINE
  5
28D
100
AcDbEntity
  8
0
100
AcDbLine
 62
7
  6
CONTINUOUS
 10
119.45
 20
-161.625
 11
119.45
 21
-162.875
  0
LINE
  5
28E
100
AcDbEntity
  8
0
100
AcDbLine
 62
7
  6
CONTINUOUS
 10
124.45
 20
-164.175
 11
124.45
 21
-177.575
  0
LINE
  5
28F
100
AcDbEntity
  8
0
100
AcDbLine
 62
7
  6
CONTINUOUS
 10
125.45
 20
-164.175
 11
125.45
 21
-177.575
  0
LINE
  5
290
100
AcDbEntity
  8
0
100
AcDbLine
 62
7
  6
CONTINUOUS
 10
130.45
 20
-161.625
 11
130.45
 21
-162.875
  0
LINE
  5
291
100
AcDbEntity
  8
RACCORDO
100
AcDbLine
 62
253
  6
CONTINUOUS
 10
-113.5364108863
 20
159.3203920857
 11
-113.825
 21
159.3748374216
  0
LINE
  5
292
100
AcDbEntity
  8
RACCORDO
100
AcDbLine
 62
253
  6
CONTINUOUS
 10
-113.062628839
 20
159.2285332351
 11
-113.1314808193
 21
159.2416194568
  0
LWPOLYLINE
  5
293
100
AcDbEntity
  8
RACCORDO
100
AcDbPolyline
 62
253
  6
CONTINUOUS
 90
3
 70
0
 10
-113.1314808193
 20
159.2416194568
 10
-113.3062122152
 20
159.275720192
 10
-113.5364108863
 20
159.3203920857
  0
LWPOLYLINE
  5
294
100
AcDbEntity
  8
RACCORDO
100
AcDbPolyline
 62
253
  6
CONTINUOUS
 90
10
 70
0
 10
-113.7653228335
 20
159.6148320805
 10
-113.9008698406
 20
159.6463835567
 10
-114.0369202898
 20
159.6742459558
 10
-114.1733770502
 20
159.6984161152
 10
-114.3101493935
 20
159.7188978673
 10
-114.447134412
 20
159.7356888676
 10
-114.5842170685
 20
159.7487811162
 10
-114.7212951666
 20
159.7581782094
 10
-114.8582794344
 20
159.7638947675
 10
-114.9950749258
 20
159.7659436369
  0
LWPOLYLINE
  5
295
100
AcDbEntity
  8
RACCORDO
100
AcDbPolyline
 62
253
  6
CONTINUOUS
 90
10
 70
0
 10
-113.825
 20
159.3748374216
 10
-113.954154827
 20
159.4051149839
 10
-114.083647903
 20
159.4318866277
 10
-114.213479228
 20
159.455152353
 10
-114.3437831989
 20
159.4749160273
 10
-114.4744254188
 20
159.4911737832
 10
-114.6050026969
 20
159.5039140181
 10
-114.7353806365
 20
159.5131328645
 10
-114.8656936343
 20
159.51883419
 10
-114.9959416904
 20
159.5210179946
  0
LINE
  5
296
100
AcDbEntity
  8
RACCORDO
100
AcDbLine
 62
253
  6
CONTINUOUS
 10
-113.7041785307
 20
159.5998004546
 11
-113.7653228335
 21
159.6148320805
  0
LINE
  5
297
100
AcDbEntity
  8
RACCORDO
100
AcDbLine
 62
253
  6
CONTINUOUS
 10
-113.59044181
 20
159.5711591688
 11
-113.7041785307
 21
159.5998004546
  0
LINE
  5
298
100
AcDbEntity
  8
RACCORDO
100
AcDbLine
 62
253
  6
CONTINUOUS
 10
-113.4880158272
 20
159.544978099
 11
-113.59044181
 21
159.5711591688
  0
LINE
  5
299
100
AcDbEntity
  8
RACCORDO
100
AcDbLine
 62
253
  6
CONTINUOUS
 10
-113.1381761599
 20
159.4535663587
 11
-113.1885017065
 21
159.4664078996
  0
LWPOLYLINE
  5
29A
100
AcDbEntity
  8
RACCORDO
100
AcDbPolyline
 62
253
  6
CONTINUOUS
 90
3
 70
0
 10
-113.1885017065
 20
159.4664078996
 10
-113.3170908094
 20
159.5002444798
 10
-113.4880158272
 20
159.544978099
  0
LINE
  5
29B
100
AcDbEntity
  8
0
100
AcDbLine
 62
7
  6
CONTINUOUS
 10
138.25
 20
158.725
 11
138.25
 21
157.725
  0
LINE
  5
29C
100
AcDbEntity
  8
0
100
AcDbLine
 62
7
  6
CONTINUOUS
 10
138.25
 20
-160.275
 11
138.25
 21
-161.275
  0
LINE
  5
29D
100
AcDbEntity
  8
0
100
AcDbLine
 62
253
  6
CONTINUOUS
 10
138.75
 20
158.725
 11
138.75
 21
157.725
  0
LINE
  5
29E
100
AcDbEntity
  8
0
100
AcDbLine
 62
7
  6
CONTINUOUS
 10
140.0
 20
158.725
 11
140.0
 21
157.725
  0
LINE
  5
29F
100
AcDbEntity
  8
0
100
AcDbLine
 62
7
  6
CONTINUOUS
 10
140.0
 20
-161.275
 11
140.0
 21
-160.275
  0
LINE
  5
2A0
100
AcDbEntity
  8
RACCORDO
100
AcDbLine
 62
7
  6
CONTINUOUS
 10
142.625
 20
121.225
 11
142.625
 21
94.725
  0
LINE
  5
2A1
100
AcDbEntity
  8
RACCORDO
100
AcDbLine
 62
7
  6
CONTINUOUS
 10
142.625
 20
-97.275
 11
142.625
 21
-123.775
  0
LINE
  5
2A2
100
AcDbEntity
  8
RACCORDO
100
AcDbLine
 62
7
  6
CONTINUOUS
 10
144.125
 20
-123.775
 11
144.125
 21
-97.275
  0
LINE
  5
2A3
100
AcDbEntity
  8
RACCORDO
100
AcDbLine
 62
7
  6
CONTINUOUS
 10
144.125
 20
94.725
 11
144.125
 21
121.225
  0
LINE
  5
2A4
100
AcDbEntity
  8
0
100
AcDbLine
 62
7
  6
CONTINUOUS
 10
160.0
 20
136.975
 11
159.0
 21
136.975
  0
LINE
  5
2A5
100
AcDbEntity
  8
0
100
AcDbLine
 62
7
  6
CONTINUOUS
 10
-160.0
 20
136.975
 11
-159.0
 21
136.975
  0
LINE
  5
2A6
100
AcDbEntity
  8
0
100
AcDbLine
 62
253
  6
CONTINUOUS
 10
-160.0
 20
137.475
 11
-159.0
 21
137.475
  0
LINE
  5
2A7
100
AcDbEntity
  8
0
100
AcDbLine
 62
7
  6
CONTINUOUS
 10
-160.0
 20
138.725
 11
-159.0
 21
138.725
  0
LINE
  5
2A8
100
AcDbEntity
  8
0
100
AcDbLine
 62
7
  6
CONTINUOUS
 10
160.0
 20
138.725
 11
159.0
 21
138.725
  0
LINE
  5
2A9
100
AcDbEntity
  8
RACCORDO
100
AcDbLine
 62
7
  6
CONTINUOUS
 10
-122.5
 20
141.35
 11
-110.0987497574
 21
141.35
  0
LINE
  5
2AA
100
AcDbEntity
  8
RACCORDO
100
AcDbLine
 62
7
  6
CONTINUOUS
 10
110.0987497574
 20
141.35
 11
122.5
 21
141.35
  0
LINE
  5
2AB
100
AcDbEntity
  8
RACCORDO
100
AcDbLine
 62
7
  6
CONTINUOUS
 10
122.5
 20
142.85
 11
111.1293470194
 21
142.85
  0
LINE
  5
2AC
100
AcDbEntity
  8
RACCORDO
100
AcDbLine
 62
7
  6
CONTINUOUS
 10
-111.1293470194
 20
142.85
 11
-122.5
 21
142.85
  0
LWPOLYLINE
  5
2AD
100
AcDbEntity
  8
RACCORDO
100
AcDbPolyline
 62
253
  6
CONTINUOUS
 90
8
 70
0
 10
-115.5788416261
 20
162.1462091418
 10
-115.5091558369
 20
162.1393817886
 10
-115.447465272
 20
162.1327012513
 10
-115.3942822591
 20
162.1267369094
 10
-115.3438741258
 20
162.117626153
 10
-115.297313297
 20
162.1052209317
 10
-115.2613578414
 20
162.0939845382
 10
-115.2383462705
 20
162.0858153548
  0
LINE
  5
2AE
100
AcDbEntity
  8
0
100
AcDbLine
 62
7
  6
CONTINUOUS
 10
159.0
 20
138.725
 11
159.0
 21
136.975
  0
LINE
  5
2AF
100
AcDbEntity
  8
0
100
AcDbLine
 62
253
  6
CONTINUOUS
 10
159.0
 20
136.975
 11
159.0
 21
-139.525
  0
LINE
  5
2B0
100
AcDbEntity
  8
0
100
AcDbLine
 62
7
  6
CONTINUOUS
 10
159.0
 20
-139.525
 11
159.0
 21
-141.275
  0
LINE
  5
2B1
100
AcDbEntity
  8
RACCORDO
100
AcDbLine
 62
7
  6
CONTINUOUS
 10
160.0
 20
157.725
 11
160.0
 21
138.725
  0
LINE
  5
2B2
100
AcDbEntity
  8
0
100
AcDbLine
 62
7
  6
CONTINUOUS
 10
160.0
 20
136.975
 11
160.0
 21
-139.525
  0
LINE
  5
2B3
100
AcDbEntity
  8
0
100
AcDbLine
 62
7
  6
CONTINUOUS
 10
160.0
 20
-140.025
 11
160.0
 21
-141.275
  0
LINE
  5
2B4
100
AcDbEntity
  8
RACCORDO
100
AcDbLine
 62
7
  6
CONTINUOUS
 10
160.0
 20
-141.275
 11
160.0
 21
-160.275
  0
LINE
  5
2B5
100
AcDbEntity
  8
0
100
AcDbLine
 62
7
  6
CONTINUOUS
 10
160.85
 20
4.225
 11
160.85
 21
-6.775
  0
LINE
  5
2B6
100
AcDbEntity
  8
0
100
AcDbLine
 62
7
  6
CONTINUOUS
 10
162.1
 20
4.225
 11
162.1
 21
-6.775
  0
LINE
  5
2B7
100
AcDbEntity
  8
0
100
AcDbLine
 62
7
  6
CONTINUOUS
 10
162.9
 20
3.475
 11
162.9
 21
-6.025
  0
LINE
  5
2B8
100
AcDbEntity
  8
0
100
AcDbLine
 62
7
  6
CONTINUOUS
 10
163.4
 20
2.3
 11
163.4
 21
-4.85
  0
LINE
  5
2B9
100
AcDbEntity
  8
0
100
AcDbLine
 62
7
  6
CONTINUOUS
 10
167.4
 20
-1.775
 11
167.4
 21
-0.775
  0
LWPOLYLINE
  5
2BA
100
AcDbEntity
  8
RACCORDO
100
AcDbPolyline
 62
253
  6
CONTINUOUS
 90
10
 70
0
 10
-112.899981889
 20
159.7985119548
 10
-112.9060767249
 20
159.7980824397
 10
-112.9139161162
 20
159.7871022675
 10
-112.9226346866
 20
159.7655945273
 10
-112.9307550387
 20
159.7331666336
 10
-112.9381211552
 20
159.6904853838
 10
-112.9460509511
 20
159.6390508765
 10
-112.9547090007
 20
159.5793106966
 10
-112.9628944897
 20
159.5108820007
 10
-112.970126757
 20
159.4338641736
  0
LWPOLYLINE
  5
2BB
100
AcDbEntity
  8
RACCORDO
100
AcDbPolyline
 62
253
  6
CONTINUOUS
 90
10
 70
0
 10
-128.6540583582
 20
159.5210179857
 10
-128.7843051701
 20
159.5188344634
 10
-128.9146188032
 20
159.5131330846
 10
-129.0449992575
 20
159.5039138493
 10
-129.1755830232
 20
159.4911725363
 10
-129.30623361
 20
159.4749133668
 10
-129.4365415482
 20
159.455149005
 10
-129.5663703475
 20
159.4318836722
 10
-129.6958564981
 20
159.4051131472
 10
-129.825
 20
159.3748374298
  0
LINE
  5
2BC
100
AcDbEntity
  8
RACCORDO
100
AcDbLine
 62
253
  6
CONTINUOUS
 10
-127.6111749532
 20
162.1757611537
 11
-127.3958855237
 21
162.1792922765
  0
LWPOLYLINE
  5
2BD
100
AcDbEntity
  8
RACCORDO
100
AcDbPolyline
 62
253
  6
CONTINUOUS
 90
10
 70
0
 10
-128.6549251208
 20
159.7659436262
 10
-128.7917209083
 20
159.7638947515
 10
-128.9287054306
 20
159.7581781745
 10
-129.0657837411
 20
159.7487810521
 10
-129.2028666122
 20
159.735688762
 10
-129.3398518021
 20
159.7188977137
 10
-129.4766241401
 20
159.698415932
 10
-129.6130806759
 20
159.6742457833
 10
-129.7491307281
 20
159.6463834425
 10
-129.8846771691
 20
159.6148320856
  0
LWPOLYLINE
  5
2BE
100
AcDbEntity
  8
RACCORDO
100
AcDbPolyline
 62
253
  6
CONTINUOUS
 90
7
 70
0
 10
-127.3958855237
 20
162.1792922765
 10
-127.157017377
 20
162.1823963993
 10
-126.8958091693
 20
162.1850735222
 10
-126.6139734814
 20
162.1872706448
 10
-126.3123312401
 20
162.1890407674
 10
-125.9906960972
 20
162.1905428918
 10
-125.650095191
 20
162.1917892332
  0
LWPOLYLINE
  5
2BF
100
AcDbEntity
  8
RACCORDO
100
AcDbPolyline
 62
253
  6
CONTINUOUS
 90
3
 70
0
 10
-127.6762346574
 20
159.5246376545
 10
-128.1757505003
 20
159.5227854568
 10
-128.6540583582
 20
159.5210179857
  0
LINE
  5
2C0
100
AcDbEntity
  8
RACCORDO
100
AcDbLine
 62
253
  6
CONTINUOUS
 10
-125.4660914351
 20
159.5328937114
 11
-127.6762346574
 21
159.5246376545
  0
LWPOLYLINE
  5
2C1
100
AcDbEntity
  8
RACCORDO
100
AcDbPolyline
 62
253
  6
CONTINUOUS
 90
3
 70
0
 10
-127.1564387879
 20
159.770048782
 10
-127.6770237468
 20
159.7686464231
 10
-128.654925106
 20
159.765943351
  0
LINE
  5
2C2
100
AcDbEntity
  8
RACCORDO
100
AcDbLine
 62
253
  6
CONTINUOUS
 10
-125.4669416585
 20
159.77445915
 11
-127.1564387879
 21
159.770048782
  0
LINE
  5
2C3
100
AcDbEntity
  8
RACCORDO
100
AcDbLine
 62
253
  6
CONTINUOUS
 10
-125.650095191
 20
162.1917892332
 11
-124.920089526
 21
162.1936002767
  0
LINE
  5
2C4
100
AcDbEntity
  8
RACCORDO
100
AcDbLine
 62
253
  6
CONTINUOUS
 10
-124.920089526
 20
162.1936002767
 11
-124.1355632275
 21
162.1948878982
  0
LINE
  5
2C5
100
AcDbEntity
  8
RACCORDO
100
AcDbLine
 62
253
  6
CONTINUOUS
 10
-124.1355632275
 20
162.1948878982
 11
-123.3129230678
 21
162.1956949791
  0
LINE
  5
2C6
100
AcDbEntity
  8
RACCORDO
100
AcDbLine
 62
253
  6
CONTINUOUS
 10
-123.3129230678
 20
162.1956949791
 11
-122.4677480581
 21
162.1960853649
  0
LINE
  5
2C7
100
AcDbEntity
  8
0
100
AcDbLine
 62
7
  6
CONTINUOUS
 10
-140.0
 20
157.725
 11
-138.25
 21
157.725
  0
LINE
  5
2C8
100
AcDbEntity
  8
0
100
AcDbLine
 62
253
  6
CONTINUOUS
 10
138.25
 20
157.725
 11
107.7396592237
 21
157.725
  0
LINE
  5
2C9
100
AcDbEntity
  8
0
100
AcDbLine
 62
253
  6
CONTINUOUS
 10
95.0103407763
 20
157.725
 11
-95.0103407763
 21
157.725
  0
LINE
  5
2CA
100
AcDbEntity
  8
0
100
AcDbLine
 62
253
  6
CONTINUOUS
 10
-107.7396592237
 20
157.725
 11
-138.25
 21
157.725
  0
LINE
  5
2CB
100
AcDbEntity
  8
0
100
AcDbLine
 62
7
  6
CONTINUOUS
 10
138.25
 20
157.725
 11
140.0
 21
157.725
  0
LINE
  5
2CC
100
AcDbEntity
  8
RACCORDO
100
AcDbLine
 62
7
  6
CONTINUOUS
 10
-159.0
 20
158.725
 11
-140.0
 21
158.725
  0
LINE
  5
2CD
100
AcDbEntity
  8
0
100
AcDbLine
 62
7
  6
CONTINUOUS
 10
138.25
 20
158.725
 11
105.9500244358
 21
158.725
  0
LINE
  5
2CE
100
AcDbEntity
  8
0
100
AcDbLine
 62
7
  6
CONTINUOUS
 10
96.7999755642
 20
158.725
 11
-96.7999755642
 21
158.725
  0
LINE
  5
2CF
100
AcDbEntity
  8
0
100
AcDbLine
 62
7
  6
CONTINUOUS
 10
-105.9500244358
 20
158.725
 11
-138.25
 21
158.725
  0
LINE
  5
2D0
100
AcDbEntity
  8
0
100
AcDbLine
 62
7
  6
CONTINUOUS
 10
138.75
 20
158.725
 11
140.0
 21
158.725
  0
LINE
  5
2D1
100
AcDbEntity
  8
RACCORDO
100
AcDbLine
 62
7
  6
CONTINUOUS
 10
140.0
 20
158.725
 11
159.0
 21
158.725
  0
LINE
  5
2D2
100
AcDbEntity
  8
CURVE
100
AcDbLine
 62
252
  6
CONTINUOUS
 10
-112.825
 20
159.725
 11
-112.8482131552
 21
159.725
  0
LINE
  5
2D3
100
AcDbEntity
  8
CURVE
100
AcDbLine
 62
252
  6
CONTINUOUS
 10
-130.8017868473
 20
159.725
 11
-130.825
 21
159.725
  0
LINE
  5
2D4
100
AcDbEntity
  8
RACCORDO
100
AcDbLine
 62
253
  6
CONTINUOUS
 10
-122.4677480581
 20
162.1960853649
 11
-121.614407329
 21
162.1961686473
  0
LINE
  5
2D5
100
AcDbEntity
  8
ASSI
100
AcDbLine
 62
7
  6
CONTINUOUS
 10
-127.425
 20
162.225
 11
-116.225
 21
162.225
  0
LINE
  5
2D6
100
AcDbEntity
  8
CURVE
100
AcDbLine
 62
252
  6
CONTINUOUS
 10
-115.375
 20
162.225
 11
-115.5920433276
 21
162.225
  0
LINE
  5
2D7
100
AcDbEntity
  8
CURVE
100
AcDbLine
 62
252
  6
CONTINUOUS
 10
-115.8268554842
 20
162.225
 11
-115.8963031723
 21
162.225
  0
LINE
  5
2D8
100
AcDbEntity
  8
CURVE
100
AcDbLine
 62
252
  6
CONTINUOUS
 10
-116.0305305175
 20
162.225
 11
-116.1728219139
 21
162.225
  0
LINE
  5
2D9
100
AcDbEntity
  8
CURVE
100
AcDbLine
 62
252
  6
CONTINUOUS
 10
-127.4771780863
 20
162.225
 11
-127.6195021688
 21
162.225
  0
LINE
  5
2DA
100
AcDbEntity
  8
CURVE
100
AcDbLine
 62
252
  6
CONTINUOUS
 10
-127.7536699115
 20
162.225
 11
-127.8230537772
 21
162.225
  0
LINE
  5
2DB
100
AcDbEntity
  8
CURVE
100
AcDbLine
 62
252
  6
CONTINUOUS
 10
-128.05739541
 20
162.225
 11
-128.275
 21
162.225
  0
LINE
  5
2DC
100
AcDbEntity
  8
0
100
AcDbLine
 62
7
  6
CONTINUOUS
 10
-125.95
 20
163.475
 11
-117.7
 21
163.475
  0
LINE
  5
2DD
100
AcDbEntity
  8
0
100
AcDbLine
 62
7
  6
CONTINUOUS
 10
-122.325
 20
164.0455380582
 11
-121.325
 21
164.0455380582
  0
LINE
  5
2DE
100
AcDbEntity
  8
0
100
AcDbLine
 62
7
  6
CONTINUOUS
 10
-122.325
 20
165.4017624511
 11
-121.325
 21
165.4017624511
  0
LINE
  5
2DF
100
AcDbEntity
  8
0
100
AcDbLine
 62
7
  6
CONTINUOUS
 10
-123.15
 20
165.975
 11
-122.325
 21
165.975
  0
LINE
  5
2E0
100
AcDbEntity
  8
0
100
AcDbLine
 62
253
  6
CONTINUOUS
 10
-122.325
 20
165.975
 11
-121.325
 21
165.975
  0
LINE
  5
2E1
100
AcDbEntity
  8
0
100
AcDbLine
 62
7
  6
CONTINUOUS
 10
-121.325
 20
165.975
 11
-120.5
 21
165.975
  0
LINE
  5
2E2
100
AcDbEntity
  8
ASSI
100
AcDbLine
 62
7
  6
CONTINUOUS
 10
-123.15
 20
169.0458792625
 11
-120.5
 21
169.0458792625
  0
LINE
  5
2E3
100
AcDbEntity
  8
RACCORDO
100
AcDbLine
 62
7
  6
CONTINUOUS
 10
-127.4480349667
 20
162.2249559126
 11
-128.0576003265
 21
162.224999741
  0
LINE
  5
2E4
100
AcDbEntity
  8
RACCORDO
100
AcDbLine
 62
7
  6
CONTINUOUS
 10
-127.4477211744
 20
162.2249560563
 11
-128.0005473838
 21
162.2250035714
  0
LINE
  5
2E5
100
AcDbEntity
  8
RACCORDO
100
AcDbLine
 62
253
  6
CONTINUOUS
 10
-121.614407329
 20
162.1961686473
 11
-120.7643516067
 21
162.1959342126
  0
LINE
  5
2E6
100
AcDbEntity
  8
RACCORDO
100
AcDbLine
 62
7
  6
CONTINUOUS
 10
-115.5923371132
 20
162.2249996573
 11
-116.2250000169
 21
162.2249645543
  0
LINE
  5
2E7
100
AcDbEntity
  8
RACCORDO
100
AcDbLine
 62
7
  6
CONTINUOUS
 10
-116.2024108087
 20
162.2249560357
 11
-116.2250000154
 21
162.2249663976
  0
LINE
  5
2E8
100
AcDbEntity
  8
RACCORDO
100
AcDbLine
 62
253
  6
CONTINUOUS
 10
-120.7643516067
 20
162.1959342126
 11
-119.9315284829
 21
162.1953545803
  0
LINE
  5
2E9
100
AcDbEntity
  8
RACCORDO
100
AcDbLine
 62
253
  6
CONTINUOUS
 10
-119.9315284829
 20
162.1953545803
 11
-119.1317056115
 21
162.1943430227
  0
LWPOLYLINE
  5
2EA
100
AcDbEntity
  8
RACCORDO
100
AcDbPolyline
 62
253
  6
CONTINUOUS
 90
10
 70
0
 10
-119.1968622635
 20
159.7766675789
 10
-119.7886905881
 20
159.7776733525
 10
-120.3968471726
 20
159.7784583302
 10
-121.0197068544
 20
159.7790322431
 10
-121.6524681764
 20
159.7792888761
 10
-122.2996559531
 20
159.7791740915
 10
-122.9563117292
 20
159.778742027
 10
-123.6033920964
 20
159.7780488809
 10
-124.2376141693
 20
159.7770567523
 10
-125.4669416585
 20
159.77445915
  0
LINE
  5
2EB
100
AcDbEntity
  8
RACCORDO
100
AcDbLine
 62
253
  6
CONTINUOUS
 10
-118.0579765729
 20
159.7741582447
 11
-119.1968622635
 21
159.7766675789
  0
LWPOLYLINE
  5
2EC
100
AcDbEntity
  8
RACCORDO
100
AcDbPolyline
 62
253
  6
CONTINUOUS
 90
9
 70
0
 10
-119.1317056115
 20
162.1943430227
 10
-118.3769150456
 20
162.1928187627
 10
-118.0203982914
 20
162.1918549204
 10
-117.6791372364
 20
162.1906197934
 10
-117.3549790066
 20
162.1891266493
 10
-117.0497771146
 20
162.1873622205
 10
-116.7642681282
 20
162.1851600404
 10
-116.4995967309
 20
162.1824646203
 10
-116.2573891607
 20
162.1793314489
  0
LWPOLYLINE
  5
2ED
100
AcDbEntity
  8
RACCORDO
100
AcDbPolyline
 62
253
  6
CONTINUOUS
 90
10
 70
0
 10
-119.1976346479
 20
159.5362309792
 10
-119.7892684607
 20
159.5377771199
 10
-120.3972882349
 20
159.5390032292
 10
-121.0200664715
 20
159.5399217835
 10
-121.6525225303
 20
159.5403368178
 10
-122.2994162137
 20
159.5401447685
 10
-122.9559877192
 20
159.5394491994
 10
-123.6028769989
 20
159.5383648364
 10
-124.2368401483
 20
159.5368317316
 10
-125.4660914351
 20
159.5328937114
  0
LWPOLYLINE
  5
2EE
100
AcDbEntity
  8
RACCORDO
100
AcDbPolyline
 62
253
  6
CONTINUOUS
 90
6
 70
0
 10
-114.9950749426
 20
159.7659433483
 10
-115.4698856022
 20
159.767263289
 10
-115.9588667455
 20
159.7686029132
 10
-116.4620935553
 20
159.7699622209
 10
-116.9794717498
 20
159.7713729923
 10
-118.0579765729
 20
159.7741582447
  0
LINE
  5
2EF
100
AcDbEntity
  8
RACCORDO
100
AcDbLine
 62
253
  6
CONTINUOUS
 10
-118.0588405528
 20
159.5324494267
 11
-119.1976346479
 21
159.5362309792
  0
LWPOLYLINE
  5
2F0
100
AcDbEntity
  8
RACCORDO
100
AcDbPolyline
 62
253
  6
CONTINUOUS
 90
4
 70
0
 10
-114.9959416904
 20
159.5210179946
 10
-116.4630220951
 20
159.5264542855
 10
-116.9804398937
 20
159.5284359899
 10
-118.0588405528
 20
159.5324494267
  0
LINE
  5
2F1
100
AcDbEntity
  8
RACCORDO
100
AcDbLine
 62
253
  6
CONTINUOUS
 10
-116.2573891607
 20
162.1793314489
 11
-116.0390323491
 21
162.1757605263
  0
LWPOLYLINE
  5
2F2
100
AcDbEntity
  8
RACCORDO
100
AcDbPolyline
 62
253
  6
CONTINUOUS
 90
3
 70
0
 10
-116.0390338467
 20
162.1757544372
 10
-115.9314755931
 20
162.1708089489
 10
-115.8307556767
 20
162.1647183759
  0
LINE
  5
2F3
100
AcDbEntity
  8
RACCORDO
100
AcDbLine
 62
253
  6
CONTINUOUS
 10
-115.8307556767
 20
162.1647183759
 11
-115.5788416261
 21
162.1462091418
  0
LINE
  5
2F4
100
AcDbEntity
  8
0
100
AcDbLine
 62
7
  6
CONTINUOUS
 10
169.925
 20
-1.775
 11
169.925
 21
-0.775
  0
LINE
  5
2F5
100
AcDbEntity
  8
0
100
AcDbLine
 62
7
  6
CONTINUOUS
 10
173.675
 20
-1.775
 11
173.675
 21
-0.775
  0
LINE
  5
2F6
100
AcDbEntity
  8
0
100
AcDbLine
 62
7
  6
CONTINUOUS
 10
175.95
 20
-1.775
 11
175.95
 21
-0.775
  0
LINE
  5
2F7
100
AcDbEntity
  8
0
100
AcDbLine
 62
7
  6
CONTINUOUS
 10
176.8
 20
-1.775
 11
176.8
 21
-0.775
  0
LINE
  5
2F8
100
AcDbEntity
  8
RACCORDO
100
AcDbLine
 62
253
  6
CONTINUOUS
 10
-130.113589026
 20
159.3203921168
 11
-130.4796633014
 21
159.2491487581
  0
LINE
  5
2F9
100
AcDbEntity
  8
RACCORDO
100
AcDbLine
 62
253
  6
CONTINUOUS
 10
-130.4796633014
 20
159.2491487581
 11
-130.5544081854
 21
159.2347491148
  0
LWPOLYLINE
  5
2FA
100
AcDbEntity
  8
RACCORDO
100
AcDbPolyline
 62
253
  6
CONTINUOUS
 90
3
 70
0
 10
-129.825
 20
159.3748374298
 10
-129.976171806
 20
159.3464298687
 10
-130.113589026
 20
159.3203921168
  0
LWPOLYLINE
  5
2FB
100
AcDbEntity
  8
RACCORDO
100
AcDbPolyline
 62
253
  6
CONTINUOUS
 90
20
 70
0
 10
-130.5544081854
 20
159.2347491148
 10
-130.6176003601
 20
159.2229446341
 10
-130.6452004912
 20
159.2179912007
 10
-130.67025432
 20
159.2136649925
 10
-130.6929115933
 20
159.2099148055
 10
-130.7132756379
 20
159.2067489532
 10
-130.7314640644
 20
159.2041591223
 10
-130.7476357984
 20
159.2020691686
 10
-130.7619059603
 20
159.2004824337
 10
-130.7743790369
 20
159.1993955761
 10
-130.7851839234
 20
159.1987224274
 10
-130.7944149747
 20
159.1984618716
 10
-130.8021979113
 20
159.1986150248
 10
-130.8086806949
 20
159.1990990662
 10
-130.8139480965
 20
159.1999063442
 10
-130.8180856198
 20
159.2010445106
 10
-130.8211976663
 20
159.2024537001
 10
-130.8233508341
 20
159.2041139578
 10
-130.8245978386
 20
159.2060452387
 10
-130.825
 20
159.2082475428
  0
LWPOLYLINE
  5
2FC
100
AcDbEntity
  8
RACCORDO
100
AcDbPolyline
 62
253
  6
CONTINUOUS
 90
4
 70
0
 10
-128.069228752
 20
162.1463914851
 10
-127.8179420533
 20
162.1647150104
 10
-127.7178924687
 20
162.1707608691
 10
-127.6111703695
 20
162.1757569415
  0
LINE
  5
2FD
100
AcDbEntity
  8
ASSI
100
AcDbLine
 62
7
  6
CONTINUOUS
 10
-123.15
 20
174.5041207375
 11
-120.5
 21
174.5041207375
  0
LINE
  5
2FE
100
AcDbEntity
  8
ASSI
100
AcDbLine
 62
7
  6
CONTINUOUS
 10
-123.15
 20
177.575
 11
-120.5
 21
177.575
  0
LINE
  5
2FF
100
AcDbEntity
  8
0
100
AcDbLine
 62
7
  6
CONTINUOUS
 10
128.8083333333
 20
-163.675
 11
128.525
 21
-164.175
  0
LWPOLYLINE
  5
300
100
AcDbEntity
  8
RACCORDO
100
AcDbPolyline
 62
253
  6
CONTINUOUS
 90
6
 70
0
 10
-128.3522267433
 20
162.1052424934
 10
-128.3051129358
 20
162.1178279566
 10
-128.2542374014
 20
162.1270455674
 10
-128.200862068
 20
162.1329612155
 10
-128.1391024398
 20
162.1395486255
 10
-128.069228752
 20
162.1463914851
  0
LINE
  5
301
100
AcDbEntity
  8
RACCORDO
100
AcDbLine
 62
253
  6
CONTINUOUS
 10
-130.2089436115
 20
159.5327937948
 11
-130.4329529648
 21
159.4738616299
  0
LWPOLYLINE
  5
302
100
AcDbEntity
  8
RACCORDO
100
AcDbPolyline
 62
253
  6
CONTINUOUS
 90
21
 70
0
 10
-130.4329529648
 20
159.4738616299
 10
-130.4877056749
 20
159.4596777197
 10
-130.5118234216
 20
159.4535664735
 10
-130.5338613383
 20
159.4481079173
 10
-130.5538351088
 20
159.44333799
 10
-130.5719964361
 20
159.4391468478
 10
-130.5883454592
 20
159.4355602841
 10
-130.6029024371
 20
159.4326031808
 10
-130.6159459709
 20
159.4301558348
 10
-130.6274887147
 20
159.4282319278
 10
-130.6375325251
 20
159.4268519842
 10
-130.646336793
 20
159.4258994074
 10
-130.6539050221
 20
159.4253793675
 10
-130.6602434563
 20
159.4253088953
 10
-130.6656131164
 20
159.4255835873
 10
-130.6700385145
 20
159.4261982805
 10
-130.6735009405
 20
159.4271710285
 10
-130.676194782
 20
159.4284282743
 10
-130.6781857507
 20
159.4299474982
 10
-130.6794114313
 20
159.4317583999
 10
-130.6798732273
 20
159.4338640014
  0
LINE
  5
303
100
AcDbEntity
  8
RACCORDO
100
AcDbLine
 62
253
  6
CONTINUOUS
 10
-130.1121806806
 20
159.5577408291
 11
-130.2089436115
 21
159.5327937948
  0
LWPOLYLINE
  5
304
100
AcDbEntity
  8
RACCORDO
100
AcDbPolyline
 62
253
  6
CONTINUOUS
 90
4
 70
0
 10
-129.8846771691
 20
159.6148320856
 10
-129.9458206447
 20
159.5998006568
 10
-130.0041105621
 20
159.5852191561
 10
-130.1121806806
 20
159.5577408291
  0
LINE
  5
305
100
AcDbEntity
  8
0
100
AcDbLine
 62
7
  6
CONTINUOUS
 10
130.45
 20
-162.875
 11
129.7
 21
-163.675
  0
CIRCLE
  5
306
100
AcDbEntity
  8
0
100
AcDbCircle
 62
7
  6
CONTINUOUS
 10
-101.375
 20
-151.0
 40
11.25
  0
ARC
  5
307
100
AcDbEntity
  8
RACCORDO
100
AcDbCircle
 62
7
  6
CONTINUOUS
 10
-72.5
 20
-80.025
 40
2.5
100
AcDbArc
 50
90.0
 51
180.0
  0
ARC
  5
308
100
AcDbEntity
  8
RACCORDO
100
AcDbCircle
 62
7
  6
CONTINUOUS
 10
-72.5
 20
-125.025
 40
2.5
100
AcDbArc
 50
180.0
 51
270.0
  0
ARC
  5
309
100
AcDbEntity
  8
0
100
AcDbCircle
 62
7
  6
CONTINUOUS
 10
-158.5
 20
-141.475
 40
1.5
100
AcDbArc
 50
109.4763631234
 51
172.3227874694
  0
ARC
  5
30A
100
AcDbEntity
  8
0
100
AcDbCircle
 62
7
  6
CONTINUOUS
 10
-138.75
 20
-159.775
 40
1.5
100
AcDbArc
 50
270.0
 51
289.4763631234
  0
CIRCLE
  5
30B
100
AcDbEntity
  8
0
100
AcDbCircle
 62
7
  6
CONTINUOUS
 10
-78.75
 20
-92.425
 40
1.25
  0
CIRCLE
  5
30C
100
AcDbEntity
  8
ASSI
100
AcDbCircle
 62
7
  6
CONTINUOUS
 10
-149.725
 20
-102.6675
 40
1.25
  0
ARC
  5
30D
100
AcDbEntity
  8
0
100
AcDbCircle
 62
7
  6
CONTINUOUS
 10
-78.75
 20
-92.425
 40
1.125
100
AcDbArc
 50
255.0
 51
195.0
  0
CIRCLE
  5
30E
100
AcDbEntity
  8
SMUSSO
100
AcDbCircle
 62
7
  6
CONTINUOUS
 10
-149.725
 20
-102.6675
 40
1.0
  0
ARC
  5
30F
100
AcDbEntity
  8
RACCORDO
100
AcDbCircle
 62
7
  6
CONTINUOUS
 10
-159.0
 20
-160.275
 40
1.0
100
AcDbArc
 50
180.0
 51
270.0
  0
CIRCLE
  5
310
100
AcDbEntity
  8
SMUSSO
100
AcDbCircle
 62
7
  6
CONTINUOUS
 10
-149.725
 20
-102.6675
 40
0.75
  0
ARC
  5
311
100
AcDbEntity
  8
RACCORDO
100
AcDbCircle
 62
7
  6
CONTINUOUS
 10
-143.375
 20
-123.775
 40
0.75
100
AcDbArc
 50
180.0
 51
360.0
  0
ARC
  5
312
100
AcDbEntity
  8
RACCORDO
100
AcDbCircle
 62
7
  6
CONTINUOUS
 10
-143.375
 20
-97.275
 40
0.75
100
AcDbArc
 50
0.0
 51
180.0
  0
ARC
  5
313
100
AcDbEntity
  8
RACCORDO
100
AcDbCircle
 62
7
  6
CONTINUOUS
 10
-122.5
 20
-144.65
 40
0.75
100
AcDbArc
 50
90.0
 51
270.0
  0
ARC
  5
314
100
AcDbEntity
  8
0
100
AcDbCircle
 62
7
  6
CONTINUOUS
 10
-160.425
 20
-6.375
 40
0.425
100
AcDbArc
 50
180.0
 51
354.0
  0
CIRCLE
  5
315
100
AcDbEntity
  8
0
100
AcDbCircle
 62
7
  6
CONTINUOUS
 10
-101.375
 20
148.45
 40
11.25
  0
ARC
  5
316
100
AcDbEntity
  8
0
100
AcDbCircle
 62
7
  6
CONTINUOUS
 10
-140.2
 20
157.225
 40
1.5
100
AcDbArc
 50
19.4763631234
 51
82.3227874694
  0
ARC
  5
317
100
AcDbEntity
  8
0
100
AcDbCircle
 62
7
  6
CONTINUOUS
 10
-158.5
 20
137.475
 40
1.5
100
AcDbArc
 50
180.0
 51
199.4763631234
  0
CIRCLE
  5
318
100
AcDbEntity
  8
ASSI
100
AcDbCircle
 62
7
  6
CONTINUOUS
 10
-149.725
 20
100.1175
 40
1.25
  0
CIRCLE
  5
319
100
AcDbEntity
  8
SMUSSO
100
AcDbCircle
 62
7
  6
CONTINUOUS
 10
-149.725
 20
100.1175
 40
1.0
  0
ARC
  5
31A
100
AcDbEntity
  8
RACCORDO
100
AcDbCircle
 62
7
  6
CONTINUOUS
 10
-159.0
 20
157.725
 40
1.0
100
AcDbArc
 50
90.0
 51
180.0
  0
CIRCLE
  5
31B
100
AcDbEntity
  8
SMUSSO
100
AcDbCircle
 62
7
  6
CONTINUOUS
 10
-149.725
 20
100.1175
 40
0.75
  0
ARC
  5
31C
100
AcDbEntity
  8
RACCORDO
100
AcDbCircle
 62
7
  6
CONTINUOUS
 10
-122.5
 20
142.1
 40
0.75
100
AcDbArc
 50
90.0
 51
270.0
  0
ARC
  5
31D
100
AcDbEntity
  8
RACCORDO
100
AcDbCircle
 62
7
  6
CONTINUOUS
 10
-143.375
 20
121.225
 40
0.75
100
AcDbArc
 50
0.0
 51
180.0
  0
ARC
  5
31E
100
AcDbEntity
  8
RACCORDO
100
AcDbCircle
 62
7
  6
CONTINUOUS
 10
-143.375
 20
94.725
 40
0.75
100
AcDbArc
 50
180.0
 51
360.0
  0
ARC
  5
31F
100
AcDbEntity
  8
RACCORDO
100
AcDbCircle
 62
7
  6
CONTINUOUS
 10
-115.592490549
 20
161.692490549
 40
0.532509451
100
AcDbArc
 50
45.5693110392
 51
89.9834286537
  0
ARC
  5
320
100
AcDbEntity
  8
RACCORDO
100
AcDbCircle
 62
7
  6
CONTINUOUS
 10
-128.0575029596
 20
161.6924970404
 40
0.5325026951
100
AcDbArc
 50
90.0104250575
 51
134.4319345548
  0
ARC
  5
321
100
AcDbEntity
  8
0
100
AcDbCircle
 62
7
  6
CONTINUOUS
 10
-160.425
 20
3.825
 40
0.425
100
AcDbArc
 50
0.0
 51
180.0
  0
ARC
  5
322
100
AcDbEntity
  8
RACCORDO
100
AcDbCircle
 62
7
  6
CONTINUOUS
 10
-113.075
 20
159.6202108833
 40
0.25
100
AcDbArc
 50
359.9502596878
 51
45.5323536877
  0
ARC
  5
323
100
AcDbEntity
  8
RACCORDO
100
AcDbCircle
 62
7
  6
CONTINUOUS
 10
-130.575
 20
159.6199936993
 40
0.25
100
AcDbArc
 50
134.4325830101
 51
179.9997472184
  0
CIRCLE
  5
324
100
AcDbEntity
  8
0
100
AcDbCircle
 62
7
  6
CONTINUOUS
 10
101.375
 20
-151.0
 40
11.25
  0
ARC
  5
325
100
AcDbEntity
  8
RACCORDO
100
AcDbCircle
 62
7
  6
CONTINUOUS
 10
72.5
 20
-125.025
 40
2.5
100
AcDbArc
 50
270.0
 51
360.0
  0
ARC
  5
326
100
AcDbEntity
  8
RACCORDO
100
AcDbCircle
 62
7
  6
CONTINUOUS
 10
72.5
 20
-80.025
 40
2.5
100
AcDbArc
 50
0.0
 51
90.0
  0
ARC
  5
327
100
AcDbEntity
  8
0
100
AcDbCircle
 62
7
  6
CONTINUOUS
 10
140.2
 20
-159.775
 40
1.5
100
AcDbArc
 50
199.4763631234
 51
262.3227874694
  0
ARC
  5
328
100
AcDbEntity
  8
0
100
AcDbCircle
 62
7
  6
CONTINUOUS
 10
158.5
 20
-140.025
 40
1.5
100
AcDbArc
 50
0.0
 51
19.4763631234
  0
CIRCLE
  5
329
100
AcDbEntity
  8
0
100
AcDbCircle
 62
7
  6
CONTINUOUS
 10
78.75
 20
-92.425
 40
1.25
  0
CIRCLE
  5
32A
100
AcDbEntity
  8
ASSI
100
AcDbCircle
 62
7
  6
CONTINUOUS
 10
149.725
 20
-102.6675
 40
1.25
  0
ARC
  5
32B
100
AcDbEntity
  8
0
100
AcDbCircle
 62
7
  6
CONTINUOUS
 10
78.75
 20
-92.425
 40
1.125
100
AcDbArc
 50
255.0
 51
195.0
  0
CIRCLE
  5
32C
100
AcDbEntity
  8
SMUSSO
100
AcDbCircle
 62
7
  6
CONTINUOUS
 10
149.725
 20
-102.6675
 40
1.0
  0
ARC
  5
32D
100
AcDbEntity
  8
RACCORDO
100
AcDbCircle
 62
7
  6
CONTINUOUS
 10
159.0
 20
-160.275
 40
1.0
100
AcDbArc
 50
270.0
 51
360.0
  0
CIRCLE
  5
32E
100
AcDbEntity
  8
SMUSSO
100
AcDbCircle
 62
7
  6
CONTINUOUS
 10
149.725
 20
-102.6675
 40
0.75
  0
ARC
  5
32F
100
AcDbEntity
  8
RACCORDO
100
AcDbCircle
 62
7
  6
CONTINUOUS
 10
143.375
 20
-123.775
 40
0.75
100
AcDbArc
 50
180.0
 51
360.0
  0
ARC
  5
330
100
AcDbEntity
  8
RACCORDO
100
AcDbCircle
 62
7
  6
CONTINUOUS
 10
143.375
 20
-97.275
 40
0.75
100
AcDbArc
 50
0.0
 51
180.0
  0
ARC
  5
331
100
AcDbEntity
  8
RACCORDO
100
AcDbCircle
 62
7
  6
CONTINUOUS
 10
122.5
 20
-144.65
 40
0.75
100
AcDbArc
 50
270.0
 51
90.0
  0
ARC
  5
332
100
AcDbEntity
  8
0
100
AcDbCircle
 62
7
  6
CONTINUOUS
 10
160.425
 20
-6.375
 40
0.425
100
AcDbArc
 50
186.0
 51
360.0
  0
ARC
  5
333
100
AcDbEntity
  8
0
100
AcDbCircle
 62
7
  6
CONTINUOUS
 10
119.85
 20
-161.2
 40
0.425
100
AcDbArc
 50
190.1752686585
 51
270.0
  0
ARC
  5
334
100
AcDbEntity
  8
0
100
AcDbCircle
 62
7
  6
CONTINUOUS
 10
130.05
 20
-161.2
 40
0.425
100
AcDbArc
 50
270.0
 51
349.8247313415
  0
CIRCLE
  5
335
100
AcDbEntity
  8
0
100
AcDbCircle
 62
7
  6
CONTINUOUS
 10
101.375
 20
148.45
 40
11.25
  0
ARC
  5
336
100
AcDbEntity
  8
0
100
AcDbCircle
 62
7
  6
CONTINUOUS
 10
158.5
 20
138.925
 40
1.5
100
AcDbArc
 50
289.4763631234
 51
352.3227874694
  0
ARC
  5
337
100
AcDbEntity
  8
0
100
AcDbCircle
 62
7
  6
CONTINUOUS
 10
138.75
 20
157.225
 40
1.5
100
AcDbArc
 50
90.0
 51
109.4763631234
  0
CIRCLE
  5
338
100
AcDbEntity
  8
ASSI
100
AcDbCircle
 62
7
  6
CONTINUOUS
 10
149.725
 20
100.1175
 40
1.25
  0
CIRCLE
  5
339
100
AcDbEntity
  8
SMUSSO
100
AcDbCircle
 62
7
  6
CONTINUOUS
 10
149.725
 20
100.1175
 40
1.0
  0
ARC
  5
33A
100
AcDbEntity
  8
RACCORDO
100
AcDbCircle
 62
7
  6
CONTINUOUS
 10
159.0
 20
157.725
 40
1.0
100
AcDbArc
 50
0.0
 51
90.0
  0
CIRCLE
  5
33B
100
AcDbEntity
  8
SMUSSO
100
AcDbCircle
 62
7
  6
CONTINUOUS
 10
149.725
 20
100.1175
 40
0.75
  0
ARC
  5
33C
100
AcDbEntity
  8
RACCORDO
100
AcDbCircle
 62
7
  6
CONTINUOUS
 10
143.375
 20
121.225
 40
0.75
100
AcDbArc
 50
0.0
 51
180.0
  0
ARC
  5
33D
100
AcDbEntity
  8
RACCORDO
100
AcDbCircle
 62
7
  6
CONTINUOUS
 10
143.375
 20
94.725
 40
0.75
100
AcDbArc
 50
180.0
 51
360.0
  0
ARC
  5
33E
100
AcDbEntity
  8
RACCORDO
100
AcDbCircle
 62
7
  6
CONTINUOUS
 10
122.5
 20
142.1
 40
0.75
100
AcDbArc
 50
270.0
 51
90.0
  0
ARC
  5
33F
100
AcDbEntity
  8
0
100
AcDbCircle
 62
7
  6
CONTINUOUS
 10
160.425
 20
3.825
 40
0.425
100
AcDbArc
 50
0.0
 51
180.0
  0
ENDSEC
  0
SECTION
  2
OBJECTS
  0
DICTIONARY
  5
C
100
AcDbDictionary
280
0
281
1
  3
ACAD_GROUP
350
D
  3
ACAD_MLINESTYLE
350
17
  3
ACAD_LAYOUT
350
1A
  3
ACAD_PLOTSETTINGS
350
19
  3
ACAD_PLOTSTYLENAME
350
E
  0
DICTIONARY
  5
D
102
{ACAD_REACTORS
330
C
102
}
100
AcDbDictionary
280
0
281
1
  0
ACDBDICTIONARYWDFLT
  5
E
102
{ACAD_REACTORS
330
C
102
}
100
AcDbDictionary
281
1
  3
Normal
350
F
100
AcDbDictionaryWithDefault
340
F
  0
DICTIONARY
  5
17
102
{ACAD_REACTORS
330
C
102
}
100
AcDbDictionary
280
0
281
1
  3
Standard
350
18
  0
DICTIONARY
  5
19
102
{ACAD_REACTORS
330
C
102
}
100
AcDbDictionary
281
1
  0
DICTIONARY
  5
1A
102
{ACAD_REACTORS
330
C
102
}
100
AcDbDictionary
281
1
  3
Model
350
340
  3
Layout1
350
341
  0
ACDBPLACEHOLDER
  5
F
102
{ACAD_REACTORS
330
E
102
}
  0
MLINESTYLE
  5
18
102
{ACAD_REACTORS
330
17
102
}
100
AcDbMlineStyle
  2
STANDARD
 70
0
  3

 62
256
 51
90.0
 52
90.0
 71
2
 49
0.5
 62
256
  6
BYLAYER
 49
-0.5
 62
256
  6
BYLAYER
  0
LAYOUT
  5
340
102
{ACAD_REACTORS
330
1A
102
}
100
AcDbPlotSettings
  1

  2
none_device
  4
ANSI_C_(22.00_x_17.00_Inches)
  6

 40
0.0
 41
0.0
 42
0.0
 43
0.0
 44
558.8
 45
431.8
 46
0.0
 47
0.0
 48
0.0
 49
0.0
140
0.0
141
0.0
142
1.0
143
1.0
 70
1024
 72
1
 73
0
 74
0
  7

 75
0
147
1.0
148
0.0
149
0.0
100
AcDbLayout
  1
Model
 70
0
 71
0
 10
0.0
 20
0.0
 11
558.8
 21
431.8
 12
0.0
 22
0.0
 32
0.0
 14
0.0
 24
0.0
 34
0.0
 15
0.0
 25
0.0
 35
0.0
146
0.0
 13
0.0
 23
0.0
 33
0.0
 16
1.0
 26
0.0
 36
0.0
 17
0.0
 27
1.0
 37
0.0
 76
0
330
213
345
0
346
0
  0
LAYOUT
  5
341
102
{ACAD_REACTORS
330
1A
102
}
100
AcDbPlotSettings
  1

  2
none_device
  4
ANSI_C_(22.00_x_17.00_Inches)
  6

 40
0.0
 41
0.0
 42
0.0
 43
0.0
 44
558.8
 45
431.8
 46
0.0
 47
0.0
 48
0.0
 49
0.0
140
0.0
141
0.0
142
1.0
143
1.0
 70
0
 72
1
 73
0
 74
0
  7

 75
0
147
1.0
148
0.0
149
0.0
100
AcDbLayout
  1
Layout1
 70
0
 71
1
 10
0.0
 20
0.0
 11
558.8
 21
431.8
 12
0.0
 22
0.0
 32
0.0
 14
0.0
 24
0.0
 34
0.0
 15
0.0
 25
0.0
 35
0.0
146
0.0
 13
0.0
 23
0.0
 33
0.0
 16
1.0
 26
0.0
 36
0.0
 17
0.0
 27
1.0
 37
0.0
 76
0
330
214
345
0
346
0
  0
ENDSEC
  0
EOF
